  0
SECTION
  2
HEADER
  9
$ACADVER
  1
AC1032
  9
$ACADMAINTVER
 90
        4
  9
$DWGCODEPAGE
  3
ANSI_1252
  9
$LASTSAVEDBY
  1
mariehp
  9
$REQUIREDVERSIONS
160
                 0
  9
$INSBASE
 10
0.0
 20
0.0
 30
0.0
  9
$EXTMIN
 10
0.0
 20
0.0
 30
0.0
  9
$EXTMAX
 10
181.3333333333
 20
117.3333333333
 30
0.0
  9
$LIMMIN
 10
0.0
 20
0.0
  9
$LIMMAX
 10
181.3333333333
 20
117.3333333333
  9
$ORTHOMODE
 70
     0
  9
$REGENMODE
 70
     1
  9
$FILLMODE
 70
     1
  9
$QTEXTMODE
 70
     0
  9
$MIRRTEXT
 70
     0
  9
$LTSCALE
 40
9.973333333300001
  9
$ATTMODE
 70
     1
  9
$TEXTSIZE
 40
0.2
  9
$TRACEWID
 40
0.05
  9
$TEXTSTYLE
  7
STANDARD
  9
$CLAYER
  8
0
  9
$CELTYPE
  6
BYLAYER
  9
$CECOLOR
 62
   256
  9
$CELTSCALE
 40
1.0
  9
$DISPSILH
 70
     0
  9
$DIMSCALE
 40
1.0
  9
$DIMASZ
 40
2.0
  9
$DIMEXO
 40
0.0625
  9
$DIMDLI
 40
6.890666666699999
  9
$DIMRND
 40
0.0
  9
$DIMDLE
 40
0.0
  9
$DIMEXE
 40
0.125
  9
$DIMTP
 40
0.001
  9
$DIMTM
 40
0.001
  9
$DIMTXT
 40
1.333333333299999
  9
$DIMCEN
 40
1.631999999999999
  9
$DIMTSZ
 40
0.0
  9
$DIMTOL
 70
     1
  9
$DIMLIM
 70
     0
  9
$DIMTIH
 70
     1
  9
$DIMTOH
 70
     1
  9
$DIMSE1
 70
     0
  9
$DIMSE2
 70
     0
  9
$DIMTAD
 70
     0
  9
$DIMZIN
 70
     0
  9
$DIMBLK
  1
_FILLED
  9
$DIMASO
 70
     1
  9
$DIMSHO
 70
     1
  9
$DIMPOST
  1

  9
$DIMAPOST
  1

  9
$DIMALT
 70
     1
  9
$DIMALTD
 70
     2
  9
$DIMALTF
 40
25.4
  9
$DIMLFAC
 40
1.0
  9
$DIMTOFL
 70
     0
  9
$DIMTVP
 40
0.0
  9
$DIMTIX
 70
     0
  9
$DIMSOXD
 70
     0
  9
$DIMSAH
 70
     0
  9
$DIMBLK1
  1

  9
$DIMBLK2
  1

  9
$DIMSTYLE
  2
STANDARD
  9
$DIMCLRD
 70
     0
  9
$DIMCLRE
 70
     0
  9
$DIMCLRT
 70
     0
  9
$DIMTFAC
 40
1.0
  9
$DIMGAP
 40
0.09
  9
$DIMJUST
 70
     0
  9
$DIMSD1
 70
     0
  9
$DIMSD2
 70
     0
  9
$DIMTOLJ
 70
     1
  9
$DIMTZIN
 70
     0
  9
$DIMALTZ
 70
     0
  9
$DIMALTTZ
 70
     0
  9
$DIMUPT
 70
     0
  9
$DIMDEC
 70
     4
  9
$DIMTDEC
 70
     4
  9
$DIMALTU
 70
     2
  9
$DIMALTTD
 70
     2
  9
$DIMTXSTY
  7
STANDARD
  9
$DIMAUNIT
 70
     0
  9
$DIMADEC
 70
     0
  9
$DIMALTRND
 40
0.0
  9
$DIMAZIN
 70
     0
  9
$DIMDSEP
 70
    46
  9
$DIMATFIT
 70
     3
  9
$DIMFRAC
 70
     0
  9
$DIMLDRBLK
  1

  9
$DIMLUNIT
 70
     2
  9
$DIMLWD
 70
    -2
  9
$DIMLWE
 70
    -2
  9
$DIMTMOVE
 70
     0
  9
$DIMFXL
 40
1.0
  9
$DIMFXLON
 70
     0
  9
$DIMJOGANG
 40
0.7853981633974483
  9
$DIMTFILL
 70
     0
  9
$DIMTFILLCLR
 70
     0
  9
$DIMARCSYM
 70
     0
  9
$DIMLTYPE
  6

  9
$DIMLTEX1
  6

  9
$DIMLTEX2
  6

  9
$DIMTXTDIRECTION
 70
     0
  9
$LUNITS
 70
     2
  9
$LUPREC
 70
     4
  9
$SKETCHINC
 40
0.1
  9
$FILLETRAD
 40
0.0
  9
$AUNITS
 70
     0
  9
$AUPREC
 70
     0
  9
$MENU
  1
.
  9
$ELEVATION
 40
0.0
  9
$PELEVATION
 40
0.0
  9
$THICKNESS
 40
0.0
  9
$LIMCHECK
 70
     0
  9
$CHAMFERA
 40
0.0
  9
$CHAMFERB
 40
0.0
  9
$CHAMFERC
 40
0.0
  9
$CHAMFERD
 40
0.0
  9
$SKPOLY
 70
     0
  9
$TDCREATE
 40
2458663.413159722
  9
$TDUCREATE
 40
2458663.579826389
  9
$TDUPDATE
 40
2458663.617430556
  9
$TDUUPDATE
 40
2458663.784097222
  9
$TDINDWG
 40
0.0034953704
  9
$TDUSRTIMER
 40
0.0034953704
  9
$USRTIMER
 70
     1
  9
$ANGBASE
 50
0.0
  9
$ANGDIR
 70
     0
  9
$PDMODE
 70
     3
  9
$PDSIZE
 40
0.03125
  9
$PLINEWID
 40
0.0
  9
$SPLFRAME
 70
     0
  9
$SPLINETYPE
 70
     6
  9
$SPLINESEGS
 70
     8
  9
$HANDSEED
  5
1A71
  9
$SURFTAB1
 70
     6
  9
$SURFTAB2
 70
     6
  9
$SURFTYPE
 70
     6
  9
$SURFU
 70
     6
  9
$SURFV
 70
     6
  9
$UCSBASE
  2

  9
$UCSNAME
  2

  9
$UCSORG
 10
0.0
 20
0.0
 30
0.0
  9
$UCSXDIR
 10
1.0
 20
0.0
 30
0.0
  9
$UCSYDIR
 10
0.0
 20
1.0
 30
0.0
  9
$UCSORTHOREF
  2

  9
$UCSORTHOVIEW
 70
     0
  9
$UCSORGTOP
 10
0.0
 20
0.0
 30
0.0
  9
$UCSORGBOTTOM
 10
0.0
 20
0.0
 30
0.0
  9
$UCSORGLEFT
 10
0.0
 20
0.0
 30
0.0
  9
$UCSORGRIGHT
 10
0.0
 20
0.0
 30
0.0
  9
$UCSORGFRONT
 10
0.0
 20
0.0
 30
0.0
  9
$UCSORGBACK
 10
0.0
 20
0.0
 30
0.0
  9
$PUCSBASE
  2

  9
$PUCSNAME
  2

  9
$PUCSORG
 10
0.0
 20
0.0
 30
0.0
  9
$PUCSXDIR
 10
1.0
 20
0.0
 30
0.0
  9
$PUCSYDIR
 10
0.0
 20
1.0
 30
0.0
  9
$PUCSORTHOREF
  2

  9
$PUCSORTHOVIEW
 70
     0
  9
$PUCSORGTOP
 10
0.0
 20
0.0
 30
0.0
  9
$PUCSORGBOTTOM
 10
0.0
 20
0.0
 30
0.0
  9
$PUCSORGLEFT
 10
0.0
 20
0.0
 30
0.0
  9
$PUCSORGRIGHT
 10
0.0
 20
0.0
 30
0.0
  9
$PUCSORGFRONT
 10
0.0
 20
0.0
 30
0.0
  9
$PUCSORGBACK
 10
0.0
 20
0.0
 30
0.0
  9
$USERI1
 70
     0
  9
$USERI2
 70
     0
  9
$USERI3
 70
     0
  9
$USERI4
 70
     0
  9
$USERI5
 70
     0
  9
$USERR1
 40
0.0
  9
$USERR2
 40
0.0
  9
$USERR3
 40
0.0
  9
$USERR4
 40
0.0
  9
$USERR5
 40
0.0
  9
$WORLDVIEW
 70
     1
  9
$SHADEDGE
 70
     3
  9
$SHADEDIF
 70
    70
  9
$TILEMODE
 70
     1
  9
$MAXACTVP
 70
    64
  9
$PINSBASE
 10
0.0
 20
0.0
 30
0.0
  9
$PLIMCHECK
 70
     0
  9
$PEXTMIN
 10
1.000000000000000E+20
 20
1.000000000000000E+20
 30
1.000000000000000E+20
  9
$PEXTMAX
 10
-1.000000000000000E+20
 20
-1.000000000000000E+20
 30
-1.000000000000000E+20
  9
$PLIMMIN
 10
0.0
 20
0.0
  9
$PLIMMAX
 10
12.0
 20
9.0
  9
$UNITMODE
 70
     0
  9
$VISRETAIN
 70
     1
  9
$PLINEGEN
 70
     0
  9
$PSLTSCALE
 70
     1
  9
$TREEDEPTH
 70
  3020
  9
$CMLSTYLE
  2
Standard
  9
$CMLJUST
 70
     0
  9
$CMLSCALE
 40
1.0
  9
$PROXYGRAPHICS
 70
     1
  9
$MEASUREMENT
 70
     0
  9
$CELWEIGHT
370
    -1
  9
$ENDCAPS
280
     0
  9
$JOINSTYLE
280
     0
  9
$LWDISPLAY
290
     0
  9
$INSUNITS
 70
     1
  9
$HYPERLINKBASE
  1

  9
$STYLESHEET
  1

  9
$XEDIT
290
     1
  9
$CEPSNTYPE
380
     0
  9
$PSTYLEMODE
290
     1
  9
$FINGERPRINTGUID
  2
{E3D91262-8D82-6E4B-B0C9-BC787C2407CD}
  9
$VERSIONGUID
  2
{B24B96EB-DAE6-C548-A1BD-6CF51C2AEBEF}
  9
$EXTNAMES
290
     1
  9
$PSVPSCALE
 40
0.0
  9
$OLESTARTUP
290
     0
  9
$SORTENTS
280
   127
  9
$INDEXCTL
280
     0
  9
$HIDETEXT
280
     0
  9
$XCLIPFRAME
280
     2
  9
$HALOGAP
280
     0
  9
$OBSCOLOR
 70
   257
  9
$OBSLTYPE
280
     0
  9
$INTERSECTIONDISPLAY
280
     0
  9
$INTERSECTIONCOLOR
 70
   257
  9
$DIMASSOC
280
     1
  9
$PROJECTNAME
  1

  9
$CAMERADISPLAY
290
     0
  9
$LENSLENGTH
 40
50.0
  9
$CAMERAHEIGHT
 40
0.0
  9
$STEPSPERSEC
 40
2.0
  9
$STEPSIZE
 40
6.0
  9
$3DDWFPREC
 40
2.0
  9
$PSOLWIDTH
 40
0.25
  9
$PSOLHEIGHT
 40
4.0
  9
$LOFTANG1
 40
1.570796326794896
  9
$LOFTANG2
 40
1.570796326794896
  9
$LOFTMAG1
 40
0.0
  9
$LOFTMAG2
 40
0.0
  9
$LOFTPARAM
 70
     7
  9
$LOFTNORMALS
280
     1
  9
$LATITUDE
 40
37.795
  9
$LONGITUDE
 40
-122.394
  9
$NORTHDIRECTION
 40
0.0
  9
$TIMEZONE
 70
 -8000
  9
$LIGHTGLYPHDISPLAY
280
     1
  9
$TILEMODELIGHTSYNCH
280
     1
  9
$CMATERIAL
347
1981
  9
$SOLIDHIST
280
     0
  9
$SHOWHIST
280
     1
  9
$DWFFRAME
280
     2
  9
$DGNFRAME
280
     0
  9
$REALWORLDSCALE
290
     1
  9
$INTERFERECOLOR
 62
     1
  9
$INTERFEREOBJVS
345
19A3
  9
$INTERFEREVPVS
346
19A0
  9
$CSHADOW
280
     0
  9
$SHADOWPLANELOCATION
 40
0.0
  0
ENDSEC
  0
SECTION
  2
CLASSES
  0
CLASS
  1
ACDBDICTIONARYWDFLT
  2
AcDbDictionaryWithDefault
  3
ObjectDBX Classes
 90
        0
 91
        1
280
     0
281
     0
  0
CLASS
  1
MATERIAL
  2
AcDbMaterial
  3
ObjectDBX Classes
 90
     1153
 91
        3
280
     0
281
     0
  0
CLASS
  1
VISUALSTYLE
  2
AcDbVisualStyle
  3
ObjectDBX Classes
 90
     4095
 91
       24
280
     0
281
     0
  0
CLASS
  1
TABLESTYLE
  2
AcDbTableStyle
  3
ObjectDBX Classes
 90
     4095
 91
        1
280
     0
281
     0
  0
CLASS
  1
SCALE
  2
AcDbScale
  3
ObjectDBX Classes
 90
     1153
 91
       17
280
     0
281
     0
  0
CLASS
  1
MLEADERSTYLE
  2
AcDbMLeaderStyle
  3
ACDB_MLEADERSTYLE_CLASS
 90
     4095
 91
        1
280
     0
281
     0
  0
CLASS
  1
ACDBSECTIONVIEWSTYLE
  2
AcDbSectionViewStyle
  3
ObjectDBX Classes
 90
     1025
 91
        1
280
     0
281
     0
  0
CLASS
  1
ACDBDETAILVIEWSTYLE
  2
AcDbDetailViewStyle
  3
ObjectDBX Classes
 90
     1025
 91
        1
280
     0
281
     0
  0
CLASS
  1
CELLSTYLEMAP
  2
AcDbCellStyleMap
  3
ObjectDBX Classes
 90
     1152
 91
        1
280
     0
281
     0
  0
CLASS
  1
DICTIONARYVAR
  2
AcDbDictionaryVar
  3
ObjectDBX Classes
 90
        0
 91
       12
280
     0
281
     0
  0
ENDSEC
  0
SECTION
  2
TABLES
  0
TABLE
  2
VPORT
  5
8
102
{ACAD_XDICTIONARY
360
19D0
102
}
330
0
100
AcDbSymbolTable
 70
     1
  0
VPORT
  5
1F4
330
8
100
AcDbSymbolTableRecord
100
AcDbViewportTableRecord
  2
*ACTIVE
 70
     0
 10
0.0
 20
0.0
 11
1.0
 21
1.0
 12
53.02048184962893
 22
27.01984607533393
 13
0.0
 23
0.0
 14
1.0
 24
1.0
 15
0.0
 25
0.0
 16
0.0
 26
0.0
 36
1.0
 17
0.0
 27
0.0
 37
0.0
 40
73.7948895012338
 41
2.212355212355212
 42
50.0
 43
0.0
 44
0.0
 50
0.0
 51
0.0
 71
     0
 72
   100
 73
     1
 74
     1
 75
     0
 76
     0
 77
     0
 78
     0
281
     0
 65
     1
110
0.0
120
0.0
130
0.0
111
1.0
121
0.0
131
0.0
112
0.0
122
1.0
132
0.0
 79
     0
146
0.0
348
199F
 60
     3
 61
     5
292
     1
282
     1
141
0.0
142
0.0
 63
   250
421
  3355443
1001
ACAD_NAV_VCDISPLAY
1070
     3
  0
ENDTAB
  0
TABLE
  2
LTYPE
  5
5
330
0
100
AcDbSymbolTable
 70
     6
  0
LTYPE
  5
14
330
5
100
AcDbSymbolTableRecord
100
AcDbLinetypeTableRecord
  2
BYBLOCK
 70
     0
  3

 72
    65
 73
     0
 40
0.0
  0
LTYPE
  5
15
330
5
100
AcDbSymbolTableRecord
100
AcDbLinetypeTableRecord
  2
BYLAYER
 70
     0
  3

 72
    65
 73
     0
 40
0.0
  0
LTYPE
  5
16
330
5
100
AcDbSymbolTableRecord
100
AcDbLinetypeTableRecord
  2
CONTINUOUS
 70
     0
  3
Solid line
 72
    65
 73
     0
 40
0.0
  0
LTYPE
  5
1F5
330
5
100
AcDbSymbolTableRecord
100
AcDbLinetypeTableRecord
  2
CENTER
 70
     0
  3
____ _ ____ _ ____ _ ____ _ ____ _ ____ _ ____
 72
    65
 73
     4
 40
0.6
 49
0.375
 74
     0
 49
-0.075
 74
     0
 49
0.075
 74
     0
 49
-0.075
 74
     0
  0
LTYPE
  5
1F6
330
5
100
AcDbSymbolTableRecord
100
AcDbLinetypeTableRecord
  2
HIDDEN
 70
     0
  3
- - - - - - - - - - - - - - - - - - - -
 72
    65
 73
     2
 40
0.2
 49
0.1
 74
     0
 49
-0.1
 74
     0
  0
LTYPE
  5
1F7
330
5
100
AcDbSymbolTableRecord
100
AcDbLinetypeTableRecord
  2
PHANTOM
 70
     0
  3
_____ _ _ _____ _ _ _____ _ _ _____
 72
    65
 73
     6
 40
0.8
 49
0.45
 74
     0
 49
-0.05
 74
     0
 49
0.1
 74
     0
 49
-0.05
 74
     0
 49
0.1
 74
     0
 49
-0.05
 74
     0
  0
LTYPE
  5
1F8
330
5
100
AcDbSymbolTableRecord
100
AcDbLinetypeTableRecord
  2
DOT
 70
     0
  3
. . . . . . . . . . . . . . . . . . . .
 72
    65
 73
     2
 40
0.2
 49
0.1
 74
     0
 49
-0.1
 74
     0
  0
LTYPE
  5
1F9
330
5
100
AcDbSymbolTableRecord
100
AcDbLinetypeTableRecord
  2
DASHED
 70
     0
  3
- - - - - - - - - - - - - - - - - - - -
 72
    65
 73
     2
 40
0.2
 49
0.1
 74
     0
 49
-0.1
 74
     0
  0
ENDTAB
  0
TABLE
  2
LAYER
  5
2
102
{ACAD_XDICTIONARY
360
1A69
102
}
330
0
100
AcDbSymbolTable
 70
    32
  0
LAYER
  5
10
102
{ACAD_XDICTIONARY
360
1A1D
102
}
330
2
100
AcDbSymbolTableRecord
100
AcDbLayerTableRecord
  2
0
 70
     0
 62
     7
  6
CONTINUOUS
370
    -3
390
F
347
1991
348
0
  0
LAYER
  5
1FA
102
{ACAD_XDICTIONARY
360
1A1F
102
}
330
2
100
AcDbSymbolTableRecord
100
AcDbLayerTableRecord
  2
DEFAULT_1
 70
     0
 62
     7
  6
CENTER
370
    -3
390
F
347
1991
348
0
  0
LAYER
  5
1FB
102
{ACAD_XDICTIONARY
360
1A21
102
}
330
2
100
AcDbSymbolTableRecord
100
AcDbLayerTableRecord
  2
DEFAULT_2
 70
     0
 62
     8
  6
HIDDEN
370
    -3
390
F
347
1991
348
0
  0
LAYER
  5
1FC
102
{ACAD_XDICTIONARY
360
1A23
102
}
330
2
100
AcDbSymbolTableRecord
100
AcDbLayerTableRecord
  2
DEFAULT_3
 70
     0
 62
     7
  6
PHANTOM
370
    -3
390
F
347
1991
348
0
  0
LAYER
  5
1FD
102
{ACAD_XDICTIONARY
360
1A25
102
}
330
2
100
AcDbSymbolTableRecord
100
AcDbLayerTableRecord
  2
0_DEFAULT
 70
     0
 62
     7
  6
CONTINUOUS
370
    -3
390
F
347
1991
348
0
  0
LAYER
  5
1FE
102
{ACAD_XDICTIONARY
360
1A27
102
}
330
2
100
AcDbSymbolTableRecord
100
AcDbLayerTableRecord
  2
1_CURVES
 70
     0
 62
     7
  6
CONTINUOUS
370
    -3
390
F
347
1991
348
0
  0
LAYER
  5
1FF
102
{ACAD_XDICTIONARY
360
1A29
102
}
330
2
100
AcDbSymbolTableRecord
100
AcDbLayerTableRecord
  2
1_CURVES_CHROMO_INV
 70
     0
 62
     7
  6
CONTINUOUS
370
    -3
390
F
347
1991
348
0
  0
LAYER
  5
200
102
{ACAD_XDICTIONARY
360
1A2B
102
}
330
2
100
AcDbSymbolTableRecord
100
AcDbLayerTableRecord
  2
1_CURVES_DOT
 70
     0
 62
     7
  6
CONTINUOUS
370
    -3
390
F
347
1991
348
0
  0
LAYER
  5
201
102
{ACAD_XDICTIONARY
360
1A2D
102
}
330
2
100
AcDbSymbolTableRecord
100
AcDbLayerTableRecord
  2
1_CURVES_JETS
 70
     0
 62
     7
  6
CONTINUOUS
370
    -3
390
F
347
1991
348
0
  0
LAYER
  5
202
102
{ACAD_XDICTIONARY
360
1A2F
102
}
330
2
100
AcDbSymbolTableRecord
100
AcDbLayerTableRecord
  2
1_CURVES_SPEC_FRONT
 70
     0
 62
     7
  6
CONTINUOUS
370
    -3
390
F
347
1991
348
0
  0
LAYER
  5
203
102
{ACAD_XDICTIONARY
360
1A31
102
}
330
2
100
AcDbSymbolTableRecord
100
AcDbLayerTableRecord
  2
1_CURVES_SPEC_RIGHT
 70
     0
 62
     7
  6
CONTINUOUS
370
    -3
390
F
347
1991
348
0
  0
LAYER
  5
204
102
{ACAD_XDICTIONARY
360
1A33
102
}
330
2
100
AcDbSymbolTableRecord
100
AcDbLayerTableRecord
  2
2_PLANES
 70
     0
 62
     7
  6
CONTINUOUS
370
    -3
390
F
347
1991
348
0
  0
LAYER
  5
205
102
{ACAD_XDICTIONARY
360
1A35
102
}
330
2
100
AcDbSymbolTableRecord
100
AcDbLayerTableRecord
  2
2_PLANES_CHROMO_INV
 70
     0
 62
     7
  6
CONTINUOUS
370
    -3
390
F
347
1991
348
0
  0
LAYER
  5
206
102
{ACAD_XDICTIONARY
360
1A37
102
}
330
2
100
AcDbSymbolTableRecord
100
AcDbLayerTableRecord
  2
2_PLANES_JETS
 70
     0
 62
     7
  6
CONTINUOUS
370
    -3
390
F
347
1991
348
0
  0
LAYER
  5
207
102
{ACAD_XDICTIONARY
360
1A39
102
}
330
2
100
AcDbSymbolTableRecord
100
AcDbLayerTableRecord
  2
3_POINTS
 70
     0
 62
     7
  6
CONTINUOUS
370
    -3
390
F
347
1991
348
0
  0
LAYER
  5
208
102
{ACAD_XDICTIONARY
360
1A3B
102
}
330
2
100
AcDbSymbolTableRecord
100
AcDbLayerTableRecord
  2
3_POINTS_JETS
 70
     0
 62
     7
  6
CONTINUOUS
370
    -3
390
F
347
1991
348
0
  0
LAYER
  5
209
102
{ACAD_XDICTIONARY
360
1A3D
102
}
330
2
100
AcDbSymbolTableRecord
100
AcDbLayerTableRecord
  2
3_POINTS_SPEC
 70
     0
 62
     7
  6
CONTINUOUS
370
    -3
390
F
347
1991
348
0
  0
LAYER
  5
20A
102
{ACAD_XDICTIONARY
360
1A3F
102
}
330
2
100
AcDbSymbolTableRecord
100
AcDbLayerTableRecord
  2
4_CSYS
 70
     0
 62
     7
  6
CONTINUOUS
370
    -3
390
F
347
1991
348
0
  0
LAYER
  5
20B
102
{ACAD_XDICTIONARY
360
1A41
102
}
330
2
100
AcDbSymbolTableRecord
100
AcDbLayerTableRecord
  2
5_AXIS
 70
     0
 62
     7
  6
CONTINUOUS
370
    -3
390
F
347
1991
348
0
  0
LAYER
  5
20C
102
{ACAD_XDICTIONARY
360
1A43
102
}
330
2
100
AcDbSymbolTableRecord
100
AcDbLayerTableRecord
  2
5_AXIS_CHROMO_INV
 70
     0
 62
     7
  6
CONTINUOUS
370
    -3
390
F
347
1991
348
0
  0
LAYER
  5
20D
102
{ACAD_XDICTIONARY
360
1A45
102
}
330
2
100
AcDbSymbolTableRecord
100
AcDbLayerTableRecord
  2
5_AXIS_JETS
 70
     0
 62
     7
  6
CONTINUOUS
370
    -3
390
F
347
1991
348
0
  0
LAYER
  5
20E
102
{ACAD_XDICTIONARY
360
1A47
102
}
330
2
100
AcDbSymbolTableRecord
100
AcDbLayerTableRecord
  2
6_SURFACES
 70
     0
 62
     7
  6
CONTINUOUS
370
    -3
390
F
347
1991
348
0
  0
LAYER
  5
20F
102
{ACAD_XDICTIONARY
360
1A49
102
}
330
2
100
AcDbSymbolTableRecord
100
AcDbLayerTableRecord
  2
6_SURFACES_CHROMO_INV
 70
     0
 62
     7
  6
CONTINUOUS
370
    -3
390
F
347
1991
348
0
  0
LAYER
  5
210
102
{ACAD_XDICTIONARY
360
1A4B
102
}
330
2
100
AcDbSymbolTableRecord
100
AcDbLayerTableRecord
  2
6_SURFACES_FOAM
 70
     0
 62
     7
  6
CONTINUOUS
370
    -3
390
F
347
1991
348
0
  0
LAYER
  5
211
102
{ACAD_XDICTIONARY
360
1A4D
102
}
330
2
100
AcDbSymbolTableRecord
100
AcDbLayerTableRecord
  2
6_SURFACES_JUPE
 70
     0
 62
     7
  6
CONTINUOUS
370
    -3
390
F
347
1991
348
0
  0
LAYER
  5
212
102
{ACAD_XDICTIONARY
360
1A4F
102
}
330
2
100
AcDbSymbolTableRecord
100
AcDbLayerTableRecord
  2
6_SURFACES_OFFSET_FIBRE_ACRYLIQ
 70
     0
 62
     7
  6
CONTINUOUS
370
    -3
390
F
347
1991
348
0
  0
LAYER
  5
213
102
{ACAD_XDICTIONARY
360
1A51
102
}
330
2
100
AcDbSymbolTableRecord
100
AcDbLayerTableRecord
  2
6_SURFACES_TOOLING
 70
     0
 62
     7
  6
CONTINUOUS
370
    -3
390
F
347
1991
348
0
  0
LAYER
  5
214
102
{ACAD_XDICTIONARY
360
1A53
102
}
330
2
100
AcDbSymbolTableRecord
100
AcDbLayerTableRecord
  2
6_SURFACES_TOOLING_DROP-IN
 70
     0
 62
     7
  6
CONTINUOUS
370
    -3
390
F
347
1991
348
0
  0
LAYER
  5
215
102
{ACAD_XDICTIONARY
360
1A55
102
}
330
2
100
AcDbSymbolTableRecord
100
AcDbLayerTableRecord
  2
6_SURFACES_TOOLING_FS
 70
     0
 62
     7
  6
CONTINUOUS
370
    -3
390
F
347
1991
348
0
  0
LAYER
  5
216
102
{ACAD_XDICTIONARY
360
1A57
102
}
330
2
100
AcDbSymbolTableRecord
100
AcDbLayerTableRecord
  2
7_NOTES
 70
     0
 62
     7
  6
CONTINUOUS
370
    -3
390
F
347
1991
348
0
  0
LAYER
  5
217
102
{ACAD_XDICTIONARY
360
1A59
102
}
330
2
100
AcDbSymbolTableRecord
100
AcDbLayerTableRecord
  2
DEGAGEMENT_SERIGRAPHIE
 70
     0
 62
     7
  6
CONTINUOUS
370
    -3
390
F
347
1991
348
0
  0
LAYER
  5
218
102
{ACAD_XDICTIONARY
360
1A5B
102
}
330
2
100
AcDbSymbolTableRecord
100
AcDbLayerTableRecord
  2
XSEC_DATUMS
 70
     0
 62
     7
  6
CONTINUOUS
370
    -3
390
F
347
1991
348
0
  0
ENDTAB
  0
TABLE
  2
STYLE
  5
3
330
0
100
AcDbSymbolTable
 70
     2
  0
STYLE
  5
11
330
3
100
AcDbSymbolTableRecord
100
AcDbTextStyleTableRecord
  2
STANDARD
 70
     0
 40
0.0
 41
1.0
 50
0.0
 71
     0
 42
0.2
  3
trium.ttf
  4

  0
STYLE
  5
219
330
3
100
AcDbSymbolTableRecord
100
AcDbTextStyleTableRecord
  2
TEXTSTYLE_1
 70
     0
 40
0.0
 41
0.8
 50
0.0
 71
     0
 42
0.2
  3
gdt
  4

  0
ENDTAB
  0
TABLE
  2
VIEW
  5
6
330
0
100
AcDbSymbolTable
 70
     1
  0
ENDTAB
  0
TABLE
  2
UCS
  5
7
330
0
100
AcDbSymbolTable
 70
     0
  0
ENDTAB
  0
TABLE
  2
APPID
  5
9
330
0
100
AcDbSymbolTable
 70
     3
  0
APPID
  5
21A
330
9
100
AcDbSymbolTableRecord
100
AcDbRegAppTableRecord
  2
ACAD
 70
     0
  0
APPID
  5
1A0A
330
9
100
AcDbSymbolTableRecord
100
AcDbRegAppTableRecord
  2
ACAD_MLEADERVER
 70
     0
  0
APPID
  5
1A5D
330
9
100
AcDbSymbolTableRecord
100
AcDbRegAppTableRecord
  2
ACAD_NAV_VCDISPLAY
 70
     0
  0
ENDTAB
  0
TABLE
  2
DIMSTYLE
  5
A
330
0
100
AcDbSymbolTable
 70
     1
100
AcDbDimStyleTable
 71
     0
  0
DIMSTYLE
105
21E
330
A
100
AcDbSymbolTableRecord
100
AcDbDimStyleTableRecord
  2
STANDARD
 70
     0
 41
2.0
 44
0.125
 47
0.001
 48
0.001
 71
     1
 78
     4
 79
     1
140
1.333333333299999
170
     1
179
     3
271
     3
272
     3
284
     4
340
11
341
21D
342
21D
343
21D
344
21D
  0
ENDTAB
  0
TABLE
  2
BLOCK_RECORD
  5
1
330
0
100
AcDbSymbolTable
 70
     1
  0
BLOCK_RECORD
  5
21B
330
1
100
AcDbSymbolTableRecord
100
AcDbBlockTableRecord
  2
*Model_Space
340
197C
 70
     0
280
     1
281
     0
  0
BLOCK_RECORD
  5
21C
330
1
100
AcDbSymbolTableRecord
100
AcDbBlockTableRecord
  2
*Paper_Space
340
197D
 70
     0
280
     1
281
     0
  0
BLOCK_RECORD
  5
21D
330
1
100
AcDbSymbolTableRecord
100
AcDbBlockTableRecord
  2
_FILLED
340
0
 70
     0
280
     1
281
     0
  0
ENDTAB
  0
ENDSEC
  0
SECTION
  2
BLOCKS
  0
BLOCK
  5
20
330
21B
100
AcDbEntity
  8
0
100
AcDbBlockBegin
  2
*Model_Space
 70
     0
 10
0.0
 20
0.0
 30
0.0
  3
*Model_Space
  1

  0
ENDBLK
  5
21
330
21B
100
AcDbEntity
  8
0
100
AcDbBlockEnd
  0
BLOCK
  5
1C
330
21C
100
AcDbEntity
 67
     1
  8
0
100
AcDbBlockBegin
  2
*Paper_Space
 70
     0
 10
0.0
 20
0.0
 30
0.0
  3
*Paper_Space
  1

  0
ENDBLK
  5
1D
330
21C
100
AcDbEntity
 67
     1
  8
0
100
AcDbBlockEnd
  0
BLOCK
  5
21F
330
21D
100
AcDbEntity
  8
0
100
AcDbBlockBegin
  2
_FILLED
 70
     0
 10
0.0
 20
0.0
 30
0.0
  3
_FILLED
  1

  0
SOLID
  5
220
330
21D
100
AcDbEntity
  8
0
  6
ByBlock
 62
     0
100
AcDbTrace
 10
0.0
 20
0.0
 30
0.0
 11
-1.0
 21
0.1666666667
 31
0.0
 12
-1.0
 22
-0.1666666667
 32
0.0
 13
-1.0
 23
-0.1666666667
 33
0.0
  0
ENDBLK
  5
221
330
21D
100
AcDbEntity
  8
0
  6
ByBlock
 62
     0
100
AcDbBlockEnd
  0
ENDSEC
  0
SECTION
  2
ENTITIES
  0
LINE
  5
226
330
21B
100
AcDbEntity
  8
0
  6
Continuous
 62
     7
100
AcDbLine
 10
24.0500266731
 20
43.885066068
 30
0.0
 11
24.0423813892
 21
43.8580966527
 31
0.0
  0
LWPOLYLINE
  5
227
330
21B
100
AcDbEntity
  8
0
  6
Continuous
 62
     7
100
AcDbPolyline
 90
        8
 70
     0
 43
0.0
 10
28.12166076530001
 20
16.2875193933
 10
28.1504199895
 20
16.2666778924
 10
28.1817484628
 20
16.2489825306
 10
28.2156641707
 20
16.2346917115
 10
28.2523062783
 20
16.2240850963
 10
28.2918787239
 20
16.2173939073
 10
28.334596348
 20
16.214489404
 10
28.3723612932
 20
16.2141166661
  0
LWPOLYLINE
  5
228
330
21B
100
AcDbEntity
  8
6_SURFACES
  6
Continuous
 62
     7
100
AcDbPolyline
 90
        5
 70
     0
 43
0.0
 10
27.8639047053
 20
17.0147466804
 10
27.8642247907
 20
17.0144820787
 10
27.8675207737
 20
17.0113900517
 10
27.8735746282
 20
17.0047755872
 10
27.8815516119
 20
16.99470214579999
  0
LINE
  5
229
330
21B
100
AcDbEntity
  8
0
  6
Continuous
 62
     7
100
AcDbLine
 10
28.0955084252
 20
16.3113260256
 30
0.0
 11
28.1216607504
 21
16.2875193899
 31
0.0
  0
LINE
  5
22A
330
21B
100
AcDbEntity
  8
6_SURFACES
  6
Continuous
 62
     7
100
AcDbLine
 10
27.8814191326
 20
16.994880955
 30
0.0
 11
27.8907678758
 21
16.9813497391
 31
0.0
  0
LINE
  5
22B
330
21B
100
AcDbEntity
  8
6_SURFACES
  6
Continuous
 62
     7
100
AcDbLine
 10
27.8906160862
 20
16.9815843346
 30
0.0
 11
27.9006550253
 21
16.9649894738
 31
0.0
  0
LINE
  5
22C
330
21B
100
AcDbEntity
  8
6_SURFACES
  6
Continuous
 62
     7
100
AcDbLine
 10
27.9004909563
 20
16.9652788044
 30
0.0
 11
27.9107510448
 21
16.9459423089
 31
0.0
  0
LINE
  5
22D
330
21B
100
AcDbEntity
  8
6_SURFACES
  6
Continuous
 62
     7
100
AcDbLine
 10
27.910580691
 20
16.9462848804
 30
0.0
 11
27.9206913325
 21
16.9245410072
 31
0.0
  0
LINE
  5
22E
330
21B
100
AcDbEntity
  8
6_SURFACES
  6
Continuous
 62
     7
100
AcDbLine
 10
27.9205206636
 20
16.9249333562
 30
0.0
 11
27.9281705941
 21
16.9063743758
 31
0.0
  0
LINE
  5
22F
330
21B
100
AcDbEntity
  8
6_SURFACES
  6
Continuous
 62
     7
100
AcDbLine
 10
27.9281737691
 20
16.9063662337
 30
0.0
 11
27.942268667
 21
16.8684959744
 31
0.0
  0
LINE
  5
230
330
21B
100
AcDbEntity
  8
0
  6
Continuous
 62
     7
100
AcDbLine
 10
23.8513945537
 20
46.09753807479999
 30
0.0
 11
24.0015291345
 21
44.3814919633
 31
0.0
  0
LINE
  5
231
330
21B
100
AcDbEntity
  8
0
  6
Continuous
 62
     7
100
AcDbLine
 10
24.1200267066
 20
43.0270585171
 30
0.0
 11
26.3675552531
 21
17.3376896778
 31
0.0
  0
LWPOLYLINE
  5
232
330
21B
100
AcDbEntity
  8
6_SURFACES
  6
Continuous
 62
     7
100
AcDbPolyline
 90
        3
 70
     0
 43
0.0
 10
27.9421540158
 20
16.86880402
 10
27.959346757
 20
16.8181236066
 10
27.9736040552
 20
16.7726569894
  0
LWPOLYLINE
  5
233
330
21B
100
AcDbEntity
  8
6_SURFACES
  6
Continuous
 62
     7
100
AcDbPolyline
 90
        4
 70
     0
 43
0.0
 10
27.9736044953
 20
16.7726553713
 10
27.9756675095
 20
16.7654951562
 10
27.9811744011
 20
16.740064456
 10
27.9833292796
 20
16.7231467318
  0
LWPOLYLINE
  5
234
330
21B
100
AcDbEntity
  8
0
  6
Continuous
 62
     7
100
AcDbPolyline
 90
        8
 70
     0
 43
0.0
 10
27.9989623859
 20
16.5545008132
 10
28.0028957107
 20
16.5163013939
 10
28.0097715461
 20
16.4741055211
 10
28.0201289916
 20
16.4353946428
 10
28.0341081363
 20
16.3999542304
 10
28.05150363
 20
16.3675483838
 10
28.0720573576
 20
16.3380138899
 10
28.0955084405
 20
16.311326027
  0
LINE
  5
235
330
21B
100
AcDbEntity
  8
6_SURFACES
  6
Continuous
 62
     7
100
AcDbLine
 10
27.98332927380001
 20
16.7231466962
 30
0.0
 11
27.998962381
 21
16.5545008631
 31
0.0
  0
LINE
  5
236
330
21B
100
AcDbEntity
  8
0
  6
Continuous
 62
     7
100
AcDbLine
 10
67.1353771431
 20
16.2141166661
 30
0.0
 11
28.3723618715
 21
16.2141166661
 31
0.0
  0
LINE
  5
237
330
21B
100
AcDbEntity
  8
0
  6
Continuous
 62
     7
100
AcDbLine
 10
24.0818897739
 20
43.5236112042
 30
0.0
 11
24.069644223
 21
43.54882719539999
 31
0.0
  0
LWPOLYLINE
  5
238
330
21B
100
AcDbEntity
  8
DEFAULT_2
  6
HIDDEN
 62
     8
100
AcDbPolyline
 90
       47
 70
     0
 43
0.0
 10
31.0529558102
 20
27.10164289030001
 10
31.0703669101
 20
27.0233077727
 10
31.0918080467
 20
26.9327617705
 10
31.1150830544
 20
26.8453170778
 10
31.1408325228
 20
26.7611553107
 10
31.1693057855
 20
26.6804865927
 10
31.2005224994
 20
26.603388366
 10
31.2343902779
 20
26.5297965746
 10
31.2707217485
 20
26.4596545944
 10
31.309280058
 20
26.3929011577
 10
31.3498087143
 20
26.3294664474
 10
31.3920571325
 20
26.2692629178
 10
31.4358156137
 20
26.2121609712
 10
31.48088866010001
 20
26.1580428419
 10
31.5271014012
 20
26.1067958021
 10
31.5743015893
 20
26.0583109298
 10
31.6223589844
 20
26.0124839975
 10
31.6711640937
 20
25.9692162312
 10
31.7206256314
 20
25.9284156816
 10
31.7706282748
 20
25.8900274392
 10
31.8210242708
 20
25.8540278552
 10
31.8716707796
 20
25.8203892561
 10
31.9224311062
 20
25.7890783238
 10
31.9731744692
 20
25.7600556855
 10
32.0237758287
 20
25.7332754685
 10
32.0741157809
 20
25.7086848574
 10
32.1240769954
 20
25.6862252078
 10
32.173502629
 20
25.6658474774
 10
32.2222102388
 20
25.6474992333
 10
32.2700224875
 20
25.6311101907
 10
32.316769979
 20
25.6165927245
 10
32.3623695879
 20
25.603823136
 10
32.4068668285
 20
25.5926448237
 10
32.450332537
 20
25.5829070969
 10
32.4928516037
 20
25.5744687094
 10
32.5345208982
 20
25.5671980165
 10
32.575370526
 20
25.560983586
 10
32.615296473
 20
25.5557339007
 10
32.6541988248
 20
25.5513503625
 10
32.6919921374
 20
25.5477288163
 10
32.7285968614
 20
25.544763566
 10
32.7639155024
 20
25.5423515614
 10
32.7978391455
 20
25.54039357820001
 10
32.8303238595
 20
25.5387930947
 10
32.8615086883
 20
25.5374561586
 10
32.8916265438
 20
25.5362991371
 10
32.9319204496
 20
25.5348651749
  0
LINE
  5
239
330
21B
100
AcDbEntity
  8
6_SURFACES
  6
Continuous
 62
     7
100
AcDbLine
 10
26.7411547585
 20
16.9953730823
 30
0.0
 11
27.8810202426
 21
16.995373166
 31
0.0
  0
LINE
  5
23A
330
21B
100
AcDbEntity
  8
DEFAULT_2
  6
HIDDEN
 62
     8
100
AcDbLine
 10
59.33543591189999
 20
20.3470471781
 30
0.0
 11
60.3353540985
 21
20.4345286838
 31
0.0
  0
LINE
  5
23B
330
21B
100
AcDbEntity
  8
DEFAULT_2
  6
HIDDEN
 62
     8
100
AcDbLine
 10
56.0983431355
 20
19.8391166661
 30
0.0
 11
58.64123635430001
 21
19.8391166661
 31
0.0
  0
LINE
  5
23C
330
21B
100
AcDbEntity
  8
DEFAULT_2
  6
HIDDEN
 62
     8
100
AcDbLine
 10
44.0586445375
 20
20.9075606831
 30
0.0
 11
43.921285491
 21
20.9109626118
 31
0.0
  0
LINE
  5
23D
330
21B
100
AcDbEntity
  8
DEFAULT_2
  6
HIDDEN
 62
     8
100
AcDbLine
 10
55.3963721239
 20
20.3425534851
 30
0.0
 11
48.7942398741
 21
20.5731054492
 31
0.0
  0
LINE
  5
23E
330
21B
100
AcDbEntity
  8
DEFAULT_2
  6
HIDDEN
 62
     8
100
AcDbLine
 10
43.921285491
 20
20.9109626118
 30
0.0
 11
43.9199844508
 21
20.9110326198
 31
0.0
  0
LINE
  5
23F
330
21B
100
AcDbEntity
  8
DEFAULT_2
  6
HIDDEN
 62
     8
100
AcDbLine
 10
40.6353510911
 20
25.4351301443
 30
0.0
 11
40.5321034867
 21
25.4387003049
 31
0.0
  0
LINE
  5
240
330
21B
100
AcDbEntity
  8
DEFAULT_2
  6
HIDDEN
 62
     8
100
AcDbLine
 10
46.2260725206
 20
25.069366501
 30
0.0
 11
46.12940490949999
 21
25.0739988535
 31
0.0
  0
LINE
  5
241
330
21B
100
AcDbEntity
  8
DEFAULT_2
  6
HIDDEN
 62
     8
100
AcDbLine
 10
40.6403745659
 20
25.4348287706
 30
0.0
 11
40.6353510911
 21
25.4351301443
 31
0.0
  0
LINE
  5
242
330
21B
100
AcDbEntity
  8
5_AXIS
  6
HIDDEN
 62
     8
100
AcDbLine
 10
55.92156644020001
 20
19.9123399708
 30
0.0
 11
55.5644239395
 21
20.2694824715
 31
0.0
  0
LINE
  5
243
330
21B
100
AcDbEntity
  8
DEFAULT_2
  6
HIDDEN
 62
     8
100
AcDbLine
 10
47.06043477649999
 20
24.3334269534
 30
0.0
 11
47.8696346402
 21
21.3134519488
 31
0.0
  0
LINE
  5
244
330
21B
100
AcDbEntity
  8
DEFAULT_1
  6
CENTER
 62
     7
100
AcDbLine
 10
68.02827468640001
 20
41.5692406496
 30
0.0
 11
65.8019545189
 21
41.51094240429999
 31
0.0
  0
LINE
  5
245
330
21B
100
AcDbEntity
  8
DEFAULT_1
  6
CENTER
 62
     7
100
AcDbLine
 10
57.3697897449
 20
20.9057833327
 30
0.0
 11
57.3697897449
 21
18.6164499994
 31
0.0
  0
LINE
  5
247
330
21B
100
AcDbEntity
  8
DEFAULT_2
  6
HIDDEN
 62
     8
100
AcDbLine
 10
67.6677180197
 20
41.7473634146
 30
0.0
 11
60.08359722569999
 21
41.5487662223
 31
0.0
  0
LINE
  5
248
330
21B
100
AcDbEntity
  8
DEFAULT_2
  6
HIDDEN
 62
     8
100
AcDbLine
 10
67.5094210884
 20
41.8370004004
 30
0.0
 11
66.7746729545
 21
41.8177603434
 31
0.0
  0
LINE
  5
249
330
21B
100
AcDbEntity
  8
DEFAULT_1
  6
CENTER
 62
     7
100
AcDbLine
 10
67.1445011104
 20
41.7336624977
 30
0.0
 11
66.0777344437
 21
41.7336624977
 31
0.0
  0
LINE
  5
24A
330
21B
100
AcDbEntity
  8
DEFAULT_1
  6
CENTER
 62
     7
100
AcDbLine
 10
67.1445011104
 20
41.7336624977
 30
0.0
 11
68.211267777
 21
41.7336624977
 31
0.0
  0
LINE
  5
24B
330
21B
100
AcDbEntity
  8
5_AXIS
  6
HIDDEN
 62
     8
100
AcDbLine
 10
58.81801304959999
 20
19.9123399708
 30
0.0
 11
59.18044823229999
 21
20.2747751535
 31
0.0
  0
LINE
  5
24C
330
21B
100
AcDbEntity
  8
DEFAULT_2
  6
HIDDEN
 62
     8
100
AcDbLine
 10
66.7071510307
 20
41.7222100828
 30
0.0
 11
66.70652932819999
 21
41.7459519443
 31
0.0
  0
LINE
  5
24D
330
21B
100
AcDbEntity
  8
DEFAULT_1
  6
CENTER
 62
     7
100
AcDbLine
 10
67.1141249433
 20
42.89368151849999
 30
0.0
 11
67.1806034849
 21
40.35496843699999
 31
0.0
  0
LINE
  5
24E
330
21B
100
AcDbEntity
  8
DEFAULT_2
  6
HIDDEN
 62
     8
100
AcDbLine
 10
67.58122948749999
 20
41.768856774
 30
0.0
 11
67.5818511901
 21
41.7451149126
 31
0.0
  0
LINE
  5
24F
330
21B
100
AcDbEntity
  8
DEFAULT_1
  6
CENTER
 62
     7
100
AcDbLine
 10
67.1445011104
 20
41.7336624977
 30
0.0
 11
67.1445011104
 21
40.66689583099999
 31
0.0
  0
LINE
  5
250
330
21B
100
AcDbEntity
  8
DEFAULT_1
  6
CENTER
 62
     7
100
AcDbLine
 10
67.1445011104
 20
41.7336624977
 30
0.0
 11
67.1445011104
 21
42.8004291643
 31
0.0
  0
LINE
  5
251
330
21B
100
AcDbEntity
  8
0
  6
Continuous
 62
     7
100
AcDbLine
 10
69.8322558505
 20
43.1119388783
 30
0.0
 11
67.50895015489999
 21
16.5564332625
 31
0.0
  0
ARC
  5
1859
330
21B
100
AcDbEntity
  8
DEFAULT_2
  6
HIDDEN
 62
     8
100
AcDbCircle
 10
-96.29197709799999
 20
-32.7676143647
 30
0.0
 40
149.4607997314
100
AcDbArc
 50
21.3615231349
 51
22.5986002201
  0
ARC
  5
185A
330
21B
100
AcDbEntity
  8
DEFAULT_2
  6
HIDDEN
 62
     8
100
AcDbCircle
 10
57.308057165
 20
153.3953833034
 30
0.0
 40
111.881050115
100
AcDbArc
 50
270.2976218133
 51
271.4215381516
  0
ARC
  5
185B
330
21B
100
AcDbEntity
  8
0
  6
Continuous
 62
     9
100
AcDbCircle
 10
25.905875764
 20
43.8123039395
 30
0.0
 40
1.8771879761
100
AcDbArc
 50
188.7764096542
 51
190.2554381891
  0
ARC
  5
185C
330
21B
100
AcDbEntity
  8
0
  6
Continuous
 62
     9
100
AcDbCircle
 10
25.5719776847
 20
43.75345124099999
 30
0.0
 40
1.5381471281
100
AcDbArc
 50
190.312569719
 51
190.5152718147
  0
ARC
  5
185D
330
21B
100
AcDbEntity
  8
0
  6
Continuous
 62
     9
100
AcDbCircle
 10
25.0342010091
 20
43.64515406279999
 30
0.0
 40
0.9895445520999999
100
AcDbArc
 50
192.3747723889
 51
192.6776065191
  0
ARC
  5
185E
330
21B
100
AcDbEntity
  8
0
  6
Continuous
 62
     9
100
AcDbCircle
 10
24.5988454219
 20
43.5380415192
 30
0.0
 40
0.5411580332
100
AcDbArc
 50
195.3043008259
 51
195.6733464338
  0
ARC
  5
185F
330
21B
100
AcDbEntity
  8
DEFAULT_2
  6
HIDDEN
 62
     8
100
AcDbCircle
 10
24.8898118911
 20
45.700294057
 30
0.0
 40
0.375
100
AcDbArc
 50
24.7273876755
 51
82.71601772390001
  0
ARC
  5
1860
330
21B
100
AcDbEntity
  8
6_SURFACES
  6
Continuous
 62
     7
100
AcDbCircle
 10
26.7411282649
 20
17.3703730814
 30
0.0
 40
0.375
100
AcDbArc
 50
185.0
 51
270.0038576088
  0
ARC
  5
1861
330
21B
100
AcDbEntity
  8
6_SURFACES
  6
Continuous
 62
     9
100
AcDbCircle
 10
27.9397473211
 20
17.3139389227
 30
0.0
 40
0.3186205936
100
AcDbArc
 50
255.8043291017
 51
258.3389496372
  0
ARC
  5
1862
330
21B
100
AcDbEntity
  8
DEFAULT_2
  6
HIDDEN
 62
     8
100
AcDbCircle
 10
56.0983431355
 20
20.0891166661
 30
0.0
 40
0.25
100
AcDbArc
 50
225.0
 51
270.0
  0
ARC
  5
1863
330
21B
100
AcDbEntity
  8
DEFAULT_2
  6
HIDDEN
 62
     8
100
AcDbCircle
 10
58.64123635430001
 20
20.0891166661
 30
0.0
 40
0.25
100
AcDbArc
 50
270.0
 51
315.0
  0
ARC
  5
1864
330
21B
100
AcDbEntity
  8
DEFAULT_2
  6
HIDDEN
 62
     8
100
AcDbCircle
 10
55.387647246
 20
20.092705778
 30
0.0
 40
0.2499999998
100
AcDbArc
 50
45.0
 51
87.99999913609999
  0
ARC
  5
1865
330
21B
100
AcDbEntity
  8
DEFAULT_2
  6
HIDDEN
 62
     8
100
AcDbCircle
 10
59.3572248925
 20
20.0979984933
 30
0.0
 40
0.2499999949
100
AcDbArc
 50
95.00001004309998
 51
135.0000000009
  0
ARC
  5
1866
330
21B
100
AcDbEntity
  8
0
  6
Continuous
 62
     9
100
AcDbCircle
 10
24.30623352
 20
43.44614134069999
 30
0.0
 40
0.2343709949
100
AcDbArc
 50
200.1305304445
 51
200.2731443115
  0
ARC
  5
1867
330
21B
100
AcDbEntity
  8
0
  6
Continuous
 62
     7
100
AcDbCircle
 10
67.0601170019
 20
16.4021166661
 30
0.0
 40
0.188
100
AcDbArc
 50
258.690067526
 51
270.0
  0
ARC
  5
1868
330
21B
100
AcDbEntity
  8
0
  6
Continuous
 62
     7
100
AcDbCircle
 10
69.7386135488
 20
43.1201315181
 30
0.0
 40
0.094
100
AcDbArc
 50
355.0
 51
89.9834091135
  0
ARC
  5
1869
330
21B
100
AcDbEntity
  8
0
  6
Continuous
 62
     7
100
AcDbCircle
 10
23.94503685530001
 20
46.1057307146
 30
0.0
 40
0.094
100
AcDbArc
 50
82.55613518609999
 51
185.0
  0
ARC
  5
186A
330
21B
100
AcDbEntity
  8
DEFAULT_2
  6
HIDDEN
 62
     8
100
AcDbCircle
 10
67.5112534748
 20
41.7670243876
 30
0.0
 40
0.07
100
AcDbArc
 50
1.5
 51
91.5
  0
ARC
  5
186B
330
21B
100
AcDbEntity
  8
DEFAULT_2
  6
HIDDEN
 62
     8
100
AcDbCircle
 10
66.7765053409
 20
41.7477843306
 30
0.0
 40
0.07
100
AcDbArc
 50
91.5
 51
181.5
  0
ARC
  5
186C
330
21B
100
AcDbEntity
  8
0
  6
Continuous
 62
     7
100
AcDbCircle
 10
69.8411952485
 20
397.3807833327
 30
0.0
 40
354.3226666667
100
AcDbArc
 50
262.5427812265
 51
269.9977930152
  0
ARC
  5
186D
330
21B
100
AcDbEntity
  8
0
  6
Continuous
 62
     7
100
AcDbCircle
 10
69.8411952485
 20
397.3807833327
 30
0.0
 40
354.2916666667
100
AcDbArc
 50
262.5416737297
 51
269.9982314274
  0
ARC
  5
186E
330
21B
100
AcDbEntity
  8
0
  6
Continuous
 62
     7
100
AcDbCircle
 10
69.8411952485
 20
397.3807833327
 30
0.0
 40
354.1666666667
100
AcDbArc
 50
262.5561351861
 51
269.9834091134
  0
SPLINE
  5
1898
330
21B
100
AcDbEntity
  8
DEFAULT_2
  6
HIDDEN
 62
     8
100
AcDbSpline
210
0.0
220
0.0
230
1.0
 70
     8
 71
     3
 72
    15
 73
    11
 74
     0
 42
0.0000001
 43
0.0000000001
 40
0.0
 40
0.0
 40
0.0
 40
0.0
 40
0.1262777899
 40
0.2522673375
 40
0.3778725697
 40
0.5030362345000001
 40
0.6277560382000001
 40
0.7520838051000001
 40
0.8761177742
 40
1.0
 40
1.0
 40
1.0
 40
1.0
 10
68.16549374890001
 20
42.90667018999999
 30
0.0
 10
68.16920978679999
 20
42.92816821199999
 30
0.0
 10
68.1803447386
 20
42.9705682802
 30
0.0
 10
68.2076355451
 20
43.0302157125
 30
0.0
 10
68.24469068029999
 20
43.084134039
 30
0.0
 10
68.29038129999999
 20
43.13065158939999
 30
0.0
 10
68.3433177543
 20
43.1683475747
 30
0.0
 10
68.401890959
 20
43.1960631472
 30
0.0
 10
68.464284964
 20
43.2129439933
 30
0.0
 10
68.50722911439999
 20
43.21662798699999
 30
0.0
 10
68.5286319153
 20
43.2165486664
 30
0.0
  0
SPLINE
  5
1899
330
21B
100
AcDbEntity
  8
DEFAULT_2
  6
HIDDEN
 62
     8
100
AcDbSpline
210
0.0
220
0.0
230
1.0
 70
     8
 71
     3
 72
    25
 73
    21
 74
     0
 42
0.0000001
 43
0.0000000001
 40
0.0
 40
0.0
 40
0.0
 40
0.0
 40
0.1888639345
 40
0.3705221958
 40
0.4565885382000001
 40
0.5384360538000001
 40
0.6153330661
 40
0.6865975907
 40
0.7516058430000001
 40
0.8098015569999999
 40
0.8607075719
 40
0.9039428262999999
 40
0.9226013487000001
 40
0.9392611670999999
 40
0.9539219779999999
 40
0.9666071043999998
 40
0.9773745659000001
 40
0.9863442212999999
 40
0.9937447491
 40
1.0
 40
1.0
 40
1.0
 40
1.0
 10
24.0850137533
 20
43.7141166661
 30
0.0
 10
24.0808952156
 20
43.761548986
 30
0.0
 10
24.0738878069
 20
43.8547004844
 30
0.0
 10
24.0680016802
 20
43.9696648676
 30
0.0
 10
24.0653115224
 20
44.0577502817
 30
0.0
 10
24.0643465278
 20
44.1194597904
 30
0.0
 10
24.0644027002
 20
44.1774458326
 30
0.0
 10
24.0654771406
 20
44.23117698699999
 30
0.0
 10
24.0675562937
 20
44.2801612422
 30
0.0
 10
24.0706135995
 20
44.3239534396
 30
0.0
 10
24.074615904
 20
44.3621551859
 30
0.0
 10
24.0788702474
 20
44.3902886117
 30
0.0
 10
24.0828492612
 20
44.40969190649999
 30
0.0
 10
24.0858962441
 20
44.4219219006
 30
0.0
 10
24.0891449435
 20
44.43253582999999
 30
0.0
 10
24.0925882527
 20
44.441516425
 30
0.0
 10
24.09622033030001
 20
44.44885612
 30
0.0
 10
24.1000513952
 20
44.4545583453
 30
0.0
 10
24.1041075944
 20
44.4586344821
 30
0.0
 10
24.1072034455
 20
44.46031226279999
 30
0.0
 10
24.1087124642
 20
44.4607699101
 30
0.0
  0
SPLINE
  5
189A
330
21B
100
AcDbEntity
  8
DEFAULT_2
  6
HIDDEN
 62
     8
100
AcDbSpline
210
0.0
220
0.0
230
1.0
 70
     8
 71
     3
 72
    25
 73
    21
 74
     0
 42
0.0000001
 43
0.0000000001
 40
0.0
 40
0.0
 40
0.0
 40
0.0
 40
0.1878649383
 40
0.369141892
 40
0.4551955553
 40
0.5371195099000001
 40
0.6141600571
 40
0.6856137545000001
 40
0.7508362699
 40
0.8092520058999999
 40
0.8603659192
 40
0.9037806392
 40
0.9225134653999999
 40
0.9392351123999999
 40
0.9539434928
 40
0.9666602267
 40
0.977441942
 40
0.9864068038999999
 40
0.9937837271999999
 40
1.0
 40
1.0
 40
1.0
 40
1.0
 10
24.0850137533
 20
43.7141166661
 30
0.0
 10
24.0891978933
 20
43.66592881879999
 30
0.0
 10
24.0985285698
 20
43.57133577659999
 30
0.0
 10
24.1128405496
 20
43.45500098279999
 30
0.0
 10
24.125659697
 20
43.36599485539999
 30
0.0
 10
24.1355808412
 20
43.3036929518
 30
0.0
 10
24.1458793014
 20
43.2452653292
 30
0.0
 10
24.1564556288
 20
43.1912622028
 30
0.0
 10
24.1672064984
 20
43.1421914522
 30
0.0
 10
24.1780236836
 20
43.0985104721
 30
0.0
 10
24.1888005807
 20
43.06062710019999
 30
0.0
 10
24.1980469766
 20
43.032952043
 30
0.0
 10
24.205470752
 20
43.0140466114
 30
0.0
 10
24.2106886422
 20
43.00222721149999
 30
0.0
 10
24.2158209172
 20
42.9920780913
 30
0.0
 10
24.2208571021
 20
42.9836161849
 30
0.0
 10
24.2257891427
 20
42.97684822559999
 30
0.0
 10
24.230628268
 20
42.9717730406
 30
0.0
 10
24.2354022306
 20
42.9683815935
 30
0.0
 10
24.2387979261
 20
42.9672420435
 30
0.0
 10
24.2403871715
 20
42.9670526597
 30
0.0
  0
SPLINE
  5
189B
330
21B
100
AcDbEntity
  8
DEFAULT_2
  6
HIDDEN
 62
     8
100
AcDbSpline
210
0.0
220
0.0
230
1.0
 70
     8
 71
     3
 72
    28
 73
    24
 74
     0
 42
0.0000001
 43
0.0000000001
 40
0.0
 40
0.0
 40
0.0
 40
0.0
 40
0.0029964993
 40
0.0059891509
 40
0.0123988007
 40
0.0200231227
 40
0.0293228873
 40
0.0405414712
 40
0.0538033037
 40
0.0691666645
 40
0.0866524915
 40
0.1062572156
 40
0.1279605463
 40
0.1775189483
 40
0.234959592
 40
0.2997902821
 40
0.3714242476
 40
0.449195043
 40
0.5323679465
 40
0.6201500596000001
 40
0.7116995232
 40
0.8061360145
 40
1.0
 40
1.0
 40
1.0
 40
1.0
 10
24.2465115979
 20
42.9670526597
 30
0.0
 10
24.2472663456
 20
42.9669627196
 30
0.0
 10
24.2487973178
 20
42.96692952569999
 30
0.0
 10
24.2519098482
 20
42.9675087973
 30
0.0
 10
24.2558053813
 20
42.9695974768
 30
0.0
 10
24.2599935339
 20
42.973854555
 30
0.0
 10
24.2639384362
 20
42.97983956159999
 30
0.0
 10
24.2676717669
 20
42.9875709872
 30
0.0
 10
24.2712035025
 20
42.9970516189
 30
0.0
 10
24.2745269706
 20
43.0082730992
 30
0.0
 10
24.2776335163
 20
43.0212155414
 30
0.0
 10
24.2805147466
 20
43.03585159899999
 30
0.0
 10
24.2842083809
 20
43.0586061917
 30
0.0
 10
24.2880674531
 20
43.09103763199999
 30
0.0
 10
24.2915355122
 20
43.13449263409999
 30
0.0
 10
24.2939677873
 20
43.1836244836
 30
0.0
 10
24.295335741
 20
43.2379542018
 30
0.0
 10
24.29561966690001
 20
43.29695235149999
 30
0.0
 10
24.2948136616
 20
43.36004149439999
 30
0.0
 10
24.2929230794
 20
43.42660357029999
 30
0.0
 10
24.2899652315
 20
43.49598647789999
 30
0.0
 10
24.2845867948
 20
43.59219032539999
 30
0.0
 10
24.2791248414
 20
43.66512574069999
 30
0.0
 10
24.27487097030001
 20
43.7141166661
 30
0.0
  0
SPLINE
  5
189C
330
21B
100
AcDbEntity
  8
DEFAULT_2
  6
HIDDEN
 62
     8
100
AcDbSpline
210
0.0
220
0.0
230
1.0
 70
     8
 71
     3
 72
    28
 73
    24
 74
     0
 42
0.0000001
 43
0.0000000001
 40
0.0
 40
0.0
 40
0.0
 40
0.0
 40
0.0029736631
 40
0.0059451217
 40
0.0123247942
 40
0.0199426706
 40
0.0292590321
 40
0.0405148998
 40
0.0538318241
 40
0.0692656112
 40
0.0868352991
 40
0.1065348287
 40
0.1283423802
 40
0.1781280656
 40
0.2358067079
 40
0.300867257
 40
0.3727026032
 40
0.4506246445000001
 40
0.5338760382
 40
0.6216406664000001
 40
0.7130532898000001
 40
0.8072104788999999
 40
1.0
 40
1.0
 40
1.0
 40
1.0
 10
24.1148368906
 20
44.4607699101
 30
0.0
 10
24.1155740226
 20
44.4609934637
 30
0.0
 10
24.1170968964
 20
44.46129606649999
 30
0.0
 10
24.120311057
 20
44.4612560403
 30
0.0
 10
24.1245768328
 20
44.4598223876
 30
0.0
 10
24.1295124086
 20
44.4562497488
 30
0.0
 10
24.1345143207
 20
44.4508887856
 30
0.0
 10
24.1396162691
 20
44.4437240834
 30
0.0
 10
24.1448285771
 20
44.43475511369999
 30
0.0
 10
24.1501423455
 20
44.4239896003
 30
0.0
 10
24.1555447108
 20
44.4114469305
 30
0.0
 10
24.1610223118
 20
44.39715420949999
 30
0.0
 10
24.1687510138
 20
44.3748011302
 30
0.0
 10
24.1783585074
 20
44.34270848149999
 30
0.0
 10
24.1895239251
 20
44.2994282357
 30
0.0
 10
24.2006512043
 20
44.2502635974
 30
0.0
 10
24.2116239792
 20
44.195706217
 30
0.0
 10
24.2223260026
 20
44.13630132409999
 30
0.0
 10
24.2326465304
 20
44.07264573279999
 30
0.0
 10
24.242479155
 20
44.0053796793
 30
0.0
 10
24.2517237246
 20
43.9351799647
 30
0.0
 10
24.2632285116
 20
43.8378469698
 30
0.0
 10
24.2705509971
 20
43.76386887619999
 30
0.0
 10
24.27487097030001
 20
43.7141166661
 30
0.0
  0
SPLINE
  5
189D
330
21B
100
AcDbEntity
  8
DEFAULT_2
  6
HIDDEN
 62
     8
100
AcDbSpline
210
0.0
220
0.0
230
1.0
 70
     8
 71
     3
 72
    25
 73
    21
 74
     0
 42
0.0000001
 43
0.0000000001
 40
0.0
 40
0.0
 40
0.0
 40
0.0
 40
0.1888639345
 40
0.3705221958
 40
0.4565885382000001
 40
0.5384360538000001
 40
0.6153330661
 40
0.6865975907
 40
0.7516058430000001
 40
0.8098015569999999
 40
0.8607075719
 40
0.9039428262999999
 40
0.9226013487000001
 40
0.9392611670999999
 40
0.9539219779999999
 40
0.9666071043999998
 40
0.9773745659000001
 40
0.9863442212999999
 40
0.9937447491
 40
1.0
 40
1.0
 40
1.0
 40
1.0
 10
24.0911381797
 20
43.7141166661
 30
0.0
 10
24.087019642
 20
43.761548986
 30
0.0
 10
24.0800122332
 20
43.8547004844
 30
0.0
 10
24.0741261066
 20
43.9696648676
 30
0.0
 10
24.0714359488
 20
44.0577502817
 30
0.0
 10
24.0704709541
 20
44.1194597904
 30
0.0
 10
24.0705271266
 20
44.1774458326
 30
0.0
 10
24.071601567
 20
44.23117698699999
 30
0.0
 10
24.07368072010001
 20
44.2801612422
 30
0.0
 10
24.07673802590001
 20
44.3239534396
 30
0.0
 10
24.0807403304
 20
44.3621551859
 30
0.0
 10
24.0849946738
 20
44.3902886117
 30
0.0
 10
24.0889736876
 20
44.40969190649999
 30
0.0
 10
24.0920206705
 20
44.4219219006
 30
0.0
 10
24.0952693698
 20
44.43253582999999
 30
0.0
 10
24.098712679
 20
44.441516425
 30
0.0
 10
24.1023447566
 20
44.44885612
 30
0.0
 10
24.1061758215
 20
44.4545583453
 30
0.0
 10
24.1102320207
 20
44.4586344821
 30
0.0
 10
24.1133278719
 20
44.46031226279999
 30
0.0
 10
24.1148368906
 20
44.4607699101
 30
0.0
  0
SPLINE
  5
189E
330
21B
100
AcDbEntity
  8
DEFAULT_2
  6
HIDDEN
 62
     8
100
AcDbSpline
210
0.0
220
0.0
230
1.0
 70
     8
 71
     3
 72
    25
 73
    21
 74
     0
 42
0.0000001
 43
0.0000000001
 40
0.0
 40
0.0
 40
0.0
 40
0.0
 40
0.1878649383
 40
0.369141892
 40
0.4551955553
 40
0.5371195099000001
 40
0.6141600571
 40
0.6856137545000001
 40
0.7508362699
 40
0.8092520058999999
 40
0.8603659192
 40
0.9037806392
 40
0.9225134653999999
 40
0.9392351123999999
 40
0.9539434928
 40
0.9666602267
 40
0.977441942
 40
0.9864068038999999
 40
0.9937837271999999
 40
1.0
 40
1.0
 40
1.0
 40
1.0
 10
24.0911381797
 20
43.7141166661
 30
0.0
 10
24.0953223196
 20
43.66592881879999
 30
0.0
 10
24.1046529961
 20
43.57133577659999
 30
0.0
 10
24.118964976
 20
43.45500098279999
 30
0.0
 10
24.13178412340001
 20
43.36599485539999
 30
0.0
 10
24.1417052676
 20
43.3036929518
 30
0.0
 10
24.1520037278
 20
43.2452653292
 30
0.0
 10
24.1625800551
 20
43.1912622028
 30
0.0
 10
24.1733309248
 20
43.1421914522
 30
0.0
 10
24.18414811
 20
43.0985104721
 30
0.0
 10
24.194925007
 20
43.06062710019999
 30
0.0
 10
24.2041714029
 20
43.032952043
 30
0.0
 10
24.2115951784
 20
43.0140466114
 30
0.0
 10
24.2168130686
 20
43.00222721149999
 30
0.0
 10
24.2219453435
 20
42.9920780913
 30
0.0
 10
24.22698152840001
 20
42.9836161849
 30
0.0
 10
24.2319135691
 20
42.97684822559999
 30
0.0
 10
24.2367526943
 20
42.9717730406
 30
0.0
 10
24.241526657
 20
42.9683815935
 30
0.0
 10
24.2449223525
 20
42.9672420435
 30
0.0
 10
24.2465115979
 20
42.9670526597
 30
0.0
  0
SPLINE
  5
189F
330
21B
100
AcDbEntity
  8
DEFAULT_2
  6
HIDDEN
 62
     8
100
AcDbSpline
210
0.0
220
0.0
230
1.0
 70
     8
 71
     3
 72
    25
 73
    21
 74
     0
 42
0.0000001
 43
0.0000000001
 40
0.0
 40
0.0
 40
0.0
 40
0.0
 40
0.0081065818
 40
0.0163218015
 40
0.0251587881
 40
0.0350321312
 40
0.0462379111
 40
0.0589760764
 40
0.0733770612
 40
0.0895250952
 40
0.1272477458
 40
0.1723721079
 40
0.2249232441
 40
0.2848186315999999
 40
0.3519016101
 40
0.4259602834000001
 40
0.5067387205000001
 40
0.5939426263000001
 40
0.7862770286
 40
1.0
 40
1.0
 40
1.0
 40
1.0
 10
24.1087124642
 20
44.4607699101
 30
0.0
 10
24.1096488713
 20
44.4610538988
 30
0.0
 10
24.1116175497
 20
44.46138960159999
 30
0.0
 10
24.1146717416
 20
44.4610833042
 30
0.0
 10
24.1177580163
 20
44.4599823509
 30
0.0
 10
24.1208703975
 20
44.45811613359999
 30
0.0
 10
24.1240194089
 20
44.45549974369999
 30
0.0
 10
24.1272117355
 20
44.45213702229999
 30
0.0
 10
24.1304509435
 20
44.4480298763
 30
0.0
 10
24.135073969
 20
44.4412010992
 30
0.0
 10
24.1408669541
 20
44.4307253385
 30
0.0
 10
24.1476662647
 20
44.4158533776
 30
0.0
 10
24.1545986273
 20
44.39813313939999
 30
0.0
 10
24.16163437510001
 20
44.3776315681
 30
0.0
 10
24.168741938
 20
44.3544253088
 30
0.0
 10
24.1758903678
 20
44.3286066056
 30
0.0
 10
24.1830492725
 20
44.3002789683
 30
0.0
 10
24.1928917014
 20
44.2579121768
 30
0.0
 10
24.204881355
 20
44.1995818043
 30
0.0
 10
24.2135065694
 20
44.1513277759
 30
0.0
 10
24.2177817256
 20
44.12588656079999
 30
0.0
  0
SPLINE
  5
18A0
330
21B
100
AcDbEntity
  8
DEFAULT_2
  6
HIDDEN
 62
     8
100
AcDbSpline
210
0.0
220
0.0
230
1.0
 70
     8
 71
     3
 72
    11
 73
     7
 74
     0
 42
0.0000001
 43
0.0000000001
 40
0.0
 40
0.0
 40
0.0
 40
0.0
 40
0.2317431936
 40
0.4791348886
 40
0.7370162347
 40
1.0
 40
1.0
 40
1.0
 40
1.0
 10
24.2177817256
 20
44.12588656079999
 30
0.0
 10
24.22309438780001
 20
44.0942712056
 30
0.0
 10
24.233236032
 20
44.0287625876
 30
0.0
 10
24.2467040872
 20
43.9276932567
 30
0.0
 10
24.2587320971
 20
43.8220919359
 30
0.0
 10
24.2655994884
 20
43.75036063439999
 30
0.0
 10
24.26874654400001
 20
43.7141166661
 30
0.0
  0
SPLINE
  5
18A1
330
21B
100
AcDbEntity
  8
DEFAULT_2
  6
HIDDEN
 62
     8
100
AcDbSpline
210
0.0
220
0.0
230
1.0
 70
     8
 71
     3
 72
    28
 73
    24
 74
     0
 42
0.0000001
 43
0.0000000001
 40
0.0
 40
0.0
 40
0.0
 40
0.0
 40
0.0029964993
 40
0.0059891509
 40
0.0123988007
 40
0.0200231227
 40
0.0293228873
 40
0.0405414712
 40
0.0538033037
 40
0.0691666645
 40
0.0866524915
 40
0.1062572156
 40
0.1279605463
 40
0.1775189483
 40
0.234959592
 40
0.2997902821
 40
0.3714242476
 40
0.449195043
 40
0.5323679465
 40
0.6201500596000001
 40
0.7116995232
 40
0.8061360145
 40
1.0
 40
1.0
 40
1.0
 40
1.0
 10
24.2403871715
 20
42.9670526597
 30
0.0
 10
24.2411419192
 20
42.9669627196
 30
0.0
 10
24.2426728915
 20
42.96692952569999
 30
0.0
 10
24.2457854219
 20
42.9675087973
 30
0.0
 10
24.249680955
 20
42.9695974768
 30
0.0
 10
24.2538691075
 20
42.973854555
 30
0.0
 10
24.2578140099
 20
42.97983956159999
 30
0.0
 10
24.2615473405
 20
42.9875709872
 30
0.0
 10
24.2650790761
 20
42.9970516189
 30
0.0
 10
24.2684025442
 20
43.0082730992
 30
0.0
 10
24.2715090899
 20
43.0212155414
 30
0.0
 10
24.2743903202
 20
43.03585159899999
 30
0.0
 10
24.2780839546
 20
43.0586061917
 30
0.0
 10
24.28194302670001
 20
43.09103763199999
 30
0.0
 10
24.2854110859
 20
43.13449263409999
 30
0.0
 10
24.287843361
 20
43.1836244836
 30
0.0
 10
24.2892113146
 20
43.2379542018
 30
0.0
 10
24.2894952405
 20
43.29695235149999
 30
0.0
 10
24.2886892353
 20
43.36004149439999
 30
0.0
 10
24.286798653
 20
43.42660357029999
 30
0.0
 10
24.2838408052
 20
43.49598647789999
 30
0.0
 10
24.27846236840001
 20
43.59219032539999
 30
0.0
 10
24.273000415
 20
43.66512574069999
 30
0.0
 10
24.26874654400001
 20
43.7141166661
 30
0.0
  0
SPLINE
  5
18A2
330
21B
100
AcDbEntity
  8
DEFAULT_2
  6
HIDDEN
 62
     8
100
AcDbSpline
210
0.0
220
0.0
230
1.0
 70
     8
 71
     3
 72
    21
 73
    17
 74
     0
 42
0.0000001
 43
0.0000000001
 40
0.0
 40
0.0
 40
0.0
 40
0.0
 40
0.0625274519
 40
0.1250550095
 40
0.1875775997
 40
0.2500961275
 40
0.3126130864999999
 40
0.3751301583
 40
0.5000003820000001
 40
0.6248702255
 40
0.6873872022
 40
0.7499040499
 40
0.8124224870999999
 40
0.8749450346999999
 40
0.9374725770000001
 40
1.0
 40
1.0
 40
1.0
 40
1.0
 10
61.4725357276
 20
21.5814047156
 30
0.0
 10
61.4695895931
 20
21.5440944829
 30
0.0
 10
61.4636188945
 20
21.4694716536
 30
0.0
 10
61.4489363111
 20
21.3580723003
 30
0.0
 10
61.4251222412
 20
21.2481917992
 30
0.0
 10
61.390594365
 20
21.1411622732
 30
0.0
 10
61.34503962020001
 20
21.0383207592
 30
0.0
 10
61.27026065159999
 20
20.9085007281
 30
0.0
 10
61.1520453876
 20
20.761920367
 30
0.0
 10
61.006530882
 20
20.6423905668
 30
0.0
 10
60.8773666641
 20
20.566482865
 30
0.0
 10
60.7749143138
 20
20.5200575462
 30
0.0
 10
60.6681719785
 20
20.4846494807
 30
0.0
 10
60.5584865337
 20
20.4599511885
 30
0.0
 10
60.4472089338
 20
20.4443748921
 30
0.0
 10
60.3726380332
 20
20.4377905994
 30
0.0
 10
60.3353540991
 20
20.434528677
 30
0.0
  0
SPLINE
  5
18A3
330
21B
100
AcDbEntity
  8
DEFAULT_2
  6
HIDDEN
 62
     8
100
AcDbSpline
210
0.0
220
0.0
230
1.0
 70
     8
 71
     3
 72
    18
 73
    14
 74
     0
 42
0.0000001
 43
0.0000000001
 40
0.0
 40
0.0
 40
0.0
 40
0.0
 40
0.0563639207
 40
0.1142256936
 40
0.1734516221
 40
0.2339027334
 40
0.2954357044
 40
0.3579035998
 40
0.4850390772999999
 40
0.6140846537
 40
0.7437824908000001
 40
0.8728529337000001
 40
1.0
 40
1.0
 40
1.0
 40
1.0
 10
25.2304275015
 20
45.8571570373
 30
0.0
 10
25.3850361124
 20
45.52143660899999
 30
0.0
 10
25.6898835238
 20
44.8371435922
 30
0.0
 10
26.1296454818
 20
43.78808876109999
 30
0.0
 10
26.5581393636
 20
42.7055086934
 30
0.0
 10
26.9752515909
 20
41.5927593467
 30
0.0
 10
27.3808780764
 20
40.453187236
 30
0.0
 10
27.9093146686
 20
38.8933705546
 30
0.0
 10
28.5377094257
 20
36.9002541456
 30
0.0
 10
29.2401633091
 20
34.469069661
 30
0.0
 10
29.8943989545
 20
32.0113682752
 30
0.0
 10
30.4995136874
 20
29.5539789769
 30
0.0
 10
30.8736681857
 20
27.9159154748
 30
0.0
 10
31.0529557145
 20
27.1016433265
 30
0.0
  0
SPLINE
  5
18A4
330
21B
100
AcDbEntity
  8
DEFAULT_2
  6
HIDDEN
 62
     8
100
AcDbSpline
210
0.0
220
0.0
230
1.0
 70
     8
 71
     3
 72
    14
 73
    10
 74
     0
 42
0.0000001
 43
0.0000000001
 40
0.0
 40
0.0
 40
0.0
 40
0.0
 40
0.1171528614
 40
0.238974596
 40
0.4916884268000001
 40
0.6201502348
 40
0.7484350039
 40
0.8754091915
 40
1.0
 40
1.0
 40
1.0
 40
1.0
 10
61.47253573020001
 20
21.5814047153
 30
0.0
 10
61.510671841
 20
22.0643654867
 30
0.0
 10
61.5853603751
 20
23.0497800741
 30
0.0
 10
61.7384519746
 20
25.0772748848
 30
0.0
 10
61.9105947169
 20
27.1503667167
 30
0.0
 10
62.13124931260001
 20
29.2456658168
 30
0.0
 10
62.32905321899999
 20
30.8202388977
 30
0.0
 10
62.5651452772
 20
32.37339342489999
 30
0.0
 10
62.7549632873
 20
33.3965176786
 30
0.0
 10
62.85934500959999
 20
33.9010556295
 30
0.0
  0
SPLINE
  5
18A5
330
21B
100
AcDbEntity
  8
DEFAULT_2
  6
HIDDEN
 62
     8
100
AcDbSpline
210
0.0
220
0.0
230
1.0
 70
     8
 71
     3
 72
    13
 73
     9
 74
     0
 42
0.0000001
 43
0.0000000001
 40
0.0
 40
0.0
 40
0.0
 40
0.0
 40
0.1250537034
 40
0.2501181943
 40
0.5000758297
 40
0.7499621024
 40
0.8749977098999998
 40
1.0
 40
1.0
 40
1.0
 40
1.0
 10
66.125454878
 20
41.5737503628
 30
0.0
 10
66.13460674229999
 20
41.5836867711
 30
0.0
 10
66.15414080869999
 20
41.60244686809999
 30
0.0
 10
66.19651161250001
 20
41.6360433426
 30
0.0
 10
66.25429771
 20
41.67145395019999
 30
0.0
 10
66.31689073869999
 20
41.6977067184
 30
0.0
 10
66.3693481719
 20
41.71092388309999
 30
0.0
 10
66.3963077595
 20
41.71407036329999
 30
0.0
 10
66.409806421
 20
41.71442383819999
 30
0.0
  0
SPLINE
  5
18A6
330
21B
100
AcDbEntity
  8
DEFAULT_2
  6
HIDDEN
 62
     8
100
AcDbSpline
210
0.0
220
0.0
230
1.0
 70
     8
 71
     3
 72
    18
 73
    14
 74
     0
 42
0.0000001
 43
0.0000000001
 40
0.0
 40
0.0
 40
0.0
 40
0.0
 40
0.1146983534
 40
0.2343471889
 40
0.3608392834
 40
0.4928903081
 40
0.6266183397000001
 40
0.6926899459
 40
0.7574771423000001
 40
0.8206752898000001
 40
0.8820697768
 40
0.9417895218000001
 40
1.0
 40
1.0
 40
1.0
 40
1.0
 10
47.060434701
 20
24.3334269332
 30
0.0
 10
47.0485953353
 20
24.377612074
 30
0.0
 10
47.0239673506
 20
24.4678748564
 30
0.0
 10
46.967690157
 20
24.6010102578
 30
0.0
 10
46.88519259229999
 20
24.7282589717
 30
0.0
 10
46.7778093364
 20
24.8430962817
 30
0.0
 10
46.6716164757
 20
24.9232829627
 30
0.0
 10
46.57976301509999
 20
24.9754549439
 30
0.0
 10
46.5092382071
 20
25.0075840533
 30
0.0
 10
46.43793518819999
 20
25.0327903554
 30
0.0
 10
46.366634441
 20
25.0510364217
 30
0.0
 10
46.2960726956
 20
25.0631167862
 30
0.0
 10
46.24922579689999
 20
25.0676687697
 30
0.0
 10
46.22607019199999
 20
25.0693341236
 30
0.0
  0
SPLINE
  5
18A7
330
21B
100
AcDbEntity
  8
DEFAULT_2
  6
HIDDEN
 62
     8
100
AcDbSpline
210
0.0
220
0.0
230
1.0
 70
     8
 71
     3
 72
    15
 73
    11
 74
     0
 42
0.0000001
 43
0.0000000001
 40
0.0
 40
0.0
 40
0.0
 40
0.0
 40
0.1350069218
 40
0.2676231409
 40
0.3975656328999999
 40
0.5245841159
 40
0.6484680938000001
 40
0.7690555008
 40
0.8862432549999999
 40
1.0
 40
1.0
 40
1.0
 40
1.0
 10
62.85934500959999
 20
33.9010556295
 30
0.0
 10
62.9163432383
 20
34.1765614257
 30
0.0
 10
63.0354905174
 20
34.7214479627
 30
0.0
 10
63.233154727
 20
35.5261082585
 30
0.0
 10
63.4495153631
 20
36.3087159513
 30
0.0
 10
63.6857836413
 20
37.0665364679
 30
0.0
 10
63.9431763386
 20
37.7968439041
 30
0.0
 10
64.22292497479999
 20
38.4969261858
 30
0.0
 10
64.52625139670001
 20
39.16403587060001
 30
0.0
 10
64.7483304757
 20
39.5913362682
 30
0.0
 10
64.8639225524
 20
39.7983011914
 30
0.0
  0
SPLINE
  5
18A8
330
21B
100
AcDbEntity
  8
DEFAULT_2
  6
HIDDEN
 62
     8
100
AcDbSpline
210
0.0
220
0.0
230
1.0
 70
     8
 71
     3
 72
     9
 73
     5
 74
     0
 42
0.0000001
 43
0.0000000001
 40
0.0
 40
0.0
 40
0.0
 40
0.0
 40
0.2591402838
 40
1.0
 40
1.0
 40
1.0
 40
1.0
 10
64.8639225524
 20
39.7983011914
 30
0.0
 10
64.95577193889999
 20
39.9627553805
 30
0.0
 10
65.325175532
 20
40.5886303596
 30
0.0
 10
65.7608126298
 20
41.1774676291
 30
0.0
 10
66.1254548504
 20
41.5737503904
 30
0.0
  0
SPLINE
  5
18A9
330
21B
100
AcDbEntity
  8
DEFAULT_2
  6
HIDDEN
 62
     8
100
AcDbSpline
210
0.0
220
0.0
230
1.0
 70
     8
 71
     3
 72
    19
 73
    15
 74
     0
 42
0.0000001
 43
0.0000000001
 40
0.0
 40
0.0
 40
0.0
 40
0.0
 40
0.0625326846
 40
0.1250677154
 40
0.1875994117
 40
0.2501295206
 40
0.3750568199
 40
0.5000005931000001
 40
0.6249439455
 40
0.7498704743000002
 40
0.8124006901999999
 40
0.8749324555999999
 40
0.9374669276
 40
1.0
 40
1.0
 40
1.0
 40
1.0
 10
48.7942398893
 20
20.5731061564
 30
0.0
 10
48.7674366528
 20
20.5740528163
 30
0.0
 10
48.7138261547
 20
20.576108081
 30
0.0
 10
48.63364858779999
 20
20.5835795765
 30
0.0
 10
48.5543010551
 20
20.5975650155
 30
0.0
 10
48.4507517804
 20
20.6258976591
 30
0.0
 10
48.3270673879
 20
20.6795703053
 30
0.0
 10
48.1927461829
 20
20.769334264
 30
0.0
 10
48.0758291543
 20
20.8808294608
 30
0.0
 10
47.9965139235
 20
20.9898648358
 30
0.0
 10
47.9463341659
 20
21.0847700247
 30
0.0
 10
47.9153884053
 20
21.1591586123
 30
0.0
 10
47.8905156549
 20
21.2357409314
 30
0.0
 10
47.8765761971
 20
21.287545707
 30
0.0
 10
47.8696346401
 20
21.3134519487
 30
0.0
  0
SPLINE
  5
18AA
330
21B
100
AcDbEntity
  8
DEFAULT_2
  6
HIDDEN
 62
     8
100
AcDbSpline
210
0.0
220
0.0
230
1.0
 70
     8
 71
     3
 72
    25
 73
    21
 74
     0
 42
0.0000001
 43
0.0000000001
 40
0.0
 40
0.0
 40
0.0
 40
0.0
 40
0.0010481259
 40
0.0023576069
 40
0.0041901282
 40
0.0094225769
 40
0.0167420421
 40
0.0261439458
 40
0.0376191177
 40
0.0511572399
 40
0.0667479947
 40
0.1040372684
 40
0.1493600834
 40
0.2025722585
 40
0.2634957288
 40
0.3319360547
 40
0.4076671219
 40
0.5800068445000001
 40
0.7782966334000001
 40
1.0
 40
1.0
 40
1.0
 40
1.0
 10
46.12940873229999
 20
25.07399872
 30
0.0
 10
46.1274521447
 20
25.0741094012
 30
0.0
 10
46.1230586342
 20
25.0744755355
 30
0.0
 10
46.1152429552
 20
25.0750148871
 30
0.0
 10
46.0996265183
 20
25.0761564301
 30
0.0
 10
46.07280043329999
 20
25.0780801778
 30
0.0
 10
46.0318590384
 20
25.0810340571
 30
0.0
 10
45.9792747688
 20
25.084814502
 30
0.0
 10
45.9150926947
 20
25.0894219172
 30
0.0
 10
45.83936774359999
 20
25.094842734
 30
0.0
 10
45.71549872600001
 20
25.1036849358
 30
0.0
 10
45.53234697669999
 20
25.1166929957
 30
0.0
 10
45.2790192912
 20
25.1345336835
 30
0.0
 10
44.9815969546
 20
25.155276402
 30
0.0
 10
44.6410366151
 20
25.1787500745
 30
0.0
 10
44.2584479547
 20
25.2047736733
 30
0.0
 10
43.66798028689999
 20
25.2443332085
 30
0.0
 10
42.8351750959
 20
25.2986712473
 30
0.0
 10
41.7298349569
 20
25.3678952284
 30
0.0
 10
40.9459520465
 20
25.4146599748
 30
0.0
 10
40.5321235694
 20
25.4386991383
 30
0.0
  0
SPLINE
  5
18AB
330
21B
100
AcDbEntity
  8
DEFAULT_2
  6
HIDDEN
 62
     8
100
AcDbSpline
210
0.0
220
0.0
230
1.0
 70
     8
 71
     3
 72
    24
 73
    20
 74
     0
 42
0.0000001
 43
0.0000000001
 40
0.0
 40
0.0
 40
0.0
 40
0.0
 40
0.0007277129
 40
0.0035910392
 40
0.0086019419
 40
0.0157723409
 40
0.0251108966
 40
0.0366132446
 40
0.0502717647
 40
0.0660788377
 40
0.104083155
 40
0.1504401974
 40
0.2049212895
 40
0.2672270346
 40
0.3370273674
 40
0.4139401782000001
 40
0.5874418302000001
 40
0.7841146635
 40
1.0
 40
1.0
 40
1.0
 40
1.0
 10
32.9341389251
 20
25.5347877016
 30
0.0
 10
32.9322968252
 20
25.5348520292
 30
0.0
 10
32.95207058739999
 20
25.5348386495
 30
0.0
 10
32.9619452016
 20
25.534858424
 30
0.0
 10
33.0073330352
 20
25.5347550162
 30
0.0
 10
33.0585164713
 20
25.5346111272
 30
0.0
 10
33.13078653050001
 20
25.5343699754
 30
0.0
 10
33.2176863717
 20
25.53404015
 30
0.0
 10
33.3216194121
 20
25.5336028072
 30
0.0
 10
33.4924402906
 20
25.5328155827
 30
0.0
 10
33.7461973032
 20
25.5314896431
 30
0.0
 10
34.09784660790001
 20
25.5293486209
 30
0.0
 10
34.5110695365
 20
25.5264507115
 30
0.0
 10
34.9836585719
 20
25.52263861030001
 30
0.0
 10
35.5130604601
 20
25.5177589535
 30
0.0
 10
36.3240871861
 20
25.5092405277
 30
0.0
 10
37.4564248927
 20
25.4948790025
 30
0.0
 10
38.940668049
 20
25.4711651763
 30
0.0
 10
39.9854376098
 20
25.4506274329
 30
0.0
 10
40.5321231038
 20
25.4386991203
 30
0.0
  0
SPLINE
  5
18AC
330
21B
100
AcDbEntity
  8
DEFAULT_2
  6
HIDDEN
 62
     8
100
AcDbSpline
210
0.0
220
0.0
230
1.0
 70
     8
 71
     3
 72
    24
 73
    20
 74
     0
 42
0.0000001
 43
0.0000000001
 40
0.0
 40
0.0
 40
0.0
 40
0.0
 40
0.0586590365
 40
0.1180147772
 40
0.178469174
 40
0.2402135538
 40
0.3033338791
 40
0.3354436869000001
 40
0.3679244656
 40
0.4338771742
 40
0.5008321721
 40
0.5681943254
 40
0.6352538700000001
 40
0.7012491940000001
 40
0.7654256198000001
 40
0.8272701583999999
 40
0.8867865444999999
 40
0.9442484426
 40
1.0
 40
1.0
 40
1.0
 40
1.0
 10
41.6927779514
 20
24.6670281825
 30
0.0
 10
41.6824244964
 20
24.691933269
 30
0.0
 10
41.6615557148
 20
24.7420259334
 30
0.0
 10
41.6272517316
 20
24.8166091737
 30
0.0
 10
41.5876372614
 20
24.8901727425
 30
0.0
 10
41.5413621285
 20
24.9618425095
 30
0.0
 10
41.4967810028
 20
25.0187585357
 30
0.0
 10
41.4572461784
 20
25.0622069558
 30
0.0
 10
41.4146456907
 20
25.1045243147
 30
0.0
 10
41.3569167174
 20
25.1541964606
 30
0.0
 10
41.2823087459
 20
25.208317353
 30
0.0
 10
41.2036228321
 20
25.2572542415
 30
0.0
 10
41.1223880528
 20
25.3008835176
 30
0.0
 10
41.04000803169999
 20
25.3389265228
 30
0.0
 10
40.95775083199999
 20
25.3711493405
 30
0.0
 10
40.87640443659999
 20
25.3970804335
 30
0.0
 10
40.796352681
 20
25.4161975735
 30
0.0
 10
40.7178497098
 20
25.4287226634
 30
0.0
 10
40.66594983589999
 20
25.4332167081
 30
0.0
 10
40.640362791
 20
25.4347767559
 30
0.0
  0
SPLINE
  5
18AD
330
21B
100
AcDbEntity
  8
DEFAULT_2
  6
HIDDEN
 62
     8
100
AcDbSpline
210
0.0
220
0.0
230
1.0
 70
     8
 71
     3
 72
    29
 73
    25
 74
     0
 42
0.0000001
 43
0.0000000001
 40
0.0
 40
0.0
 40
0.0
 40
0.0
 40
0.2257475911
 40
0.4256111357
 40
0.5152486171000001
 40
0.5977542344
 40
0.6729496004000001
 40
0.7406843783000001
 40
0.8008188341
 40
0.8532282924
 40
0.8977972374
 40
0.917111307
 40
0.9344274176999999
 40
0.9497328934999998
 40
0.9630218613
 40
0.9742875535999999
 40
0.9835161585999999
 40
0.9907037430999999
 40
0.9935314773999998
 40
0.9958501937000001
 40
0.9976541426
 40
0.9989297767
 40
0.9997089385999998
 40
1.0
 40
1.0
 40
1.0
 40
1.0
 10
44.0586457122
 20
20.907560669
 30
0.0
 10
44.4158724897
 20
20.8883039786
 30
0.0
 10
45.0892528693
 20
20.8498288401
 30
0.0
 10
45.9040889835
 20
20.7972698292
 30
0.0
 10
46.4921758422
 20
20.7561141306
 30
0.0
 10
46.8830937577
 20
20.7275329956
 30
0.0
 10
47.2393253338
 20
20.7005557779
 30
0.0
 10
47.56015292669999
 20
20.6755637313
 30
0.0
 10
47.84494593369999
 20
20.6529386091
 30
0.0
 10
48.0931158998
 20
20.6328828337
 30
0.0
 10
48.2767908522
 20
20.6178342965
 30
0.0
 10
48.40502803919999
 20
20.6071993244
 30
0.0
 10
48.4870446716
 20
20.6003374026
 30
0.0
 10
48.5595413316
 20
20.5942102578
 30
0.0
 10
48.6224786633
 20
20.5888293683
 30
0.0
 10
48.6758155503
 20
20.5842065787
 30
0.0
 10
48.7195141447
 20
20.5803565298
 30
0.0
 10
48.7498879962
 20
20.5776276997
 30
0.0
 10
48.7693525261
 20
20.5758465155
 30
0.0
 10
48.7803194447
 20
20.5748232661
 30
0.0
 10
48.78883750069999
 20
20.5740358765
 30
0.0
 10
48.7949228273
 20
20.5734236774
 30
0.0
 10
48.7986256103
 20
20.5731104256
 30
0.0
 10
48.8003104719
 20
20.5728931189
 30
0.0
 10
48.8007714371
 20
20.5728769358
 30
0.0
  0
LINE
  5
18AE
330
21B
100
AcDbEntity
  8
DEFAULT_2
  6
HIDDEN
 62
     8
100
AcDbLine
 10
68.1654933096
 20
42.90667026909999
 30
0.0
 11
68.01966565029999
 21
42.0571291564
 31
0.0
  0
SPLINE
  5
18AF
330
21B
100
AcDbEntity
  8
DEFAULT_2
  6
HIDDEN
 62
     8
100
AcDbSpline
210
0.0
220
0.0
230
1.0
 70
     8
 71
     3
 72
    16
 73
    12
 74
     0
 42
0.0000001
 43
0.0000000001
 40
0.0
 40
0.0
 40
0.0
 40
0.0
 40
0.0589361162
 40
0.1186906169
 40
0.1787456259
 40
0.238416486
 40
0.3570729902
 40
0.4773117703
 40
0.6013748350000001
 40
0.7308070197
 40
1.0
 40
1.0
 40
1.0
 40
1.0
 10
48.930516111
 20
41.53370136239999
 30
0.0
 10
49.1064790177
 20
41.5373393538
 30
0.0
 10
49.46089514689999
 20
41.5423847383
 30
0.0
 10
49.994669321
 20
41.546255641
 30
0.0
 10
50.5306497792
 20
41.54777655639999
 30
0.0
 10
51.2425302647
 20
41.54717745929999
 30
0.0
 10
52.13412857659999
 20
41.54289250709999
 30
0.0
 10
53.21799995510001
 20
41.5350606471
 30
0.0
 10
54.334046138
 20
41.5263207023
 30
0.0
 10
55.89490020399999
 20
41.5150519315
 30
0.0
 10
57.0853417838
 20
41.51137797989999
 30
0.0
 10
57.8892184922
 20
41.51584260749999
 30
0.0
  0
SPLINE
  5
18B0
330
21B
100
AcDbEntity
  8
DEFAULT_2
  6
HIDDEN
 62
     8
100
AcDbSpline
210
0.0
220
0.0
230
1.0
 70
     8
 71
     3
 72
    15
 73
    11
 74
     0
 42
0.0000001
 43
0.0000000001
 40
0.0
 40
0.0
 40
0.0
 40
0.0
 40
0.1262816027
 40
0.252261155
 40
0.3778515087
 40
0.5030029494
 40
0.6277182413000001
 40
0.7520511990000001
 40
0.8760990390999999
 40
1.0
 40
1.0
 40
1.0
 40
1.0
 10
68.01967385479999
 20
42.0571281192
 30
0.0
 10
68.0160619457
 20
42.0360799273
 30
0.0
 10
68.00528995509999
 20
41.9945553272
 30
0.0
 10
67.97896393479999
 20
41.93601157719999
 30
0.0
 10
67.943233057
 20
41.8828901263
 30
0.0
 10
67.8991413235
 20
41.8367698784
 30
0.0
 10
67.84797457589999
 20
41.7990013873
 30
0.0
 10
67.7912240121
 20
41.77069733529999
 30
0.0
 10
67.73057671450001
 20
41.75269436469999
 30
0.0
 10
67.68866409090001
 20
41.74791190679999
 30
0.0
 10
67.6677180197
 20
41.7473634146
 30
0.0
  0
SPLINE
  5
18B1
330
21B
100
AcDbEntity
  8
DEFAULT_2
  6
HIDDEN
 62
     8
100
AcDbSpline
210
0.0
220
0.0
230
1.0
 70
     8
 71
     3
 72
    21
 73
    17
 74
     0
 42
0.0000001
 43
0.0000000001
 40
0.0
 40
0.0
 40
0.0
 40
0.0
 40
0.0595697263
 40
0.1202497697
 40
0.182178635
 40
0.2454795163
 40
0.3100430734
 40
0.3755363086
 40
0.5073449892000001
 40
0.5728271306
 40
0.6374265607999999
 40
0.7008655407
 40
0.763036558
 40
0.8239331629999998
 40
0.8835735444
 40
1.0
 40
1.0
 40
1.0
 40
1.0
 10
43.9199860585
 20
20.9110449561
 30
0.0
 10
43.89307362060001
 20
20.9124887261
 30
0.0
 10
43.8388035245
 20
20.9167686824
 30
0.0
 10
43.7571531084
 20
20.9284744275
 30
0.0
 10
43.67488479
 20
20.9463675268
 30
0.0
 10
43.5925485091
 20
20.9710240391
 30
0.0
 10
43.51075012219999
 20
21.0022803031
 30
0.0
 10
43.40344893859999
 20
21.0526856934
 30
0.0
 10
43.30166871329999
 20
21.1152453486
 30
0.0
 10
43.2089367456
 20
21.1891829619
 30
0.0
 10
43.145432712
 20
21.2496434048
 30
0.0
 10
43.0888856925
 20
21.3146850402
 30
0.0
 10
43.0396452074
 20
21.3833505566
 30
0.0
 10
42.9973112449
 20
21.4544509075
 30
0.0
 10
42.94939338299999
 20
21.5504523803
 30
0.0
 10
42.920140791
 20
21.624640263
 30
0.0
 10
42.9009612836
 20
21.6736992527
 30
0.0
  0
SPLINE
  5
18B2
330
21B
100
AcDbEntity
  8
0
  6
Continuous
 62
     7
100
AcDbSpline
210
0.0
220
0.0
230
1.0
 70
     8
 71
     3
 72
    21
 73
    17
 74
     0
 42
0.0000001
 43
0.0000000001
 40
0.0
 40
0.0
 40
0.0
 40
0.0
 40
0.0100408744
 40
0.0214379797
 40
0.034273955
 40
0.048567785
 40
0.0816573111
 40
0.1212584111
 40
0.1676045509
 40
0.2204055694
 40
0.2793039969
 40
0.3439187049
 40
0.4883370210000001
 40
0.6492523354
 40
0.8216175945999999
 40
1.0
 40
1.0
 40
1.0
 40
1.0
 10
24.0382424044
 20
44.0766146256
 30
0.0
 10
24.0374350771
 20
44.07565626319999
 30
0.0
 10
24.0359026828
 20
44.0734476804
 30
0.0
 10
24.0339311291
 20
44.069643827
 30
0.0
 10
24.0321262126
 20
44.0651813647
 30
0.0
 10
24.0298019483
 20
44.0580299156
 30
0.0
 10
24.0273128873
 20
44.04744685229999
 30
0.0
 10
24.0248981267
 20
44.0327831201
 30
0.0
 10
24.0228713444
 20
44.0155814347
 30
0.0
 10
24.0212643741
 20
43.9959199427
 30
0.0
 10
24.0200915504
 20
43.97394500529999
 30
0.0
 10
24.0190766843
 20
43.9405205589
 30
0.0
 10
24.01904457820001
 20
43.8943413407
 30
0.0
 10
24.0207442984
 20
43.8347428872
 30
0.0
 10
24.0241474273
 20
43.77097282850001
 30
0.0
 10
24.0274614283
 20
43.72732137729999
 30
0.0
 10
24.02938718130001
 20
43.70514289079999
 30
0.0
  0
SPLINE
  5
18B3
330
21B
100
AcDbEntity
  8
0
  6
Continuous
 62
     7
100
AcDbSpline
210
0.0
220
0.0
230
1.0
 70
     8
 71
     3
 72
    21
 73
    17
 74
     0
 42
0.0000001
 43
0.0000000001
 40
0.0
 40
0.0
 40
0.0
 40
0.0
 40
0.1775587242
 40
0.3496400486
 40
0.5106540791
 40
0.6553930246000001
 40
0.7202027759
 40
0.7792950044
 40
0.8322719485
 40
0.8787604223999998
 40
0.9184552751999998
 40
0.9515777998999999
 40
0.9658624628
 40
0.9786710457999999
 40
0.9900223448
 40
1.0
 40
1.0
 40
1.0
 40
1.0
 10
24.02938718130001
 20
43.70514289079999
 30
0.0
 10
24.0313451257
 20
43.68259366239999
 30
0.0
 10
24.0356900098
 20
43.63823169789999
 30
0.0
 10
24.04350060940001
 20
43.5736009974
 30
0.0
 10
24.0523110781
 20
43.5133236371
 30
0.0
 10
24.0605052723
 20
43.4667923764
 30
0.0
 10
24.0674383953
 20
43.4332545239
 30
0.0
 10
24.0725070971
 20
43.4112817272
 30
0.0
 10
24.0776024089
 20
43.3917193067
 30
0.0
 10
24.0826824753
 20
43.37471763619999
 30
0.0
 10
24.0876997626
 20
43.3603547689
 30
0.0
 10
24.0920668489
 20
43.3501283909
 30
0.0
 10
24.0956600901
 20
43.3433403884
 30
0.0
 10
24.0982543654
 20
43.339175997
 30
0.0
 10
24.1008973604
 20
43.3357097816
 30
0.0
 10
24.1028207745
 20
43.33376945659999
 30
0.0
 10
24.1037977518
 20
43.3329550755
 30
0.0
  0
SPLINE
  5
18B4
330
21B
100
AcDbEntity
  8
0
  6
Continuous
 62
     7
100
AcDbSpline
210
0.0
220
0.0
230
1.0
 70
     8
 71
     3
 72
    11
 73
     7
 74
     0
 42
0.0000001
 43
0.0000000001
 40
0.0
 40
0.0
 40
0.0
 40
0.0
 40
0.2718041868
 40
0.534756618
 40
0.7799180919
 40
1.0
 40
1.0
 40
1.0
 40
1.0
 10
24.0409413823
 20
43.70380013600001
 30
0.0
 10
24.0417989384
 20
43.6939238449
 30
0.0
 10
24.0437125206
 20
43.6745117663
 30
0.0
 10
24.0471835208
 20
43.6462755524
 30
0.0
 10
24.0511231937
 20
43.6200068227
 30
0.0
 10
24.0541797443
 20
43.60331074029999
 30
0.0
 10
24.0558037264
 20
43.5954497376
 30
0.0
  0
SPLINE
  5
18B5
330
21B
100
AcDbEntity
  8
0
  6
Continuous
 62
     7
100
AcDbSpline
210
0.0
220
0.0
230
1.0
 70
     8
 71
     3
 72
    11
 73
     7
 74
     0
 42
0.0000001
 43
0.0000000001
 40
0.0
 40
0.0
 40
0.0
 40
0.0
 40
0.2911721687
 40
0.5511842678
 40
0.7857530539000001
 40
1.0
 40
1.0
 40
1.0
 40
1.0
 10
24.0558037264
 20
43.5954497376
 30
0.0
 10
24.0567607209
 20
43.5908173361
 30
0.0
 10
24.05868638
 20
43.58207091159999
 30
0.0
 10
24.0619024101
 20
43.5697132463
 30
0.0
 10
24.0653732737
 20
43.55872794869999
 30
0.0
 10
24.06812378570001
 20
43.5519580741
 30
0.0
 10
24.069644223
 20
43.54882719539999
 30
0.0
  0
SPLINE
  5
18B6
330
21B
100
AcDbEntity
  8
0
  6
Continuous
 62
     7
100
AcDbSpline
210
0.0
220
0.0
230
1.0
 70
     8
 71
     3
 72
    14
 73
    10
 74
     0
 42
0.0000001
 43
0.0000000001
 40
0.0
 40
0.0
 40
0.0
 40
0.0
 40
0.0838012202
 40
0.1777246785
 40
0.2851602329
 40
0.4076018834
 40
0.5431173866
 40
0.6891412485
 40
1.0
 40
1.0
 40
1.0
 40
1.0
 10
24.0423813892
 20
43.8580966527
 30
0.0
 10
24.0412018353
 20
43.8539356721
 30
0.0
 10
24.0394235723
 20
43.8449092432
 30
0.0
 10
24.0378276635
 20
43.8302731486
 30
0.0
 10
24.0369225541
 20
43.8135797701
 30
0.0
 10
24.0365920034
 20
43.7947222501
 30
0.0
 10
24.0368418546
 20
43.77387173039999
 30
0.0
 10
24.0379471036
 20
43.74331648729999
 30
0.0
 10
24.0395535707
 20
43.71978326609999
 30
0.0
 10
24.0409413823
 20
43.70380013600001
 30
0.0
  0
SPLINE
  5
18B7
330
21B
100
AcDbEntity
  8
0
  6
Continuous
 62
     7
100
AcDbSpline
210
0.0
220
0.0
230
1.0
 70
     8
 71
     3
 72
    23
 73
    19
 74
     0
 42
0.0000001
 43
0.0000000001
 40
0.0
 40
0.0
 40
0.0
 40
0.0
 40
0.1765976533
 40
0.3479455283
 40
0.5086351023
 40
0.5833891352000001
 40
0.6536252124000001
 40
0.7187997270000001
 40
0.7784152679
 40
0.8320275154
 40
0.8792538938999999
 40
0.9197862066999999
 40
0.9374739115999998
 40
0.9534190031000001
 40
0.9676188168000001
 40
0.9800853022
 40
0.9908548310999998
 40
1.0
 40
1.0
 40
1.0
 40
1.0
 10
23.9888564908
 20
43.7049653227
 30
0.0
 10
23.992398358
 20
43.6641743941
 30
0.0
 10
24.0002462341
 20
43.583877566
 30
0.0
 10
24.0143234982
 20
43.4667837063
 30
0.0
 10
24.0278490859
 20
43.3734307284
 30
0.0
 10
24.0395566272
 20
43.3035296129
 30
0.0
 10
24.0483856936
 20
43.25560672329999
 30
0.0
 10
24.0574020238
 20
43.2112946009
 30
0.0
 10
24.066531221
 20
43.1709479498
 30
0.0
 10
24.0756952325
 20
43.1348869484
 30
0.0
 10
24.084817185
 20
43.10339812619999
 30
0.0
 10
24.0926278424
 20
43.08021789939999
 30
0.0
 10
24.0988897719
 20
43.06419994539999
 30
0.0
 10
24.1033153655
 20
43.0540276386
 30
0.0
 10
24.1076758121
 20
43.0451577279
 30
0.0
 10
24.1119642455
 20
43.03760343020001
 30
0.0
 10
24.1161714349
 20
43.0313755884
 30
0.0
 10
24.1191554009
 20
43.0278317843
 30
0.0
 10
24.1206480039
 20
43.0263258316
 30
0.0
  0
SPLINE
  5
18B8
330
21B
100
AcDbEntity
  8
0
  6
Continuous
 62
     7
100
AcDbSpline
210
0.0
220
0.0
230
1.0
 70
     8
 71
     3
 72
    11
 73
     7
 74
     0
 42
0.0000001
 43
0.0000000001
 40
0.0
 40
0.0
 40
0.0
 40
0.0
 40
0.2337633767
 40
0.4817270606000001
 40
0.7384597499
 40
1.0
 40
1.0
 40
1.0
 40
1.0
 10
24.0011894491
 20
44.38146308189999
 30
0.0
 10
24.0072179607
 20
44.39017920729999
 30
0.0
 10
24.0209748975
 20
44.40726297989999
 30
0.0
 10
24.04593863380001
 20
44.42979680359999
 30
0.0
 10
24.0754494857
 20
44.4484452849
 30
0.0
 10
24.0973658096
 20
44.4573283612
 30
0.0
 10
24.10871246280001
 20
44.4607699252
 30
0.0
  0
SPLINE
  5
18B9
330
21B
100
AcDbEntity
  8
0
  6
Continuous
 62
     7
100
AcDbSpline
210
0.0
220
0.0
230
1.0
 70
     8
 71
     3
 72
    11
 73
     7
 74
     0
 42
0.0000001
 43
0.0000000001
 40
0.0
 40
0.0
 40
0.0
 40
0.0
 40
0.2615378948
 40
0.5182721883000001
 40
0.7662368270000001
 40
1.0
 40
1.0
 40
1.0
 40
1.0
 10
24.2403871801
 20
42.9670525592
 30
0.0
 10
24.2286135341
 20
42.9684559921
 30
0.0
 10
24.2054811849
 20
42.9733679072
 30
0.0
 10
24.1731629544
 20
42.9865659718
 30
0.0
 10
24.1446419227
 20
43.00438504449999
 30
0.0
 10
24.1281083917
 20
43.01879866350001
 30
0.0
 10
24.12064801280001
 20
43.02632570399999
 30
0.0
  0
SPLINE
  5
18BA
330
21B
100
AcDbEntity
  8
0
  6
Continuous
 62
     7
100
AcDbSpline
210
0.0
220
0.0
230
1.0
 70
     8
 71
     3
 72
    25
 73
    21
 74
     0
 42
0.0000001
 43
0.0000000001
 40
0.0
 40
0.0
 40
0.0
 40
0.0
 40
0.0059951252
 40
0.0128360766
 40
0.0211066741
 40
0.0311345566
 40
0.0430906006
 40
0.0570613332
 40
0.0730847056
 40
0.0911700767
 40
0.1334661971
 40
0.1837251118
 40
0.2415680119
 40
0.30650962
 40
0.3779781654
 40
0.4553284970000001
 40
0.5378523882000001
 40
0.6247877887
 40
0.808624116
 40
1.0
 40
1.0
 40
1.0
 40
1.0
 10
24.1314628383
 20
43.0425343477
 30
0.0
 10
24.1328018139
 20
43.0426524242
 30
0.0
 10
24.1356324542
 20
43.04352932149999
 30
0.0
 10
24.1394319024
 20
43.04645790739999
 30
0.0
 10
24.1429802583
 20
43.05088120529999
 30
0.0
 10
24.1463350444
 20
43.05679911409999
 30
0.0
 10
24.1495160994
 20
43.0642187758
 30
0.0
 10
24.1525212744
 20
43.0731391745
 30
0.0
 10
24.1553453292
 20
43.08354773939999
 30
0.0
 10
24.1590526382
 20
43.1002774704
 30
0.0
 10
24.1630202864
 20
43.1247833854
 30
0.0
 10
24.1667688149
 20
43.1583032188
 30
0.0
 10
24.1696587013
 20
43.19700095209999
 30
0.0
 10
24.1716574792
 20
43.2405132391
 30
0.0
 10
24.1727384481
 20
43.28843214339999
 30
0.0
 10
24.1728876628
 20
43.3403043138
 30
0.0
 10
24.1721012808
 20
43.3956385417
 30
0.0
 10
24.1697665903
 20
43.474819362
 30
0.0
 10
24.1645296889
 20
43.5783179585
 30
0.0
 10
24.1582339965
 20
43.66221762859999
 30
0.0
 10
24.1545222238
 20
43.7049653227
 30
0.0
  0
SPLINE
  5
18BB
330
21B
100
AcDbEntity
  8
0
  6
Continuous
 62
     9
100
AcDbSpline
210
0.0
220
0.0
230
1.0
 70
     8
 71
     3
 72
     9
 73
     5
 74
     0
 42
0.0000001
 43
0.0000000001
 40
0.0
 40
0.0
 40
0.0
 40
0.0
 40
0.5147529389
 40
1.0
 40
1.0
 40
1.0
 40
1.0
 10
24.0294249723
 20
43.70513963399999
 30
0.0
 10
24.0320573727
 20
43.6748228396
 30
0.0
 10
24.0380408366
 20
43.6159994806
 30
0.0
 10
24.0458409187
 20
43.5573853597
 30
0.0
 10
24.0501832443
 20
43.52902936249999
 30
0.0
  0
LINE
  5
18BC
330
21B
100
AcDbEntity
  8
0
  6
Continuous
 62
     9
100
AcDbLine
 10
24.0501832443
 20
43.52902936249999
 30
0.0
 11
24.0506672442
 21
43.5258845863
 31
0.0
  0
SPLINE
  5
18BD
330
21B
100
AcDbEntity
  8
0
  6
Continuous
 62
     9
100
AcDbSpline
210
0.0
220
0.0
230
1.0
 70
     8
 71
     3
 72
     9
 73
     5
 74
     0
 42
0.0000001
 43
0.0000000001
 40
0.0
 40
0.0
 40
0.0
 40
0.0
 40
0.2619980213
 40
1.0
 40
1.0
 40
1.0
 40
1.0
 10
24.0596617396
 20
43.472743083
 30
0.0
 10
24.0603065034
 20
43.4692697635
 30
0.0
 10
24.0628144309
 20
43.45602155589999
 30
0.0
 10
24.0655141519
 20
43.4428090966
 30
0.0
 10
24.0676468101
 20
43.4330894476
 30
0.0
  0
SPLINE
  5
18BE
330
21B
100
AcDbEntity
  8
0
  6
Continuous
 62
     9
100
AcDbSpline
210
0.0
220
0.0
230
1.0
 70
     8
 71
     3
 72
     9
 73
     5
 74
     0
 42
0.0000001
 43
0.0000000001
 40
0.0
 40
0.0
 40
0.0
 40
0.0
 40
0.2665381047
 40
1.0
 40
1.0
 40
1.0
 40
1.0
 10
24.0687811631
 20
43.427983757
 30
0.0
 10
24.0694396605
 20
43.4250570117
 30
0.0
 10
24.071962444
 20
43.41408841119999
 30
0.0
 10
24.0746990785
 20
43.4031677047
 30
0.0
 10
24.0768781468
 20
43.39520531729999
 30
0.0
  0
SPLINE
  5
18BF
330
21B
100
AcDbEntity
  8
0
  6
Continuous
 62
     9
100
AcDbSpline
210
0.0
220
0.0
230
1.0
 70
     8
 71
     3
 72
     9
 73
     5
 74
     0
 42
0.0000001
 43
0.0000000001
 40
0.0
 40
0.0
 40
0.0
 40
0.0
 40
0.5324125880000001
 40
1.0
 40
1.0
 40
1.0
 40
1.0
 10
24.0778089846
 20
43.3918462805
 30
0.0
 10
24.079135783
 20
43.3871186522
 30
0.0
 10
24.0817518724
 20
43.3782730755
 30
0.0
 10
24.0846958346
 20
43.36952917779999
 30
0.0
 10
24.0861800154
 20
43.36548020779999
 30
0.0
  0
SPLINE
  5
18C0
330
21B
100
AcDbEntity
  8
0
  6
Continuous
 62
     9
100
AcDbSpline
210
0.0
220
0.0
230
1.0
 70
     8
 71
     3
 72
    33
 73
    29
 74
     0
 42
0.0000001
 43
0.0000000001
 40
0.0
 40
0.0
 40
0.0
 40
0.0
 40
0.0219995715
 40
0.0409919414
 40
0.056982753
 40
0.0700459633
 40
0.0803879508
 40
0.0846806437
 40
0.0885091605
 40
0.0920209258
 40
0.0954053351
 40
0.1025747208
 40
0.1067592555
 40
0.1114922835
 40
0.1228683006
 40
0.1370692253
 40
0.1542383126
 40
0.1744154444
 40
0.1975947725
 40
0.2237295324
 40
0.2527485474
 40
0.319072544
 40
0.3956773295
 40
0.4814664364000001
 40
0.5751838399000001
 40
0.6754381809000001
 40
0.7807150753000001
 40
1.0
 40
1.0
 40
1.0
 40
1.0
 10
24.086381469
 20
43.3649327271
 30
0.0
 10
24.0874380655
 20
43.36207229649999
 30
0.0
 10
24.0895102132
 20
43.35677903689999
 30
0.0
 10
24.0927822592
 20
43.3495856603
 30
0.0
 10
24.0959808176
 20
43.3437331372
 30
0.0
 10
24.0990951927
 20
43.33923576300001
 30
0.0
 10
24.1017802047
 20
43.3364423165
 30
0.0
 10
24.1039132159
 20
43.335009682
 30
0.0
 10
24.1053993776
 20
43.3343572816
 30
0.0
 10
24.1068719652
 20
43.3340690267
 30
0.0
 10
24.1088400534
 20
43.3341845105
 30
0.0
 10
24.1107446883
 20
43.33512837039999
 30
0.0
 10
24.112400659
 20
43.33662529539999
 30
0.0
 10
24.1142040088
 20
43.33879667409999
 30
0.0
 10
24.1162938837
 20
43.3424703731
 30
0.0
 10
24.11851388440001
 20
43.34797285989999
 30
0.0
 10
24.1205757833
 20
43.35482187109999
 30
0.0
 10
24.1224736537
 20
43.36299768479999
 30
0.0
 10
24.1241962412
 20
43.3724775181
 30
0.0
 10
24.1257367541
 20
43.3832273331
 30
0.0
 10
24.1276218681
 20
43.399961407
 30
0.0
 10
24.1293840672
 20
43.4237378191
 30
0.0
 10
24.1306227598
 20
43.45542018999999
 30
0.0
 10
24.1310335205
 20
43.49092097489999
 30
0.0
 10
24.1306063384
 20
43.52969866659999
 30
0.0
 10
24.129343408
 20
43.5711604439
 30
0.0
 10
24.1265285792
 20
43.62997841560001
 30
0.0
 10
24.1232937927
 20
43.6748587164
 30
0.0
 10
24.1206645074
 20
43.70513963399999
 30
0.0
  0
SPLINE
  5
18C1
330
21B
100
AcDbEntity
  8
0
  6
Continuous
 62
     7
100
AcDbSpline
210
0.0
220
0.0
230
1.0
 70
     8
 71
     3
 72
    30
 73
    26
 74
     0
 42
0.0000001
 43
0.0000000001
 40
0.0
 40
0.0
 40
0.0
 40
0.0
 40
0.0087631647
 40
0.0159079745
 40
0.0191264478
 40
0.022275599
 40
0.0255017609
 40
0.0289411307
 40
0.0327064773
 40
0.0368834268
 40
0.0466911113
 40
0.0586856739
 40
0.0730123185
 40
0.089735588
 40
0.1088732684
 40
0.1304144555
 40
0.1543286668
 40
0.2090764624
 40
0.272621707
 40
0.3443190132
 40
0.4234069274000001
 40
0.5090263733000001
 40
0.6002357102
 40
0.7953216842000001
 40
1.0
 40
1.0
 40
1.0
 40
1.0
 10
24.1206480039
 20
43.0263258316
 30
0.0
 10
24.1221080886
 20
43.024852688
 30
0.0
 10
24.1249744303
 20
43.0223664816
 30
0.0
 10
24.1291639227
 20
43.0204056207
 30
0.0
 10
24.1323607581
 20
43.0199994212
 30
0.0
 10
24.1346400967
 20
43.02021415189999
 30
0.0
 10
24.1368662267
 20
43.02093611270001
 30
0.0
 10
24.1390299018
 20
43.0221535989
 30
0.0
 10
24.1411315418
 20
43.0238554146
 30
0.0
 10
24.1440097493
 20
43.0269301089
 30
0.0
 10
24.1474075842
 20
43.0321012992
 30
0.0
 10
24.1510673588
 20
43.039845626
 30
0.0
 10
24.1545149598
 20
43.0494458702
 30
0.0
 10
24.1577405958
 20
43.0608851351
 30
0.0
 10
24.1607350136
 20
43.0741424385
 30
0.0
 10
24.1634882553
 20
43.08918425499999
 30
0.0
 10
24.1669825736
 20
43.1126456633
 30
0.0
 10
24.1705421327
 20
43.1461293468
 30
0.0
 10
24.1735905983
 20
43.19100115
 30
0.0
 10
24.1755291084
 20
43.24169957699999
 30
0.0
 10
24.1763303896
 20
43.297651991
 30
0.0
 10
24.1759793282
 20
43.358226716
 30
0.0
 10
24.1739253889
 20
43.4462337747
 30
0.0
 10
24.1684497954
 20
43.5623292274
 30
0.0
 10
24.1614688878
 20
43.65670224489999
 30
0.0
 10
24.1572782156
 20
43.7049653227
 30
0.0
  0
SPLINE
  5
18C2
330
21B
100
AcDbEntity
  8
0
  6
Continuous
 62
     9
100
AcDbSpline
210
0.0
220
0.0
230
1.0
 70
     8
 71
     3
 72
    27
 73
    23
 74
     0
 42
0.0000001
 43
0.0000000001
 40
0.0
 40
0.0
 40
0.0
 40
0.0
 40
0.0078580421
 40
0.0144439643
 40
0.0206993582
 40
0.0277024825
 40
0.0362487687
 40
0.0467737875
 40
0.0594980061
 40
0.0745287607
 40
0.0919050513
 40
0.1116338018
 40
0.1580629708
 40
0.213496691
 40
0.2774331098
 40
0.3492392179
 40
0.4281675966
 40
0.5133883414
 40
0.6039926711
 40
0.6989960023
 40
0.7973766557
 40
1.0
 40
1.0
 40
1.0
 40
1.0
 10
24.1037977355
 20
43.33295529819999
 30
0.0
 10
24.1045755313
 20
43.3323067563
 30
0.0
 10
24.106129033
 20
43.3312380938
 30
0.0
 10
24.1087681828
 20
43.33050554329999
 30
0.0
 10
24.1113681481
 20
43.3309835003
 30
0.0
 10
24.113738174
 20
43.3325969191
 30
0.0
 10
24.1159131112
 20
43.3351904184
 30
0.0
 10
24.1179594343
 20
43.3387567902
 30
0.0
 10
24.1198902807
 20
43.3433050459
 30
0.0
 10
24.1217057901
 20
43.3488359209
 30
0.0
 10
24.1234027989
 20
43.35534041539999
 30
0.0
 10
24.125619985
 20
43.36587827959999
 30
0.0
 10
24.1279496853
 20
43.38138605770001
 30
0.0
 10
24.1300883619
 20
43.40265104
 30
0.0
 10
24.1316577275
 20
43.42724343909999
 30
0.0
 10
24.1326368306
 20
43.45489464859999
 30
0.0
 10
24.1330103827
 20
43.48530340149999
 30
0.0
 10
24.1327712695
 20
43.51813570189999
 30
0.0
 10
24.1319200956
 20
43.55302984549999
 30
0.0
 10
24.1304661444
 20
43.5896013731
 30
0.0
 10
24.1277147425
 20
43.6405637727
 30
0.0
 10
24.1248438138
 20
43.67925515649999
 30
0.0
 10
24.1225849188
 20
43.7052703675
 30
0.0
  0
SPLINE
  5
18C3
330
21B
100
AcDbEntity
  8
0
  6
Continuous
 62
     7
100
AcDbSpline
210
0.0
220
0.0
230
1.0
 70
     8
 71
     3
 72
    24
 73
    20
 74
     0
 42
0.0000001
 43
0.0000000001
 40
0.0
 40
0.0
 40
0.0
 40
0.0
 40
0.1847059555
 40
0.3632112569
 40
0.5291772705
 40
0.6056050394
 40
0.6767532426999999
 40
0.7420055326
 40
0.8008073474999999
 40
0.8526760734999999
 40
0.8972151243999999
 40
0.9166435207999999
 40
0.9341439728
 40
0.9497056537999998
 40
0.9633361942
 40
0.9750669676999999
 40
0.9849713484999998
 40
0.9931918633
 40
1.0
 40
1.0
 40
1.0
 40
1.0
 10
23.9965559492
 20
43.70540110100001
 30
0.0
 10
24.0001885751
 20
43.6635649231
 30
0.0
 10
24.0082745544
 20
43.581375293
 30
0.0
 10
24.0228805277
 20
43.4619439897
 30
0.0
 10
24.0369681679
 20
43.3672783212
 30
0.0
 10
24.0491742086
 20
43.2970429974
 30
0.0
 10
24.0583252966
 20
43.249525693
 30
0.0
 10
24.0676396613
 20
43.2061302889
 30
0.0
 10
24.0770287081
 20
43.1672453479
 30
0.0
 10
24.0864038732
 20
43.1332193976
 30
0.0
 10
24.0944482595
 20
43.1081287946
 30
0.0
 10
24.1009073098
 20
43.0907660792
 30
0.0
 10
24.1054724993
 20
43.07973637649999
 30
0.0
 10
24.1099711275
 20
43.0701160662
 30
0.0
 10
24.1143932125
 20
43.0619224938
 30
0.0
 10
24.1187297833
 20
43.0551671763
 30
0.0
 10
24.1229811652
 20
43.0498524404
 30
0.0
 10
24.1271499097
 20
43.0459756484
 30
0.0
 10
24.1301425725
 20
43.0442252243
 30
0.0
 10
24.1315919641
 20
43.04368197459999
 30
0.0
  0
LINE
  5
18C4
330
21B
100
AcDbEntity
  8
0
  6
Continuous
 62
     7
100
AcDbLine
 10
24.1315919641
 20
43.04368197459999
 30
0.0
 11
24.134444973
 21
43.04299028059999
 31
0.0
  0
SPLINE
  5
18C5
330
21B
100
AcDbEntity
  8
0
  6
Continuous
 62
     9
100
AcDbSpline
210
0.0
220
0.0
230
1.0
 70
     8
 71
     3
 72
     9
 73
     5
 74
     0
 42
0.0000001
 43
0.0000000001
 40
0.0
 40
0.0
 40
0.0
 40
0.0
 40
0.5553437985000001
 40
1.0
 40
1.0
 40
1.0
 40
1.0
 10
24.0965922307
 20
43.34223259709999
 30
0.0
 10
24.09767431420001
 20
43.3401136401
 30
0.0
 10
24.0997616627
 20
43.3363668507
 30
0.0
 10
24.1022884184
 20
43.33287974949999
 30
0.0
 10
24.103566322
 20
43.3314668989
 30
0.0
  0
SPLINE
  5
18C6
330
21B
100
AcDbEntity
  8
0
  6
Continuous
 62
     9
100
AcDbSpline
210
0.0
220
0.0
230
1.0
 70
     8
 71
     3
 72
    26
 73
    22
 74
     0
 42
0.0000001
 43
0.0000000001
 40
0.0
 40
0.0
 40
0.0
 40
0.0
 40
0.0093214614
 40
0.0168573739
 40
0.0233267847
 40
0.0298236347
 40
0.0374311129
 40
0.0468466857
 40
0.0584287183
 40
0.0723551725
 40
0.0887039503
 40
0.1074979651
 40
0.1523772385
 40
0.2067171796
 40
0.2700226455
 40
0.3416419087
 40
0.4208005947000001
 40
0.5066290002000001
 40
0.5981686596
 40
0.7941749379000001
 40
1.0
 40
1.0
 40
1.0
 40
1.0
 10
24.103566322
 20
43.3314668989
 30
0.0
 10
24.1043855251
 20
43.3305611877
 30
0.0
 10
24.1059880341
 20
43.3290202962
 30
0.0
 10
24.1086767965
 20
43.3274699825
 30
0.0
 10
24.1114246412
 20
43.32708618659999
 30
0.0
 10
24.1140520663
 20
43.32800285890001
 30
0.0
 10
24.1164169923
 20
43.33004963899999
 30
0.0
 10
24.1186084453
 20
43.33311478479999
 30
0.0
 10
24.1206718365
 20
43.3372122138
 30
0.0
 10
24.1226142294
 20
43.3423477176
 30
0.0
 10
24.1244340505
 20
43.348518065
 30
0.0
 10
24.1268322452
 20
43.3587281679
 30
0.0
 10
24.1293539436
 20
43.3739974176
 30
0.0
 10
24.1316854738
 20
43.3951677406
 30
0.0
 10
24.1334216906
 20
43.41990843629999
 30
0.0
 10
24.1345394231
 20
43.4479369951
 30
0.0
 10
24.1350192951
 20
43.47893435479999
 30
0.0
 10
24.1348527191
 20
43.51254427279999
 30
0.0
 10
24.1337407734
 20
43.56145059449999
 30
0.0
 10
24.1307168438
 20
43.6260277091
 30
0.0
 10
24.1268379822
 20
43.6785364473
 30
0.0
 10
24.1245053303
 20
43.70540110100001
 30
0.0
  0
SPLINE
  5
18C7
330
21B
100
AcDbEntity
  8
0
  6
Continuous
 62
     7
100
AcDbSpline
210
0.0
220
0.0
230
1.0
 70
     8
 71
     3
 72
    26
 73
    22
 74
     0
 42
0.0000001
 43
0.0000000001
 40
0.0
 40
0.0
 40
0.0
 40
0.0
 40
0.1903349044
 40
0.3737681617000001
 40
0.4606862547
 40
0.5432853466
 40
0.6207807922999999
 40
0.6924423377
 40
0.7576037539
 40
0.8156734434999998
 40
0.8661477730999999
 40
0.9086311109999998
 40
0.9267946926
 40
0.9428832133
 40
0.9569046027
 40
0.9688944665999999
 40
0.9789376314
 40
0.9872028718000001
 40
0.9940177734999998
 40
0.9970663629999998
 40
1.0
 40
1.0
 40
1.0
 40
1.0
 10
23.9916124827
 20
43.7049653227
 30
0.0
 10
23.9953826783
 20
43.66154478479999
 30
0.0
 10
24.00380112820001
 20
43.57636303569999
 30
0.0
 10
24.0167457052
 20
43.47165693189999
 30
0.0
 10
24.0283505837
 20
43.3916713234
 30
0.0
 10
24.0373244599
 20
43.3358229415
 30
0.0
 10
24.0466348341
 20
43.2835743472
 30
0.0
 10
24.0561886481
 20
43.2354336854
 30
0.0
 10
24.0658892579
 20
43.1918684782
 30
0.0
 10
24.0756351458
 20
43.1532973452
 30
0.0
 10
24.08532681940001
 20
43.12009173709999
 30
0.0
 10
24.0936417284
 20
43.096024085
 30
0.0
 10
24.1003180361
 20
43.0797653401
 30
0.0
 10
24.1049889854
 20
43.06974132749999
 30
0.0
 10
24.1095765892
 20
43.0612541642
 30
0.0
 10
24.1140717775
 20
43.0543159514
 30
0.0
 10
24.1184758295
 20
43.0489284616
 30
0.0
 10
24.1227971848
 20
43.04508476289999
 30
0.0
 10
24.1265324993
 20
43.04311719010001
 30
0.0
 10
24.1294129783
 20
43.0424958953
 30
0.0
 10
24.1307936751
 20
43.04247533819999
 30
0.0
 10
24.1314628383
 20
43.0425343477
 30
0.0
  0
SPLINE
  5
18C8
330
21B
100
AcDbEntity
  8
0
  6
Continuous
 62
     9
100
AcDbSpline
210
0.0
220
0.0
230
1.0
 70
     8
 71
     3
 72
    84
 73
    80
 74
     0
 42
0.0000001
 43
0.0000000001
 40
0.0
 40
0.0
 40
0.0
 40
0.0
 40
0.0000028495
 40
0.0000113975
 40
0.0000256429
 40
0.0000455848
 40
0.000102554
 40
0.0001822971
 40
0.0002848061
 40
0.0004100728
 40
0.0005580821
 40
0.0007288109
 40
0.0011383329
 40
0.0016384488
 40
0.0022289145
 40
0.002909422
 40
0.0036796545
 40
0.0045392303
 40
0.0065246913
 40
0.0088619978
 40
0.011546739
 40
0.0145739157
 40
0.017938014
 40
0.0216330532
 40
0.025652605
 40
0.0299898593
 40
0.034637685
 40
0.0448351012
 40
0.0561828614
 40
0.0686165488
 40
0.0820705778
 40
0.096479247
 40
0.1117776053
 40
0.1279021174
 40
0.1447911505
 40
0.1623853074
 40
0.1994636573
 40
0.2387118468
 40
0.2797437668
 40
0.3222087213
 40
0.3657859441
 40
0.4101784336
 40
0.455106638
 40
0.5003022391
 40
0.5904418488000001
 40
0.6348516562
 40
0.6784478406000001
 40
0.7209284977000001
 40
0.7619671825
 40
0.8012073059999998
 40
0.8382574402999999
 40
0.8726885240000001
 40
0.8887776131
 40
0.9040345243
 40
0.918396244
 40
0.9317986530999998
 40
0.9441772030999999
 40
0.9554677723000001
 40
0.9656076856
 40
0.9745369122999999
 40
0.9785298076
 40
0.9821993923
 40
0.9855395007
 40
0.9885444081999999
 40
0.9912088470999998
 40
0.9935280471
 40
0.9954978046999999
 40
0.9971144982
 40
0.9977894702
 40
0.9983751036000001
 40
0.9988711045
 40
0.9992772433
 40
0.9995933387999999
 40
0.9997175645999998
 40
0.9998192210999999
 40
0.9998983006000001
 40
0.9999547953
 40
0.9999886976999999
 40
1.0
 40
1.0
 40
1.0
 40
1.0
 10
23.8513945537
 20
46.09753807479999
 30
0.0
 10
23.8513540224
 20
46.097554668
 30
0.0
 10
23.8517321812
 20
46.0974779522
 30
0.0
 10
23.8519256237
 20
46.09747944689999
 30
0.0
 10
23.8526887581
 20
46.0973652147
 30
0.0
 10
23.854010145
 20
46.09720270989999
 30
0.0
 10
23.8564484289
 20
46.0968791175
 30
0.0
 10
23.8600701906
 20
46.09641193709999
 30
0.0
 10
23.8647668584
 20
46.0958006047
 30
0.0
 10
23.870491081
 20
46.09505761829999
 30
0.0
 10
23.8772597297
 20
46.0941784655
 30
0.0
 10
23.8883593194
 20
46.0927373528
 30
0.0
 10
23.904826592
 20
46.0905998478
 30
0.0
 10
23.9276912327
 20
46.0876333318
 30
0.0
 10
23.9546866767
 20
46.0841327151
 30
0.0
 10
23.9857995863
 20
46.08010081159999
 30
0.0
 10
24.0210148156
 20
46.0755405239
 30
0.0
 10
24.0761216675
 20
46.0684101378
 30
0.0
 10
24.1551169818
 20
46.0582033325
 30
0.0
 10
24.2619373828
 20
46.04443116149999
 30
0.0
 10
24.3846424305
 20
46.02865079459999
 30
0.0
 10
24.5230066927
 20
46.0109077204
 30
0.0
 10
24.6767810023
 20
45.9912521337
 30
0.0
 10
24.84569458260001
 20
45.9697385239
 30
0.0
 10
25.0294570671
 20
45.94642542359999
 30
0.0
 10
25.2277606903
 20
45.9213748436
 30
0.0
 10
25.5202897657
 20
45.88459141479999
 30
0.0
 10
25.9197750631
 20
45.83474306350001
 30
0.0
 10
26.4380956715
 20
45.77078982939999
 30
0.0
 10
27.0061991661
 20
45.7015700045
 30
0.0
 10
27.6211262751
 20
45.6276776031
 30
0.0
 10
28.2799086745
 20
45.5497065931
 30
0.0
 10
28.9796079098
 20
45.468242398
 30
0.0
 10
29.7173457831
 20
45.3838551947
 30
0.0
 10
30.4903267981
 20
45.29709476479999
 30
0.0
 10
31.5836250824
 20
45.1768318251
 30
0.0
 10
33.0190711488
 20
45.0240339734
 30
0.0
 10
34.81364655610001
 20
44.84191554289999
 30
0.0
 10
36.691551453
 20
44.66114531939999
 30
0.0
 10
38.6366669986
 20
44.48446704729999
 30
0.0
 10
40.63419915219999
 20
44.31420229789999
 30
0.0
 10
42.67040710239999
 20
44.1522833076
 30
0.0
 10
44.73232371589999
 20
44.0002856389
 30
0.0
 10
47.4966039052
 20
43.81269025239999
 30
0.0
 10
50.2545288146
 20
43.6497487504
 30
0.0
 10
52.98915117539999
 20
43.5120454131
 30
0.0
 10
54.9927299682
 20
43.4225806794
 30
0.0
 10
56.94499964689999
 20
43.3462909785
 30
0.0
 10
58.8307378278
 20
43.28279603459999
 30
0.0
 10
60.6333462885
 20
43.23146208639999
 30
0.0
 10
62.3346546212
 20
43.1914046949
 30
0.0
 10
63.6803633279
 20
43.1659354535
 30
0.0
 10
64.6912256363
 20
43.1501013074
 30
0.0
 10
65.3936828277
 20
43.14051934640001
 30
0.0
 10
66.0548658374
 20
43.13276406039999
 30
0.0
 10
66.6718237362
 20
43.1266324526
 30
0.0
 10
67.24158931619999
 20
43.12191705479999
 30
0.0
 10
67.76121835159999
 20
43.11840940879999
 30
0.0
 10
68.2278367692
 20
43.11590397699999
 30
0.0
 10
68.58229447380001
 20
43.1144361727
 30
0.0
 10
68.83730558819999
 20
43.1135924026
 30
0.0
 10
69.0064133621
 20
43.1131163135
 30
0.0
 10
69.1603361243
 20
43.11275239919999
 30
0.0
 10
69.2988100754
 20
43.1124815888
 30
0.0
 10
69.42159291829999
 20
43.1122862981
 30
0.0
 10
69.5284656363
 20
43.11215055189999
 30
0.0
 10
69.61923486999999
 20
43.1120603025
 30
0.0
 10
69.6847320536
 20
43.112010351
 30
0.0
 10
69.7289563498
 20
43.11198309669999
 30
0.0
 10
69.75595383249999
 20
43.1119686282
 30
0.0
 10
69.77882463729999
 20
43.11195818819999
 30
0.0
 10
69.7975379178
 20
43.1119499821
 30
0.0
 10
69.8105727504
 20
43.11194659529999
 30
0.0
 10
69.8188649488
 20
43.1119418903
 30
0.0
 10
69.823631721
 20
43.1119444506
 30
0.0
 10
69.82707255529999
 20
43.11193283359999
 30
0.0
 10
69.83014205509999
 20
43.11195579939999
 30
0.0
 10
69.830890127
 20
43.1119137151
 30
0.0
 10
69.8324286563
 20
43.1119566284
 30
0.0
 10
69.8322558505
 20
43.1119388783
 30
0.0
  0
SPLINE
  5
18C9
330
21B
100
AcDbEntity
  8
0
  6
Continuous
 62
     7
100
AcDbSpline
210
0.0
220
0.0
230
1.0
 70
     8
 71
     3
 72
    17
 73
    13
 74
     0
 42
0.0000001
 43
0.0000000001
 40
0.0
 40
0.0
 40
0.0
 40
0.0
 40
0.120722728
 40
0.181973676
 40
0.2440249634
 40
0.3706813847
 40
0.5
 40
0.6293186153
 40
0.7559750366
 40
0.818026324
 40
0.879277272
 40
1.0
 40
1.0
 40
1.0
 40
1.0
 10
67.1353771431
 20
16.2141166661
 30
0.0
 10
67.1583895458
 20
16.2141166661
 30
0.0
 10
67.19315425259999
 20
16.214299849
 30
0.0
 10
67.23936649489999
 20
16.2202092218
 30
0.0
 10
67.28589369169999
 20
16.2307906866
 30
0.0
 10
67.3424596376
 20
16.2541682547
 30
0.0
 10
67.40252821850001
 20
16.2975724263
 30
0.0
 10
67.451002546
 20
16.3536295054
 30
0.0
 10
67.4792212024
 20
16.4079427115
 30
0.0
 10
67.4938175139
 20
16.4533706229
 30
0.0
 10
67.50373206209999
 20
16.4988919778
 30
0.0
 10
67.5069444918
 20
16.533508429
 30
0.0
 10
67.50895015489999
 20
16.5564332625
 30
0.0
  0
LINE
  5
18CA
330
21B
100
AcDbEntity
  8
0
  6
Continuous
 62
     9
100
AcDbLine
 10
67.50895015489999
 20
16.5564332625
 30
0.0
 11
62.5085106639
 21
16.556433284
 31
0.0
  0
LINE
  5
18CB
330
21B
100
AcDbEntity
  8
0
  6
Continuous
 62
     9
100
AcDbLine
 10
62.5085106639
 20
16.556433284
 30
0.0
 11
62.490831293
 21
16.5564332842
 31
0.0
  0
LINE
  5
18CC
330
21B
100
AcDbEntity
  8
0
  6
Continuous
 62
     9
100
AcDbLine
 10
62.490831293
 20
16.5564332842
 30
0.0
 11
30.1155905402
 21
16.5564342308
 31
0.0
  0
LINE
  5
18CD
330
21B
100
AcDbEntity
  8
0
  6
Continuous
 62
     9
100
AcDbLine
 10
30.1155905402
 20
16.5564342308
 30
0.0
 11
29.3789264228
 21
16.5564341173
 31
0.0
  0
LINE
  5
18CE
330
21B
100
AcDbEntity
  8
0
  6
Continuous
 62
     9
100
AcDbLine
 10
29.3789264228
 20
16.5564341173
 30
0.0
 11
28.0535174536
 21
16.5564338277
 31
0.0
  0
LINE
  5
18CF
330
21B
100
AcDbEntity
  8
0
  6
Continuous
 62
     9
100
AcDbLine
 10
28.0535174536
 20
16.5564338277
 30
0.0
 11
28.0387345764
 21
16.7150676078
 31
0.0
  0
SPLINE
  5
18D0
330
21B
100
AcDbEntity
  8
6_SURFACES
  6
Continuous
 62
     9
100
AcDbSpline
210
0.0
220
0.0
230
1.0
 70
     8
 71
     3
 72
     9
 73
     5
 74
     0
 42
0.0000001
 43
0.0000000001
 40
0.0
 40
0.0
 40
0.0
 40
0.0
 40
0.5091897621000001
 40
1.0
 40
1.0
 40
1.0
 40
1.0
 10
28.0387345764
 20
16.7150676078
 30
0.0
 10
28.0241374542
 20
16.7656243032
 30
0.0
 10
27.9954634928
 20
16.8649059898
 30
0.0
 10
27.9619615905
 20
16.9627911716
 30
0.0
 10
27.9432198937
 20
17.0099240732
 30
0.0
  0
SPLINE
  5
18D1
330
21B
100
AcDbEntity
  8
6_SURFACES
  6
Continuous
 62
     9
100
AcDbSpline
210
0.0
220
0.0
230
1.0
 70
     8
 71
     3
 72
    15
 73
    11
 74
     0
 42
0.0000001
 43
0.0000000001
 40
0.0
 40
0.0
 40
0.0
 40
0.0
 40
0.1768074042
 40
0.3362182946
 40
0.4786139546000001
 40
0.6053601757
 40
0.7184023136
 40
0.8200630564
 40
0.9129656426999998
 40
1.0
 40
1.0
 40
1.0
 40
1.0
 10
27.9432198937
 20
17.0099240732
 30
0.0
 10
27.9322609092
 20
17.0374841819
 30
0.0
 10
27.9088186417
 20
17.0889172765
 30
0.0
 10
27.86774389670001
 20
17.1580877131
 30
0.0
 10
27.8240079042
 20
17.2153658395
 30
0.0
 10
27.7787912422
 20
17.2610869503
 30
0.0
 10
27.7329625348
 20
17.2958042378
 30
0.0
 10
27.6871466758
 20
17.3200889936
 30
0.0
 10
27.6418574567
 20
17.3344346602
 30
0.0
 10
27.611596941
 20
17.3376901059
 30
0.0
 10
27.5969971232
 20
17.3376902286
 30
0.0
  0
LINE
  5
18D2
330
21B
100
AcDbEntity
  8
6_SURFACES
  6
Continuous
 62
     9
100
AcDbLine
 10
27.5969971232
 20
17.3376902286
 30
0.0
 11
26.3675552531
 21
17.3376896778
 31
0.0
  0
SPLINE
  5
18D3
330
21B
100
AcDbEntity
  8
0
  6
Continuous
 62
     9
100
AcDbSpline
210
0.0
220
0.0
230
1.0
 70
     8
 71
     3
 72
    20
 73
    16
 74
     0
 42
0.0000001
 43
0.0000000001
 40
0.0
 40
0.0
 40
0.0
 40
0.0
 40
0.2304385165
 40
0.4316299419
 40
0.6031193235
 40
0.7444531787999999
 40
0.8036710187
 40
0.8551816247999999
 40
0.8989300622
 40
0.9348628695
 40
0.9629297381
 40
0.9830885282999998
 40
0.9953267056999999
 40
0.9985235057999998
 40
1.0
 40
1.0
 40
1.0
 40
1.0
 10
28.0535174536
 20
16.5564338277
 30
0.0
 10
28.0493266164
 20
16.5562102185
 30
0.0
 10
28.0414763758
 20
16.5557999532
 30
0.0
 10
28.0305055517
 20
16.5552588682
 30
0.0
 10
28.0211537916
 20
16.554834133
 30
0.0
 10
28.0143835292
 20
16.5545628078
 30
0.0
 10
28.0097953609
 20
16.5544092993
 30
0.0
 10
28.0069833145
 20
16.5543306821
 30
0.0
 10
28.0045937782
 20
16.5542818024
 30
0.0
 10
28.0026334861
 20
16.554261344
 30
0.0
 10
28.001095566
 20
16.5542715974
 30
0.0
 10
28.0000064526
 20
16.5543036282
 30
0.0
 10
27.9993397465
 20
16.5543645512
 30
0.0
 10
27.9990575189
 20
16.554422258
 30
0.0
 10
27.9989658042
 20
16.5544740985
 30
0.0
 10
27.9989643446
 20
16.5545009491
 30
0.0
  0
SPLINE
  5
18D4
330
21B
100
AcDbEntity
  8
0
  6
Continuous
 62
     9
100
AcDbSpline
210
0.0
220
0.0
230
1.0
 70
     8
 71
     3
 72
    15
 73
    11
 74
     0
 42
0.0000001
 43
0.0000000001
 40
0.0
 40
0.0
 40
0.0
 40
0.0
 40
0.1140111905
 40
0.2307794367
 40
0.3526430567
 40
0.4801030887
 40
0.6110526505000001
 40
0.7423986271
 40
0.8721139410999999
 40
1.0
 40
1.0
 40
1.0
 40
1.0
 10
28.386044858
 20
16.2141166661
 30
0.0
 10
28.3655573135
 20
16.2141166661
 30
0.0
 10
28.3240050703
 20
16.2143492742
 30
0.0
 10
28.2612416248
 20
16.226424302
 30
0.0
 10
28.2010098468
 20
16.2545995446
 30
0.0
 10
28.1475809456
 20
16.2982572588
 30
0.0
 10
28.1046702063
 20
16.3543773629
 30
0.0
 10
28.0750020907
 20
16.4188757116
 30
0.0
 10
28.0591087844
 20
16.487333056
 30
0.0
 10
28.0553016753
 20
16.5335223696
 30
0.0
 10
28.0535174536
 20
16.5564338277
 30
0.0
  0
SPLINE
  5
18D5
330
21B
100
AcDbEntity
  8
6_SURFACES
  6
Continuous
 62
     9
100
AcDbSpline
210
0.0
220
0.0
230
1.0
 70
     8
 71
     3
 72
    11
 73
     7
 74
     0
 42
0.0000001
 43
0.0000000001
 40
0.0
 40
0.0
 40
0.0
 40
0.0
 40
0.2224182667
 40
0.4572596029
 40
0.7143721794
 40
1.0
 40
1.0
 40
1.0
 40
1.0
 10
27.9281707163
 20
16.9063745032
 30
0.0
 10
27.9252627569
 20
16.9138326618
 30
0.0
 10
27.92145472510001
 20
16.9300964069
 30
0.0
 10
27.92241010550001
 20
16.956039235
 30
0.0
 10
27.9297094788
 20
16.9832531976
 30
0.0
 10
27.9381607341
 20
17.0009751619
 30
0.0
 10
27.9432198937
 20
17.0099240732
 30
0.0
  0
SPLINE
  5
18D6
330
21B
100
AcDbEntity
  8
6_SURFACES
  6
Continuous
 62
     9
100
AcDbSpline
210
0.0
220
0.0
230
1.0
 70
     8
 71
     3
 72
    15
 73
    11
 74
     0
 42
0.0000001
 43
0.0000000001
 40
0.0
 40
0.0
 40
0.0
 40
0.0
 40
0.1199140685
 40
0.2410539811
 40
0.3637338376
 40
0.4881079946
 40
0.6141624710000001
 40
0.7417232997
 40
0.8704726287999999
 40
1.0
 40
1.0
 40
1.0
 40
1.0
 10
27.8616106749
 20
17.0050477653
 30
0.0
 10
27.8440548703
 20
17.0094883665
 30
0.0
 10
27.8094584636
 20
17.0214537631
 30
0.0
 10
27.7610508714
 20
17.0479130565
 30
0.0
 10
27.7170468095
 20
17.0822998705
 30
0.0
 10
27.6785391225
 20
17.1237466732
 30
0.0
 10
27.6464548855
 20
17.1712249194
 30
0.0
 10
27.6215688408
 20
17.2235681939
 30
0.0
 10
27.6044766873
 20
17.2794783473
 30
0.0
 10
27.5985593072
 20
17.3181922608
 30
0.0
 10
27.5969971222
 20
17.33769022849999
 30
0.0
  0
SPLINE
  5
18D7
330
21B
100
AcDbEntity
  8
6_SURFACES
  6
Continuous
 62
     9
100
AcDbSpline
210
0.0
220
0.0
230
1.0
 70
     8
 71
     3
 72
    15
 73
    11
 74
     0
 42
0.0000001
 43
0.0000000001
 40
0.0
 40
0.0
 40
0.0
 40
0.0
 40
0.0310736156
 40
0.0545857266
 40
0.0846475205
 40
0.1656822404
 40
0.2754419987
 40
0.4140802762
 40
0.5813680721
 40
1.0
 40
1.0
 40
1.0
 40
1.0
 10
27.9833292754
 20
16.7231466792
 30
0.0
 10
27.9833836337
 20
16.7225601912
 30
0.0
 10
27.9841964987
 20
16.7216893923
 30
0.0
 10
27.9855756358
 20
16.7209337222
 30
0.0
 10
27.9879622848
 20
16.7199751122
 30
0.0
 10
27.9920293561
 20
16.7189703667
 30
0.0
 10
27.9981912018
 20
16.7179276618
 30
0.0
 10
28.0060188065
 20
16.7170112469
 30
0.0
 10
28.0197063852
 20
16.7158620624
 30
0.0
 10
28.030804319
 20
16.715347259
 30
0.0
 10
28.0387345765
 20
16.7150676067
 30
0.0
  0
SPLINE
  5
18D8
330
21B
100
AcDbEntity
  8
6_SURFACES
  6
Continuous
 62
     9
100
AcDbSpline
210
0.0
220
0.0
230
1.0
 70
     8
 71
     3
 72
    12
 73
     8
 74
     0
 42
0.0000001
 43
0.0000000001
 40
0.0
 40
0.0
 40
0.0
 40
0.0
 40
0.3148742269
 40
0.5800364616
 40
0.8032582658
 40
0.9037585431
 40
1.0
 40
1.0
 40
1.0
 40
1.0
 10
28.0387346201
 20
16.7150676109
 30
0.0
 10
28.0302526081
 20
16.7190538065
 30
0.0
 10
28.0149039403
 20
16.7270451837
 30
0.0
 10
27.99525329550001
 20
16.740815477
 30
0.0
 10
27.9830525183
 20
16.753677568
 30
0.0
 10
27.9766186023
 20
16.7644468222
 30
0.0
 10
27.9744388115
 20
16.7699150693
 30
0.0
 10
27.9736045021
 20
16.7726554344
 30
0.0
  0
SPLINE
  5
1944
330
21B
100
AcDbEntity
  8
0
  6
Continuous
 62
     9
100
AcDbSpline
210
0.0
220
0.0
230
1.0
 70
     8
 71
     3
 72
    13
 73
     9
 74
     0
 42
0.0000001
 43
0.0000000001
 40
0.0
 40
0.0
 40
0.0
 40
0.0
 40
0.2874594404
 40
0.5696704258
 40
0.6992870582
 40
0.81612468
 40
0.9171195573999998
 40
1.0
 40
1.0
 40
1.0
 40
1.0
 10
57.8892184922
 20
62.0239521451
 30
0.0
 10
57.879572424
 20
62.04129341409999
 30
0.0
 10
57.8592452317
 20
62.0749740905
 30
0.0
 10
57.83374520689999
 20
62.11595959970001
 30
0.0
 10
57.81523696479999
 20
62.1474146093
 30
0.0
 10
57.8037732533
 20
62.1684963182
 30
0.0
 10
57.79498603890001
 20
62.1873108029
 30
0.0
 10
57.7908544226
 20
62.19938546249999
 30
0.0
 10
57.7896416421
 20
62.2049767447
 30
0.0
  0
ENDSEC
  0
SECTION
  2
OBJECTS
  0
DICTIONARY
  5
C
330
0
100
AcDbDictionary
281
     1
  3
ACAD_CIP_PREVIOUS_PRODUCT_INFO
350
1A1C
  3
ACAD_COLOR
350
19B2
  3
ACAD_DETAILVIEWSTYLE
350
19CB
  3
ACAD_GROUP
350
D
  3
ACAD_LAYOUT
350
1A
  3
ACAD_MATERIAL
350
1980
  3
ACAD_MLEADERSTYLE
350
19C7
  3
ACAD_MLINESTYLE
350
17
  3
ACAD_PLOTSETTINGS
350
19
  3
ACAD_PLOTSTYLENAME
350
E
  3
ACAD_SCALELIST
350
19B5
  3
ACAD_SECTIONVIEWSTYLE
350
19C9
  3
ACAD_TABLESTYLE
350
19B3
  3
ACAD_VISUALSTYLE
350
1999
  3
ACDB_RECOMPOSE_DATA
350
1A70
  3
AcDbVariableDictionary
350
1A0F
  0
DICTIONARY
  5
19D0
330
8
100
AcDbDictionary
280
     1
281
     1
  0
DICTIONARY
  5
1A69
330
2
100
AcDbDictionary
280
     1
281
     1
  3
ACAD_LAYERSTATES
360
1A6A
  0
DICTIONARY
  5
1A1D
330
10
100
AcDbDictionary
280
     1
281
     1
  3
ADSK_XREC_LAYER_RECONCILED
360
1A1E
  0
DICTIONARY
  5
1A1F
330
1FA
100
AcDbDictionary
280
     1
281
     1
  3
ADSK_XREC_LAYER_RECONCILED
360
1A20
  0
DICTIONARY
  5
1A21
330
1FB
100
AcDbDictionary
280
     1
281
     1
  3
ADSK_XREC_LAYER_RECONCILED
360
1A22
  0
DICTIONARY
  5
1A23
330
1FC
100
AcDbDictionary
280
     1
281
     1
  3
ADSK_XREC_LAYER_RECONCILED
360
1A24
  0
DICTIONARY
  5
1A25
330
1FD
100
AcDbDictionary
280
     1
281
     1
  3
ADSK_XREC_LAYER_RECONCILED
360
1A26
  0
DICTIONARY
  5
1A27
330
1FE
100
AcDbDictionary
280
     1
281
     1
  3
ADSK_XREC_LAYER_RECONCILED
360
1A28
  0
DICTIONARY
  5
1A29
330
1FF
100
AcDbDictionary
280
     1
281
     1
  3
ADSK_XREC_LAYER_RECONCILED
360
1A2A
  0
DICTIONARY
  5
1A2B
330
200
100
AcDbDictionary
280
     1
281
     1
  3
ADSK_XREC_LAYER_RECONCILED
360
1A2C
  0
DICTIONARY
  5
1A2D
330
201
100
AcDbDictionary
280
     1
281
     1
  3
ADSK_XREC_LAYER_RECONCILED
360
1A2E
  0
DICTIONARY
  5
1A2F
330
202
100
AcDbDictionary
280
     1
281
     1
  3
ADSK_XREC_LAYER_RECONCILED
360
1A30
  0
DICTIONARY
  5
1A31
330
203
100
AcDbDictionary
280
     1
281
     1
  3
ADSK_XREC_LAYER_RECONCILED
360
1A32
  0
DICTIONARY
  5
1A33
330
204
100
AcDbDictionary
280
     1
281
     1
  3
ADSK_XREC_LAYER_RECONCILED
360
1A34
  0
DICTIONARY
  5
1A35
330
205
100
AcDbDictionary
280
     1
281
     1
  3
ADSK_XREC_LAYER_RECONCILED
360
1A36
  0
DICTIONARY
  5
1A37
330
206
100
AcDbDictionary
280
     1
281
     1
  3
ADSK_XREC_LAYER_RECONCILED
360
1A38
  0
DICTIONARY
  5
1A39
330
207
100
AcDbDictionary
280
     1
281
     1
  3
ADSK_XREC_LAYER_RECONCILED
360
1A3A
  0
DICTIONARY
  5
1A3B
330
208
100
AcDbDictionary
280
     1
281
     1
  3
ADSK_XREC_LAYER_RECONCILED
360
1A3C
  0
DICTIONARY
  5
1A3D
330
209
100
AcDbDictionary
280
     1
281
     1
  3
ADSK_XREC_LAYER_RECONCILED
360
1A3E
  0
DICTIONARY
  5
1A3F
330
20A
100
AcDbDictionary
280
     1
281
     1
  3
ADSK_XREC_LAYER_RECONCILED
360
1A40
  0
DICTIONARY
  5
1A41
330
20B
100
AcDbDictionary
280
     1
281
     1
  3
ADSK_XREC_LAYER_RECONCILED
360
1A42
  0
DICTIONARY
  5
1A43
330
20C
100
AcDbDictionary
280
     1
281
     1
  3
ADSK_XREC_LAYER_RECONCILED
360
1A44
  0
DICTIONARY
  5
1A45
330
20D
100
AcDbDictionary
280
     1
281
     1
  3
ADSK_XREC_LAYER_RECONCILED
360
1A46
  0
DICTIONARY
  5
1A47
330
20E
100
AcDbDictionary
280
     1
281
     1
  3
ADSK_XREC_LAYER_RECONCILED
360
1A48
  0
DICTIONARY
  5
1A49
330
20F
100
AcDbDictionary
280
     1
281
     1
  3
ADSK_XREC_LAYER_RECONCILED
360
1A4A
  0
DICTIONARY
  5
1A4B
330
210
100
AcDbDictionary
280
     1
281
     1
  3
ADSK_XREC_LAYER_RECONCILED
360
1A4C
  0
DICTIONARY
  5
1A4D
330
211
100
AcDbDictionary
280
     1
281
     1
  3
ADSK_XREC_LAYER_RECONCILED
360
1A4E
  0
DICTIONARY
  5
1A4F
330
212
100
AcDbDictionary
280
     1
281
     1
  3
ADSK_XREC_LAYER_RECONCILED
360
1A50
  0
DICTIONARY
  5
1A51
330
213
100
AcDbDictionary
280
     1
281
     1
  3
ADSK_XREC_LAYER_RECONCILED
360
1A52
  0
DICTIONARY
  5
1A53
330
214
100
AcDbDictionary
280
     1
281
     1
  3
ADSK_XREC_LAYER_RECONCILED
360
1A54
  0
DICTIONARY
  5
1A55
330
215
100
AcDbDictionary
280
     1
281
     1
  3
ADSK_XREC_LAYER_RECONCILED
360
1A56
  0
DICTIONARY
  5
1A57
330
216
100
AcDbDictionary
280
     1
281
     1
  3
ADSK_XREC_LAYER_RECONCILED
360
1A58
  0
DICTIONARY
  5
1A59
330
217
100
AcDbDictionary
280
     1
281
     1
  3
ADSK_XREC_LAYER_RECONCILED
360
1A5A
  0
DICTIONARY
  5
1A5B
330
218
100
AcDbDictionary
280
     1
281
     1
  3
ADSK_XREC_LAYER_RECONCILED
360
1A5C
  0
XRECORD
  5
1A1C
102
{ACAD_REACTORS
330
C
102
}
330
C
100
AcDbXrecord
280
     1
300
ACDLT
300
2018
300
ACDLT_F_S
  0
DICTIONARY
  5
19B2
102
{ACAD_REACTORS
330
C
102
}
330
C
100
AcDbDictionary
281
     1
  0
DICTIONARY
  5
19CB
102
{ACAD_REACTORS
330
C
102
}
330
C
100
AcDbDictionary
281
     1
  3
Imperial24
350
19CC
  0
DICTIONARY
  5
D
102
{ACAD_REACTORS
330
C
102
}
330
C
100
AcDbDictionary
281
     1
  0
DICTIONARY
  5
1A
102
{ACAD_REACTORS
330
C
102
}
330
C
100
AcDbDictionary
281
     1
  3
Layout1
350
197D
  3
Model
350
197C
  0
DICTIONARY
  5
1980
102
{ACAD_REACTORS
330
C
102
}
330
C
100
AcDbDictionary
281
     1
  3
ByBlock
350
1989
  3
ByLayer
350
1981
  3
Global
350
1991
  0
DICTIONARY
  5
19C7
102
{ACAD_REACTORS
330
C
102
}
330
C
100
AcDbDictionary
281
     1
  3
Standard
350
19C8
  0
DICTIONARY
  5
17
102
{ACAD_REACTORS
330
C
102
}
330
C
100
AcDbDictionary
281
     1
  3
Standard
350
18
  0
DICTIONARY
  5
19
102
{ACAD_REACTORS
330
C
102
}
330
C
100
AcDbDictionary
281
     1
  0
ACDBDICTIONARYWDFLT
  5
E
102
{ACAD_REACTORS
330
C
102
}
330
C
100
AcDbDictionary
281
     1
  3
Normal
350
F
100
AcDbDictionaryWithDefault
340
F
  0
DICTIONARY
  5
19B5
102
{ACAD_REACTORS
330
C
102
}
330
C
100
AcDbDictionary
281
     1
  3
A0
350
19B6
  3
A1
350
19B7
  3
A2
350
19B8
  3
A3
350
19B9
  3
A4
350
19BA
  3
A5
350
19BB
  3
A6
350
19BC
  3
A7
350
19BD
  3
A8
350
19BE
  3
A9
350
19BF
  3
B0
350
19C0
  3
B1
350
19C1
  3
B2
350
19C2
  3
B3
350
19C3
  3
B4
350
19C4
  3
B5
350
19C5
  3
B6
350
19C6
  0
DICTIONARY
  5
19C9
102
{ACAD_REACTORS
330
C
102
}
330
C
100
AcDbDictionary
281
     1
  3
Imperial24
350
19CA
  0
DICTIONARY
  5
19B3
102
{ACAD_REACTORS
330
C
102
}
330
C
100
AcDbDictionary
281
     1
  3
Standard
350
19B4
  0
DICTIONARY
  5
1999
102
{ACAD_REACTORS
330
C
102
}
330
C
100
AcDbDictionary
281
     1
  3
2dWireframe
350
199F
  3
Basic
350
199E
  3
Brighten
350
19A5
  3
ColorChange
350
19A9
  3
Conceptual
350
19A2
  3
Dim
350
19A4
  3
EdgeColorOff
350
19B1
  3
Facepattern
350
19A8
  3
Flat
350
199A
  3
FlatWithEdges
350
199B
  3
Gouraud
350
199C
  3
GouraudWithEdges
350
199D
  3
Hidden
350
19A1
  3
JitterOff
350
19AF
  3
Linepattern
350
19A7
  3
OverhangOff
350
19B0
  3
Realistic
350
19A3
  3
Shaded
350
19AE
  3
Shaded with edges
350
19AD
  3
Shades of Gray
350
19AA
  3
Sketchy
350
19AB
  3
Thicken
350
19A6
  3
Wireframe
350
19A0
  3
X-Ray
350
19AC
  0
XRECORD
  5
1A70
102
{ACAD_REACTORS
330
C
102
}
330
C
100
AcDbXrecord
280
     1
 90
        1
330
19B4
  0
DICTIONARY
  5
1A0F
102
{ACAD_REACTORS
330
C
102
}
330
C
100
AcDbDictionary
281
     1
  3
CANNOSCALE
350
1A14
  3
CMLEADERSTYLE
350
1A11
  3
CTABLESTYLE
350
1A10
  3
CVIEWDETAILSTYLE
350
1A12
  3
CVIEWSECTIONSTYLE
350
1A13
  3
DIMASSOC
350
1A17
  3
INDEXCTL
350
1A16
  3
LAYEREVAL
350
1A60
  3
LAYERNOTIFY
350
1A61
  3
LIGHTINGUNITS
350
1A5F
  3
MSLTSCALE
350
1A5E
  3
SORTENTS
350
1A15
  0
DICTIONARY
  5
1A6A
102
{ACAD_REACTORS
330
1A69
102
}
330
1A69
100
AcDbDictionary
281
     1
  0
XRECORD
  5
1A1E
102
{ACAD_REACTORS
330
1A1D
102
}
330
1A1D
100
AcDbXrecord
280
     1
290
     1
  0
XRECORD
  5
1A20
102
{ACAD_REACTORS
330
1A1F
102
}
330
1A1F
100
AcDbXrecord
280
     1
290
     1
  0
XRECORD
  5
1A22
102
{ACAD_REACTORS
330
1A21
102
}
330
1A21
100
AcDbXrecord
280
     1
290
     1
  0
XRECORD
  5
1A24
102
{ACAD_REACTORS
330
1A23
102
}
330
1A23
100
AcDbXrecord
280
     1
290
     1
  0
XRECORD
  5
1A26
102
{ACAD_REACTORS
330
1A25
102
}
330
1A25
100
AcDbXrecord
280
     1
290
     1
  0
XRECORD
  5
1A28
102
{ACAD_REACTORS
330
1A27
102
}
330
1A27
100
AcDbXrecord
280
     1
290
     1
  0
XRECORD
  5
1A2A
102
{ACAD_REACTORS
330
1A29
102
}
330
1A29
100
AcDbXrecord
280
     1
290
     1
  0
XRECORD
  5
1A2C
102
{ACAD_REACTORS
330
1A2B
102
}
330
1A2B
100
AcDbXrecord
280
     1
290
     1
  0
XRECORD
  5
1A2E
102
{ACAD_REACTORS
330
1A2D
102
}
330
1A2D
100
AcDbXrecord
280
     1
290
     1
  0
XRECORD
  5
1A30
102
{ACAD_REACTORS
330
1A2F
102
}
330
1A2F
100
AcDbXrecord
280
     1
290
     1
  0
XRECORD
  5
1A32
102
{ACAD_REACTORS
330
1A31
102
}
330
1A31
100
AcDbXrecord
280
     1
290
     1
  0
XRECORD
  5
1A34
102
{ACAD_REACTORS
330
1A33
102
}
330
1A33
100
AcDbXrecord
280
     1
290
     1
  0
XRECORD
  5
1A36
102
{ACAD_REACTORS
330
1A35
102
}
330
1A35
100
AcDbXrecord
280
     1
290
     1
  0
XRECORD
  5
1A38
102
{ACAD_REACTORS
330
1A37
102
}
330
1A37
100
AcDbXrecord
280
     1
290
     1
  0
XRECORD
  5
1A3A
102
{ACAD_REACTORS
330
1A39
102
}
330
1A39
100
AcDbXrecord
280
     1
290
     1
  0
XRECORD
  5
1A3C
102
{ACAD_REACTORS
330
1A3B
102
}
330
1A3B
100
AcDbXrecord
280
     1
290
     1
  0
XRECORD
  5
1A3E
102
{ACAD_REACTORS
330
1A3D
102
}
330
1A3D
100
AcDbXrecord
280
     1
290
     1
  0
XRECORD
  5
1A40
102
{ACAD_REACTORS
330
1A3F
102
}
330
1A3F
100
AcDbXrecord
280
     1
290
     1
  0
XRECORD
  5
1A42
102
{ACAD_REACTORS
330
1A41
102
}
330
1A41
100
AcDbXrecord
280
     1
290
     1
  0
XRECORD
  5
1A44
102
{ACAD_REACTORS
330
1A43
102
}
330
1A43
100
AcDbXrecord
280
     1
290
     1
  0
XRECORD
  5
1A46
102
{ACAD_REACTORS
330
1A45
102
}
330
1A45
100
AcDbXrecord
280
     1
290
     1
  0
XRECORD
  5
1A48
102
{ACAD_REACTORS
330
1A47
102
}
330
1A47
100
AcDbXrecord
280
     1
290
     1
  0
XRECORD
  5
1A4A
102
{ACAD_REACTORS
330
1A49
102
}
330
1A49
100
AcDbXrecord
280
     1
290
     1
  0
XRECORD
  5
1A4C
102
{ACAD_REACTORS
330
1A4B
102
}
330
1A4B
100
AcDbXrecord
280
     1
290
     1
  0
XRECORD
  5
1A4E
102
{ACAD_REACTORS
330
1A4D
102
}
330
1A4D
100
AcDbXrecord
280
     1
290
     1
  0
XRECORD
  5
1A50
102
{ACAD_REACTORS
330
1A4F
102
}
330
1A4F
100
AcDbXrecord
280
     1
290
     1
  0
XRECORD
  5
1A52
102
{ACAD_REACTORS
330
1A51
102
}
330
1A51
100
AcDbXrecord
280
     1
290
     1
  0
XRECORD
  5
1A54
102
{ACAD_REACTORS
330
1A53
102
}
330
1A53
100
AcDbXrecord
280
     1
290
     1
  0
XRECORD
  5
1A56
102
{ACAD_REACTORS
330
1A55
102
}
330
1A55
100
AcDbXrecord
280
     1
290
     1
  0
XRECORD
  5
1A58
102
{ACAD_REACTORS
330
1A57
102
}
330
1A57
100
AcDbXrecord
280
     1
290
     1
  0
XRECORD
  5
1A5A
102
{ACAD_REACTORS
330
1A59
102
}
330
1A59
100
AcDbXrecord
280
     1
290
     1
  0
XRECORD
  5
1A5C
102
{ACAD_REACTORS
330
1A5B
102
}
330
1A5B
100
AcDbXrecord
280
     1
290
     1
  0
ACDBDETAILVIEWSTYLE
  5
19CC
102
{ACAD_REACTORS
330
19CB
102
}
330
19CB
100
AcDbModelDocViewStyle
 70
     0
  3
Imperial24
290
     0
300
Imperial24
 90
        0
100
AcDbDetailViewStyle
 70
     0
 71
     0
 90
        3
 71
     1
340
11
 62
   256
 40
0.24
340
0
 62
   256
 40
0.24
300

 40
0.36
280
     3
 71
     2
340
16
 90
       25
 62
   256
 71
     3
340
11
 62
   256
 40
0.24
 90
        1
 40
0.75
 90
        1
300
%<\AcVar ViewType \f "%tc1">% %<\AcVar ViewDetailId>%\PSCALE %<\AcVar ViewScale \f "%sn">%
 71
     4
340
16
 90
       25
 62
   256
340
16
 90
       25
 62
   256
280
     0
  0
LAYOUT
  5
197D
102
{ACAD_REACTORS
330
1A
102
}
330
1A
100
AcDbPlotSettings
  1

  2
none_device
  4
ANSI_B_(17.00_x_11.00_Inches)
  6

 40
0.0
 41
0.0
 42
0.0
 43
0.0
 44
431.8
 45
279.4
 46
0.0
 47
0.0
 48
0.0
 49
0.0
140
0.0
141
0.0
142
1.0
143
1.0
 70
     0
 72
     0
 73
     0
 74
     0
  7

 75
     0
147
1.0
 76
     0
 77
     2
 78
   300
148
0.0
149
0.0
100
AcDbLayout
  1
Layout1
 70
     1
 71
     1
 10
0.0
 20
0.0
 11
12.0
 21
9.0
 12
0.0
 22
0.0
 32
0.0
 14
1.000000000000000E+20
 24
1.000000000000000E+20
 34
1.000000000000000E+20
 15
-1.000000000000000E+20
 25
-1.000000000000000E+20
 35
-1.000000000000000E+20
146
0.0
 13
0.0
 23
0.0
 33
0.0
 16
1.0
 26
0.0
 36
0.0
 17
0.0
 27
1.0
 37
0.0
 76
     0
330
21C
  0
LAYOUT
  5
197C
102
{ACAD_REACTORS
330
1A
102
}
330
1A
100
AcDbPlotSettings
  1

  2
none_device
  4
ANSI_B_(17.00_x_11.00_Inches)
  6

 40
0.0
 41
0.0
 42
0.0
 43
0.0
 44
431.8
 45
279.4
 46
0.0
 47
0.0
 48
0.0
 49
0.0
140
0.0
141
0.0
142
1.0
143
1.0
 70
  1024
 72
     0
 73
     0
 74
     0
  7

 75
     0
147
1.0
 76
     0
 77
     2
 78
   300
148
0.0
149
0.0
100
AcDbLayout
  1
Model
 70
     0
 71
     0
 10
0.0
 20
0.0
 11
17.0
 21
11.0
 12
0.0
 22
0.0
 32
0.0
 14
0.0
 24
0.0
 34
0.0
 15
0.0
 25
0.0
 35
0.0
146
0.0
 13
0.0
 23
0.0
 33
0.0
 16
1.0
 26
0.0
 36
0.0
 17
0.0
 27
1.0
 37
0.0
 76
     0
330
21B
331
1F4
  0
MATERIAL
  5
1989
102
{ACAD_XDICTIONARY
360
198A
102
}
102
{ACAD_REACTORS
330
1980
102
}
330
1980
100
AcDbMaterial
  1
ByBlock
 72
     0
 43
0.0208333333333333
 43
0.0
 43
0.0
 43
0.0
 43
0.0
 43
0.0208333333333333
 43
0.0
 43
0.0
 43
0.0
 43
0.0
 43
1.0
 43
0.0
 43
0.0
 43
0.0
 43
0.0
 43
1.0
 77
     0
 47
0.0208333333333333
 47
0.0
 47
0.0
 47
0.0
 47
0.0
 47
0.0208333333333333
 47
0.0
 47
0.0
 47
0.0
 47
0.0
 47
1.0
 47
0.0
 47
0.0
 47
0.0
 47
0.0
 47
1.0
171
     0
 49
0.0208333333333333
 49
0.0
 49
0.0
 49
0.0
 49
0.0
 49
0.0208333333333333
 49
0.0
 49
0.0
 49
0.0
 49
0.0
 49
1.0
 49
0.0
 49
0.0
 49
0.0
 49
0.0
 49
1.0
175
     0
142
0.0208333333333333
142
0.0
142
0.0
142
0.0
142
0.0
142
0.0208333333333333
142
0.0
142
0.0
142
0.0
142
0.0
142
1.0
142
0.0
142
0.0
142
0.0
142
0.0
142
1.0
179
     0
144
0.0208333333333333
144
0.0
144
0.0
144
0.0
144
0.0
144
0.0208333333333333
144
0.0
144
0.0
144
0.0
144
0.0
144
1.0
144
0.0
144
0.0
144
0.0
144
0.0
144
1.0
147
0.0208333333333333
147
0.0
147
0.0
147
0.0
147
0.0
147
0.0208333333333333
147
0.0
147
0.0
147
0.0
147
0.0
147
1.0
147
0.0
147
0.0
147
0.0
147
0.0
147
1.0
  0
MATERIAL
  5
1981
102
{ACAD_XDICTIONARY
360
1982
102
}
102
{ACAD_REACTORS
330
1980
102
}
330
1980
100
AcDbMaterial
  1
ByLayer
 72
     0
 43
0.0208333333333333
 43
0.0
 43
0.0
 43
0.0
 43
0.0
 43
0.0208333333333333
 43
0.0
 43
0.0
 43
0.0
 43
0.0
 43
1.0
 43
0.0
 43
0.0
 43
0.0
 43
0.0
 43
1.0
 77
     0
 47
0.0208333333333333
 47
0.0
 47
0.0
 47
0.0
 47
0.0
 47
0.0208333333333333
 47
0.0
 47
0.0
 47
0.0
 47
0.0
 47
1.0
 47
0.0
 47
0.0
 47
0.0
 47
0.0
 47
1.0
171
     0
 49
0.0208333333333333
 49
0.0
 49
0.0
 49
0.0
 49
0.0
 49
0.0208333333333333
 49
0.0
 49
0.0
 49
0.0
 49
0.0
 49
1.0
 49
0.0
 49
0.0
 49
0.0
 49
0.0
 49
1.0
175
     0
142
0.0208333333333333
142
0.0
142
0.0
142
0.0
142
0.0
142
0.0208333333333333
142
0.0
142
0.0
142
0.0
142
0.0
142
1.0
142
0.0
142
0.0
142
0.0
142
0.0
142
1.0
179
     0
144
0.0208333333333333
144
0.0
144
0.0
144
0.0
144
0.0
144
0.0208333333333333
144
0.0
144
0.0
144
0.0
144
0.0
144
1.0
144
0.0
144
0.0
144
0.0
144
0.0
144
1.0
147
0.0208333333333333
147
0.0
147
0.0
147
0.0
147
0.0
147
0.0208333333333333
147
0.0
147
0.0
147
0.0
147
0.0
147
1.0
147
0.0
147
0.0
147
0.0
147
0.0
147
1.0
  0
MATERIAL
  5
1991
102
{ACAD_XDICTIONARY
360
1992
102
}
102
{ACAD_REACTORS
330
1980
102
}
330
1980
100
AcDbMaterial
  1
Global
 72
     0
 43
0.0208333333333333
 43
0.0
 43
0.0
 43
0.0
 43
0.0
 43
0.0208333333333333
 43
0.0
 43
0.0
 43
0.0
 43
0.0
 43
1.0
 43
0.0
 43
0.0
 43
0.0
 43
0.0
 43
1.0
 77
     0
 47
0.0208333333333333
 47
0.0
 47
0.0
 47
0.0
 47
0.0
 47
0.0208333333333333
 47
0.0
 47
0.0
 47
0.0
 47
0.0
 47
1.0
 47
0.0
 47
0.0
 47
0.0
 47
0.0
 47
1.0
171
     0
 49
0.0208333333333333
 49
0.0
 49
0.0
 49
0.0
 49
0.0
 49
0.0208333333333333
 49
0.0
 49
0.0
 49
0.0
 49
0.0
 49
1.0
 49
0.0
 49
0.0
 49
0.0
 49
0.0
 49
1.0
175
     0
142
0.0208333333333333
142
0.0
142
0.0
142
0.0
142
0.0
142
0.0208333333333333
142
0.0
142
0.0
142
0.0
142
0.0
142
1.0
142
0.0
142
0.0
142
0.0
142
0.0
142
1.0
179
     0
144
0.0208333333333333
144
0.0
144
0.0
144
0.0
144
0.0
144
0.0208333333333333
144
0.0
144
0.0
144
0.0
144
0.0
144
1.0
144
0.0
144
0.0
144
0.0
144
0.0
144
1.0
147
0.0208333333333333
147
0.0
147
0.0
147
0.0
147
0.0
147
0.0208333333333333
147
0.0
147
0.0
147
0.0
147
0.0
147
1.0
147
0.0
147
0.0
147
0.0
147
0.0
147
1.0
  0
MLEADERSTYLE
  5
19C8
102
{ACAD_REACTORS
330
19C7
102
}
330
19C7
100
AcDbMLeaderStyle
179
     2
170
     2
171
     1
172
     0
 90
        2
 40
0.0
 41
0.0
173
     1
 91
-1056964608
340
14
 92
       -2
290
     1
 42
0.09
291
     1
 43
0.36
  3
Standard
 44
0.18
300

342
11
174
     1
178
     6
175
     1
176
     0
 93
-1056964608
 45
0.18
292
     0
297
     0
 46
0.18
 94
-1056964608
 47
1.0
 49
1.0
140
1.0
293
     1
141
0.0
294
     1
177
     0
142
1.0
295
     0
296
     0
143
0.125
271
     0
272
     9
273
     9
298
     0
  0
MLINESTYLE
  5
18
102
{ACAD_REACTORS
330
17
102
}
330
17
100
AcDbMlineStyle
  2
STANDARD
 70
     0
  3

 62
   256
 51
90.0
 52
90.0
 71
     2
 49
0.5
 62
   256
  6
BYLAYER
 49
-0.5
 62
   256
  6
BYLAYER
  0
ACDBPLACEHOLDER
  5
F
102
{ACAD_REACTORS
330
E
102
}
330
E
  0
SCALE
  5
19B6
102
{ACAD_REACTORS
330
19B5
102
}
330
19B5
100
AcDbScale
 70
     0
300
1:1
140
1.0
141
1.0
290
     1
  0
SCALE
  5
19B7
102
{ACAD_REACTORS
330
19B5
102
}
330
19B5
100
AcDbScale
 70
     0
300
1/128" = 1'-0"
140
0.0078125
141
12.0
290
     0
  0
SCALE
  5
19B8
102
{ACAD_REACTORS
330
19B5
102
}
330
19B5
100
AcDbScale
 70
     0
300
1/64" = 1'-0"
140
0.015625
141
12.0
290
     0
  0
SCALE
  5
19B9
102
{ACAD_REACTORS
330
19B5
102
}
330
19B5
100
AcDbScale
 70
     0
300
1/32" = 1'-0"
140
0.03125
141
12.0
290
     0
  0
SCALE
  5
19BA
102
{ACAD_REACTORS
330
19B5
102
}
330
19B5
100
AcDbScale
 70
     0
300
1/16" = 1'-0"
140
0.0625
141
12.0
290
     0
  0
SCALE
  5
19BB
102
{ACAD_REACTORS
330
19B5
102
}
330
19B5
100
AcDbScale
 70
     0
300
3/32" = 1'-0"
140
0.09375
141
12.0
290
     0
  0
SCALE
  5
19BC
102
{ACAD_REACTORS
330
19B5
102
}
330
19B5
100
AcDbScale
 70
     0
300
1/8" = 1'-0"
140
0.125
141
12.0
290
     0
  0
SCALE
  5
19BD
102
{ACAD_REACTORS
330
19B5
102
}
330
19B5
100
AcDbScale
 70
     0
300
3/16" = 1'-0"
140
0.1875
141
12.0
290
     0
  0
SCALE
  5
19BE
102
{ACAD_REACTORS
330
19B5
102
}
330
19B5
100
AcDbScale
 70
     0
300
1/4" = 1'-0"
140
0.25
141
12.0
290
     0
  0
SCALE
  5
19BF
102
{ACAD_REACTORS
330
19B5
102
}
330
19B5
100
AcDbScale
 70
     0
300
3/8" = 1'-0"
140
0.375
141
12.0
290
     0
  0
SCALE
  5
19C0
102
{ACAD_REACTORS
330
19B5
102
}
330
19B5
100
AcDbScale
 70
     0
300
1/2" = 1'-0"
140
0.5
141
12.0
290
     0
  0
SCALE
  5
19C1
102
{ACAD_REACTORS
330
19B5
102
}
330
19B5
100
AcDbScale
 70
     0
300
3/4" = 1'-0"
140
0.75
141
12.0
290
     0
  0
SCALE
  5
19C2
102
{ACAD_REACTORS
330
19B5
102
}
330
19B5
100
AcDbScale
 70
     0
300
1" = 1'-0"
140
1.0
141
12.0
290
     0
  0
SCALE
  5
19C3
102
{ACAD_REACTORS
330
19B5
102
}
330
19B5
100
AcDbScale
 70
     0
300
1-1/2" = 1'-0"
140
1.5
141
12.0
290
     0
  0
SCALE
  5
19C4
102
{ACAD_REACTORS
330
19B5
102
}
330
19B5
100
AcDbScale
 70
     0
300
3" = 1'-0"
140
3.0
141
12.0
290
     0
  0
SCALE
  5
19C5
102
{ACAD_REACTORS
330
19B5
102
}
330
19B5
100
AcDbScale
 70
     0
300
6" = 1'-0"
140
6.0
141
12.0
290
     0
  0
SCALE
  5
19C6
102
{ACAD_REACTORS
330
19B5
102
}
330
19B5
100
AcDbScale
 70
     0
300
1'-0" = 1'-0"
140
12.0
141
12.0
290
     0
  0
ACDBSECTIONVIEWSTYLE
  5
19CA
102
{ACAD_REACTORS
330
19C9
102
}
330
19C9
100
AcDbModelDocViewStyle
 70
     0
  3
Imperial24
290
     0
300
Imperial24
 90
        0
100
AcDbSectionViewStyle
 70
     0
 71
     0
 90
       78
 71
     1
340
11
 62
   256
 40
0.24
340
0
340
0
 62
   256
 40
0.24
300
I, O, Q, S, X, Z
 40
0.48
 90
        3
 40
0.18
 90
        1
 71
     2
340
16
 90
       25
 62
   256
340
16
 90
       50
 62
   256
 40
0.24
 40
0.0
 40
0.24
 71
     3
340
11
 62
   256
 40
0.24
 90
        1
 40
0.75
 90
        1
300
%<\AcVar ViewType \f "%tc1">% %<\AcVar ViewSectionStartId>%-%<\AcVar ViewSectionEndId>%\PSCALE %<\AcVar ViewScale \f "%sn">%
 71
     4
 62
   256
 62
   257
300
ANSI31
 40
1.0
 90
        0
290
     0
290
     0
 90
        6
 40
0.0
 40
1.570796326794896
 40
0.2617993877991494
 40
1.308996938995747
 40
-0.2617993877991494
 40
1.832595714594046
  0
TABLESTYLE
  5
19B4
102
{ACAD_XDICTIONARY
360
19CD
102
}
102
{ACAD_REACTORS
330
19B3
102
}
330
19B3
100
AcDbTableStyle
280
     0
  3
Standard
 70
     0
 71
     0
 40
0.06
 41
0.06
280
     0
281
     0
  7
STANDARD
140
0.18
170
     2
 62
     0
 63
     7
283
     0
 90
      512
 91
        0
  1

274
    -2
284
     1
 64
     0
275
    -2
285
     1
 65
     0
276
    -2
286
     1
 66
     0
277
    -2
287
     1
 67
     0
278
    -2
288
     1
 68
     0
279
    -2
289
     1
 69
     0
  7
STANDARD
140
0.25
170
     5
 62
     0
 63
     7
283
     0
 90
      512
 91
        0
  1

274
    -2
284
     1
 64
     0
275
    -2
285
     1
 65
     0
276
    -2
286
     1
 66
     0
277
    -2
287
     1
 67
     0
278
    -2
288
     1
 68
     0
279
    -2
289
     1
 69
     0
  7
STANDARD
140
0.18
170
     5
 62
     0
 63
     7
283
     0
 90
      512
 91
        0
  1

274
    -2
284
     1
 64
     0
275
    -2
285
     1
 65
     0
276
    -2
286
     1
 66
     0
277
    -2
287
     1
 67
     0
278
    -2
288
     1
 68
     0
279
    -2
289
     1
 69
     0
  0
VISUALSTYLE
  5
199F
102
{ACAD_REACTORS
330
1999
102
}
330
1999
100
AcDbVisualStyle
  2
2dWireframe
 70
     4
177
     3
291
     0
 70
    58
 90
        0
176
     1
 90
        2
176
     1
 90
        0
176
     1
 90
        0
176
     1
 40
0.6
176
     1
 40
30.0
176
     1
 62
     7
176
     1
 90
        1
176
     1
 90
        4
176
     1
 62
     7
176
     1
 62
   257
176
     1
 90
        1
176
     1
 90
        1
176
     1
 40
1.0
176
     1
 90
        0
176
     1
 62
   257
176
     1
 40
1.0
176
     1
 90
        1
176
     1
 90
        6
176
     1
 90
        2
176
     1
 62
     7
176
     1
 90
        5
176
     1
 90
        0
176
     1
 90
        0
176
     1
290
     0
176
     1
 90
        1
176
     1
 40
0.0
176
     1
 90
        0
176
     1
290
     1
176
     1
290
     1
176
     1
290
     0
176
     1
290
     0
176
     1
290
     0
176
     1
290
     0
176
     1
290
     0
176
     1
290
     0
176
     1
290
     0
176
     1
 90
       50
176
     1
 40
0.0
176
     1
 40
1.0
176
     1
 90
        0
176
     1
 62
    18
420
        0
176
     1
 90
       50
176
     1
 90
        3
176
     1
 62
     5
420
      255
176
     1
290
     0
176
     1
 90
       50
176
     1
 90
       50
176
     1
 90
       50
176
     1
290
     0
176
     1
 90
       50
176
     1
 62
   256
176
     0
 40
1.0
176
     0
 90
        2
176
     1
  1
strokes_ogs.tif
176
     1
290
     0
176
     1
 40
1.0
176
     1
 40
1.0
176
     1
  0
VISUALSTYLE
  5
199E
102
{ACAD_REACTORS
330
1999
102
}
330
1999
100
AcDbVisualStyle
  2
Basic
 70
     7
177
     3
291
     1
 70
    58
 90
        1
176
     1
 90
        0
176
     1
 90
        1
176
     1
 90
        0
176
     1
 40
0.6
176
     1
 40
30.0
176
     1
 62
     7
176
     1
 90
        0
176
     1
 90
        4
176
     1
 62
     7
176
     1
 62
   257
176
     1
 90
        1
176
     1
 90
        1
176
     1
 40
1.0
176
     1
 90
        8
176
     1
 62
     7
176
     1
 40
1.0
176
     1
 90
        1
176
     1
 90
        6
176
     1
 90
        2
176
     1
 62
     7
176
     1
 90
        5
176
     1
 90
        0
176
     1
 90
        0
176
     1
290
     0
176
     1
 90
        1
176
     1
 40
0.0
176
     1
 90
        0
176
     1
290
     0
176
     1
290
     1
176
     1
290
     1
176
     1
290
     0
176
     1
290
     0
176
     1
290
     0
176
     1
290
     0
176
     1
290
     0
176
     1
290
     0
176
     1
 90
       50
176
     1
 40
0.0
176
     1
 40
1.0
176
     1
 90
        0
176
     1
 62
    18
420
        0
176
     1
 90
       50
176
     1
 90
        3
176
     1
 62
     5
420
      255
176
     1
290
     0
176
     1
 90
       50
176
     1
 90
       50
176
     1
 90
       50
176
     1
290
     0
176
     1
 90
       50
176
     1
 62
   256
176
     0
 40
1.0
176
     0
 90
        2
176
     1
  1
strokes_ogs.tif
176
     1
290
     0
176
     1
 40
1.0
176
     1
 40
1.0
176
     1
  0
VISUALSTYLE
  5
19A5
102
{ACAD_REACTORS
330
1999
102
}
330
1999
100
AcDbVisualStyle
  2
Brighten
 70
    12
177
     3
291
     1
 70
    58
 90
        2
176
     1
 90
        2
176
     1
 90
        0
176
     1
 90
        0
176
     1
 40
0.6
176
     1
 40
30.0
176
     1
 62
     7
176
     1
 90
        1
176
     1
 90
        4
176
     1
 62
     7
176
     1
 62
   257
176
     1
 90
        1
176
     1
 90
        1
176
     1
 40
1.0
176
     1
 90
        8
176
     1
 62
     7
176
     1
 40
1.0
176
     1
 90
        1
176
     1
 90
        6
176
     1
 90
        2
176
     1
 62
     7
176
     1
 90
        5
176
     1
 90
        0
176
     1
 90
        0
176
     1
290
     0
176
     1
 90
        1
176
     1
 40
50.0
176
     1
 90
        0
176
     1
290
     0
176
     1
290
     1
176
     1
290
     1
176
     1
290
     0
176
     1
290
     0
176
     1
290
     0
176
     1
290
     0
176
     1
290
     0
176
     1
290
     0
176
     1
 90
       50
176
     1
 40
0.0
176
     1
 40
1.0
176
     1
 90
        0
176
     1
 62
    18
420
        0
176
     1
 90
       50
176
     1
 90
        3
176
     1
 62
     5
420
      255
176
     1
290
     0
176
     1
 90
       50
176
     1
 90
       50
176
     1
 90
       50
176
     1
290
     0
176
     1
 90
       50
176
     1
 62
   256
176
     0
 40
1.0
176
     0
 90
        2
176
     1
  1
strokes_ogs.tif
176
     1
290
     0
176
     1
 40
1.0
176
     1
 40
1.0
176
     1
  0
VISUALSTYLE
  5
19A9
102
{ACAD_REACTORS
330
1999
102
}
330
1999
100
AcDbVisualStyle
  2
ColorChange
 70
    16
177
     3
291
     1
 70
    58
 90
        2
176
     1
 90
        2
176
     1
 90
        3
176
     1
 90
        0
176
     1
 40
0.6
176
     1
 40
30.0
176
     1
 62
     8
176
     1
 90
        1
176
     1
 90
        4
176
     1
 62
     7
176
     1
 62
   257
176
     1
 90
        1
176
     1
 90
        1
176
     1
 40
1.0
176
     1
 90
        8
176
     1
 62
     8
176
     1
 40
1.0
176
     1
 90
        1
176
     1
 90
        6
176
     1
 90
        2
176
     1
 62
     7
176
     1
 90
        5
176
     1
 90
        0
176
     1
 90
        0
176
     1
290
     0
176
     1
 90
        1
176
     1
 40
0.0
176
     1
 90
        0
176
     1
290
     0
176
     1
290
     1
176
     1
290
     1
176
     1
290
     0
176
     1
290
     0
176
     1
290
     0
176
     1
290
     0
176
     1
290
     0
176
     1
290
     0
176
     1
 90
       50
176
     1
 40
0.0
176
     1
 40
1.0
176
     1
 90
        0
176
     1
 62
    18
420
        0
176
     1
 90
       50
176
     1
 90
        3
176
     1
 62
     5
420
      255
176
     1
290
     0
176
     1
 90
       50
176
     1
 90
       50
176
     1
 90
       50
176
     1
290
     0
176
     1
 90
       50
176
     1
 62
   256
176
     0
 40
1.0
176
     0
 90
        2
176
     1
  1
strokes_ogs.tif
176
     1
290
     0
176
     1
 40
1.0
176
     1
 40
1.0
176
     1
  0
VISUALSTYLE
  5
19A2
102
{ACAD_REACTORS
330
1999
102
}
330
1999
100
AcDbVisualStyle
  2
Conceptual
 70
     9
177
     3
291
     0
 70
    58
 90
        3
176
     1
 90
        2
176
     1
 90
        0
176
     1
 90
        0
176
     1
 40
0.6
176
     1
 40
30.0
176
     1
 62
     7
176
     1
 90
        2
176
     1
 90
        2
176
     1
 62
     7
176
     1
 62
   257
176
     1
 90
        1
176
     1
 90
        1
176
     1
 40
179.0
176
     1
 90
        8
176
     1
 62
     7
176
     1
 40
1.0
176
     1
 90
        1
176
     1
 90
        6
176
     1
 90
        2
176
     1
 62
     7
176
     1
 90
        3
176
     1
 90
        0
176
     1
 90
        0
176
     1
290
     0
176
     1
 90
        1
176
     1
 40
0.0
176
     1
 90
        0
176
     1
290
     0
176
     1
290
     1
176
     1
290
     1
176
     1
290
     0
176
     1
290
     0
176
     1
290
     0
176
     1
290
     0
176
     1
290
     0
176
     1
290
     0
176
     1
 90
       50
176
     1
 40
0.0
176
     1
 40
1.0
176
     1
 90
        0
176
     1
 62
    18
420
        0
176
     1
 90
       50
176
     1
 90
        3
176
     1
 62
     5
420
      255
176
     1
290
     0
176
     1
 90
       50
176
     1
 90
       50
176
     1
 90
       50
176
     1
290
     0
176
     1
 90
       50
176
     1
 62
   256
176
     0
 40
1.0
176
     0
 90
        2
176
     1
  1
strokes_ogs.tif
176
     1
290
     0
176
     1
 40
1.0
176
     1
 40
1.0
176
     1
  0
VISUALSTYLE
  5
19A4
102
{ACAD_REACTORS
330
1999
102
}
330
1999
100
AcDbVisualStyle
  2
Dim
 70
    11
177
     3
291
     1
 70
    58
 90
        2
176
     1
 90
        2
176
     1
 90
        0
176
     1
 90
        0
176
     1
 40
0.6
176
     1
 40
30.0
176
     1
 62
     7
176
     1
 90
        1
176
     1
 90
        4
176
     1
 62
     7
176
     1
 62
   257
176
     1
 90
        1
176
     1
 90
        1
176
     1
 40
1.0
176
     1
 90
        8
176
     1
 62
     7
176
     1
 40
1.0
176
     1
 90
        1
176
     1
 90
        6
176
     1
 90
        2
176
     1
 62
     7
176
     1
 90
        5
176
     1
 90
        0
176
     1
 90
        0
176
     1
290
     0
176
     1
 90
        1
176
     1
 40
-50.0
176
     1
 90
        0
176
     1
290
     0
176
     1
290
     1
176
     1
290
     1
176
     1
290
     0
176
     1
290
     0
176
     1
290
     0
176
     1
290
     0
176
     1
290
     0
176
     1
290
     0
176
     1
 90
       50
176
     1
 40
0.0
176
     1
 40
1.0
176
     1
 90
        0
176
     1
 62
    18
420
        0
176
     1
 90
       50
176
     1
 90
        3
176
     1
 62
     5
420
      255
176
     1
290
     0
176
     1
 90
       50
176
     1
 90
       50
176
     1
 90
       50
176
     1
290
     0
176
     1
 90
       50
176
     1
 62
   256
176
     0
 40
1.0
176
     0
 90
        2
176
     1
  1
strokes_ogs.tif
176
     1
290
     0
176
     1
 40
1.0
176
     1
 40
1.0
176
     1
  0
VISUALSTYLE
  5
19B1
102
{ACAD_REACTORS
330
1999
102
}
330
1999
100
AcDbVisualStyle
  2
EdgeColorOff
 70
    22
177
     3
291
     1
 70
    58
 90
        2
176
     0
 90
        2
176
     0
 90
        0
176
     0
 90
        0
176
     0
 40
0.6
176
     0
 40
30.0
176
     0
 62
     7
176
     0
 90
        1
176
     0
 90
        4
176
     0
 62
     7
176
     0
 62
   257
176
     0
 90
        1
176
     0
 90
        1
176
     0
 40
1.0
176
     0
 90
        8
176
     2
 62
     7
176
     0
 40
1.0
176
     0
 90
        1
176
     0
 90
        6
176
     0
 90
        2
176
     0
 62
     7
176
     0
 90
        5
176
     0
 90
        0
176
     0
 90
        0
176
     0
290
     0
176
     0
 90
        1
176
     0
 40
0.0
176
     0
 90
        0
176
     0
290
     0
176
     1
290
     1
176
     1
290
     1
176
     1
290
     0
176
     1
290
     0
176
     1
290
     0
176
     1
290
     0
176
     1
290
     0
176
     1
290
     0
176
     1
 90
       50
176
     0
 40
0.0
176
     0
 40
1.0
176
     0
 90
        0
176
     0
 62
    18
420
        0
176
     0
 90
       50
176
     0
 90
        3
176
     0
 62
     5
420
      255
176
     0
290
     0
176
     1
 90
       50
176
     0
 90
       50
176
     0
 90
       50
176
     0
290
     0
176
     1
 90
       50
176
     0
 62
   256
176
     0
 40
1.0
176
     0
 90
        2
176
     0
  1
strokes_ogs.tif
176
     0
290
     0
176
     1
 40
1.0
176
     0
 40
1.0
176
     0
  0
VISUALSTYLE
  5
19A8
102
{ACAD_REACTORS
330
1999
102
}
330
1999
100
AcDbVisualStyle
  2
Facepattern
 70
    15
177
     3
291
     1
 70
    58
 90
        2
176
     1
 90
        2
176
     1
 90
        0
176
     1
 90
        0
176
     1
 40
0.6
176
     1
 40
30.0
176
     1
 62
     7
176
     1
 90
        1
176
     1
 90
        4
176
     1
 62
     7
176
     1
 62
   257
176
     1
 90
        1
176
     1
 90
        1
176
     1
 40
1.0
176
     1
 90
        8
176
     1
 62
     7
176
     1
 40
1.0
176
     1
 90
        1
176
     1
 90
        6
176
     1
 90
        2
176
     1
 62
     7
176
     1
 90
        5
176
     1
 90
        0
176
     1
 90
        0
176
     1
290
     0
176
     1
 90
        1
176
     1
 40
0.0
176
     1
 90
        0
176
     1
290
     0
176
     1
290
     1
176
     1
290
     1
176
     1
290
     0
176
     1
290
     0
176
     1
290
     0
176
     1
290
     0
176
     1
290
     0
176
     1
290
     0
176
     1
 90
       50
176
     1
 40
0.0
176
     1
 40
1.0
176
     1
 90
        0
176
     1
 62
    18
420
        0
176
     1
 90
       50
176
     1
 90
        3
176
     1
 62
     5
420
      255
176
     1
290
     0
176
     1
 90
       50
176
     1
 90
       50
176
     1
 90
       50
176
     1
290
     0
176
     1
 90
       50
176
     1
 62
   256
176
     0
 40
1.0
176
     0
 90
        2
176
     1
  1
strokes_ogs.tif
176
     1
290
     0
176
     1
 40
1.0
176
     1
 40
1.0
176
     1
  0
VISUALSTYLE
  5
199A
102
{ACAD_REACTORS
330
1999
102
}
330
1999
100
AcDbVisualStyle
  2
Flat
 70
     0
177
     3
291
     1
 70
    58
 90
        2
176
     1
 90
        1
176
     1
 90
        1
176
     1
 90
        2
176
     1
 40
0.6
176
     1
 40
30.0
176
     1
 62
     7
176
     1
 90
        0
176
     1
 90
        0
176
     1
 62
     7
176
     1
 62
   257
176
     1
 90
        1
176
     1
 90
        1
176
     1
 40
1.0
176
     1
 90
        8
176
     1
 62
     7
176
     1
 40
1.0
176
     1
 90
        1
176
     1
 90
        6
176
     1
 90
        2
176
     1
 62
     7
176
     1
 90
        5
176
     1
 90
        0
176
     1
 90
        0
176
     1
290
     0
176
     1
 90
       13
176
     1
 40
0.0
176
     1
 90
        0
176
     1
290
     0
176
     1
290
     1
176
     1
290
     1
176
     1
290
     0
176
     1
290
     0
176
     1
290
     0
176
     1
290
     0
176
     1
290
     0
176
     1
290
     0
176
     1
 90
       50
176
     1
 40
0.0
176
     1
 40
1.0
176
     1
 90
        0
176
     1
 62
    18
420
        0
176
     1
 90
       50
176
     1
 90
        3
176
     1
 62
     5
420
      255
176
     1
290
     0
176
     1
 90
       50
176
     1
 90
       50
176
     1
 90
       50
176
     1
290
     0
176
     1
 90
       50
176
     1
 62
   256
176
     0
 40
1.0
176
     0
 90
        2
176
     1
  1
strokes_ogs.tif
176
     1
290
     0
176
     1
 40
1.0
176
     1
 40
1.0
176
     1
  0
VISUALSTYLE
  5
199B
102
{ACAD_REACTORS
330
1999
102
}
330
1999
100
AcDbVisualStyle
  2
FlatWithEdges
 70
     1
177
     3
291
     1
 70
    58
 90
        2
176
     1
 90
        1
176
     1
 90
        1
176
     1
 90
        2
176
     1
 40
0.6
176
     1
 40
30.0
176
     1
 62
     7
176
     1
 90
        1
176
     1
 90
        0
176
     1
 62
     7
176
     1
 62
   257
176
     1
 90
        1
176
     1
 90
        1
176
     1
 40
1.0
176
     1
 90
        0
176
     1
 62
   257
176
     1
 40
1.0
176
     1
 90
        1
176
     1
 90
        6
176
     1
 90
        2
176
     1
 62
     7
176
     1
 90
        5
176
     1
 90
        0
176
     1
 90
        0
176
     1
290
     0
176
     1
 90
       13
176
     1
 40
0.0
176
     1
 90
        0
176
     1
290
     0
176
     1
290
     1
176
     1
290
     1
176
     1
290
     0
176
     1
290
     0
176
     1
290
     0
176
     1
290
     0
176
     1
290
     0
176
     1
290
     0
176
     1
 90
       50
176
     1
 40
0.0
176
     1
 40
1.0
176
     1
 90
        0
176
     1
 62
    18
420
        0
176
     1
 90
       50
176
     1
 90
        3
176
     1
 62
     5
420
      255
176
     1
290
     0
176
     1
 90
       50
176
     1
 90
       50
176
     1
 90
       50
176
     1
290
     0
176
     1
 90
       50
176
     1
 62
   256
176
     0
 40
1.0
176
     0
 90
        2
176
     1
  1
strokes_ogs.tif
176
     1
290
     0
176
     1
 40
1.0
176
     1
 40
1.0
176
     1
  0
VISUALSTYLE
  5
199C
102
{ACAD_REACTORS
330
1999
102
}
330
1999
100
AcDbVisualStyle
  2
Gouraud
 70
     2
177
     3
291
     1
 70
    58
 90
        2
176
     1
 90
        2
176
     1
 90
        1
176
     1
 90
        2
176
     1
 40
0.6
176
     1
 40
30.0
176
     1
 62
     7
176
     1
 90
        0
176
     1
 90
        0
176
     1
 62
     7
176
     1
 62
   257
176
     1
 90
        1
176
     1
 90
        1
176
     1
 40
1.0
176
     1
 90
        0
176
     1
 62
     7
176
     1
 40
1.0
176
     1
 90
        1
176
     1
 90
        6
176
     1
 90
        2
176
     1
 62
     7
176
     1
 90
        5
176
     1
 90
        0
176
     1
 90
        0
176
     1
290
     0
176
     1
 90
       13
176
     1
 40
0.0
176
     1
 90
        0
176
     1
290
     0
176
     1
290
     1
176
     1
290
     1
176
     1
290
     0
176
     1
290
     0
176
     1
290
     0
176
     1
290
     0
176
     1
290
     0
176
     1
290
     0
176
     1
 90
       50
176
     1
 40
0.0
176
     1
 40
1.0
176
     1
 90
        0
176
     1
 62
    18
420
        0
176
     1
 90
       50
176
     1
 90
        3
176
     1
 62
     5
420
      255
176
     1
290
     0
176
     1
 90
       50
176
     1
 90
       50
176
     1
 90
       50
176
     1
290
     0
176
     1
 90
       50
176
     1
 62
   256
176
     0
 40
1.0
176
     0
 90
        2
176
     1
  1
strokes_ogs.tif
176
     1
290
     0
176
     1
 40
1.0
176
     1
 40
1.0
176
     1
  0
VISUALSTYLE
  5
199D
102
{ACAD_REACTORS
330
1999
102
}
330
1999
100
AcDbVisualStyle
  2
GouraudWithEdges
 70
     3
177
     3
291
     1
 70
    58
 90
        2
176
     1
 90
        2
176
     1
 90
        1
176
     1
 90
        2
176
     1
 40
0.6
176
     1
 40
30.0
176
     1
 62
     7
176
     1
 90
        1
176
     1
 90
        0
176
     1
 62
     7
176
     1
 62
   257
176
     1
 90
        1
176
     1
 90
        1
176
     1
 40
1.0
176
     1
 90
        0
176
     1
 62
   257
176
     1
 40
1.0
176
     1
 90
        1
176
     1
 90
        6
176
     1
 90
        2
176
     1
 62
     7
176
     1
 90
        5
176
     1
 90
        0
176
     1
 90
        0
176
     1
290
     0
176
     1
 90
       13
176
     1
 40
0.0
176
     1
 90
        0
176
     1
290
     0
176
     1
290
     1
176
     1
290
     1
176
     1
290
     0
176
     1
290
     0
176
     1
290
     0
176
     1
290
     0
176
     1
290
     0
176
     1
290
     0
176
     1
 90
       50
176
     1
 40
0.0
176
     1
 40
1.0
176
     1
 90
        0
176
     1
 62
    18
420
        0
176
     1
 90
       50
176
     1
 90
        3
176
     1
 62
     5
420
      255
176
     1
290
     0
176
     1
 90
       50
176
     1
 90
       50
176
     1
 90
       50
176
     1
290
     0
176
     1
 90
       50
176
     1
 62
   256
176
     0
 40
1.0
176
     0
 90
        2
176
     1
  1
strokes_ogs.tif
176
     1
290
     0
176
     1
 40
1.0
176
     1
 40
1.0
176
     1
  0
VISUALSTYLE
  5
19A1
102
{ACAD_REACTORS
330
1999
102
}
330
1999
100
AcDbVisualStyle
  2
Hidden
 70
     6
177
     3
291
     0
 70
    58
 90
        1
176
     1
 90
        2
176
     1
 90
        2
176
     1
 90
        0
176
     1
 40
0.6
176
     1
 40
30.0
176
     1
 62
     7
176
     1
 90
        2
176
     1
 90
        2
176
     1
 62
     7
176
     1
 62
   257
176
     1
 90
        2
176
     1
 90
        1
176
     1
 40
40.0
176
     1
 90
        0
176
     1
 62
   257
176
     1
 40
1.0
176
     1
 90
        1
176
     1
 90
        6
176
     1
 90
        2
176
     1
 62
     7
176
     1
 90
        3
176
     1
 90
        0
176
     1
 90
        0
176
     1
290
     0
176
     1
 90
        1
176
     1
 40
0.0
176
     1
 90
        0
176
     1
290
     0
176
     1
290
     1
176
     1
290
     1
176
     1
290
     0
176
     1
290
     0
176
     1
290
     0
176
     1
290
     0
176
     1
290
     0
176
     1
290
     0
176
     1
 90
       50
176
     1
 40
0.0
176
     1
 40
1.0
176
     1
 90
        0
176
     1
 62
    18
420
        0
176
     1
 90
       50
176
     1
 90
        3
176
     1
 62
     5
420
      255
176
     1
290
     0
176
     1
 90
       50
176
     1
 90
       50
176
     1
 90
       50
176
     1
290
     0
176
     1
 90
       50
176
     1
 62
   256
176
     0
 40
1.0
176
     0
 90
        2
176
     1
  1
strokes_ogs.tif
176
     1
290
     0
176
     1
 40
1.0
176
     1
 40
1.0
176
     1
  0
VISUALSTYLE
  5
19AF
102
{ACAD_REACTORS
330
1999
102
}
330
1999
100
AcDbVisualStyle
  2
JitterOff
 70
    20
177
     3
291
     1
 70
    58
 90
        2
176
     0
 90
        2
176
     0
 90
        0
176
     0
 90
        0
176
     0
 40
0.6
176
     0
 40
30.0
176
     0
 62
     7
176
     0
 90
        1
176
     0
 90
        4
176
     0
 62
     7
176
     0
 62
   257
176
     0
 90
        1
176
     0
 90
        1
176
     0
 40
1.0
176
     0
 90
       10
176
     2
 62
     7
176
     0
 40
1.0
176
     0
 90
        1
176
     0
 90
        6
176
     0
 90
        2
176
     0
 62
     7
176
     0
 90
        5
176
     0
 90
        0
176
     0
 90
        0
176
     0
290
     0
176
     0
 90
        1
176
     0
 40
0.0
176
     0
 90
        0
176
     0
290
     0
176
     1
290
     1
176
     1
290
     1
176
     1
290
     0
176
     1
290
     0
176
     1
290
     0
176
     1
290
     0
176
     1
290
     0
176
     1
290
     0
176
     1
 90
       50
176
     0
 40
0.0
176
     0
 40
1.0
176
     0
 90
        0
176
     0
 62
    18
420
        0
176
     0
 90
       50
176
     0
 90
        3
176
     0
 62
     5
420
      255
176
     0
290
     0
176
     1
 90
       50
176
     0
 90
       50
176
     0
 90
       50
176
     0
290
     0
176
     1
 90
       50
176
     0
 62
   256
176
     0
 40
1.0
176
     0
 90
        2
176
     0
  1
strokes_ogs.tif
176
     0
290
     0
176
     1
 40
1.0
176
     0
 40
1.0
176
     0
  0
VISUALSTYLE
  5
19A7
102
{ACAD_REACTORS
330
1999
102
}
330
1999
100
AcDbVisualStyle
  2
Linepattern
 70
    14
177
     3
291
     1
 70
    58
 90
        2
176
     1
 90
        2
176
     1
 90
        0
176
     1
 90
        0
176
     1
 40
0.6
176
     1
 40
30.0
176
     1
 62
     7
176
     1
 90
        1
176
     1
 90
        4
176
     1
 62
     7
176
     1
 62
   257
176
     1
 90
        7
176
     1
 90
        7
176
     1
 40
1.0
176
     1
 90
        8
176
     1
 62
     7
176
     1
 40
1.0
176
     1
 90
        1
176
     1
 90
        6
176
     1
 90
        2
176
     1
 62
     7
176
     1
 90
        5
176
     1
 90
        0
176
     1
 90
        0
176
     1
290
     0
176
     1
 90
        1
176
     1
 40
0.0
176
     1
 90
        0
176
     1
290
     0
176
     1
290
     1
176
     1
290
     1
176
     1
290
     0
176
     1
290
     0
176
     1
290
     0
176
     1
290
     0
176
     1
290
     0
176
     1
290
     0
176
     1
 90
       50
176
     1
 40
0.0
176
     1
 40
1.0
176
     1
 90
        0
176
     1
 62
    18
420
        0
176
     1
 90
       50
176
     1
 90
        3
176
     1
 62
     5
420
      255
176
     1
290
     0
176
     1
 90
       50
176
     1
 90
       50
176
     1
 90
       50
176
     1
290
     0
176
     1
 90
       50
176
     1
 62
   256
176
     0
 40
1.0
176
     0
 90
        2
176
     1
  1
strokes_ogs.tif
176
     1
290
     0
176
     1
 40
1.0
176
     1
 40
1.0
176
     1
  0
VISUALSTYLE
  5
19B0
102
{ACAD_REACTORS
330
1999
102
}
330
1999
100
AcDbVisualStyle
  2
OverhangOff
 70
    21
177
     3
291
     1
 70
    58
 90
        2
176
     0
 90
        2
176
     0
 90
        0
176
     0
 90
        0
176
     0
 40
0.6
176
     0
 40
30.0
176
     0
 62
     7
176
     0
 90
        1
176
     0
 90
        4
176
     0
 62
     7
176
     0
 62
   257
176
     0
 90
        1
176
     0
 90
        1
176
     0
 40
1.0
176
     0
 90
        9
176
     2
 62
     7
176
     0
 40
1.0
176
     0
 90
        1
176
     0
 90
        6
176
     0
 90
        2
176
     0
 62
     7
176
     0
 90
        5
176
     0
 90
        0
176
     0
 90
        0
176
     0
290
     0
176
     0
 90
        1
176
     0
 40
0.0
176
     0
 90
        0
176
     0
290
     0
176
     1
290
     1
176
     1
290
     1
176
     1
290
     0
176
     1
290
     0
176
     1
290
     0
176
     1
290
     0
176
     1
290
     0
176
     1
290
     0
176
     1
 90
       50
176
     0
 40
0.0
176
     0
 40
1.0
176
     0
 90
        0
176
     0
 62
    18
420
        0
176
     0
 90
       50
176
     0
 90
        3
176
     0
 62
     5
420
      255
176
     0
290
     0
176
     1
 90
       50
176
     0
 90
       50
176
     0
 90
       50
176
     0
290
     0
176
     1
 90
       50
176
     0
 62
   256
176
     0
 40
1.0
176
     0
 90
        2
176
     0
  1
strokes_ogs.tif
176
     0
290
     0
176
     1
 40
1.0
176
     0
 40
1.0
176
     0
  0
VISUALSTYLE
  5
19A3
102
{ACAD_REACTORS
330
1999
102
}
330
1999
100
AcDbVisualStyle
  2
Realistic
 70
     8
177
     3
291
     0
 70
    58
 90
        2
176
     1
 90
        2
176
     1
 90
        0
176
     1
 90
        2
176
     1
 40
0.6
176
     1
 40
30.0
176
     1
 62
     7
176
     1
 90
        0
176
     1
 90
        0
176
     1
 62
     7
176
     1
 62
   257
176
     1
 90
        1
176
     1
 90
        1
176
     1
 40
1.0
176
     1
 90
        8
176
     1
 62
   257
176
     1
 40
1.0
176
     1
 90
        1
176
     1
 90
        6
176
     1
 90
        2
176
     1
 62
     7
176
     1
 90
        3
176
     1
 90
        0
176
     1
 90
        0
176
     1
290
     0
176
     1
 90
       13
176
     1
 40
0.0
176
     1
 90
        0
176
     1
290
     0
176
     1
290
     1
176
     1
290
     1
176
     1
290
     0
176
     1
290
     0
176
     1
290
     0
176
     1
290
     0
176
     1
290
     0
176
     1
290
     0
176
     1
 90
       50
176
     1
 40
0.0
176
     1
 40
1.0
176
     1
 90
        0
176
     1
 62
    18
420
        0
176
     1
 90
       50
176
     1
 90
        3
176
     1
 62
     5
420
      255
176
     1
290
     0
176
     1
 90
       50
176
     1
 90
       50
176
     1
 90
       50
176
     1
290
     0
176
     1
 90
       50
176
     1
 62
   256
176
     0
 40
1.0
176
     0
 90
        2
176
     1
  1
strokes_ogs.tif
176
     1
290
     0
176
     1
 40
1.0
176
     1
 40
1.0
176
     1
  0
VISUALSTYLE
  5
19AE
102
{ACAD_REACTORS
330
1999
102
}
330
1999
100
AcDbVisualStyle
  2
Shaded
 70
    27
177
     3
291
     0
 70
    58
 90
        2
176
     1
 90
        2
176
     1
 90
        1
176
     1
 90
        2
176
     1
 40
0.6
176
     1
 40
30.0
176
     1
 62
     7
176
     1
 90
        0
176
     1
 90
        4
176
     1
 62
     7
176
     1
 62
   257
176
     1
 90
        1
176
     1
 90
        1
176
     1
 40
1.0
176
     1
 90
        8
176
     1
 62
   257
176
     1
 40
1.0
176
     1
 90
        1
176
     1
 90
        6
176
     1
 90
        2
176
     1
 62
     8
176
     1
 90
        3
176
     1
 90
        0
176
     1
 90
        0
176
     1
290
     0
176
     1
 90
        5
176
     1
 40
0.0
176
     1
 90
        0
176
     1
290
     0
176
     1
290
     1
176
     1
290
     1
176
     1
290
     0
176
     1
290
     0
176
     1
290
     0
176
     1
290
     0
176
     1
290
     0
176
     1
290
     0
176
     1
 90
       50
176
     1
 40
0.0
176
     1
 40
1.0
176
     1
 90
        0
176
     1
 62
    18
420
        0
176
     1
 90
       50
176
     1
 90
        3
176
     1
 62
     5
420
      255
176
     1
290
     0
176
     1
 90
       50
176
     1
 90
       50
176
     1
 90
       50
176
     1
290
     0
176
     1
 90
       50
176
     1
 62
   256
176
     0
 40
1.0
176
     0
 90
        2
176
     1
  1
strokes_ogs.tif
176
     1
290
     0
176
     1
 40
1.0
176
     1
 40
1.0
176
     1
  0
VISUALSTYLE
  5
19AD
102
{ACAD_REACTORS
330
1999
102
}
330
1999
100
AcDbVisualStyle
  2
Shaded with edges
 70
    26
177
     3
291
     0
 70
    58
 90
        2
176
     1
 90
        2
176
     1
 90
        1
176
     1
 90
        2
176
     1
 40
0.6
176
     1
 40
30.0
176
     1
 62
     7
176
     1
 90
        1
176
     1
 90
        2
176
     1
 62
     7
176
     1
 62
   257
176
     1
 90
        2
176
     1
 90
        1
176
     1
 40
1.0
176
     1
 90
        8
176
     1
 62
   257
176
     1
 40
1.0
176
     1
 90
        1
176
     1
 90
        6
176
     1
 90
        2
176
     1
 62
     7
176
     1
 90
        3
176
     1
 90
        0
176
     1
 90
        0
176
     1
290
     0
176
     1
 90
        5
176
     1
 40
0.0
176
     1
 90
        0
176
     1
290
     0
176
     1
290
     1
176
     1
290
     1
176
     1
290
     0
176
     1
290
     0
176
     1
290
     0
176
     1
290
     0
176
     1
290
     0
176
     1
290
     0
176
     1
 90
       50
176
     1
 40
0.0
176
     1
 40
1.0
176
     1
 90
        0
176
     1
 62
    18
420
        0
176
     1
 90
       50
176
     1
 90
        3
176
     1
 62
     5
420
      255
176
     1
290
     0
176
     1
 90
       50
176
     1
 90
       50
176
     1
 90
       50
176
     1
290
     0
176
     1
 90
       50
176
     1
 62
   256
176
     0
 40
1.0
176
     0
 90
        2
176
     1
  1
strokes_ogs.tif
176
     1
290
     0
176
     1
 40
1.0
176
     1
 40
1.0
176
     1
  0
VISUALSTYLE
  5
19AA
102
{ACAD_REACTORS
330
1999
102
}
330
1999
100
AcDbVisualStyle
  2
Shades of Gray
 70
    23
177
     3
291
     0
 70
    58
 90
        2
176
     1
 90
        2
176
     1
 90
        3
176
     1
 90
        0
176
     1
 40
0.6
176
     1
 40
30.0
176
     1
 62
     7
176
     1
 90
        2
176
     1
 90
        2
176
     1
 62
     7
176
     1
 62
     7
176
     1
 90
        1
176
     1
 90
        1
176
     1
 40
40.0
176
     1
 90
        8
176
     1
 62
     7
176
     1
 40
1.0
176
     1
 90
        1
176
     1
 90
        6
176
     1
 90
        2
176
     1
 62
     7
176
     1
 90
        3
176
     1
 90
        0
176
     1
 90
        0
176
     1
290
     0
176
     1
 90
        1
176
     1
 40
0.0
176
     1
 90
        0
176
     1
290
     0
176
     1
290
     1
176
     1
290
     1
176
     1
290
     0
176
     1
290
     0
176
     1
290
     0
176
     1
290
     0
176
     1
290
     0
176
     1
290
     0
176
     1
 90
       50
176
     1
 40
0.0
176
     1
 40
1.0
176
     1
 90
        0
176
     1
 62
    18
420
        0
176
     1
 90
       50
176
     1
 90
        3
176
     1
 62
     5
420
      255
176
     1
290
     0
176
     1
 90
       50
176
     1
 90
       50
176
     1
 90
       50
176
     1
290
     0
176
     1
 90
       50
176
     1
 62
   256
176
     0
 40
1.0
176
     0
 90
        2
176
     1
  1
strokes_ogs.tif
176
     1
290
     0
176
     1
 40
1.0
176
     1
 40
1.0
176
     1
  0
VISUALSTYLE
  5
19AB
102
{ACAD_REACTORS
330
1999
102
}
330
1999
100
AcDbVisualStyle
  2
Sketchy
 70
    24
177
     3
291
     0
 70
    58
 90
        1
176
     1
 90
        2
176
     1
 90
        2
176
     1
 90
        0
176
     1
 40
0.6
176
     1
 40
30.0
176
     1
 62
     7
176
     1
 90
        2
176
     1
 90
        2
176
     1
 62
     7
176
     1
 62
     7
176
     1
 90
        1
176
     1
 90
        1
176
     1
 40
40.0
176
     1
 90
       11
176
     1
 62
     7
176
     1
 40
1.0
176
     1
 90
        1
176
     1
 90
        6
176
     1
 90
        2
176
     1
 62
     7
176
     1
 90
        6
176
     1
 90
        0
176
     1
 90
        0
176
     1
290
     0
176
     1
 90
        1
176
     1
 40
0.0
176
     1
 90
        0
176
     1
290
     0
176
     1
290
     1
176
     1
290
     1
176
     1
290
     0
176
     1
290
     0
176
     1
290
     0
176
     1
290
     0
176
     1
290
     0
176
     1
290
     0
176
     1
 90
       50
176
     1
 40
0.0
176
     1
 40
1.0
176
     1
 90
        0
176
     1
 62
    18
420
        0
176
     1
 90
       50
176
     1
 90
        3
176
     1
 62
     5
420
      255
176
     1
290
     0
176
     1
 90
       50
176
     1
 90
       50
176
     1
 90
       50
176
     1
290
     0
176
     1
 90
       50
176
     1
 62
   256
176
     0
 40
1.0
176
     0
 90
        2
176
     1
  1
strokes_ogs.tif
176
     1
290
     0
176
     1
 40
1.0
176
     1
 40
1.0
176
     1
  0
VISUALSTYLE
  5
19A6
102
{ACAD_REACTORS
330
1999
102
}
330
1999
100
AcDbVisualStyle
  2
Thicken
 70
    13
177
     3
291
     1
 70
    58
 90
        2
176
     1
 90
        2
176
     1
 90
        0
176
     1
 90
        0
176
     1
 40
0.6
176
     1
 40
30.0
176
     1
 62
     7
176
     1
 90
        1
176
     1
 90
        4
176
     1
 62
     7
176
     1
 62
   257
176
     1
 90
        1
176
     1
 90
        1
176
     1
 40
1.0
176
     1
 90
       12
176
     1
 62
     7
176
     1
 40
1.0
176
     1
 90
        1
176
     1
 90
        6
176
     1
 90
        2
176
     1
 62
     7
176
     1
 90
        5
176
     1
 90
        0
176
     1
 90
        0
176
     1
290
     0
176
     1
 90
        1
176
     1
 40
0.0
176
     1
 90
        0
176
     1
290
     0
176
     1
290
     1
176
     1
290
     1
176
     1
290
     0
176
     1
290
     0
176
     1
290
     0
176
     1
290
     0
176
     1
290
     0
176
     1
290
     0
176
     1
 90
       50
176
     1
 40
0.0
176
     1
 40
1.0
176
     1
 90
        0
176
     1
 62
    18
420
        0
176
     1
 90
       50
176
     1
 90
        3
176
     1
 62
     5
420
      255
176
     1
290
     0
176
     1
 90
       50
176
     1
 90
       50
176
     1
 90
       50
176
     1
290
     0
176
     1
 90
       50
176
     1
 62
   256
176
     0
 40
1.0
176
     0
 90
        2
176
     1
  1
strokes_ogs.tif
176
     1
290
     0
176
     1
 40
1.0
176
     1
 40
1.0
176
     1
  0
VISUALSTYLE
  5
19A0
102
{ACAD_REACTORS
330
1999
102
}
330
1999
100
AcDbVisualStyle
  2
Wireframe
 70
     5
177
     3
291
     0
 70
    58
 90
        0
176
     1
 90
        2
176
     1
 90
        0
176
     1
 90
        0
176
     1
 40
0.6
176
     1
 40
30.0
176
     1
 62
     7
176
     1
 90
        1
176
     1
 90
        4
176
     1
 62
     7
176
     1
 62
   257
176
     1
 90
        1
176
     1
 90
        1
176
     1
 40
1.0
176
     1
 90
        0
176
     1
 62
   257
176
     1
 40
1.0
176
     1
 90
        1
176
     1
 90
        6
176
     1
 90
        2
176
     1
 62
     7
176
     1
 90
        3
176
     1
 90
        0
176
     1
 90
        0
176
     1
290
     0
176
     1
 90
        1
176
     1
 40
0.0
176
     1
 90
        0
176
     1
290
     0
176
     1
290
     1
176
     1
290
     1
176
     1
290
     0
176
     1
290
     0
176
     1
290
     0
176
     1
290
     0
176
     1
290
     0
176
     1
290
     0
176
     1
 90
       50
176
     1
 40
0.0
176
     1
 40
1.0
176
     1
 90
        0
176
     1
 62
    18
420
        0
176
     1
 90
       50
176
     1
 90
        3
176
     1
 62
     5
420
      255
176
     1
290
     0
176
     1
 90
       50
176
     1
 90
       50
176
     1
 90
       50
176
     1
290
     0
176
     1
 90
       50
176
     1
 62
   256
176
     0
 40
1.0
176
     0
 90
        2
176
     1
  1
strokes_ogs.tif
176
     1
290
     0
176
     1
 40
1.0
176
     1
 40
1.0
176
     1
  0
VISUALSTYLE
  5
19AC
102
{ACAD_REACTORS
330
1999
102
}
330
1999
100
AcDbVisualStyle
  2
X-Ray
 70
    25
177
     3
291
     0
 70
    58
 90
        2
176
     1
 90
        2
176
     1
 90
        1
176
     1
 90
        1
176
     1
 40
0.5
176
     1
 40
30.0
176
     1
 62
     7
176
     1
 90
        1
176
     1
 90
        0
176
     1
 62
     7
176
     1
 62
   257
176
     1
 90
        1
176
     1
 90
        1
176
     1
 40
1.0
176
     1
 90
        8
176
     1
 62
     7
176
     1
 40
1.0
176
     1
 90
        1
176
     1
 90
        6
176
     1
 90
        2
176
     1
 62
     7
176
     1
 90
        3
176
     1
 90
        0
176
     1
 90
        0
176
     1
290
     0
176
     1
 90
       13
176
     1
 40
0.0
176
     1
 90
        0
176
     1
290
     0
176
     1
290
     1
176
     1
290
     1
176
     1
290
     0
176
     1
290
     0
176
     1
290
     0
176
     1
290
     0
176
     1
290
     0
176
     1
290
     0
176
     1
 90
       50
176
     1
 40
0.0
176
     1
 40
1.0
176
     1
 90
        0
176
     1
 62
    18
420
        0
176
     1
 90
       50
176
     1
 90
        3
176
     1
 62
     5
420
      255
176
     1
290
     0
176
     1
 90
       50
176
     1
 90
       50
176
     1
 90
       50
176
     1
290
     0
176
     1
 90
       50
176
     1
 62
   256
176
     0
 40
1.0
176
     0
 90
        2
176
     1
  1
strokes_ogs.tif
176
     1
290
     0
176
     1
 40
1.0
176
     1
 40
1.0
176
     1
  0
DICTIONARYVAR
  5
1A14
102
{ACAD_REACTORS
330
1A0F
102
}
330
1A0F
100
DictionaryVariables
280
     0
  1
1:1
  0
DICTIONARYVAR
  5
1A11
102
{ACAD_REACTORS
330
1A0F
102
}
330
1A0F
100
DictionaryVariables
280
     0
  1
STANDARD
  0
DICTIONARYVAR
  5
1A10
102
{ACAD_REACTORS
330
1A0F
102
}
330
1A0F
100
DictionaryVariables
280
     0
  1
STANDARD
  0
DICTIONARYVAR
  5
1A12
102
{ACAD_REACTORS
330
1A0F
102
}
330
1A0F
100
DictionaryVariables
280
     0
  1
Imperial24
  0
DICTIONARYVAR
  5
1A13
102
{ACAD_REACTORS
330
1A0F
102
}
330
1A0F
100
DictionaryVariables
280
     0
  1
Imperial24
  0
DICTIONARYVAR
  5
1A17
102
{ACAD_REACTORS
330
1A0F
102
}
330
1A0F
100
DictionaryVariables
280
     0
  1
1
  0
DICTIONARYVAR
  5
1A16
102
{ACAD_REACTORS
330
1A0F
102
}
330
1A0F
100
DictionaryVariables
280
     0
  1
0
  0
DICTIONARYVAR
  5
1A60
102
{ACAD_REACTORS
330
1A0F
102
}
330
1A0F
100
DictionaryVariables
280
     0
  1
1
  0
DICTIONARYVAR
  5
1A61
102
{ACAD_REACTORS
330
1A0F
102
}
330
1A0F
100
DictionaryVariables
280
     0
  1
15
  0
DICTIONARYVAR
  5
1A5F
102
{ACAD_REACTORS
330
1A0F
102
}
330
1A0F
100
DictionaryVariables
280
     0
  1
0
  0
DICTIONARYVAR
  5
1A5E
102
{ACAD_REACTORS
330
1A0F
102
}
330
1A0F
100
DictionaryVariables
280
     0
  1
0
  0
DICTIONARYVAR
  5
1A15
102
{ACAD_REACTORS
330
1A0F
102
}
330
1A0F
100
DictionaryVariables
280
     0
  1
127
  0
DICTIONARY
  5
198A
330
1989
100
AcDbDictionary
280
     1
281
     1
  3
BUMPTILE
360
198C
  3
DIFFUSETILE
360
198B
  3
OPACITYTILE
360
198F
  3
REFLECTIONTILE
360
198E
  3
REFRACTIONTILE
360
1990
  3
SPECULARTILE
360
198D
  0
DICTIONARY
  5
1982
330
1981
100
AcDbDictionary
280
     1
281
     1
  3
BUMPTILE
360
1984
  3
DIFFUSETILE
360
1983
  3
OPACITYTILE
360
1987
  3
REFLECTIONTILE
360
1986
  3
REFRACTIONTILE
360
1988
  3
SPECULARTILE
360
1985
  0
DICTIONARY
  5
1992
330
1991
100
AcDbDictionary
280
     1
281
     1
  3
BUMPTILE
360
1994
  3
DIFFUSETILE
360
1993
  3
OPACITYTILE
360
1997
  3
REFLECTIONTILE
360
1996
  3
REFRACTIONTILE
360
1998
  3
SPECULARTILE
360
1995
  0
DICTIONARY
  5
19CD
330
19B4
100
AcDbDictionary
280
     1
281
     1
  3
ACAD_ROUNDTRIP_2008_TABLESTYLE_CELLSTYLEMAP
360
1A6F
  0
XRECORD
  5
198C
102
{ACAD_REACTORS
330
198A
102
}
330
198A
100
AcDbXrecord
280
     1
270
     1
271
     1
  0
XRECORD
  5
198B
102
{ACAD_REACTORS
330
198A
102
}
330
198A
100
AcDbXrecord
280
     1
270
     1
271
     1
  0
XRECORD
  5
198F
102
{ACAD_REACTORS
330
198A
102
}
330
198A
100
AcDbXrecord
280
     1
270
     1
271
     1
  0
XRECORD
  5
198E
102
{ACAD_REACTORS
330
198A
102
}
330
198A
100
AcDbXrecord
280
     1
270
     1
271
     1
  0
XRECORD
  5
1990
102
{ACAD_REACTORS
330
198A
102
}
330
198A
100
AcDbXrecord
280
     1
270
     1
271
     1
  0
XRECORD
  5
198D
102
{ACAD_REACTORS
330
198A
102
}
330
198A
100
AcDbXrecord
280
     1
270
     1
271
     1
  0
XRECORD
  5
1984
102
{ACAD_REACTORS
330
1982
102
}
330
1982
100
AcDbXrecord
280
     1
270
     1
271
     1
  0
XRECORD
  5
1983
102
{ACAD_REACTORS
330
1982
102
}
330
1982
100
AcDbXrecord
280
     1
270
     1
271
     1
  0
XRECORD
  5
1987
102
{ACAD_REACTORS
330
1982
102
}
330
1982
100
AcDbXrecord
280
     1
270
     1
271
     1
  0
XRECORD
  5
1986
102
{ACAD_REACTORS
330
1982
102
}
330
1982
100
AcDbXrecord
280
     1
270
     1
271
     1
  0
XRECORD
  5
1988
102
{ACAD_REACTORS
330
1982
102
}
330
1982
100
AcDbXrecord
280
     1
270
     1
271
     1
  0
XRECORD
  5
1985
102
{ACAD_REACTORS
330
1982
102
}
330
1982
100
AcDbXrecord
280
     1
270
     1
271
     1
  0
XRECORD
  5
1994
102
{ACAD_REACTORS
330
1992
102
}
330
1992
100
AcDbXrecord
280
     1
270
     1
271
     1
  0
XRECORD
  5
1993
102
{ACAD_REACTORS
330
1992
102
}
330
1992
100
AcDbXrecord
280
     1
270
     1
271
     1
  0
XRECORD
  5
1997
102
{ACAD_REACTORS
330
1992
102
}
330
1992
100
AcDbXrecord
280
     1
270
     1
271
     1
  0
XRECORD
  5
1996
102
{ACAD_REACTORS
330
1992
102
}
330
1992
100
AcDbXrecord
280
     1
270
     1
271
     1
  0
XRECORD
  5
1998
102
{ACAD_REACTORS
330
1992
102
}
330
1992
100
AcDbXrecord
280
     1
270
     1
271
     1
  0
XRECORD
  5
1995
102
{ACAD_REACTORS
330
1992
102
}
330
1992
100
AcDbXrecord
280
     1
270
     1
271
     1
  0
CELLSTYLEMAP
  5
1A6F
102
{ACAD_REACTORS
330
19CD
102
}
330
19CD
100
AcDbCellStyleMap
 90
        3
300
CELLSTYLE
  1
TABLEFORMAT_BEGIN
 90
        5
170
     1
 91
        0
 92
    32768
 62
   257
 93
        1
300
CONTENTFORMAT
  1
CONTENTFORMAT_BEGIN
 90
        0
 91
        0
 92
      512
 93
        0
300

 40
0.0
140
1.0
 94
        5
 62
     0
340
11
144
0.25
309
CONTENTFORMAT_END
171
     0
 94
        0
309
TABLEFORMAT_END
  1
CELLSTYLE_BEGIN
 90
        1
 91
        1
300
_TITLE
309
CELLSTYLE_END
300
CELLSTYLE
  1
TABLEFORMAT_BEGIN
 90
        5
170
     1
 91
        0
 92
        0
 62
   257
 93
        1
300
CONTENTFORMAT
  1
CONTENTFORMAT_BEGIN
 90
        0
 91
        0
 92
      512
 93
        0
300

 40
0.0
140
1.0
 94
        5
 62
     0
340
11
144
0.18
309
CONTENTFORMAT_END
171
     0
 94
        0
309
TABLEFORMAT_END
  1
CELLSTYLE_BEGIN
 90
        2
 91
        1
300
_HEADER
309
CELLSTYLE_END
300
CELLSTYLE
  1
TABLEFORMAT_BEGIN
 90
        5
170
     1
 91
        0
 92
        0
 62
   257
 93
        1
300
CONTENTFORMAT
  1
CONTENTFORMAT_BEGIN
 90
        0
 91
        0
 92
      512
 93
        0
300

 40
0.0
140
1.0
 94
        2
 62
     0
340
11
144
0.18
309
CONTENTFORMAT_END
171
     0
 94
        0
309
TABLEFORMAT_END
  1
CELLSTYLE_BEGIN
 90
        3
 91
        2
300
_DATA
309
CELLSTYLE_END
  0
ENDSEC
  0
SECTION
  2
ACDSDATA
 70
     2
 71
     8
  0
ACDSSCHEMA
 90
        0
  1
AcDb_Thumbnail_Schema
  2
AcDbDs::ID
280
    10
 91
        8
  2
Thumbnail_Data
280
    15
 91
        0
101
ACDSRECORD
 95
        0
 90
        1
  2
AcDbDs::TreatedAsObjectData
280
     1
291
     1
101
ACDSRECORD
 95
        0
 90
        2
  2
AcDbDs::Legacy
280
     1
291
     1
101
ACDSRECORD
  1
AcDbDs::ID
 90
        3
  2
AcDs:Indexable
280
     1
291
     1
101
ACDSRECORD
  1
AcDbDs::ID
 90
        4
  2
AcDbDs::HandleAttribute
280
     7
282
     1
  0
ACDSSCHEMA
 90
        1
  1
AcDbDs::TreatedAsObjectDataSchema
  2
AcDbDs::TreatedAsObjectData
280
     1
 91
        0
  0
ACDSSCHEMA
 90
        2
  1
AcDbDs::LegacySchema
  2
AcDbDs::Legacy
280
     1
 91
        0
  0
ACDSSCHEMA
 90
        3
  1
AcDbDs::IndexedPropertySchema
  2
AcDs:Indexable
280
     1
 91
        0
  0
ACDSSCHEMA
 90
        4
  1
AcDbDs::HandleAttributeSchema
  2
AcDbDs::HandleAttribute
280
     7
 91
        1
284
     1
  0
ACDSRECORD
 90
        0
  2
AcDbDs::ID
280
    10
320
197C
  2
Thumbnail_Data
280
    15
 94
     1176
310
89504E470D0A1A0A0000000D4948445200000100000000730803000000406D2C8F00000300504C5445212830FFFFFF2128300000000000000000000000000000000000000000000000000000330000660000990000CC0000FF0033000033330033660033990033CC0033FF0066000066330066660066990066CC0066FF0099
310
000099330099660099990099CC0099FF00CC0000CC3300CC6600CC9900CCCC00CCFF00FF0000FF3300FF6600FF9900FFCC00FFFF3300003300333300663300993300CC3300FF3333003333333333663333993333CC3333FF3366003366333366663366993366CC3366FF3399003399333399663399993399CC3399FF33CC00
310
33CC3333CC6633CC9933CCCC33CCFF33FF0033FF3333FF6633FF9933FFCC33FFFF6600006600336600666600996600CC6600FF6633006633336633666633996633CC6633FF6666006666336666666666996666CC6666FF6699006699336699666699996699CC6699FF66CC0066CC3366CC6666CC9966CCCC66CCFF66FF0066
310
FF3366FF6666FF9966FFCC66FFFF9900009900339900669900999900CC9900FF9933009933339933669933999933CC9933FF9966009966339966669966999966CC9966FF9999009999339999669999999999CC9999FF99CC0099CC3399CC6699CC9999CCCC99CCFF99FF0099FF3399FF6699FF9999FFCC99FFFFCC0000CC00
310
33CC0066CC0099CC00CCCC00FFCC3300CC3333CC3366CC3399CC33CCCC33FFCC6600CC6633CC6666CC6699CC66CCCC66FFCC9900CC9933CC9966CC9999CC99CCCC99FFCCCC00CCCC33CCCC66CCCC99CCCCCCCCCCFFCCFF00CCFF33CCFF66CCFF99CCFFCCCCFFFFFF0000FF0033FF0066FF0099FF00CCFF00FFFF3300FF3333
310
FF3366FF3399FF33CCFF33FFFF6600FF6633FF6666FF6699FF66CCFF66FFFF9900FF9933FF9966FF9999FF99CCFF99FFFFCC00FFCC33FFCC66FFCC99FFCCCCFFCCFFFFFF00FFFF33FFFF66FFFF99FFFFCCFFFFFF0000000D0D0D1A1A1A2828283535354343435050505D5D5D6B6B6B787878868686939393A1A1A1AEAEAEBB
310
BBBBC9C9C9D6D6D6E4E4E4F1F1F1FFFFFF0000000000000000000000000000000000000000000000000000000000002E4550F1000001534944415478DAEDDAC16E83301045D1F9FF6F7D0B6FBC4F7149652C0205475166E61E7555B511BE1A4C94D80CC01728240000000000000000C0A3BAC81CA02CEA2AE50498F45BA12B
310
912A40310DF330E6881DA4AAE8F0F6D84F12274CDD8EC0C97E595E737C0BFC37C0C1142D7B89DB4DD0AE1750FF1FFA113F803ACB73A3FF4DDB0C724DC0CE6BF80E305140EA5F27E108B85FFF9B2EDD7D00CD0D40DA000A3301963E8008C02D30B1FEAC131029C0AD022102BCE5DA5D7F3472FF1E50A800370A040BC0041080
310
5B20790011E0EEFA09E0FB3BA2BF5D5029EF807E049E9FFAB79FD31EF1028C0B3C299121C0E1E6103F8011207780B3E762FC00CF5D20ED04B407E34E819A27C0FAE660733C40ED64D9E6E1E8FDB0D095EB6F272286F706EE0F4B5D5AC03A019636C0CEDF0708503E1AF0EBD63F79CCAF46988039E6DF7808F61A0300000000
310
0000000000000000000098F500F9E2DECD94452B850000000049454E44AE426082
  0
ENDSEC
  0
EOF
