  0
SECTION
  2
HEADER
  9
$ACADVER
  1
AC1032
  9
$ACADMAINTVER
 90
        4
  9
$DWGCODEPAGE
  3
ANSI_1252
  9
$LASTSAVEDBY
  1
mariehp
  9
$REQUIREDVERSIONS
160
                 0
  9
$INSBASE
 10
0.0
 20
0.0
 30
0.0
  9
$EXTMIN
 10
97.81623995260002
 20
21.1124687267
 30
0.0
  9
$EXTMAX
 10
129.7990739544
 20
44.1124687267
 30
0.0
  9
$LIMMIN
 10
0.0
 20
0.0
  9
$LIMMAX
 10
181.3333333333
 20
117.3333333333
  9
$ORTHOMODE
 70
     0
  9
$REGENMODE
 70
     1
  9
$FILLMODE
 70
     1
  9
$QTEXTMODE
 70
     0
  9
$MIRRTEXT
 70
     0
  9
$LTSCALE
 40
9.973333333300001
  9
$ATTMODE
 70
     1
  9
$TEXTSIZE
 40
0.2
  9
$TRACEWID
 40
0.05
  9
$TEXTSTYLE
  7
STANDARD
  9
$CLAYER
  8
0
  9
$CELTYPE
  6
BYLAYER
  9
$CECOLOR
 62
   256
  9
$CELTSCALE
 40
1.0
  9
$DISPSILH
 70
     0
  9
$DIMSCALE
 40
1.0
  9
$DIMASZ
 40
2.0
  9
$DIMEXO
 40
0.0625
  9
$DIMDLI
 40
6.890666666699999
  9
$DIMRND
 40
0.0
  9
$DIMDLE
 40
0.0
  9
$DIMEXE
 40
0.125
  9
$DIMTP
 40
0.001
  9
$DIMTM
 40
0.001
  9
$DIMTXT
 40
1.333333333299999
  9
$DIMCEN
 40
1.631999999999999
  9
$DIMTSZ
 40
0.0
  9
$DIMTOL
 70
     1
  9
$DIMLIM
 70
     0
  9
$DIMTIH
 70
     1
  9
$DIMTOH
 70
     1
  9
$DIMSE1
 70
     0
  9
$DIMSE2
 70
     0
  9
$DIMTAD
 70
     0
  9
$DIMZIN
 70
     0
  9
$DIMBLK
  1
_FILLED
  9
$DIMASO
 70
     1
  9
$DIMSHO
 70
     1
  9
$DIMPOST
  1

  9
$DIMAPOST
  1

  9
$DIMALT
 70
     1
  9
$DIMALTD
 70
     2
  9
$DIMALTF
 40
25.4
  9
$DIMLFAC
 40
1.0
  9
$DIMTOFL
 70
     0
  9
$DIMTVP
 40
0.0
  9
$DIMTIX
 70
     0
  9
$DIMSOXD
 70
     0
  9
$DIMSAH
 70
     0
  9
$DIMBLK1
  1

  9
$DIMBLK2
  1

  9
$DIMSTYLE
  2
STANDARD
  9
$DIMCLRD
 70
     0
  9
$DIMCLRE
 70
     0
  9
$DIMCLRT
 70
     0
  9
$DIMTFAC
 40
1.0
  9
$DIMGAP
 40
0.09
  9
$DIMJUST
 70
     0
  9
$DIMSD1
 70
     0
  9
$DIMSD2
 70
     0
  9
$DIMTOLJ
 70
     1
  9
$DIMTZIN
 70
     0
  9
$DIMALTZ
 70
     0
  9
$DIMALTTZ
 70
     0
  9
$DIMUPT
 70
     0
  9
$DIMDEC
 70
     4
  9
$DIMTDEC
 70
     4
  9
$DIMALTU
 70
     2
  9
$DIMALTTD
 70
     2
  9
$DIMTXSTY
  7
STANDARD
  9
$DIMAUNIT
 70
     0
  9
$DIMADEC
 70
     0
  9
$DIMALTRND
 40
0.0
  9
$DIMAZIN
 70
     0
  9
$DIMDSEP
 70
    46
  9
$DIMATFIT
 70
     3
  9
$DIMFRAC
 70
     0
  9
$DIMLDRBLK
  1

  9
$DIMLUNIT
 70
     2
  9
$DIMLWD
 70
    -2
  9
$DIMLWE
 70
    -2
  9
$DIMTMOVE
 70
     0
  9
$DIMFXL
 40
1.0
  9
$DIMFXLON
 70
     0
  9
$DIMJOGANG
 40
0.7853981633974483
  9
$DIMTFILL
 70
     0
  9
$DIMTFILLCLR
 70
     0
  9
$DIMARCSYM
 70
     0
  9
$DIMLTYPE
  6

  9
$DIMLTEX1
  6

  9
$DIMLTEX2
  6

  9
$DIMTXTDIRECTION
 70
     0
  9
$LUNITS
 70
     2
  9
$LUPREC
 70
     4
  9
$SKETCHINC
 40
0.1
  9
$FILLETRAD
 40
0.0
  9
$AUNITS
 70
     0
  9
$AUPREC
 70
     0
  9
$MENU
  1
.
  9
$ELEVATION
 40
0.0
  9
$PELEVATION
 40
0.0
  9
$THICKNESS
 40
0.0
  9
$LIMCHECK
 70
     0
  9
$CHAMFERA
 40
0.0
  9
$CHAMFERB
 40
0.0
  9
$CHAMFERC
 40
0.0
  9
$CHAMFERD
 40
0.0
  9
$SKPOLY
 70
     0
  9
$TDCREATE
 40
2458662.594108796
  9
$TDUCREATE
 40
2458662.760775463
  9
$TDUPDATE
 40
2458663.592337963
  9
$TDUUPDATE
 40
2458663.759004630
  9
$TDINDWG
 40
0.0035185185
  9
$TDUSRTIMER
 40
0.0035185185
  9
$USRTIMER
 70
     1
  9
$ANGBASE
 50
0.0
  9
$ANGDIR
 70
     0
  9
$PDMODE
 70
     3
  9
$PDSIZE
 40
0.03125
  9
$PLINEWID
 40
0.0
  9
$SPLFRAME
 70
     0
  9
$SPLINETYPE
 70
     6
  9
$SPLINESEGS
 70
     8
  9
$HANDSEED
  5
1A03
  9
$SURFTAB1
 70
     6
  9
$SURFTAB2
 70
     6
  9
$SURFTYPE
 70
     6
  9
$SURFU
 70
     6
  9
$SURFV
 70
     6
  9
$UCSBASE
  2

  9
$UCSNAME
  2

  9
$UCSORG
 10
0.0
 20
0.0
 30
0.0
  9
$UCSXDIR
 10
1.0
 20
0.0
 30
0.0
  9
$UCSYDIR
 10
0.0
 20
1.0
 30
0.0
  9
$UCSORTHOREF
  2

  9
$UCSORTHOVIEW
 70
     0
  9
$UCSORGTOP
 10
0.0
 20
0.0
 30
0.0
  9
$UCSORGBOTTOM
 10
0.0
 20
0.0
 30
0.0
  9
$UCSORGLEFT
 10
0.0
 20
0.0
 30
0.0
  9
$UCSORGRIGHT
 10
0.0
 20
0.0
 30
0.0
  9
$UCSORGFRONT
 10
0.0
 20
0.0
 30
0.0
  9
$UCSORGBACK
 10
0.0
 20
0.0
 30
0.0
  9
$PUCSBASE
  2

  9
$PUCSNAME
  2

  9
$PUCSORG
 10
0.0
 20
0.0
 30
0.0
  9
$PUCSXDIR
 10
1.0
 20
0.0
 30
0.0
  9
$PUCSYDIR
 10
0.0
 20
1.0
 30
0.0
  9
$PUCSORTHOREF
  2

  9
$PUCSORTHOVIEW
 70
     0
  9
$PUCSORGTOP
 10
0.0
 20
0.0
 30
0.0
  9
$PUCSORGBOTTOM
 10
0.0
 20
0.0
 30
0.0
  9
$PUCSORGLEFT
 10
0.0
 20
0.0
 30
0.0
  9
$PUCSORGRIGHT
 10
0.0
 20
0.0
 30
0.0
  9
$PUCSORGFRONT
 10
0.0
 20
0.0
 30
0.0
  9
$PUCSORGBACK
 10
0.0
 20
0.0
 30
0.0
  9
$USERI1
 70
     0
  9
$USERI2
 70
     0
  9
$USERI3
 70
     0
  9
$USERI4
 70
     0
  9
$USERI5
 70
     0
  9
$USERR1
 40
0.0
  9
$USERR2
 40
0.0
  9
$USERR3
 40
0.0
  9
$USERR4
 40
0.0
  9
$USERR5
 40
0.0
  9
$WORLDVIEW
 70
     1
  9
$SHADEDGE
 70
     3
  9
$SHADEDIF
 70
    70
  9
$TILEMODE
 70
     1
  9
$MAXACTVP
 70
    64
  9
$PINSBASE
 10
0.0
 20
0.0
 30
0.0
  9
$PLIMCHECK
 70
     0
  9
$PEXTMIN
 10
1.000000000000000E+20
 20
1.000000000000000E+20
 30
1.000000000000000E+20
  9
$PEXTMAX
 10
-1.000000000000000E+20
 20
-1.000000000000000E+20
 30
-1.000000000000000E+20
  9
$PLIMMIN
 10
0.0
 20
0.0
  9
$PLIMMAX
 10
12.0
 20
9.0
  9
$UNITMODE
 70
     0
  9
$VISRETAIN
 70
     1
  9
$PLINEGEN
 70
     0
  9
$PSLTSCALE
 70
     1
  9
$TREEDEPTH
 70
  3020
  9
$CMLSTYLE
  2
Standard
  9
$CMLJUST
 70
     0
  9
$CMLSCALE
 40
1.0
  9
$PROXYGRAPHICS
 70
     1
  9
$MEASUREMENT
 70
     0
  9
$CELWEIGHT
370
    -1
  9
$ENDCAPS
280
     0
  9
$JOINSTYLE
280
     0
  9
$LWDISPLAY
290
     0
  9
$INSUNITS
 70
     1
  9
$HYPERLINKBASE
  1

  9
$STYLESHEET
  1

  9
$XEDIT
290
     1
  9
$CEPSNTYPE
380
     0
  9
$PSTYLEMODE
290
     1
  9
$FINGERPRINTGUID
  2
{05CF58BD-06B3-C046-B5EC-1A98C755D10C}
  9
$VERSIONGUID
  2
{F863F152-E607-5041-9F38-999FD7AE9549}
  9
$EXTNAMES
290
     1
  9
$PSVPSCALE
 40
0.0
  9
$OLESTARTUP
290
     0
  9
$SORTENTS
280
   127
  9
$INDEXCTL
280
     0
  9
$HIDETEXT
280
     0
  9
$XCLIPFRAME
280
     2
  9
$HALOGAP
280
     0
  9
$OBSCOLOR
 70
   257
  9
$OBSLTYPE
280
     0
  9
$INTERSECTIONDISPLAY
280
     0
  9
$INTERSECTIONCOLOR
 70
   257
  9
$DIMASSOC
280
     1
  9
$PROJECTNAME
  1

  9
$CAMERADISPLAY
290
     0
  9
$LENSLENGTH
 40
50.0
  9
$CAMERAHEIGHT
 40
0.0
  9
$STEPSPERSEC
 40
2.0
  9
$STEPSIZE
 40
6.0
  9
$3DDWFPREC
 40
2.0
  9
$PSOLWIDTH
 40
0.25
  9
$PSOLHEIGHT
 40
4.0
  9
$LOFTANG1
 40
1.570796326794896
  9
$LOFTANG2
 40
1.570796326794896
  9
$LOFTMAG1
 40
0.0
  9
$LOFTMAG2
 40
0.0
  9
$LOFTPARAM
 70
     7
  9
$LOFTNORMALS
280
     1
  9
$LATITUDE
 40
37.795
  9
$LONGITUDE
 40
-122.394
  9
$NORTHDIRECTION
 40
0.0
  9
$TIMEZONE
 70
 -8000
  9
$LIGHTGLYPHDISPLAY
280
     1
  9
$TILEMODELIGHTSYNCH
280
     1
  9
$CMATERIAL
347
1911
  9
$SOLIDHIST
280
     0
  9
$SHOWHIST
280
     1
  9
$DWFFRAME
280
     2
  9
$DGNFRAME
280
     0
  9
$REALWORLDSCALE
290
     1
  9
$INTERFERECOLOR
 62
     1
  9
$INTERFEREOBJVS
345
1933
  9
$INTERFEREVPVS
346
1930
  9
$CSHADOW
280
     0
  9
$SHADOWPLANELOCATION
 40
0.0
  0
ENDSEC
  0
SECTION
  2
CLASSES
  0
CLASS
  1
ACDBDICTIONARYWDFLT
  2
AcDbDictionaryWithDefault
  3
ObjectDBX Classes
 90
        0
 91
        1
280
     0
281
     0
  0
CLASS
  1
MATERIAL
  2
AcDbMaterial
  3
ObjectDBX Classes
 90
     1153
 91
        3
280
     0
281
     0
  0
CLASS
  1
VISUALSTYLE
  2
AcDbVisualStyle
  3
ObjectDBX Classes
 90
     4095
 91
       24
280
     0
281
     0
  0
CLASS
  1
TABLESTYLE
  2
AcDbTableStyle
  3
ObjectDBX Classes
 90
     4095
 91
        1
280
     0
281
     0
  0
CLASS
  1
SCALE
  2
AcDbScale
  3
ObjectDBX Classes
 90
     1153
 91
       17
280
     0
281
     0
  0
CLASS
  1
MLEADERSTYLE
  2
AcDbMLeaderStyle
  3
ACDB_MLEADERSTYLE_CLASS
 90
     4095
 91
        1
280
     0
281
     0
  0
CLASS
  1
ACDBSECTIONVIEWSTYLE
  2
AcDbSectionViewStyle
  3
ObjectDBX Classes
 90
     1025
 91
        1
280
     0
281
     0
  0
CLASS
  1
ACDBDETAILVIEWSTYLE
  2
AcDbDetailViewStyle
  3
ObjectDBX Classes
 90
     1025
 91
        1
280
     0
281
     0
  0
CLASS
  1
CELLSTYLEMAP
  2
AcDbCellStyleMap
  3
ObjectDBX Classes
 90
     1152
 91
        1
280
     0
281
     0
  0
CLASS
  1
DICTIONARYVAR
  2
AcDbDictionaryVar
  3
ObjectDBX Classes
 90
        0
 91
       12
280
     0
281
     0
  0
ENDSEC
  0
SECTION
  2
TABLES
  0
TABLE
  2
VPORT
  5
8
102
{ACAD_XDICTIONARY
360
1960
102
}
330
0
100
AcDbSymbolTable
 70
     1
  0
VPORT
  5
1F4
330
8
100
AcDbSymbolTableRecord
100
AcDbViewportTableRecord
  2
*ACTIVE
 70
     0
 10
0.0
 20
0.0
 11
1.0
 21
1.0
 12
115.37049848303
 22
32.73158303806827
 13
0.0
 23
0.0
 14
1.0
 24
1.0
 15
0.0
 25
0.0
 16
0.0
 26
0.0
 36
1.0
 17
0.0
 27
0.0
 37
0.0
 40
65.01159430619125
 41
2.212355212355212
 42
50.0
 43
0.0
 44
0.0
 50
0.0
 51
0.0
 71
     0
 72
   100
 73
     1
 74
     1
 75
     0
 76
     0
 77
     0
 78
     0
281
     0
 65
     1
110
0.0
120
0.0
130
0.0
111
1.0
121
0.0
131
0.0
112
0.0
122
1.0
132
0.0
 79
     0
146
0.0
348
192F
 60
     3
 61
     5
292
     1
282
     1
141
0.0
142
0.0
 63
   250
421
  3355443
1001
ACAD_NAV_VCDISPLAY
1070
     3
  0
ENDTAB
  0
TABLE
  2
LTYPE
  5
5
330
0
100
AcDbSymbolTable
 70
     6
  0
LTYPE
  5
14
330
5
100
AcDbSymbolTableRecord
100
AcDbLinetypeTableRecord
  2
BYBLOCK
 70
     0
  3

 72
    65
 73
     0
 40
0.0
  0
LTYPE
  5
15
330
5
100
AcDbSymbolTableRecord
100
AcDbLinetypeTableRecord
  2
BYLAYER
 70
     0
  3

 72
    65
 73
     0
 40
0.0
  0
LTYPE
  5
16
330
5
100
AcDbSymbolTableRecord
100
AcDbLinetypeTableRecord
  2
CONTINUOUS
 70
     0
  3
Solid line
 72
    65
 73
     0
 40
0.0
  0
LTYPE
  5
1F5
330
5
100
AcDbSymbolTableRecord
100
AcDbLinetypeTableRecord
  2
CENTER
 70
     0
  3
____ _ ____ _ ____ _ ____ _ ____ _ ____ _ ____
 72
    65
 73
     4
 40
0.6
 49
0.375
 74
     0
 49
-0.075
 74
     0
 49
0.075
 74
     0
 49
-0.075
 74
     0
  0
LTYPE
  5
1F6
330
5
100
AcDbSymbolTableRecord
100
AcDbLinetypeTableRecord
  2
HIDDEN
 70
     0
  3
- - - - - - - - - - - - - - - - - - - -
 72
    65
 73
     2
 40
0.2
 49
0.1
 74
     0
 49
-0.1
 74
     0
  0
LTYPE
  5
1F7
330
5
100
AcDbSymbolTableRecord
100
AcDbLinetypeTableRecord
  2
PHANTOM
 70
     0
  3
_____ _ _ _____ _ _ _____ _ _ _____
 72
    65
 73
     6
 40
0.8
 49
0.45
 74
     0
 49
-0.05
 74
     0
 49
0.1
 74
     0
 49
-0.05
 74
     0
 49
0.1
 74
     0
 49
-0.05
 74
     0
  0
LTYPE
  5
1F8
330
5
100
AcDbSymbolTableRecord
100
AcDbLinetypeTableRecord
  2
DOT
 70
     0
  3
. . . . . . . . . . . . . . . . . . . .
 72
    65
 73
     2
 40
0.2
 49
0.1
 74
     0
 49
-0.1
 74
     0
  0
LTYPE
  5
1F9
330
5
100
AcDbSymbolTableRecord
100
AcDbLinetypeTableRecord
  2
DASHED
 70
     0
  3
- - - - - - - - - - - - - - - - - - - -
 72
    65
 73
     2
 40
0.2
 49
0.1
 74
     0
 49
-0.1
 74
     0
  0
ENDTAB
  0
TABLE
  2
LAYER
  5
2
102
{ACAD_XDICTIONARY
360
19F7
102
}
330
0
100
AcDbSymbolTable
 70
    31
  0
LAYER
  5
10
102
{ACAD_XDICTIONARY
360
19AD
102
}
330
2
100
AcDbSymbolTableRecord
100
AcDbLayerTableRecord
  2
0
 70
     0
 62
     7
  6
CONTINUOUS
370
    -3
390
F
347
1921
348
0
  0
LAYER
  5
1FA
102
{ACAD_XDICTIONARY
360
19AF
102
}
330
2
100
AcDbSymbolTableRecord
100
AcDbLayerTableRecord
  2
DEFAULT_1
 70
     0
 62
     7
  6
CENTER
370
    -3
390
F
347
1921
348
0
  0
LAYER
  5
1FB
102
{ACAD_XDICTIONARY
360
19B1
102
}
330
2
100
AcDbSymbolTableRecord
100
AcDbLayerTableRecord
  2
DEFAULT_2
 70
     0
 62
     8
  6
HIDDEN
370
    -3
390
F
347
1921
348
0
  0
LAYER
  5
1FC
102
{ACAD_XDICTIONARY
360
19B3
102
}
330
2
100
AcDbSymbolTableRecord
100
AcDbLayerTableRecord
  2
DEFAULT_3
 70
     0
 62
     7
  6
PHANTOM
370
    -3
390
F
347
1921
348
0
  0
LAYER
  5
1FD
102
{ACAD_XDICTIONARY
360
19B5
102
}
330
2
100
AcDbSymbolTableRecord
100
AcDbLayerTableRecord
  2
0_DEFAULT
 70
     0
 62
     7
  6
CONTINUOUS
370
    -3
390
F
347
1921
348
0
  0
LAYER
  5
1FE
102
{ACAD_XDICTIONARY
360
19B7
102
}
330
2
100
AcDbSymbolTableRecord
100
AcDbLayerTableRecord
  2
1_CURVES
 70
     0
 62
     7
  6
CONTINUOUS
370
    -3
390
F
347
1921
348
0
  0
LAYER
  5
1FF
102
{ACAD_XDICTIONARY
360
19B9
102
}
330
2
100
AcDbSymbolTableRecord
100
AcDbLayerTableRecord
  2
1_CURVES_CHROMO_INV
 70
     0
 62
     7
  6
CONTINUOUS
370
    -3
390
F
347
1921
348
0
  0
LAYER
  5
200
102
{ACAD_XDICTIONARY
360
19BB
102
}
330
2
100
AcDbSymbolTableRecord
100
AcDbLayerTableRecord
  2
1_CURVES_DOT
 70
     0
 62
     7
  6
CONTINUOUS
370
    -3
390
F
347
1921
348
0
  0
LAYER
  5
201
102
{ACAD_XDICTIONARY
360
19BD
102
}
330
2
100
AcDbSymbolTableRecord
100
AcDbLayerTableRecord
  2
1_CURVES_JETS
 70
     0
 62
     7
  6
CONTINUOUS
370
    -3
390
F
347
1921
348
0
  0
LAYER
  5
202
102
{ACAD_XDICTIONARY
360
19BF
102
}
330
2
100
AcDbSymbolTableRecord
100
AcDbLayerTableRecord
  2
1_CURVES_SPEC_FRONT
 70
     0
 62
     7
  6
CONTINUOUS
370
    -3
390
F
347
1921
348
0
  0
LAYER
  5
203
102
{ACAD_XDICTIONARY
360
19C1
102
}
330
2
100
AcDbSymbolTableRecord
100
AcDbLayerTableRecord
  2
1_CURVES_SPEC_RIGHT
 70
     0
 62
     7
  6
CONTINUOUS
370
    -3
390
F
347
1921
348
0
  0
LAYER
  5
204
102
{ACAD_XDICTIONARY
360
19C3
102
}
330
2
100
AcDbSymbolTableRecord
100
AcDbLayerTableRecord
  2
2_PLANES
 70
     0
 62
     7
  6
CONTINUOUS
370
    -3
390
F
347
1921
348
0
  0
LAYER
  5
205
102
{ACAD_XDICTIONARY
360
19C5
102
}
330
2
100
AcDbSymbolTableRecord
100
AcDbLayerTableRecord
  2
2_PLANES_CHROMO_INV
 70
     0
 62
     7
  6
CONTINUOUS
370
    -3
390
F
347
1921
348
0
  0
LAYER
  5
206
102
{ACAD_XDICTIONARY
360
19C7
102
}
330
2
100
AcDbSymbolTableRecord
100
AcDbLayerTableRecord
  2
2_PLANES_JETS
 70
     0
 62
     7
  6
CONTINUOUS
370
    -3
390
F
347
1921
348
0
  0
LAYER
  5
207
102
{ACAD_XDICTIONARY
360
19C9
102
}
330
2
100
AcDbSymbolTableRecord
100
AcDbLayerTableRecord
  2
3_POINTS
 70
     0
 62
     7
  6
CONTINUOUS
370
    -3
390
F
347
1921
348
0
  0
LAYER
  5
208
102
{ACAD_XDICTIONARY
360
19CB
102
}
330
2
100
AcDbSymbolTableRecord
100
AcDbLayerTableRecord
  2
3_POINTS_JETS
 70
     0
 62
     7
  6
CONTINUOUS
370
    -3
390
F
347
1921
348
0
  0
LAYER
  5
209
102
{ACAD_XDICTIONARY
360
19CD
102
}
330
2
100
AcDbSymbolTableRecord
100
AcDbLayerTableRecord
  2
3_POINTS_SPEC
 70
     0
 62
     7
  6
CONTINUOUS
370
    -3
390
F
347
1921
348
0
  0
LAYER
  5
20A
102
{ACAD_XDICTIONARY
360
19CF
102
}
330
2
100
AcDbSymbolTableRecord
100
AcDbLayerTableRecord
  2
4_CSYS
 70
     0
 62
     7
  6
CONTINUOUS
370
    -3
390
F
347
1921
348
0
  0
LAYER
  5
20B
102
{ACAD_XDICTIONARY
360
19D1
102
}
330
2
100
AcDbSymbolTableRecord
100
AcDbLayerTableRecord
  2
5_AXIS
 70
     0
 62
     7
  6
CONTINUOUS
370
    -3
390
F
347
1921
348
0
  0
LAYER
  5
20C
102
{ACAD_XDICTIONARY
360
19D3
102
}
330
2
100
AcDbSymbolTableRecord
100
AcDbLayerTableRecord
  2
5_AXIS_CHROMO_INV
 70
     0
 62
     7
  6
CONTINUOUS
370
    -3
390
F
347
1921
348
0
  0
LAYER
  5
20D
102
{ACAD_XDICTIONARY
360
19D5
102
}
330
2
100
AcDbSymbolTableRecord
100
AcDbLayerTableRecord
  2
5_AXIS_JETS
 70
     0
 62
     7
  6
CONTINUOUS
370
    -3
390
F
347
1921
348
0
  0
LAYER
  5
20E
102
{ACAD_XDICTIONARY
360
19D7
102
}
330
2
100
AcDbSymbolTableRecord
100
AcDbLayerTableRecord
  2
6_SURFACES
 70
     0
 62
     7
  6
CONTINUOUS
370
    -3
390
F
347
1921
348
0
  0
LAYER
  5
20F
102
{ACAD_XDICTIONARY
360
19D9
102
}
330
2
100
AcDbSymbolTableRecord
100
AcDbLayerTableRecord
  2
6_SURFACES_CHROMO_INV
 70
     0
 62
     7
  6
CONTINUOUS
370
    -3
390
F
347
1921
348
0
  0
LAYER
  5
210
102
{ACAD_XDICTIONARY
360
19DB
102
}
330
2
100
AcDbSymbolTableRecord
100
AcDbLayerTableRecord
  2
6_SURFACES_JUPE
 70
     0
 62
     7
  6
CONTINUOUS
370
    -3
390
F
347
1921
348
0
  0
LAYER
  5
211
102
{ACAD_XDICTIONARY
360
19DD
102
}
330
2
100
AcDbSymbolTableRecord
100
AcDbLayerTableRecord
  2
6_SURFACES_OFFSET_FIBRE_ACRYLIQ
 70
     0
 62
     7
  6
CONTINUOUS
370
    -3
390
F
347
1921
348
0
  0
LAYER
  5
212
102
{ACAD_XDICTIONARY
360
19DF
102
}
330
2
100
AcDbSymbolTableRecord
100
AcDbLayerTableRecord
  2
6_SURFACES_TOOLING
 70
     0
 62
     7
  6
CONTINUOUS
370
    -3
390
F
347
1921
348
0
  0
LAYER
  5
213
102
{ACAD_XDICTIONARY
360
19E1
102
}
330
2
100
AcDbSymbolTableRecord
100
AcDbLayerTableRecord
  2
6_SURFACES_TOOLING_DROP-IN
 70
     0
 62
     7
  6
CONTINUOUS
370
    -3
390
F
347
1921
348
0
  0
LAYER
  5
214
102
{ACAD_XDICTIONARY
360
19E3
102
}
330
2
100
AcDbSymbolTableRecord
100
AcDbLayerTableRecord
  2
6_SURFACES_TOOLING_FS-INT
 70
     0
 62
     7
  6
CONTINUOUS
370
    -3
390
F
347
1921
348
0
  0
LAYER
  5
215
102
{ACAD_XDICTIONARY
360
19E5
102
}
330
2
100
AcDbSymbolTableRecord
100
AcDbLayerTableRecord
  2
7_NOTES
 70
     0
 62
     7
  6
CONTINUOUS
370
    -3
390
F
347
1921
348
0
  0
LAYER
  5
216
102
{ACAD_XDICTIONARY
360
19E7
102
}
330
2
100
AcDbSymbolTableRecord
100
AcDbLayerTableRecord
  2
DEGAGEMENT_SERIGRAPHIE
 70
     0
 62
     7
  6
CONTINUOUS
370
    -3
390
F
347
1921
348
0
  0
LAYER
  5
217
102
{ACAD_XDICTIONARY
360
19E9
102
}
330
2
100
AcDbSymbolTableRecord
100
AcDbLayerTableRecord
  2
XSEC_DATUMS
 70
     0
 62
     7
  6
CONTINUOUS
370
    -3
390
F
347
1921
348
0
  0
ENDTAB
  0
TABLE
  2
STYLE
  5
3
330
0
100
AcDbSymbolTable
 70
     2
  0
STYLE
  5
11
330
3
100
AcDbSymbolTableRecord
100
AcDbTextStyleTableRecord
  2
STANDARD
 70
     0
 40
0.0
 41
1.0
 50
0.0
 71
     0
 42
0.2
  3
trium.ttf
  4

  0
STYLE
  5
218
330
3
100
AcDbSymbolTableRecord
100
AcDbTextStyleTableRecord
  2
TEXTSTYLE_1
 70
     0
 40
0.0
 41
0.8
 50
0.0
 71
     0
 42
0.2
  3
gdt
  4

  0
ENDTAB
  0
TABLE
  2
VIEW
  5
6
330
0
100
AcDbSymbolTable
 70
     0
  0
ENDTAB
  0
TABLE
  2
UCS
  5
7
330
0
100
AcDbSymbolTable
 70
     0
  0
ENDTAB
  0
TABLE
  2
APPID
  5
9
330
0
100
AcDbSymbolTable
 70
     3
  0
APPID
  5
219
330
9
100
AcDbSymbolTableRecord
100
AcDbRegAppTableRecord
  2
ACAD
 70
     0
  0
APPID
  5
199A
330
9
100
AcDbSymbolTableRecord
100
AcDbRegAppTableRecord
  2
ACAD_MLEADERVER
 70
     0
  0
APPID
  5
19EB
330
9
100
AcDbSymbolTableRecord
100
AcDbRegAppTableRecord
  2
ACAD_NAV_VCDISPLAY
 70
     0
  0
ENDTAB
  0
TABLE
  2
DIMSTYLE
  5
A
330
0
100
AcDbSymbolTable
 70
     1
100
AcDbDimStyleTable
 71
     0
  0
DIMSTYLE
105
21D
330
A
100
AcDbSymbolTableRecord
100
AcDbDimStyleTableRecord
  2
STANDARD
 70
     0
 41
2.0
 44
0.125
 47
0.001
 48
0.001
 71
     1
 78
     4
 79
     1
140
1.333333333299999
170
     1
179
     3
271
     3
272
     3
284
     4
340
11
341
21C
342
21C
343
21C
344
21C
  0
ENDTAB
  0
TABLE
  2
BLOCK_RECORD
  5
1
330
0
100
AcDbSymbolTable
 70
     1
  0
BLOCK_RECORD
  5
21A
330
1
100
AcDbSymbolTableRecord
100
AcDbBlockTableRecord
  2
*Model_Space
340
190C
 70
     0
280
     1
281
     0
  0
BLOCK_RECORD
  5
21B
330
1
100
AcDbSymbolTableRecord
100
AcDbBlockTableRecord
  2
*Paper_Space
340
190D
 70
     0
280
     1
281
     0
  0
BLOCK_RECORD
  5
21C
330
1
100
AcDbSymbolTableRecord
100
AcDbBlockTableRecord
  2
_FILLED
340
0
 70
     0
280
     1
281
     0
  0
ENDTAB
  0
ENDSEC
  0
SECTION
  2
BLOCKS
  0
BLOCK
  5
20
330
21A
100
AcDbEntity
  8
0
100
AcDbBlockBegin
  2
*Model_Space
 70
     0
 10
0.0
 20
0.0
 30
0.0
  3
*Model_Space
  1

  0
ENDBLK
  5
21
330
21A
100
AcDbEntity
  8
0
100
AcDbBlockEnd
  0
BLOCK
  5
1C
330
21B
100
AcDbEntity
 67
     1
  8
0
100
AcDbBlockBegin
  2
*Paper_Space
 70
     0
 10
0.0
 20
0.0
 30
0.0
  3
*Paper_Space
  1

  0
ENDBLK
  5
1D
330
21B
100
AcDbEntity
 67
     1
  8
0
100
AcDbBlockEnd
  0
BLOCK
  5
21E
330
21C
100
AcDbEntity
  8
0
100
AcDbBlockBegin
  2
_FILLED
 70
     0
 10
0.0
 20
0.0
 30
0.0
  3
_FILLED
  1

  0
SOLID
  5
21F
330
21C
100
AcDbEntity
  8
0
  6
ByBlock
 62
     0
100
AcDbTrace
 10
0.0
 20
0.0
 30
0.0
 11
-1.0
 21
0.1666666667
 31
0.0
 12
-1.0
 22
-0.1666666667
 32
0.0
 13
-1.0
 23
-0.1666666667
 33
0.0
  0
ENDBLK
  5
220
330
21C
100
AcDbEntity
  8
0
  6
ByBlock
 62
     0
100
AcDbBlockEnd
  0
ENDSEC
  0
SECTION
  2
ENTITIES
  0
LWPOLYLINE
  5
240
330
21A
100
AcDbEntity
  8
0
  6
Continuous
 62
     7
100
AcDbPolyline
 90
        6
 70
     0
 43
0.0
 10
100.6778445984
 20
21.2807488739
 10
100.6795897519
 20
21.276676944
 10
100.6856870622
 20
21.2640780926
 10
100.6925904739
 20
21.2519448725
 10
100.7001033566
 20
21.2404310669
 10
100.705466268
 20
21.232984314
  0
LINE
  5
241
330
21A
100
AcDbEntity
  8
6_SURFACES
  6
Continuous
 62
     7
100
AcDbLine
 10
97.81859303639999
 20
43.9874687267
 30
0.0
 11
97.81659765090001
 21
44.01027608689999
 31
0.0
  0
LINE
  5
242
330
21A
100
AcDbEntity
  8
0
  6
Continuous
 62
     7
100
AcDbLine
 10
97.82406107790002
 20
43.9249687267
 30
0.0
 11
97.81859303639999
 21
43.9874687267
 31
0.0
  0
LWPOLYLINE
  5
243
330
21A
100
AcDbEntity
  8
0
  6
Continuous
 62
     7
100
AcDbPolyline
 90
        6
 70
     0
 43
0.0
 10
100.8503865035
 20
21.1224203534
 10
100.8531764059
 20
21.1215720454
 10
100.8619335472
 20
21.1191985049
 10
100.8704519112
 20
21.1172895836
 10
100.8786063277
 20
21.1158069351
 10
100.8822162815
 20
21.1152519758
  0
LWPOLYLINE
  5
244
330
21A
100
AcDbEntity
  8
0
  6
Continuous
 62
     7
100
AcDbPolyline
 90
        6
 70
     0
 43
0.0
 10
126.7331058608
 20
21.1152531736
 10
126.7360700085
 20
21.1157045193
 10
126.7446223115
 20
21.1172413138
 10
126.7536209198
 20
21.1192580113
 10
126.7628827781
 20
21.1217941968
 10
126.7649470008
 20
21.1224264742
  0
LWPOLYLINE
  5
245
330
21A
100
AcDbEntity
  8
6_SURFACES
  6
Continuous
 62
     7
100
AcDbPolyline
 90
        6
 70
     0
 43
0.0
 10
126.7331058608
 20
21.1152531736
 10
126.7360700085
 20
21.1157045193
 10
126.7446223115
 20
21.1172413138
 10
126.7536209198
 20
21.1192580113
 10
126.7628827781
 20
21.1217941968
 10
126.7649470008
 20
21.1224264742
  0
LINE
  5
246
330
21A
100
AcDbEntity
  8
0
  6
Continuous
 62
     7
100
AcDbLine
 10
100.9319522881
 20
21.1124687267
 30
0.0
 11
126.6833616188
 21
21.1124687267
 31
0.0
  0
LINE
  5
247
330
21A
100
AcDbEntity
  8
DEFAULT_2
  6
HIDDEN
 62
     8
100
AcDbLine
 10
122.1323810167
 20
25.2911804157
 30
0.0
 11
115.4073626616
 21
25.1150796125
 31
0.0
  0
LINE
  5
248
330
21A
100
AcDbEntity
  8
DEFAULT_2
  6
HIDDEN
 62
     8
100
AcDbLine
 10
114.7041020146
 20
24.6124687267
 30
0.0
 11
114.6997609281
 21
24.6124687267
 31
0.0
  0
LINE
  5
249
330
21A
100
AcDbEntity
  8
DEFAULT_2
  6
HIDDEN
 62
     8
100
AcDbLine
 10
114.6997609281
 20
24.6124687267
 30
0.0
 11
112.1655529788
 21
24.6124687267
 31
0.0
  0
LINE
  5
24A
330
21A
100
AcDbEntity
  8
DEFAULT_2
  6
HIDDEN
 62
     8
100
AcDbLine
 10
112.1655529788
 20
24.6124687267
 30
0.0
 11
112.1612118923
 21
24.6124687267
 31
0.0
  0
LINE
  5
24B
330
21A
100
AcDbEntity
  8
DEFAULT_2
  6
HIDDEN
 62
     8
100
AcDbLine
 10
104.747905077
 20
25.2907925789
 30
0.0
 11
111.4579513367
 21
25.115079672
 31
0.0
  0
LINE
  5
24C
330
21A
100
AcDbEntity
  8
6_SURFACES
  6
HIDDEN
 62
     8
100
AcDbLine
 10
111.9844336487
 20
24.6856920314
 30
0.0
 11
111.62818364
 21
25.0419420401
 31
0.0
  0
LINE
  5
24D
330
21A
100
AcDbEntity
  8
DEFAULT_1
  6
CENTER
 62
     7
100
AcDbLine
 10
113.4326569535
 20
23.4135193939
 30
0.0
 11
113.4326569535
 21
26.04845757570001
 31
0.0
  0
LINE
  5
24E
330
21A
100
AcDbEntity
  8
6_SURFACES
  6
HIDDEN
 62
     8
100
AcDbLine
 10
114.8808802582
 20
24.6856920314
 30
0.0
 11
115.2371302034
 21
25.0419419766
 31
0.0
  0
LINE
  5
24F
330
21A
100
AcDbEntity
  8
0
  6
Continuous
 62
     7
100
AcDbLine
 10
129.7074424745
 20
41.9130699131
 30
0.0
 11
129.721035545
 21
41.93941698169999
 31
0.0
  0
LINE
  5
250
330
21A
100
AcDbEntity
  8
DEFAULT_1
  6
CENTER
 62
     7
100
AcDbLine
 10
127.6806333312
 20
41.6153681051
 30
0.0
 11
126.6138666645
 21
41.6153681051
 31
0.0
  0
LINE
  5
251
330
21A
100
AcDbEntity
  8
DEFAULT_1
  6
CENTER
 62
     7
100
AcDbLine
 10
127.6806333312
 20
41.6153681051
 30
0.0
 11
128.7473999978
 21
41.6153681051
 31
0.0
  0
LINE
  5
252
330
21A
100
AcDbEntity
  8
0
  6
Continuous
 62
     9
100
AcDbLine
 10
125.4658757023
 20
43.9874687267
 30
0.0
 11
125.4678579593
 21
44.0102762666
 31
0.0
  0
LINE
  5
253
330
21A
100
AcDbEntity
  8
DEFAULT_2
  6
HIDDEN
 62
     8
100
AcDbLine
 10
127.5454468306
 20
41.19927894039999
 30
0.0
 11
127.8158247658
 21
42.03145726989999
 31
0.0
  0
LINE
  5
254
330
21A
100
AcDbEntity
  8
DEFAULT_2
  6
HIDDEN
 62
     8
100
AcDbLine
 10
127.5261341209
 20
41.1398376311
 30
0.0
 11
127.5249990087
 21
41.1363435287
 31
0.0
  0
LINE
  5
255
330
21A
100
AcDbEntity
  8
0
  6
Continuous
 62
     7
100
AcDbLine
 10
129.7967206416
 20
43.9874687267
 30
0.0
 11
97.81859326530002
 21
43.9874687267
 31
0.0
  0
LINE
  5
256
330
21A
100
AcDbEntity
  8
0
  6
Continuous
 62
     9
100
AcDbLine
 10
97.81659765090001
 20
44.01027608689999
 30
0.0
 11
99.51196169440001
 21
44.01027611129999
 31
0.0
  0
LINE
  5
257
330
21A
100
AcDbEntity
  8
0
  6
Continuous
 62
     9
100
AcDbLine
 10
102.1474559476
 20
44.0102762666
 30
0.0
 11
125.4678579593
 21
44.0102762666
 31
0.0
  0
LINE
  5
258
330
21A
100
AcDbEntity
  8
0
  6
Continuous
 62
     9
100
AcDbLine
 10
128.1033522125
 20
44.01027611129999
 30
0.0
 11
129.798716256
 21
44.01027608689999
 31
0.0
  0
LINE
  5
259
330
21A
100
AcDbEntity
  8
0
  6
Continuous
 62
     7
100
AcDbLine
 10
97.91024018139999
 20
44.1124687267
 30
0.0
 11
129.7050737255
 21
44.1124687267
 31
0.0
  0
LINE
  5
25A
330
21A
100
AcDbEntity
  8
DEFAULT_1
  6
CENTER
 62
     7
100
AcDbLine
 10
127.6806333312
 20
41.6153681051
 30
0.0
 11
127.6806333312
 21
40.5486014385
 31
0.0
  0
LINE
  5
25B
330
21A
100
AcDbEntity
  8
DEFAULT_1
  6
CENTER
 62
     7
100
AcDbLine
 10
127.6806333312
 20
41.6153681051
 30
0.0
 11
127.6806333312
 21
42.6821347718
 31
0.0
  0
LINE
  5
25C
330
21A
100
AcDbEntity
  8
DEFAULT_1
  6
CENTER
 62
     7
100
AcDbLine
 10
126.577007741
 20
41.9739407478
 30
0.0
 11
128.9923062737
 21
41.1892009787
 31
0.0
  0
LINE
  5
25D
330
21A
100
AcDbEntity
  8
6_SURFACES
  6
Continuous
 62
     7
100
AcDbLine
 10
129.791252829
 20
43.9249687267
 30
0.0
 11
129.798716256
 21
44.01027608689999
 31
0.0
  0
LINE
  5
25E
330
21A
100
AcDbEntity
  8
0
  6
Continuous
 62
     7
100
AcDbLine
 10
129.7358729907
 20
42.0766504495
 30
0.0
 11
129.7400342231
 21
42.12340712909999
 31
0.0
  0
LINE
  5
25F
330
21A
100
AcDbEntity
  8
0
  6
Continuous
 62
     7
100
AcDbLine
 10
129.7405023155
 20
42.1262258529
 30
0.0
 11
129.736341083
 21
42.0794691734
 31
0.0
  0
LINE
  5
260
330
21A
100
AcDbEntity
  8
0
  6
Continuous
 62
     7
100
AcDbLine
 10
129.7409454054
 20
42.1262276743
 30
0.0
 11
129.736784173
 21
42.0794709948
 31
0.0
  0
LINE
  5
261
330
21A
100
AcDbEntity
  8
0
  6
Continuous
 62
     7
100
AcDbLine
 10
129.7413882924
 20
42.1262276743
 30
0.0
 11
129.73722706
 21
42.0794709948
 31
0.0
  0
LWPOLYLINE
  5
262
330
21A
100
AcDbEntity
  8
0
  6
Continuous
 62
     7
100
AcDbPolyline
 90
        6
 70
     0
 43
0.0
 10
126.9097311422
 20
21.2328284262
 10
126.9128004746
 20
21.2370162317
 10
126.920719833
 20
21.2487287346
 10
126.9280503657
 20
21.2611417005
 10
126.9345547068
 20
21.2740805767
 10
126.9374250378
 20
21.2806423852
  0
LWPOLYLINE
  5
263
330
21A
100
AcDbEntity
  8
6_SURFACES
  6
Continuous
 62
     7
100
AcDbPolyline
 90
        6
 70
     0
 43
0.0
 10
126.9097311422
 20
21.2328284262
 10
126.9128004746
 20
21.2370162317
 10
126.920719833
 20
21.2487287346
 10
126.9280503657
 20
21.2611417005
 10
126.9345547068
 20
21.2740805767
 10
126.9374250378
 20
21.2806423852
  0
LINE
  5
264
330
21A
100
AcDbEntity
  8
0
  6
Continuous
 62
     7
100
AcDbLine
 10
129.7428602183
 20
42.29232580499999
 30
0.0
 11
129.7513398167
 21
42.2639174259
 31
0.0
  0
ARC
  5
1802
330
21A
100
AcDbEntity
  8
0
  6
Continuous
 62
     7
100
AcDbCircle
 10
-289.684415631
 20
80.40444972359999
 30
0.0
 40
421.0588901902999
100
AcDbArc
 50
354.8841370655001
 51
355.0298208558
  0
ARC
  5
1803
330
21A
100
AcDbEntity
  8
DEFAULT_2
  6
HIDDEN
 62
     8
100
AcDbCircle
 10
-141.3671852027
 20
129.7986579932
 30
0.0
 40
283.1391352827
100
AcDbArc
 50
342.0046681942
 51
342.3288718653
  0
ARC
  5
1804
330
21A
100
AcDbEntity
  8
0
  6
Continuous
 62
     7
100
AcDbCircle
 10
202.7205722113
 20
35.2731871214
 30
0.0
 40
73.4259088804
100
AcDbArc
 50
174.6554174588
 51
174.9715823764
  0
ARC
  5
1805
330
21A
100
AcDbEntity
  8
0
  6
Continuous
 62
     7
100
AcDbCircle
 10
202.7134253329
 20
35.2990972918
 30
0.0
 40
73.41638396270001
100
AcDbArc
 50
174.3571704752
 51
174.675030897
  0
ARC
  5
1806
330
21A
100
AcDbEntity
  8
0
  6
Continuous
 62
     7
100
AcDbCircle
 10
196.5089698558
 20
35.877830521
 30
0.0
 40
67.079448563
100
AcDbArc
 50
174.3534474794
 51
174.6753739305
  0
ARC
  5
1807
330
21A
100
AcDbEntity
  8
0
  6
Continuous
 62
     7
100
AcDbCircle
 10
196.4664148711
 20
35.8578533834
 30
0.0
 40
67.0389352954
100
AcDbArc
 50
174.6549987563
 51
174.9761404198
  0
ARC
  5
1808
330
21A
100
AcDbEntity
  8
0
  6
Continuous
 62
     7
100
AcDbCircle
 10
193.5408629312
 20
36.15596528800001
 30
0.0
 40
64.098140378
100
AcDbArc
 50
174.3397665068
 51
174.6766969413
  0
ARC
  5
1809
330
21A
100
AcDbEntity
  8
0
  6
Continuous
 62
     7
100
AcDbCircle
 10
193.4981918429
 20
36.1340916704
 30
0.0
 40
64.0576878359
100
AcDbArc
 50
174.6536757355
 51
174.9898295531
  0
ARC
  5
180A
330
21A
100
AcDbEntity
  8
0
  6
Continuous
 62
     7
100
AcDbCircle
 10
77.1905774187
 20
47.0718919336
 30
0.0
 40
52.7697089591
100
AcDbArc
 50
354.8681425423
 51
355.0051943917
  0
ARC
  5
180B
330
21A
100
AcDbEntity
  8
0
  6
Continuous
 62
     7
100
AcDbCircle
 10
77.1880613411
 20
46.94583453479999
 30
0.0
 40
52.7604928527
100
AcDbArc
 50
354.3243166355001
 51
354.4612821337
  0
ARC
  5
180C
330
21A
100
AcDbEntity
  8
0
  6
Continuous
 62
     9
100
AcDbCircle
 10
167.8850208263
 20
38.536814252
 30
0.0
 40
38.3314870854
100
AcDbArc
 50
174.6619058785
 51
174.9469087682
  0
ARC
  5
180D
330
21A
100
AcDbEntity
  8
0
  6
Continuous
 62
     9
100
AcDbCircle
 10
113.686202376
 20
43.4791624493
 30
0.0
 40
16.0983181538
100
AcDbArc
 50
354.123747781
 51
354.2715568557
  0
ARC
  5
180E
330
21A
100
AcDbEntity
  8
0
  6
Continuous
 62
     9
100
AcDbCircle
 10
143.9218569441
 20
40.768943524
 30
0.0
 40
14.2495949577
100
AcDbArc
 50
174.7471701393
 51
175.0546476255
  0
ARC
  5
180F
330
21A
100
AcDbEntity
  8
0
  6
Continuous
 62
     9
100
AcDbCircle
 10
142.5497360042
 20
40.9182530228
 30
0.0
 40
12.869532329
100
AcDbArc
 50
174.2572602048
 51
174.6249090023
  0
ARC
  5
1810
330
21A
100
AcDbEntity
  8
0
  6
Continuous
 62
     7
100
AcDbCircle
 10
117.4255339057
 20
43.2608382249
 30
0.0
 40
12.3688738385
100
AcDbArc
 50
354.7461638475
 51
355.116269872
  0
ARC
  5
1811
330
21A
100
AcDbEntity
  8
0
  6
Continuous
 62
     7
100
AcDbCircle
 10
118.7081486845
 20
43.1155554835
 30
0.0
 40
11.0782994747
100
AcDbArc
 50
354.2232480106
 51
354.602594282
  0
ARC
  5
1812
330
21A
100
AcDbEntity
  8
0
  6
Continuous
 62
     9
100
AcDbCircle
 10
120.5109253663
 20
42.7740260527
 30
0.0
 40
9.237264432899999
100
AcDbArc
 50
353.9033361088
 51
354.1261484586
  0
ARC
  5
1813
330
21A
100
AcDbEntity
  8
DEFAULT_2
  6
HIDDEN
 62
     8
100
AcDbCircle
 10
122.0800271201
 20
27.2904950657
 30
0.0
 40
2.0
100
AcDbArc
 50
271.5
 51
352.9907360473
  0
ARC
  5
1814
330
21A
100
AcDbEntity
  8
DEFAULT_2
  6
HIDDEN
 62
     8
100
AcDbCircle
 10
104.8002602128
 20
27.2901071964
 30
0.0
 40
2.0
100
AcDbArc
 50
186.1842827252
 51
268.4999644877
  0
ARC
  5
1815
330
21A
100
AcDbEntity
  8
0
  6
Continuous
 62
     9
100
AcDbCircle
 10
130.2556065465
 20
42.23115395119999
 30
0.0
 40
0.5190361473
100
AcDbArc
 50
172.7152041024
 51
173.1274556128
  0
ARC
  5
1816
330
21A
100
AcDbEntity
  8
0
  6
Continuous
 62
     9
100
AcDbCircle
 10
130.1611010353
 20
41.8821091821
 30
0.0
 40
0.4573672000000001
100
AcDbArc
 50
176.1751185612
 51
176.6522847385
  0
ARC
  5
1817
330
21A
100
AcDbEntity
  8
DEFAULT_2
  6
HIDDEN
 62
     8
100
AcDbCircle
 10
114.7041035629
 20
24.8624687267
 30
0.0
 40
0.25
100
AcDbArc
 50
270.0
 51
315.0
  0
ARC
  5
1818
330
21A
100
AcDbEntity
  8
DEFAULT_2
  6
HIDDEN
 62
     8
100
AcDbCircle
 10
112.161210344
 20
24.8624687267
 30
0.0
 40
0.25
100
AcDbArc
 50
225.0
 51
270.0
  0
ARC
  5
1819
330
21A
100
AcDbEntity
  8
DEFAULT_2
  6
HIDDEN
 62
     8
100
AcDbCircle
 10
115.4139068987
 20
24.8651652813
 30
0.0
 40
0.25
100
AcDbArc
 50
91.5
 51
135.0
  0
ARC
  5
181A
330
21A
100
AcDbEntity
  8
DEFAULT_2
  6
HIDDEN
 62
     8
100
AcDbCircle
 10
111.4514069447
 20
24.8651653448
 30
0.0
 40
0.25
100
AcDbArc
 50
45.0
 51
88.49996448769999
  0
ARC
  5
181B
330
21A
100
AcDbEntity
  8
0
  6
Continuous
 62
     7
100
AcDbCircle
 10
129.6351721736
 20
42.6799166328
 30
0.0
 40
0.1875761696
100
AcDbArc
 50
34.880151037
 51
72.9172065698
  0
ARC
  5
181C
330
21A
100
AcDbEntity
  8
0
  6
Continuous
 62
     7
100
AcDbCircle
 10
129.5298504874
 20
41.55212076769999
 30
0.0
 40
0.1875761514
100
AcDbArc
 50
276.4122302426
 51
314.4492985597
  0
ARC
  5
181D
330
21A
100
AcDbEntity
  8
0
  6
Continuous
 62
     7
100
AcDbCircle
 10
97.91023995260001
 20
44.0184687267
 30
0.0
 40
0.094
100
AcDbArc
 50
90.0
 51
185.0
  0
ARC
  5
181E
330
21A
100
AcDbEntity
  8
0
  6
Continuous
 62
     7
100
AcDbCircle
 10
129.7050739544
 20
44.0184687267
 30
0.0
 40
0.094
100
AcDbArc
 50
355.0
 51
90.0
  0
ARC
  5
181F
330
21A
100
AcDbEntity
  8
0
  6
Continuous
 62
     7
100
AcDbCircle
 10
126.5638951827
 20
21.1754687267
 30
0.0
 40
0.063
100
AcDbArc
 50
258.690067526
 51
270.0000000042
  0
ARC
  5
1820
330
21A
100
AcDbEntity
  8
0
  6
Continuous
 62
     7
100
AcDbCircle
 10
101.0514187242
 20
21.1754687267
 30
0.0
 40
0.063
100
AcDbArc
 50
269.9999999958
 51
281.309932474
  0
SPLINE
  5
1856
330
21A
100
AcDbEntity
  8
DEFAULT_2
  6
HIDDEN
 62
     8
100
AcDbSpline
210
0.0
220
0.0
230
1.0
 70
     8
 71
     3
 72
    40
 73
    36
 74
     0
 42
0.0000001
 43
0.0000000001
 40
0.0
 40
0.0
 40
0.0
 40
0.0
 40
0.0005034493
 40
0.0023089508
 40
0.0054103893
 40
0.0097843822
 40
0.015406083
 40
0.0222502741
 40
0.0302916001
 40
0.0395046431
 40
0.0613343805
 40
0.0874873695
 40
0.1177016848
 40
0.151715351
 40
0.1892507824
 40
0.2299680241
 40
0.3195257055
 40
0.4172223903
 40
0.5186056718
 40
0.6189434842
 40
0.7136715524
 40
0.7985691967000001
 40
0.8363709122999999
 40
0.8706225129999999
 40
0.9010307506
 40
0.9274854876
 40
0.9499223831999998
 40
0.9682771438999999
 40
0.9824912823
 40
0.9925294161
 40
0.9959735467999999
 40
0.9983634270999999
 40
0.9991624670999998
 40
0.999697907
 40
1.0
 40
1.0
 40
1.0
 40
1.0
 10
127.4528991143
 20
40.9007486498
 30
0.0
 10
127.4526830109
 20
40.9006194704
 30
0.0
 10
127.4531339817
 20
40.9028147038
 30
0.0
 10
127.4534578465
 20
40.9043311458
 30
0.0
 10
127.4548162619
 20
40.9094850175
 30
0.0
 10
127.4564998888
 20
40.9154954264
 30
0.0
 10
127.4588622907
 20
40.9237039351
 30
0.0
 10
127.4617452394
 20
40.9335008041
 30
0.0
 10
127.4651945437
 20
40.9450633928
 30
0.0
 10
127.4708363832
 20
40.96377052389999
 30
0.0
 10
127.4791935011
 20
40.9911294106
 30
0.0
 10
127.4907314719
 20
41.0284925299
 30
0.0
 10
127.5041704734
 20
41.0716475174
 30
0.0
 10
127.5193966576
 20
41.1202070157
 30
0.0
 10
127.5362853008
 20
41.1737499241
 30
0.0
 10
127.5616482897
 20
41.2537456704
 30
0.0
 10
127.5963288329
 20
41.3623491251
 30
0.0
 10
127.6405688349
 20
41.4997472153
 30
0.0
 10
127.6867620549
 20
41.64217965099999
 30
0.0
 10
127.7328013581
 20
41.7831009327
 30
0.0
 10
127.776550677
 20
41.9160969434
 30
0.0
 10
127.8107546494
 20
42.0193103493
 30
0.0
 10
127.8355874942
 20
42.09376806229999
 30
0.0
 10
127.8518656563
 20
42.1423534099
 30
0.0
 10
127.8664107392
 20
42.1855356682
 30
0.0
 10
127.8791397054
 20
42.22309243149999
 30
0.0
 10
127.8900153157
 20
42.2549202239
 30
0.0
 10
127.8989788189
 20
42.280911071
 30
0.0
 10
127.9060534162
 20
42.30104987349999
 30
0.0
 10
127.9106724029
 20
42.3140255231
 30
0.0
 10
127.9135318357
 20
42.3215408382
 30
0.0
 10
127.914641746
 20
42.324507773
 30
0.0
 10
127.9155097133
 20
42.3263755358
 30
0.0
 10
127.9156643229
 20
42.3268799758
 30
0.0
 10
127.9161678128
 20
42.32758828459999
 30
0.0
 10
127.9161959782
 20
42.3274398598
 30
0.0
  0
LINE
  5
1857
330
21A
100
AcDbEntity
  8
DEFAULT_2
  6
HIDDEN
 62
     8
100
AcDbLine
 10
127.9161959782
 20
42.3274398598
 30
0.0
 11
127.9212622012
 21
42.3257934948
 31
0.0
  0
LINE
  5
1858
330
21A
100
AcDbEntity
  8
DEFAULT_2
  6
HIDDEN
 62
     8
100
AcDbLine
 10
127.4580828456
 20
40.89906427059999
 30
0.0
 11
127.4528991143
 21
40.9007486498
 31
0.0
  0
SPLINE
  5
1859
330
21A
100
AcDbEntity
  8
DEFAULT_2
  6
HIDDEN
 62
     8
100
AcDbSpline
210
0.0
220
0.0
230
1.0
 70
     8
 71
     3
 72
     8
 73
     4
 74
     0
 42
0.0000001
 43
0.0000000001
 40
0.0
 40
0.0
 40
0.0
 40
0.0
 40
1.0
 40
1.0
 40
1.0
 40
1.0
 10
127.5250014179
 20
41.13634274969999
 30
0.0
 10
127.4997365544
 20
41.05819865059999
 30
0.0
 10
127.4782016959
 20
40.9788805443
 30
0.0
 10
127.4528991143
 20
40.9007486498
 30
0.0
  0
SPLINE
  5
185A
330
21A
100
AcDbEntity
  8
DEFAULT_2
  6
HIDDEN
 62
     8
100
AcDbSpline
210
0.0
220
0.0
230
1.0
 70
     8
 71
     3
 72
    13
 73
     9
 74
     0
 42
0.0000001
 43
0.0000000001
 40
0.0
 40
0.0
 40
0.0
 40
0.0
 40
0.2659524981
 40
0.5222507436
 40
0.6464187065
 40
0.7676220405
 40
0.8855842432999999
 40
1.0
 40
1.0
 40
1.0
 40
1.0
 10
124.0650799882
 20
27.0464354195
 30
0.0
 10
124.2196032818
 20
28.3032466622
 30
0.0
 10
124.6251318003
 20
30.7594542233
 30
0.0
 10
125.3290562533
 20
33.7572876628
 30
0.0
 10
125.9607551842
 20
36.06097424610001
 30
0.0
 10
126.4508736255
 20
37.7201245485
 30
0.0
 10
126.9514223717
 20
39.3275284131
 30
0.0
 10
127.2902743437
 20
40.3807883302
 30
0.0
 10
127.4580828456
 20
40.8990642707
 30
0.0
  0
SPLINE
  5
185B
330
21A
100
AcDbEntity
  8
DEFAULT_2
  6
HIDDEN
 62
     8
100
AcDbSpline
210
0.0
220
0.0
230
1.0
 70
     8
 71
     3
 72
    11
 73
     7
 74
     0
 42
0.0000001
 43
0.0000000001
 40
0.0
 40
0.0
 40
0.0
 40
0.0
 40
0.2704647231
 40
0.5295027404
 40
0.7739060897
 40
1.0
 40
1.0
 40
1.0
 40
1.0
 10
102.8118991073
 20
27.0746539205
 30
0.0
 10
102.6450493971
 20
28.6144656174
 30
0.0
 10
102.2168157881
 20
31.6187330022
 30
0.0
 10
101.3415019843
 20
35.9650760786
 30
0.0
 10
100.3267115081
 20
40.01890722889999
 30
0.0
 10
99.5779671957
 20
42.60758234579999
 30
0.0
 10
99.201720852
 20
43.84644274569999
 30
0.0
  0
SPLINE
  5
185C
330
21A
100
AcDbEntity
  8
DEFAULT_2
  6
HIDDEN
 62
     8
100
AcDbSpline
210
0.0
220
0.0
230
1.0
 70
     8
 71
     3
 72
    12
 73
     8
 74
     0
 42
0.0000001
 43
0.0000000001
 40
0.0
 40
0.0
 40
0.0
 40
0.0
 40
0.2496113442
 40
0.3742890107
 40
0.4994841026
 40
0.7497434649
 40
1.0
 40
1.0
 40
1.0
 40
1.0
 10
128.7693293499
 20
44.1124687267
 30
0.0
 10
128.7414944321
 20
44.1124687267
 30
0.0
 10
128.6996190606
 20
44.11178893999999
 30
0.0
 10
128.644527693
 20
44.1026054564
 30
0.0
 10
128.591154874
 20
44.0859371192
 30
0.0
 10
128.5293162027
 20
44.05143546829999
 30
0.0
 10
128.4902504382
 20
44.0103033138
 30
0.0
 10
128.4739178592
 20
43.9876750135
 30
0.0
  0
SPLINE
  5
185D
330
21A
100
AcDbEntity
  8
DEFAULT_2
  6
HIDDEN
 62
     8
100
AcDbSpline
210
0.0
220
0.0
230
1.0
 70
     8
 71
     3
 72
    10
 73
     6
 74
     0
 42
0.0000001
 43
0.0000000001
 40
0.0
 40
0.0
 40
0.0
 40
0.0
 40
0.2503396693
 40
0.4999925514
 40
1.0
 40
1.0
 40
1.0
 40
1.0
 10
128.4739178592
 20
43.9876750135
 30
0.0
 10
128.4665549364
 20
43.97747390399999
 30
0.0
 10
128.4531131605
 20
43.9561526234
 30
0.0
 10
128.431476297
 20
43.9107028428
 30
0.0
 10
128.4195098584
 20
43.8748831596
 30
0.0
 10
128.4119069081
 20
43.85093325009999
 30
0.0
  0
SPLINE
  5
185E
330
21A
100
AcDbEntity
  8
DEFAULT_2
  6
HIDDEN
 62
     8
100
AcDbSpline
210
0.0
220
0.0
230
1.0
 70
     8
 71
     3
 72
    12
 73
     8
 74
     0
 42
0.0000001
 43
0.0000000001
 40
0.0
 40
0.0
 40
0.0
 40
0.0
 40
0.249607653
 40
0.3742704964
 40
0.4994489617000001
 40
0.7497270657
 40
1.0
 40
1.0
 40
1.0
 40
1.0
 10
98.84290381900001
 20
44.1124687267
 30
0.0
 10
98.8707857764
 20
44.1124687267
 30
0.0
 10
98.9127286231
 20
44.1117802042
 30
0.0
 10
98.96791575059999
 20
44.102620428
 30
0.0
 10
99.0213886655
 20
44.0859577
 30
0.0
 10
99.08336417980001
 20
44.0514524749
 30
0.0
 10
99.122532671
 20
44.0102750032
 30
0.0
 10
99.13890364190001
 20
43.9876134847
 30
0.0
  0
SPLINE
  5
185F
330
21A
100
AcDbEntity
  8
DEFAULT_2
  6
HIDDEN
 62
     8
100
AcDbSpline
210
0.0
220
0.0
230
1.0
 70
     8
 71
     3
 72
    10
 73
     6
 74
     0
 42
0.0000001
 43
0.0000000001
 40
0.0
 40
0.0
 40
0.0
 40
0.0
 40
0.2504056878
 40
0.5000380696
 40
1.0
 40
1.0
 40
1.0
 40
1.0
 10
99.13890364190001
 20
43.9876134847
 30
0.0
 10
99.14649001149999
 20
43.9771120517
 30
0.0
 10
99.1603105251
 20
43.9551421524
 30
0.0
 10
99.1823128552
 20
43.908214602
 30
0.0
 10
99.19420422059999
 20
43.8711926393
 30
0.0
 10
99.201720852
 20
43.84644274569999
 30
0.0
  0
LINE
  5
1860
330
21A
100
AcDbEntity
  8
DEFAULT_2
  6
HIDDEN
 62
     8
100
AcDbLine
 10
127.9212622031
 20
42.3257935009
 30
0.0
 11
127.9161957698
 21
42.3274392247
 31
0.0
  0
SPLINE
  5
1861
330
21A
100
AcDbEntity
  8
DEFAULT_2
  6
HIDDEN
 62
     8
100
AcDbSpline
210
0.0
220
0.0
230
1.0
 70
     8
 71
     3
 72
     8
 73
     4
 74
     0
 42
0.0000001
 43
0.0000000001
 40
0.0
 40
0.0
 40
0.0
 40
0.0
 40
1.0
 40
1.0
 40
1.0
 40
1.0
 10
127.5261319569
 20
41.1398376311
 30
0.0
 10
127.5003761314
 20
41.06056548269999
 30
0.0
 10
127.4785787399
 20
40.9800448126
 30
0.0
 10
127.4528989104
 20
40.90074801300001
 30
0.0
  0
SPLINE
  5
1862
330
21A
100
AcDbEntity
  8
DEFAULT_2
  6
HIDDEN
 62
     8
100
AcDbSpline
210
0.0
220
0.0
230
1.0
 70
     8
 71
     3
 72
    41
 73
    37
 74
     0
 42
0.0000001
 43
0.0000000001
 40
0.0
 40
0.0
 40
0.0
 40
0.0
 40
0.000321973
 40
0.0008886914
 40
0.0017334922
 40
0.0042597535
 40
0.0079024837
 40
0.0126614738
 40
0.0185361323
 40
0.0336294565
 40
0.053164189
 40
0.077074157
 40
0.1052811956
 40
0.1377070942
 40
0.1742138753
 40
0.2144245652
 40
0.304210748
 40
0.4032713386
 40
0.506609965
 40
0.6090104823
 40
0.705579539
 40
0.7919382757
 40
0.8304355401
 40
0.8654430918999999
 40
0.8967080422
 40
0.9240708407999999
 40
0.9473952887999999
 40
0.9665452337999999
 40
0.9745147635
 40
0.981404722
 40
0.9872132084
 40
0.9919383853999999
 40
0.9955785547999999
 40
0.9981323965000001
 40
0.9996000912999999
 40
1.0
 40
1.0
 40
1.0
 40
1.0
 10
127.9161957698
 20
42.3274392247
 30
0.0
 10
127.9161657656
 20
42.32759741999999
 30
0.0
 10
127.9156435739
 20
42.32683158679999
 30
0.0
 10
127.9154758139
 20
42.32630370729999
 30
0.0
 10
127.9145674506
 20
42.3243217354
 30
0.0
 10
127.9133962597
 20
42.3211874458
 30
0.0
 10
127.9114287499
 20
42.31600253689999
 30
0.0
 10
127.909011271
 20
42.30931857499999
 30
0.0
 10
127.9046775783
 20
42.2971881721
 30
0.0
 10
127.89800085
 20
42.2780758626
 30
0.0
 10
127.8884596037
 20
42.2503953114
 30
0.0
 10
127.8768926235
 20
42.21648294749999
 30
0.0
 10
127.8633368066
 20
42.17643535949999
 30
0.0
 10
127.8478493723
 20
42.1303918355
 30
0.0
 10
127.8305307612
 20
42.07863068089999
 30
0.0
 10
127.8042188937
 20
41.99963035329999
 30
0.0
 10
127.7682294841
 20
41.8908813112
 30
0.0
 10
127.7226316581
 20
41.7520589709
 30
0.0
 10
127.6753640897
 20
41.6071455132
 30
0.0
 10
127.6288038823
 20
41.46331231969999
 30
0.0
 10
127.5851537972
 20
41.3274627532
 30
0.0
 10
127.5515397096
 20
41.2219553471
 30
0.0
 10
127.5274360915
 20
41.14572930179999
 30
0.0
 10
127.511716616
 20
41.0957485916
 30
0.0
 10
127.4977472258
 20
41.05105488329999
 30
0.0
 10
127.485601553
 20
41.0119119454
 30
0.0
 10
127.4753363025
 20
40.97853109339999
 30
0.0
 10
127.4679995103
 20
40.954391532
 30
0.0
 10
127.4631174055
 20
40.93810510369999
 30
0.0
 10
127.4601794447
 20
40.928182569
 30
0.0
 10
127.4577470117
 20
40.91985336959999
 30
0.0
 10
127.4557857363
 20
40.91293825469999
 30
0.0
 10
127.4543837755
 20
40.9079217289
 30
0.0
 10
127.4533240817
 20
40.90366400489999
 30
0.0
 10
127.4530090045
 20
40.90241194949999
 30
0.0
 10
127.45272725
 20
40.9006454027
 30
0.0
 10
127.4528989104
 20
40.90074801300001
 30
0.0
  0
LINE
  5
1863
330
21A
100
AcDbEntity
  8
DEFAULT_2
  6
HIDDEN
 62
     8
100
AcDbLine
 10
127.4528989104
 20
40.90074801300001
 30
0.0
 11
127.4580828486
 21
40.89906427999999
 31
0.0
  0
SPLINE
  5
1864
330
21A
100
AcDbEntity
  8
0
  6
Continuous
 62
     7
100
AcDbSpline
210
0.0
220
0.0
230
1.0
 70
     8
 71
     3
 72
     9
 73
     5
 74
     0
 42
0.0000001
 43
0.0000000001
 40
0.0
 40
0.0
 40
0.0
 40
0.0
 40
0.6891663768999999
 40
1.0
 40
1.0
 40
1.0
 40
1.0
 10
129.6866476816
 20
41.72865978809999
 30
0.0
 10
129.6871422822
 20
41.7290616525
 30
0.0
 10
129.687761471
 20
41.72978783749999
 30
0.0
 10
129.6881442189
 20
41.73063191219999
 30
0.0
 10
129.6882486367
 20
41.730899706
 30
0.0
  0
SPLINE
  5
1865
330
21A
100
AcDbEntity
  8
0
  6
Continuous
 62
     7
100
AcDbSpline
210
0.0
220
0.0
230
1.0
 70
     8
 71
     3
 72
    20
 73
    16
 74
     0
 42
0.0000001
 43
0.0000000001
 40
0.0
 40
0.0
 40
0.0
 40
0.0
 40
0.0068424521
 40
0.0131837981
 40
0.0301868545
 40
0.0544094116
 40
0.0861772596
 40
0.1254882236
 40
0.1722411305
 40
0.2262829562
 40
0.2874234115
 40
0.4300851063000001
 40
0.5981247939
 40
0.7890453443000001
 40
1.0
 40
1.0
 40
1.0
 40
1.0
 10
129.6882486367
 20
41.730899706
 30
0.0
 10
129.6883944138
 20
41.7312735717
 30
0.0
 10
129.6886019878
 20
41.732021523
 30
0.0
 10
129.6889546862
 20
41.7337558365
 30
0.0
 10
129.6893894415
 20
41.73651276429999
 30
0.0
 10
129.6899809829
 20
41.7407520187
 30
0.0
 10
129.6906897605
 20
41.7462962214
 30
0.0
 10
129.6915202267
 20
41.7531564209
 30
0.0
 10
129.6924684894
 20
41.7613181838
 30
0.0
 10
129.6935317401
 20
41.7707552998
 30
0.0
 10
129.6951840671
 20
41.7857862397
 30
0.0
 10
129.6974951427
 20
41.8074704469
 30
0.0
 10
129.7005290083
 20
41.83673163639999
 30
0.0
 10
129.7039028422
 20
41.86998405799999
 30
0.0
 10
129.7062406299
 20
41.89343613320001
 30
0.0
 10
129.7074590119
 20
41.90574759829999
 30
0.0
  0
LINE
  5
1866
330
21A
100
AcDbEntity
  8
0
  6
Continuous
 62
     7
100
AcDbLine
 10
129.7074590119
 20
41.90574759829999
 30
0.0
 11
129.7079768947
 21
41.9109861011
 31
0.0
  0
LINE
  5
1867
330
21A
100
AcDbEntity
  8
0
  6
Continuous
 62
     7
100
AcDbLine
 10
129.7079768947
 20
41.9109861011
 30
0.0
 11
129.7081694692
 21
41.91293676989999
 31
0.0
  0
LINE
  5
1868
330
21A
100
AcDbEntity
  8
0
  6
Continuous
 62
     7
100
AcDbLine
 10
129.7081694692
 20
41.91293676989999
 30
0.0
 11
129.708346188
 21
41.9147281163
 31
0.0
  0
LINE
  5
1869
330
21A
100
AcDbEntity
  8
0
  6
Continuous
 62
     7
100
AcDbLine
 10
129.7434416168
 20
42.2905328537
 30
0.0
 11
129.7435996797
 21
42.2923264048
 31
0.0
  0
LINE
  5
186A
330
21A
100
AcDbEntity
  8
0
  6
Continuous
 62
     7
100
AcDbLine
 10
129.7435996797
 20
42.2923264048
 30
0.0
 11
129.7437850309
 21
42.2944313561
 31
0.0
  0
LINE
  5
186B
330
21A
100
AcDbEntity
  8
0
  6
Continuous
 62
     7
100
AcDbLine
 10
129.7437850309
 20
42.2944313561
 30
0.0
 11
129.7442168844
 21
42.2993432481
 31
0.0
  0
SPLINE
  5
186C
330
21A
100
AcDbEntity
  8
0
  6
Continuous
 62
     7
100
AcDbSpline
210
0.0
220
0.0
230
1.0
 70
     8
 71
     3
 72
    22
 73
    18
 74
     0
 42
0.0000001
 43
0.0000000001
 40
0.0
 40
0.0
 40
0.0
 40
0.0
 40
0.2125246358
 40
0.4042831418000001
 40
0.5722716146
 40
0.7138679545000001
 40
0.8268839040000001
 40
0.8721267926999999
 40
0.9096450515999999
 40
0.9393531556999999
 40
0.9512853955
 40
0.9613101535999998
 40
0.9695245996999998
 40
0.9762143298999998
 40
0.9825665963
 40
0.9875348183999999
 40
1.0
 40
1.0
 40
1.0
 40
1.0
 10
129.7442168844
 20
42.2993432481
 30
0.0
 10
129.7453255451
 20
42.3119668603
 30
0.0
 10
129.7474170482
 20
42.3359821538
 30
0.0
 10
129.7503159465
 20
42.3699816415
 30
0.0
 10
129.7527882126
 20
42.3997728634
 30
0.0
 10
129.754795645
 20
42.4248912168
 30
0.0
 10
129.7561437727
 20
42.442719899
 30
0.0
 10
129.7569550567
 20
42.45436531449999
 30
0.0
 10
129.7573849274
 20
42.4610577586
 30
0.0
 10
129.7576509003
 20
42.46577034189999
 30
0.0
 10
129.7577905537
 20
42.46884787079999
 30
0.0
 10
129.757854103
 20
42.47064576199999
 30
0.0
 10
129.7578844259
 20
42.4721321412
 30
0.0
 10
129.757878714
 20
42.47339930859999
 30
0.0
 10
129.7578163520999
 20
42.47447390659999
 30
0.0
 10
129.7575482207
 20
42.4758685075
 30
0.0
 10
129.7570504936
 20
42.47683014209999
 30
0.0
 10
129.7565703975
 20
42.477397544
 30
0.0
  0
SPLINE
  5
186D
330
21A
100
AcDbEntity
  8
0
  6
Continuous
 62
     7
100
AcDbSpline
210
0.0
220
0.0
230
1.0
 70
     8
 71
     3
 72
    14
 73
    10
 74
     0
 42
0.0000001
 43
0.0000000001
 40
0.0
 40
0.0
 40
0.0
 40
0.0
 40
0.3657915947
 40
0.6217379789999999
 40
0.7751131729000001
 40
0.8739160023
 40
0.9372232039
 40
0.9748048911999999
 40
1.0
 40
1.0
 40
1.0
 40
1.0
 10
129.6866476816
 20
41.72865978809999
 30
0.0
 10
129.6863997574
 20
41.72845834909999
 30
0.0
 10
129.6860145257
 20
41.7280689959
 30
0.0
 10
129.6856108470999
 20
41.7275268968
 30
0.0
 10
129.685397603
 20
41.727129623
 30
0.0
 10
129.6852853791
 20
41.7268915461
 30
0.0
 10
129.6852151637
 20
41.7267054896
 30
0.0
 10
129.6851857971
 20
41.7266477142
 30
0.0
 10
129.6851579713
 20
41.7265224176
 30
0.0
 10
129.6851585795
 20
41.7265444119
 30
0.0
  0
SPLINE
  5
186E
330
21A
100
AcDbEntity
  8
0
  6
Continuous
 62
     7
100
AcDbSpline
210
0.0
220
0.0
230
1.0
 70
     8
 71
     3
 72
    13
 73
     9
 74
     0
 42
0.0000001
 43
0.0000000001
 40
0.0
 40
0.0
 40
0.0
 40
0.0
 40
0.0180438552
 40
0.0785086486
 40
0.1614036175
 40
0.3041897061
 40
0.5662074933
 40
1.0
 40
1.0
 40
1.0
 40
1.0
 10
129.7555021368
 20
42.4797005313
 30
0.0
 10
129.7555012042
 20
42.4797165217
 30
0.0
 10
129.7554939967
 20
42.47981398639999
 30
0.0
 10
129.7555267574
 20
42.47951485419999
 30
0.0
 10
129.7555739968
 20
42.4793499633
 30
0.0
 10
129.755686716
 20
42.4788826593
 30
0.0
 10
129.7559812223
 20
42.47822608239999
 30
0.0
 10
129.7563216644
 20
42.4776915094
 30
0.0
 10
129.7565703975
 20
42.477397544
 30
0.0
  0
SPLINE
  5
186F
330
21A
100
AcDbEntity
  8
0
  6
Continuous
 62
     7
100
AcDbSpline
210
0.0
220
0.0
230
1.0
 70
     8
 71
     3
 72
    13
 73
     9
 74
     0
 42
0.0000001
 43
0.0000000001
 40
0.0
 40
0.0
 40
0.0
 40
0.0
 40
0.0224376895
 40
0.0912711893
 40
0.1900109484
 40
0.3665152704
 40
0.6446285866000001
 40
1.0
 40
1.0
 40
1.0
 40
1.0
 10
129.7417252796
 20
42.2994334604
 30
0.0
 10
129.7417268202
 20
42.2994899544
 30
0.0
 10
129.7417322355
 20
42.2998187675
 30
0.0
 10
129.7417336989
 20
42.2988270165
 30
0.0
 10
129.7417793665
 20
42.298245422
 30
0.0
 10
129.7419024118
 20
42.2966970163
 30
0.0
 10
129.742225726
 20
42.29476095559999
 30
0.0
 10
129.7426042044
 20
42.29318350369999
 30
0.0
 10
129.7428602183
 20
42.29232580499999
 30
0.0
  0
SPLINE
  5
1870
330
21A
100
AcDbEntity
  8
0
  6
Continuous
 62
     7
100
AcDbSpline
210
0.0
220
0.0
230
1.0
 70
     8
 71
     3
 72
     9
 73
     5
 74
     0
 42
0.0000001
 43
0.0000000001
 40
0.0
 40
0.0
 40
0.0
 40
0.0
 40
0.8286139112999999
 40
1.0
 40
1.0
 40
1.0
 40
1.0
 10
129.7074424745
 20
41.9130699131
 30
0.0
 10
129.7065084255
 20
41.91125947199999
 30
0.0
 10
129.7056182059
 20
41.9089376927
 30
0.0
 10
129.7050580144
 20
41.90654260099999
 30
0.0
 10
129.7049835606
 20
41.9061278695
 30
0.0
  0
LINE
  5
1871
330
21A
100
AcDbEntity
  8
0
  6
Continuous
 62
     7
100
AcDbLine
 10
129.7399623063
 20
42.1014391858
 30
0.0
 11
129.7419914836
 21
42.1233225886
 31
0.0
  0
LINE
  5
1872
330
21A
100
AcDbEntity
  8
0
  6
Continuous
 62
     7
100
AcDbLine
 10
129.7419914836
 20
42.1233225886
 30
0.0
 11
129.742443619
 21
42.1282415849
 31
0.0
  0
LINE
  5
1873
330
21A
100
AcDbEntity
  8
0
  6
Continuous
 62
     7
100
AcDbLine
 10
129.7495026869
 20
42.2078265855
 30
0.0
 11
129.7496824816
 21
42.2099608666
 31
0.0
  0
SPLINE
  5
1874
330
21A
100
AcDbEntity
  8
0
  6
Continuous
 62
     7
100
AcDbSpline
210
0.0
220
0.0
230
1.0
 70
     8
 71
     3
 72
    15
 73
    11
 74
     0
 42
0.0000001
 43
0.0000000001
 40
0.0
 40
0.0
 40
0.0
 40
0.0
 40
0.3335096171
 40
0.4687263348
 40
0.5817377420000001
 40
0.6726318681
 40
0.7440321471
 40
0.8130779968999998
 40
0.8810445241
 40
1.0
 40
1.0
 40
1.0
 40
1.0
 10
129.7496824816
 20
42.2099608666
 30
0.0
 10
129.7501871935
 20
42.2159655278
 30
0.0
 10
129.7508845005
 20
42.2244057257
 30
0.0
 10
129.7517030875
 20
42.2348846557
 30
0.0
 10
129.7521558489
 20
42.24099511099999
 30
0.0
 10
129.7524936085
 20
42.24595805359999
 30
0.0
 10
129.7527344061
 20
42.2501306147
 30
0.0
 10
129.7528583657
 20
42.2538965115
 30
0.0
 10
129.7526184565
 20
42.258520578
 30
0.0
 10
129.7519545533
 20
42.26185793319999
 30
0.0
 10
129.7513398167
 20
42.2639174259
 30
0.0
  0
SPLINE
  5
1875
330
21A
100
AcDbEntity
  8
0
  6
Continuous
 62
     7
100
AcDbSpline
210
0.0
220
0.0
230
1.0
 70
     8
 71
     3
 72
    16
 73
    12
 74
     0
 42
0.0000001
 43
0.0000000001
 40
0.0
 40
0.0
 40
0.0
 40
0.0
 40
0.1116878555
 40
0.1705228291
 40
0.2344164959
 40
0.3065152516
 40
0.4001636860000001
 40
0.5170815541
 40
0.6568775948
 40
0.8183855592
 40
1.0
 40
1.0
 40
1.0
 40
1.0
 10
129.721035545
 20
41.93941698169999
 30
0.0
 10
129.7220936944
 20
41.941467963
 30
0.0
 10
129.7233976142
 20
41.9447747848
 30
0.0
 10
129.7244799559
 20
41.9495009618
 30
0.0
 10
129.7250659609
 20
41.9534861274
 30
0.0
 10
129.7256596439
 20
41.9581935798
 30
0.0
 10
129.7263345485
 20
41.9639955481
 30
0.0
 10
129.7271320242
 20
41.9711911329
 30
0.0
 10
129.7280521534
 20
41.97978395949999
 30
0.0
 10
129.7290881266
 20
41.9897088008
 30
0.0
 10
129.7298095816
 20
41.99676210119999
 30
0.0
 10
129.7301884661
 20
42.0004957079
 30
0.0
  0
LINE
  5
1876
330
21A
100
AcDbEntity
  8
0
  6
Continuous
 62
     7
100
AcDbLine
 10
129.7373294685
 20
42.0734947921
 30
0.0
 11
129.7376137177
 21
42.07648769409999
 31
0.0
  0
LINE
  5
1877
330
21A
100
AcDbEntity
  8
0
  6
Continuous
 62
     7
100
AcDbLine
 10
129.7376137177
 20
42.07648769409999
 30
0.0
 11
129.7399623063
 21
42.1014391858
 31
0.0
  0
SPLINE
  5
1878
330
21A
100
AcDbEntity
  8
0
  6
Continuous
 62
     7
100
AcDbSpline
210
0.0
220
0.0
230
1.0
 70
     8
 71
     3
 72
    31
 73
    27
 74
     0
 42
0.0000001
 43
0.0000000001
 40
0.0
 40
0.0
 40
0.0
 40
0.0
 40
0.2067681003
 40
0.3048206126
 40
0.3984750358
 40
0.4871328312
 40
0.5702273274000001
 40
0.6472274325000001
 40
0.7176410017000001
 40
0.7810180816
 40
0.8369538763999999
 40
0.8850912954000001
 40
0.9061379160999999
 40
0.9251233671999999
 40
0.9420183434
 40
0.9567953954
 40
0.9694316439999999
 40
0.9799074818000001
 40
0.9843299548999999
 40
0.9882068930999999
 40
0.9915370927999999
 40
0.9943195381999998
 40
0.9965537866
 40
0.9982409226999999
 40
0.9993846595999999
 40
1.0
 40
1.0
 40
1.0
 40
1.0
 10
129.7485784972
 20
42.2918323237
 30
0.0
 10
129.7516773247
 20
42.3259518775
 30
0.0
 10
129.7562087561
 20
42.3762547997
 30
0.0
 10
129.7620467698
 20
42.4420206422
 30
0.0
 10
129.7661111682
 20
42.4882969257
 30
0.0
 10
129.769913623
 20
42.53210821639999
 30
0.0
 10
129.7734298929
 20
42.57317444499999
 30
0.0
 10
129.7766376277
 20
42.6112330625
 30
0.0
 10
129.779516476
 20
42.6460407424
 30
0.0
 10
129.7820483632
 20
42.6773749486
 30
0.0
 10
129.7842173494
 20
42.7050353755
 30
0.0
 10
129.7857745915
 20
42.7257083184
 30
0.0
 10
129.7868227569
 20
42.74027973179999
 30
0.0
 10
129.7874744363
 20
42.74968960939999
 30
0.0
 10
129.7880267923
 20
42.75806501189999
 30
0.0
 10
129.7884791606
 20
42.7653926586
 30
0.0
 10
129.7888309555
 20
42.7716607769
 30
0.0
 10
129.7890517488
 20
42.7762178155
 30
0.0
 10
129.789173327
 20
42.7793263522
 30
0.0
 10
129.7892338822
 20
42.78125244679999
 30
0.0
 10
129.7892689879
 20
42.7829070783
 30
0.0
 10
129.7892797859
 20
42.7842907821
 30
0.0
 10
129.7892641696
 20
42.78539980179999
 30
0.0
 10
129.7892298885
 20
42.78624279689999
 30
0.0
 10
129.7891644589
 20
42.78680219489999
 30
0.0
 10
129.7891086949
 20
42.7871006683
 30
0.0
 10
129.7890504072
 20
42.78718432149999
 30
0.0
  0
SPLINE
  5
1879
330
21A
100
AcDbEntity
  8
0
  6
Continuous
 62
     7
100
AcDbSpline
210
0.0
220
0.0
230
1.0
 70
     8
 71
     3
 72
    31
 73
    27
 74
     0
 42
0.0000001
 43
0.0000000001
 40
0.0
 40
0.0
 40
0.0
 40
0.0
 40
0.2067689198
 40
0.3048216448
 40
0.3984761733
 40
0.4871339843
 40
0.570228428
 40
0.6472284341
 40
0.7176418784000001
 40
0.7810188087000001
 40
0.836954438
 40
0.8850916904999998
 40
0.9061382331
 40
0.9251236093999999
 40
0.9420185401000001
 40
0.9567955115
 40
0.9694317384000001
 40
0.9799075111
 40
0.9843299731
 40
0.9882069132999999
 40
0.9915371098999999
 40
0.9943195298
 40
0.9965537613999998
 40
0.9982409054000001
 40
0.9993846565
 40
1.0
 40
1.0
 40
1.0
 40
1.0
 10
129.7131519627
 20
41.91248266769999
 30
0.0
 10
129.7098796952
 20
41.8783801058
 30
0.0
 10
129.7050187829
 20
41.8281091541
 30
0.0
 10
129.6985787813
 20
41.7624011351
 30
0.0
 10
129.6940044879
 20
41.7161736766
 30
0.0
 10
129.6896291978
 20
41.6724170655
 30
0.0
 10
129.6854809448
 20
41.63141099909999
 30
0.0
 10
129.6815863772
 20
41.5934176073
 30
0.0
 10
129.6779705484
 20
41.55867976369999
 30
0.0
 10
129.6746569
 20
41.5274194919
 30
0.0
 10
129.6716668554999
 20
41.49983657579999
 30
0.0
 10
129.6693694292
 20
41.4792333886
 30
0.0
 10
129.6677014717
 20
41.4647203063
 30
0.0
 10
129.6665995782
 20
41.45535276239999
 30
0.0
 10
129.6655916212
 20
41.4470201689
 30
0.0
 10
129.6646794022
 20
41.4397356907
 30
0.0
 10
129.6638645320999
 20
41.4335110162
 30
0.0
 10
129.6632377407
 20
41.4289920331
 30
0.0
 10
129.6627816514
 20
41.4259148325
 30
0.0
 10
129.6624845308
 20
41.42401088439999
 30
0.0
 10
129.6622126647
 20
41.4223784128
 30
0.0
 10
129.6619670748
 20
41.4210166807
 30
0.0
 10
129.6617463866
 20
41.4199297651
 30
0.0
 10
129.6615566137
 20
41.4191077151
 30
0.0
 10
129.6613887399
 20
41.41857011719999
 30
0.0
 10
129.6612786783
 20
41.4182871328
 30
0.0
 10
129.6612059092
 20
41.41821572179999
 30
0.0
  0
SPLINE
  5
187A
330
21A
100
AcDbEntity
  8
0
  6
Continuous
 62
     7
100
AcDbSpline
210
0.0
220
0.0
230
1.0
 70
     8
 71
     3
 72
    10
 73
     6
 74
     0
 42
0.0000001
 43
0.0000000001
 40
0.0
 40
0.0
 40
0.0
 40
0.0
 40
0.2054461256
 40
0.4541432194
 40
1.0
 40
1.0
 40
1.0
 40
1.0
 10
129.7481586474
 20
42.2078560627
 30
0.0
 10
129.7475539226
 20
42.20207777649999
 30
0.0
 10
129.7462667892
 20
42.1892995765
 30
0.0
 10
129.7435117378
 20
42.1611549838
 30
0.0
 10
129.7414028176
 20
42.13878454959999
 30
0.0
 10
129.7400344261
 20
42.1234089505
 30
0.0
  0
LINE
  5
187B
330
21A
100
AcDbEntity
  8
0
  6
Continuous
 62
     7
100
AcDbLine
 10
129.7358729907
 20
42.0766504495
 30
0.0
 11
129.7282168617
 21
41.9950220612
 31
0.0
  0
SPLINE
  5
187C
330
21A
100
AcDbEntity
  8
0
  6
Continuous
 62
     7
100
AcDbSpline
210
0.0
220
0.0
230
1.0
 70
     8
 71
     3
 72
    10
 73
     6
 74
     0
 42
0.0000001
 43
0.0000000001
 40
0.0
 40
0.0
 40
0.0
 40
0.0
 40
0.2054461256
 40
0.4541432194
 40
1.0
 40
1.0
 40
1.0
 40
1.0
 10
129.7486015344
 20
42.2078560627
 30
0.0
 10
129.7479968096
 20
42.20207777649999
 30
0.0
 10
129.7467096762
 20
42.1892995765
 30
0.0
 10
129.7439546248
 20
42.1611549838
 30
0.0
 10
129.7418457046
 20
42.13878454959999
 30
0.0
 10
129.7404773131
 20
42.1234089505
 30
0.0
  0
LINE
  5
187D
330
21A
100
AcDbEntity
  8
0
  6
Continuous
 62
     7
100
AcDbLine
 10
129.7363158777
 20
42.0766504495
 30
0.0
 11
129.7286597486
 21
41.9950220612
 31
0.0
  0
SPLINE
  5
187E
330
21A
100
AcDbEntity
  8
0
  6
Continuous
 62
     7
100
AcDbSpline
210
0.0
220
0.0
230
1.0
 70
     8
 71
     3
 72
    10
 73
     6
 74
     0
 42
0.0000001
 43
0.0000000001
 40
0.0
 40
0.0
 40
0.0
 40
0.0
 40
0.2054461256
 40
0.4541432194
 40
1.0
 40
1.0
 40
1.0
 40
1.0
 10
129.7490444214
 20
42.2078560627
 30
0.0
 10
129.7484396966
 20
42.20207777649999
 30
0.0
 10
129.7471525632
 20
42.1892995765
 30
0.0
 10
129.7443975118
 20
42.1611549838
 30
0.0
 10
129.7422885916
 20
42.13878454959999
 30
0.0
 10
129.7409202001
 20
42.1234089505
 30
0.0
  0
LINE
  5
187F
330
21A
100
AcDbEntity
  8
0
  6
Continuous
 62
     7
100
AcDbLine
 10
129.7367587647
 20
42.0766504495
 30
0.0
 11
129.7291026356
 21
41.9950220612
 31
0.0
  0
SPLINE
  5
1880
330
21A
100
AcDbEntity
  8
0
  6
Continuous
 62
     7
100
AcDbSpline
210
0.0
220
0.0
230
1.0
 70
     8
 71
     3
 72
    30
 73
    26
 74
     0
 42
0.0000001
 43
0.0000000001
 40
0.0
 40
0.0
 40
0.0
 40
0.0
 40
0.0003632086
 40
0.0007001108
 40
0.0011599735
 40
0.0024636052
 40
0.004289273
 40
0.0095195534
 40
0.016860393
 40
0.026310094
 40
0.0378611223
 40
0.0515027721
 40
0.0672233914
 40
0.0850074587
 40
0.1048376132
 40
0.150559678
 40
0.2042116229
 40
0.2655847846999999
 40
0.3344408559
 40
0.4105110009000001
 40
0.4934983474
 40
0.5830798509
 40
0.6789060190000001
 40
0.7806025966
 40
1.0
 40
1.0
 40
1.0
 40
1.0
 10
129.5507992021
 20
41.3657181998
 30
0.0
 10
129.5507578697
 20
41.3657135572
 30
0.0
 10
129.5506943122999
 20
41.3657976567
 30
0.0
 10
129.550656247
 20
41.3659164371
 30
0.0
 10
129.5505986925
 20
41.366154536
 30
0.0
 10
129.5505514384
 20
41.3665607496
 30
0.0
 10
129.5504865925
 20
41.36751761889999
 30
0.0
 10
129.5504678691
 20
41.36916586619999
 30
0.0
 10
129.5505028422
 20
41.3716877415
 30
0.0
 10
129.5506060067
 20
41.3749316
 30
0.0
 10
129.5507747249
 20
41.3788951114
 30
0.0
 10
129.5510109256
 20
41.3835743016
 30
0.0
 10
129.5513142376
 20
41.38896468979999
 30
0.0
 10
129.5516846838
 20
41.3950610168
 30
0.0
 10
129.55229759
 20
41.4045844562
 30
0.0
 10
129.5532355346
 20
41.41820273719999
 30
0.0
 10
129.554573558
 20
41.43656178659999
 30
0.0
 10
129.5561677722
 20
41.4575582453
 30
0.0
 10
129.5580121657
 20
41.4811102069
 30
0.0
 10
129.5600998391
 20
41.5071257576
 30
0.0
 10
129.5624227793
 20
41.5355033592
 30
0.0
 10
129.5649720469
 20
41.5661323007
 30
0.0
 10
129.5677377513
 20
41.5988930703
 30
0.0
 10
129.5718036823
 20
41.64646259189999
 30
0.0
 10
129.5749873611
 20
41.683094107
 30
0.0
 10
129.5771810732
 20
41.7081221042
 30
0.0
  0
LINE
  5
1881
330
21A
100
AcDbEntity
  8
0
  6
Continuous
 62
     7
100
AcDbLine
 10
129.5771810732
 20
41.7081221042
 30
0.0
 11
129.5772541047
 21
41.70895524
 31
0.0
  0
SPLINE
  5
1882
330
21A
100
AcDbEntity
  8
0
  6
Continuous
 62
     7
100
AcDbSpline
210
0.0
220
0.0
230
1.0
 70
     8
 71
     3
 72
    30
 73
    26
 74
     0
 42
0.0000001
 43
0.0000000001
 40
0.0
 40
0.0
 40
0.0
 40
0.0
 40
0.0004060268
 40
0.0012554193
 40
0.0026099287
 40
0.0044818863
 40
0.0068750911
 40
0.009790823
 40
0.0171907069
 40
0.0266803967
 40
0.0382538777
 40
0.0519006221
 40
0.0676092971
 40
0.0853669059
 40
0.105156489
 40
0.1507598744
 40
0.204254953
 40
0.2654488893
 40
0.3341182568
 40
0.4100144766
 40
0.492861923
 40
0.582358549
 40
0.6781801241
 40
0.7799776914
 40
1.0
 40
1.0
 40
1.0
 40
1.0
 10
129.6632315934
 20
41.4405870208
 30
0.0
 10
129.6631929856
 20
41.4405906276
 30
0.0
 10
129.6631189989
 20
41.4407166378
 30
0.0
 10
129.6630733666
 20
41.4409459416
 30
0.0
 10
129.6630198477
 20
41.4413400516
 30
0.0
 10
129.6629868486
 20
41.44187248459999
 30
0.0
 10
129.6629632018
 20
41.4425592062
 30
0.0
 10
129.6629505784
 20
41.4437723181
 30
0.0
 10
129.6629756737
 20
41.4456641646
 30
0.0
 10
129.6630574142
 20
41.4483810596
 30
0.0
 10
129.6631944118
 20
41.45169316999999
 30
0.0
 10
129.6633868144
 20
41.4555971772
 30
0.0
 10
129.6636348283
 20
41.4600896945
 30
0.0
 10
129.6639383537
 20
41.46516661639999
 30
0.0
 10
129.6644412248
 20
41.473091636
 30
0.0
 10
129.6652122672
 20
41.4844193782
 30
0.0
 10
129.6663141299
 20
41.49968774349999
 30
0.0
 10
129.6676287086
 20
41.5171492176
 30
0.0
 10
129.6691513745
 20
41.53674033969999
 30
0.0
 10
129.6708768568
 20
41.5583898164
 30
0.0
 10
129.6727989958
 20
41.5820189112
 30
0.0
 10
129.6749108915
 20
41.60754171539999
 30
0.0
 10
129.6772049212
 20
41.6348653638
 30
0.0
 10
129.6805840322
 20
41.67460704609999
 30
0.0
 10
129.6832321801
 20
41.7052268102
 30
0.0
 10
129.6850581341
 20
41.7261596204
 30
0.0
  0
LINE
  5
1883
330
21A
100
AcDbEntity
  8
0
  6
Continuous
 62
     7
100
AcDbLine
 10
129.6850581341
 20
41.7261596204
 30
0.0
 11
129.6852548793
 21
41.7284144136
 31
0.0
  0
SPLINE
  5
1884
330
21A
100
AcDbEntity
  8
0
  6
Continuous
 62
     7
100
AcDbSpline
210
0.0
220
0.0
230
1.0
 70
     8
 71
     3
 72
    30
 73
    26
 74
     0
 42
0.0000001
 43
0.0000000001
 40
0.0
 40
0.0
 40
0.0
 40
0.0
 40
0.0003632301
 40
0.0007001355
 40
0.001159994
 40
0.0024635897
 40
0.0042892138
 40
0.0095194469
 40
0.0168602051
 40
0.0263097453
 40
0.0378606558
 40
0.0515021457
 40
0.0672225457
 40
0.0850064412
 40
0.1048363767
 40
0.1505579886
 40
0.2042094343
 40
0.2655821535
 40
0.3344378612
 40
0.4105076975000001
 40
0.4934949004
 40
0.5830764985
 40
0.6789029702000001
 40
0.7806001599
 40
1.0
 40
1.0
 40
1.0
 40
1.0
 10
129.6902732588
 20
42.8592169986
 30
0.0
 10
129.6902335033
 20
42.8592292106
 30
0.0
 10
129.6901554822
 20
42.85915834499999
 30
0.0
 10
129.6900960844
 20
42.859048681
 30
0.0
 10
129.6899954498
 20
42.8588253942
 30
0.0
 10
129.6898738087
 20
42.85843502059999
 30
0.0
 10
129.6896329355
 20
42.8575068518
 30
0.0
 10
129.6893093842
 20
42.8558908204
 30
0.0
 10
129.6888768529
 20
42.8534064612
 30
0.0
 10
129.6883776599
 20
42.8502000858
 30
0.0
 10
129.6878096491
 20
42.8462744731
 30
0.0
 10
129.6871754472
 20
42.84163316899999
 30
0.0
 10
129.6864755195
 20
42.8362806444
 30
0.0
 10
129.6857108646999
 20
42.8302220629
 30
0.0
 10
129.6845499638
 20
42.820751242
 30
0.0
 10
129.6829503408
 20
42.807196813
 30
0.0
 10
129.6808661424
 20
42.788910203
 30
0.0
 10
129.6785453938
 20
42.7679847128
 30
0.0
 10
129.6759973503
 20
42.7445019227
 30
0.0
 10
129.6732322472
 20
42.7185534094
 30
0.0
 10
129.6702610082
 20
42.69024040669999
 30
0.0
 10
129.6670953447
 20
42.6596733335
 30
0.0
 10
129.6637476615
 20
42.6269714332
 30
0.0
 10
129.6589358971
 20
42.5794779096
 30
0.0
 10
129.655282273
 20
42.5428951158
 30
0.0
 10
129.6528041626
 20
42.5178969402
 30
0.0
  0
SPLINE
  5
1885
330
21A
100
AcDbEntity
  8
0
  6
Continuous
 62
     7
100
AcDbSpline
210
0.0
220
0.0
230
1.0
 70
     8
 71
     3
 72
    30
 73
    26
 74
     0
 42
0.0000001
 43
0.0000000001
 40
0.0
 40
0.0
 40
0.0
 40
0.0
 40
0.0004059981
 40
0.00125536
 40
0.0026098229
 40
0.0044817332
 40
0.006874928
 40
0.0097906753
 40
0.0171906139
 40
0.0266803138
 40
0.0382538809
 40
0.0519007712
 40
0.0676095497
 40
0.0853673052
 40
0.1051571021
 40
0.1507608464
 40
0.2042563957
 40
0.2654507637
 40
0.3341205038
 40
0.4100170889000001
 40
0.4928647069
 40
0.5823613428
 40
0.6781827371000001
 40
0.7799797762000001
 40
1.0
 40
1.0
 40
1.0
 40
1.0
 10
129.7868987999
 20
42.7648247879
 30
0.0
 10
129.7868601891
 20
42.7648283951
 30
0.0
 10
129.7867641386
 20
42.76471824739999
 30
0.0
 10
129.7866768332
 20
42.7645013354
 30
0.0
 10
129.7865512523
 20
42.76412390239999
 30
0.0
 10
129.7864202253
 20
42.7636067175
 30
0.0
 10
129.786269818
 20
42.7629361503
 30
0.0
 10
129.7860327655
 20
42.761746166
 30
0.0
 10
129.7857070936
 20
42.7598820957
 30
0.0
 10
129.7852843052
 20
42.757196625
 30
0.0
 10
129.7848056015
 20
42.75391590119999
 30
0.0
 10
129.7842717402
 20
42.7500431587
 30
0.0
 10
129.7836835499
 20
42.7455816913
 30
0.0
 10
129.783041695
 20
42.7405355516
 30
0.0
 10
129.7820683387
 20
42.7326531996
 30
0.0
 10
129.7807284124
 20
42.72137676709999
 30
0.0
 10
129.778983883
 20
42.70616598300001
 30
0.0
 10
129.7770422853
 20
42.6887602945
 30
0.0
 10
129.7749108239
 20
42.6692229427
 30
0.0
 10
129.7725975236
 20
42.64762498949999
 30
0.0
 10
129.7701109105
 20
42.6240449723
 30
0.0
 10
129.767460115
 20
42.5985686219
 30
0.0
 10
129.7646548441
 20
42.5712886379
 30
0.0
 10
129.7606164136
 20
42.5316027647
 30
0.0
 10
129.7575488075
 20
42.501017776
 30
0.0
 10
129.7554669947
 20
42.4801058826
 30
0.0
  0
LINE
  5
1886
330
21A
100
AcDbEntity
  8
0
  6
Continuous
 62
     7
100
AcDbLine
 10
129.7554669947
 20
42.4801058826
 30
0.0
 11
129.7552481763
 21
42.47790725659999
 31
0.0
  0
SPLINE
  5
1887
330
21A
100
AcDbEntity
  8
0
  6
Continuous
 62
     7
100
AcDbSpline
210
0.0
220
0.0
230
1.0
 70
     8
 71
     3
 72
    10
 73
     6
 74
     0
 42
0.0000001
 43
0.0000000001
 40
0.0
 40
0.0
 40
0.0
 40
0.0
 40
0.2054461256
 40
0.4541432194
 40
1.0
 40
1.0
 40
1.0
 40
1.0
 10
129.7282168617
 20
41.9950220612
 30
0.0
 10
129.7288215865
 20
42.0008003474
 30
0.0
 10
129.7301087199
 20
42.01357854739999
 30
0.0
 10
129.7328637713
 20
42.0417231401
 30
0.0
 10
129.7349726915
 20
42.0640935743
 30
0.0
 10
129.736341083
 20
42.0794691734
 30
0.0
  0
LINE
  5
1888
330
21A
100
AcDbEntity
  8
0
  6
Continuous
 62
     7
100
AcDbLine
 10
129.7405025184
 20
42.1262276743
 30
0.0
 11
129.7481586474
 21
42.2078560627
 31
0.0
  0
SPLINE
  5
1889
330
21A
100
AcDbEntity
  8
0
  6
Continuous
 62
     7
100
AcDbSpline
210
0.0
220
0.0
230
1.0
 70
     8
 71
     3
 72
    10
 73
     6
 74
     0
 42
0.0000001
 43
0.0000000001
 40
0.0
 40
0.0
 40
0.0
 40
0.0
 40
0.2054461256
 40
0.4541432194
 40
1.0
 40
1.0
 40
1.0
 40
1.0
 10
129.7286597486
 20
41.9950220612
 30
0.0
 10
129.7292644735
 20
42.0008003474
 30
0.0
 10
129.7305516069
 20
42.01357854739999
 30
0.0
 10
129.7333066583
 20
42.0417231401
 30
0.0
 10
129.7354155785
 20
42.0640935743
 30
0.0
 10
129.73678397
 20
42.0794691734
 30
0.0
  0
LINE
  5
188A
330
21A
100
AcDbEntity
  8
0
  6
Continuous
 62
     7
100
AcDbLine
 10
129.7409454054
 20
42.1262276743
 30
0.0
 11
129.7486015344
 21
42.2078560627
 31
0.0
  0
SPLINE
  5
188B
330
21A
100
AcDbEntity
  8
0
  6
Continuous
 62
     7
100
AcDbSpline
210
0.0
220
0.0
230
1.0
 70
     8
 71
     3
 72
    10
 73
     6
 74
     0
 42
0.0000001
 43
0.0000000001
 40
0.0
 40
0.0
 40
0.0
 40
0.0
 40
0.2054461256
 40
0.4541432194
 40
1.0
 40
1.0
 40
1.0
 40
1.0
 10
129.7291026356
 20
41.9950220612
 30
0.0
 10
129.7297073605
 20
42.0008003474
 30
0.0
 10
129.7309944939
 20
42.01357854739999
 30
0.0
 10
129.7337495453
 20
42.0417231401
 30
0.0
 10
129.7358584655
 20
42.0640935743
 30
0.0
 10
129.737226857
 20
42.0794691734
 30
0.0
  0
LINE
  5
188C
330
21A
100
AcDbEntity
  8
0
  6
Continuous
 62
     7
100
AcDbLine
 10
129.7413882924
 20
42.1262276743
 30
0.0
 11
129.7490444214
 21
42.2078560627
 31
0.0
  0
LINE
  5
188D
330
21A
100
AcDbEntity
  8
0
  6
Continuous
 62
     9
100
AcDbLine
 10
129.7435994144
 20
42.29232642809999
 30
0.0
 11
129.7436370426
 21
42.29275360729999
 31
0.0
  0
LINE
  5
188E
330
21A
100
AcDbEntity
  8
0
  6
Continuous
 62
     9
100
AcDbLine
 10
129.7436370426
 20
42.29275360729999
 30
0.0
 11
129.7442617085
 21
42.29985684999999
 31
0.0
  0
SPLINE
  5
188F
330
21A
100
AcDbEntity
  8
0
  6
Continuous
 62
     9
100
AcDbSpline
210
0.0
220
0.0
230
1.0
 70
     8
 71
     3
 72
    10
 73
     6
 74
     0
 42
0.0000001
 43
0.0000000001
 40
0.0
 40
0.0
 40
0.0
 40
0.0
 40
0.5873289265000001
 40
0.8181896888
 40
1.0
 40
1.0
 40
1.0
 40
1.0
 10
129.7442617085
 20
42.29985684999999
 30
0.0
 10
129.7467128471
 20
42.3277732258
 30
0.0
 10
129.7500728235
 20
42.3666676459
 30
0.0
 10
129.7539593772
 20
42.41422307749999
 30
0.0
 10
129.7554795951
 20
42.43385461839999
 30
0.0
 10
129.7561119651
 20
42.44250642539999
 30
0.0
  0
SPLINE
  5
1890
330
21A
100
AcDbEntity
  8
0
  6
Continuous
 62
     9
100
AcDbSpline
210
0.0
220
0.0
230
1.0
 70
     8
 71
     3
 72
    52
 73
    48
 74
     0
 42
0.0000001
 43
0.0000000001
 40
0.0
 40
0.0
 40
0.0
 40
0.0
 40
0.02126929
 40
0.0306622122
 40
0.0392155171
 40
0.0469203789
 40
0.053768223
 40
0.0597530559
 40
0.0648705812
 40
0.069116673
 40
0.072487502
 40
0.0738437053
 40
0.0749800875
 40
0.0758969921
 40
0.0765954861
 40
0.0770780922
 40
0.0772407817
 40
0.0773545261
 40
0.0774288353
 40
0.0774937964
 40
0.0775888328
 40
0.0777301045
 40
0.0781674114
 40
0.0788196141
 40
0.0796898506
 40
0.0807793749
 40
0.0820887137
 40
0.083617748
 40
0.0873334135
 40
0.091922916
 40
0.0973822369
 40
0.1037071378
 40
0.1108930471
 40
0.1189327973
 40
0.1278175631
 40
0.1480866045
 40
0.1716273465
 40
0.198347683
 40
0.2281431228
 40
0.2609038797
 40
0.2964999169
 40
0.3756467195
 40
0.4643671051
 40
0.5613014595
 40
0.6649630663
 40
0.7737462384000001
 40
1.0
 40
1.0
 40
1.0
 40
1.0
 10
129.7561119651
 20
42.44250642539999
 30
0.0
 10
129.7563208241
 20
42.4453639421
 30
0.0
 10
129.7566156544
 20
42.44948386059999
 30
0.0
 10
129.7569740565
 20
42.4547543298
 30
0.0
 10
129.757199029
 20
42.45820240559999
 30
0.0
 10
129.7573913494
 20
42.4613090252
 30
0.0
 10
129.757550841
 20
42.46407100139999
 30
0.0
 10
129.7576774178
 20
42.46648573149999
 30
0.0
 10
129.757771195
 20
42.4685511871
 30
0.0
 10
129.757832171
 20
42.4702655577
 30
0.0
 10
129.7578580009
 20
42.4714741196
 30
0.0
 10
129.7578594604
 20
42.47226399899999
 30
0.0
 10
129.757852186
 20
42.4727232478
 30
0.0
 10
129.7578373261
 20
42.4730937149
 30
0.0
 10
129.7578141276
 20
42.4733754602
 30
0.0
 10
129.7577883576
 20
42.473554869
 30
0.0
 10
129.7577590908
 20
42.4736535606
 30
0.0
 10
129.7577394116
 20
42.4736959485
 30
0.0
 10
129.7577124876
 20
42.4737221446
 30
0.0
 10
129.7576779836
 20
42.473714723
 30
0.0
 10
129.7576509591
 20
42.4736829807
 30
0.0
 10
129.7576047194
 20
42.473605179
 30
0.0
 10
129.7575479467
 20
42.4734479888
 30
0.0
 10
129.7574748642
 20
42.47319479709999
 30
0.0
 10
129.7573936016
 20
42.4728521216
 30
0.0
 10
129.7573032346
 20
42.4724211879
 30
0.0
 10
129.7572044961
 20
42.47190130489999
 30
0.0
 10
129.7570514282
 20
42.4710317918
 30
0.0
 10
129.756842349
 20
42.4697235721
 30
0.0
 10
129.7565718379
 20
42.4678892096
 30
0.0
 10
129.7562687477
 20
42.46570444079999
 30
0.0
 10
129.7559333975
 20
42.46317110489999
 30
0.0
 10
129.7555662641
 20
42.4602913753
 30
0.0
 10
129.7551677263
 20
42.4570680513
 30
0.0
 10
129.7545682676
 20
42.452093773
 30
0.0
 10
129.7537466526
 20
42.44504309009999
 30
0.0
 10
129.7526809015
 20
42.43560208249999
 30
0.0
 10
129.7515008713
 20
42.42488258779999
 30
0.0
 10
129.7502111603
 20
42.41292568929999
 30
0.0
 10
129.7488169297
 20
42.39977752629999
 30
0.0
 10
129.7467515583
 20
42.38001526789999
 30
0.0
 10
129.7439568516
 20
42.3527500112
 30
0.0
 10
129.7403893413
 20
42.31725800409999
 30
0.0
 10
129.7365545916
 20
42.2784739364
 30
0.0
 10
129.7325117872
 20
42.2369946907
 30
0.0
 10
129.7268525986
 20
42.17817015449999
 30
0.0
 10
129.7226086774
 20
42.1332379915
 30
0.0
 10
129.7197749519
 20
42.1028918629
 30
0.0
  0
LINE
  5
1891
330
21A
100
AcDbEntity
  8
0
  6
Continuous
 62
     9
100
AcDbLine
 10
129.7025086648
 20
41.9130054811
 30
0.0
 11
129.7018709137
 21
41.9057531264
 31
0.0
  0
SPLINE
  5
1892
330
21A
100
AcDbEntity
  8
0
  6
Continuous
 62
     9
100
AcDbSpline
210
0.0
220
0.0
230
1.0
 70
     8
 71
     3
 72
    45
 73
    41
 74
     0
 42
0.0000001
 43
0.0000000001
 40
0.0
 40
0.0
 40
0.0
 40
0.0
 40
0.2481038665
 40
0.3566295133
 40
0.4533436506000001
 40
0.5372952288000001
 40
0.607664796
 40
0.6637522619000001
 40
0.6862686651000001
 40
0.7050185305
 40
0.7129668175
 40
0.7199588999
 40
0.7259911449
 40
0.7310601134999999
 40
0.7351627448000001
 40
0.7368509795999999
 40
0.7382970906000001
 40
0.7395016469
 40
0.7404657156000001
 40
0.7411914228000001
 40
0.7416839876000001
 40
0.7419620737
 40
0.7421375243
 40
0.7424584129000001
 40
0.7430005273
 40
0.7437774024
 40
0.7447932303
 40
0.7475479083
 40
0.7512708597
 40
0.755961254
 40
0.7616162400000001
 40
0.7682324565
 40
0.7758062942000001
 40
0.7843340079000001
 40
0.8042343505999999
 40
0.8278837602999999
 40
0.8552199459
 40
0.8861800291999999
 40
0.9206907565000001
 40
1.0
 40
1.0
 40
1.0
 40
1.0
 10
129.7018709137
 20
41.9057531264
 30
0.0
 10
129.7001722678
 20
41.8864054905
 30
0.0
 10
129.697760674
 20
41.8585921323
 30
0.0
 10
129.6947843826
 20
41.8232285045
 30
0.0
 10
129.6929313291
 20
41.80066598479999
 30
0.0
 10
129.6913729746
 20
41.7810762982
 30
0.0
 10
129.6901244334
 20
41.7646524592
 30
0.0
 10
129.6892982107
 20
41.75301971599999
 30
0.0
 10
129.6888104849
 20
41.74541427
 30
0.0
 10
129.6885873624
 20
41.741568079
 30
0.0
 10
129.6884537204
 20
41.738934118
 30
0.0
 10
129.6883803217
 20
41.73729396809999
 30
0.0
 10
129.6883279471
 20
41.7358785438
 30
0.0
 10
129.688296595
 20
41.7346887257
 30
0.0
 10
129.6882869917
 20
41.73383863829999
 30
0.0
 10
129.6882916894
 20
41.7332720252
 30
0.0
 10
129.688300273
 20
41.73293265579999
 30
0.0
 10
129.6883138661
 20
41.7326494057
 30
0.0
 10
129.6883327227
 20
41.7324250807
 30
0.0
 10
129.6883554426
 20
41.7322519189
 30
0.0
 10
129.6883838139
 20
41.73214568239999
 30
0.0
 10
129.6884142788
 20
41.73206344519999
 30
0.0
 10
129.6884858961
 20
41.7320701861
 30
0.0
 10
129.6885241852
 20
41.73215076159999
 30
0.0
 10
129.6885767087
 20
41.7322633732
 30
0.0
 10
129.6886307913
 20
41.73244042039999
 30
0.0
 10
129.688722969
 20
41.7327830445
 30
0.0
 10
129.6888454836
 20
41.7333578966
 30
0.0
 10
129.6890051692
 20
41.73421701409999
 30
0.0
 10
129.6891860015
 20
41.73530359439999
 30
0.0
 10
129.6893884321
 20
41.7366158132
 30
0.0
 10
129.6896117822
 20
41.7381532208
 30
0.0
 10
129.6898559441
 20
41.73991477389999
 30
0.0
 10
129.6902284762
 20
41.74270835629999
 30
0.0
 10
129.6907415964
 20
41.7467526973
 30
0.0
 10
129.6914099807
 20
41.75226140489999
 30
0.0
 10
129.6921567781
 20
41.7586326705
 30
0.0
 10
129.6929800519
 20
41.7658509974
 30
0.0
 10
129.6942362252
 20
41.77711484469999
 30
0.0
 10
129.6951959574
 20
41.7859730825
 30
0.0
 10
129.6958567468
 20
41.7921463013
 30
0.0
  0
LINE
  5
1893
330
21A
100
AcDbEntity
  8
0
  6
Continuous
 62
     9
100
AcDbLine
 10
129.6958567468
 20
41.7921463013
 30
0.0
 11
129.6959450305
 21
41.7929715321
 31
0.0
  0
LINE
  5
1894
330
21A
100
AcDbEntity
  8
0
  6
Continuous
 62
     9
100
AcDbLine
 10
129.6996907029
 20
41.82869764849999
 30
0.0
 11
129.69992929
 21
41.83101266739999
 31
0.0
  0
LINE
  5
1895
330
21A
100
AcDbEntity
  8
0
  6
Continuous
 62
     9
100
AcDbLine
 10
129.7041278213
 20
41.8723295983
 30
0.0
 11
129.7045703105
 21
41.8767397742
 31
0.0
  0
LINE
  5
1896
330
21A
100
AcDbEntity
  8
0
  6
Continuous
 62
     9
100
AcDbLine
 10
129.7045703105
 20
41.8767397742
 30
0.0
 11
129.7074078851
 21
41.9052338373
 31
0.0
  0
LINE
  5
1897
330
21A
100
AcDbEntity
  8
0
  6
Continuous
 62
     9
100
AcDbLine
 10
129.7074078851
 20
41.9052338373
 30
0.0
 11
129.7081253996
 21
41.9124929609
 31
0.0
  0
LINE
  5
1898
330
21A
100
AcDbEntity
  8
0
  6
Continuous
 62
     9
100
AcDbLine
 10
129.7081253996
 20
41.9124929609
 30
0.0
 11
129.7081692039
 21
41.9129367961
 31
0.0
  0
SPLINE
  5
1899
330
21A
100
AcDbEntity
  8
0
  6
Continuous
 62
     9
100
AcDbSpline
210
0.0
220
0.0
230
1.0
 70
     8
 71
     3
 72
    51
 73
    47
 74
     0
 42
0.0000001
 43
0.0000000001
 40
0.0
 40
0.0
 40
0.0
 40
0.0
 40
0.1065672231
 40
0.2101114794
 40
0.3076022958
 40
0.3963030496
 40
0.4736590681
 40
0.5073761307
 40
0.5374626922
 40
0.5636958689
 40
0.5753082146000001
 40
0.5858915913000001
 40
0.5954265645
 40
0.6038937676
 40
0.6112772211000001
 40
0.6175666113000001
 40
0.6227522718000001
 40
0.6268247768000001
 40
0.6297753863000001
 40
0.6308286958
 40
0.6316016934000001
 40
0.6320971558
 40
0.6323280778
 40
0.632387503
 40
0.6324849086
 40
0.6326443947
 40
0.6328710552000001
 40
0.6335314084000001
 40
0.6344712783
 40
0.6356921319
 40
0.6371945025
 40
0.6410410204
 40
0.6460026336000001
 40
0.6520699124
 40
0.6592331418999999
 40
0.6674823305
 40
0.6768031468000001
 40
0.68717637
 40
0.6985824919
 40
0.7244151297000001
 40
0.7541224896
 40
0.7874831636000001
 40
0.8242662643
 40
0.8642047407999999
 40
0.9070140224999999
 40
1.0
 40
1.0
 40
1.0
 40
1.0
 10
129.7373003262
 20
42.1014390619
 30
0.0
 10
129.7365164
 20
42.0930440619
 30
0.0
 10
129.7349830051
 20
42.07649105699999
 30
0.0
 10
129.7327748534
 20
42.0522541562
 30
0.0
 10
129.7307326894
 20
42.0294215977
 30
0.0
 10
129.7289149098
 20
42.0086492737
 30
0.0
 10
129.7275741791
 20
41.99290025269999
 30
0.0
 10
129.7266555806
 20
41.98176963809999
 30
0.0
 10
129.7260843281
 20
41.97466892699999
 30
0.0
 10
129.7256673242
 20
41.9693103811
 30
0.0
 10
129.7253806602
 20
41.9654894565
 30
0.0
 10
129.7251982185
 20
41.96298558459999
 30
0.0
 10
129.7250397195
 20
41.9607294663
 30
0.0
 10
129.7249054783
 20
41.95872548359999
 30
0.0
 10
129.724795647
 20
41.956977148
 30
0.0
 10
129.7247104743
 20
41.95548770739999
 30
0.0
 10
129.7246494104
 20
41.95425851599999
 30
0.0
 10
129.7246136289
 20
41.9532946941
 30
0.0
 10
129.72460027
 20
41.95265263999999
 30
0.0
 10
129.724607252
 20
41.95227887549999
 30
0.0
 10
129.7246143187
 20
41.9520881365
 30
0.0
 10
129.7246330663
 20
41.95198432669999
 30
0.0
 10
129.7246440784
 20
41.9519045351
 30
0.0
 10
129.7246789066
 20
41.95190414479999
 30
0.0
 10
129.7246934243
 20
41.9519277823
 30
0.0
 10
129.724710275
 20
41.9519606841
 30
0.0
 10
129.7247380255
 20
41.952039764
 30
0.0
 10
129.7247749452
 20
41.9521789204
 30
0.0
 10
129.7248223631
 20
41.9523973969
 30
0.0
 10
129.7248762671
 20
41.9526820538
 30
0.0
 10
129.7249641446
 20
41.95319444379999
 30
0.0
 10
129.7250870647
 20
41.95400090249999
 30
0.0
 10
129.725249949
 20
41.9551665359
 30
0.0
 10
129.7254370794
 20
41.9565936759
 30
0.0
 10
129.7256481328
 20
41.958279986
 30
0.0
 10
129.7258825869
 20
41.9602227705
 30
0.0
 10
129.7261399958
 20
41.9624185858
 30
0.0
 10
129.7264198575
 20
41.9648632437
 30
0.0
 10
129.7268399547
 20
41.9686067743
 30
0.0
 10
129.7274155221
 20
41.97387214879999
 30
0.0
 10
129.7281610384
 20
41.9808662911
 30
0.0
 10
129.7289818642
 20
41.9887236884
 30
0.0
 10
129.7298719378
 20
41.99738772089999
 30
0.0
 10
129.730824936
 20
42.0067967803
 30
0.0
 10
129.7322088893
 20
42.0206316611
 30
0.0
 10
129.7332604941
 20
42.0313241056
 30
0.0
 10
129.7339743949
 20
42.03864637
 30
0.0
  0
LINE
  5
189A
330
21A
100
AcDbEntity
  8
0
  6
Continuous
 62
     9
100
AcDbLine
 10
129.7339743949
 20
42.03864637
 30
0.0
 11
129.734354902
 21
42.042555287
 31
0.0
  0
LINE
  5
189B
330
21A
100
AcDbEntity
  8
0
  6
Continuous
 62
     9
100
AcDbLine
 10
129.734354902
 20
42.042555287
 30
0.0
 11
129.7368840383
 21
42.0688314117
 31
0.0
  0
LINE
  5
189C
330
21A
100
AcDbEntity
  8
0
  6
Continuous
 62
     9
100
AcDbLine
 10
129.7368840383
 20
42.0688314117
 30
0.0
 11
129.7370770949
 21
42.07085713749999
 31
0.0
  0
LINE
  5
189D
330
21A
100
AcDbEntity
  8
0
  6
Continuous
 62
     9
100
AcDbLine
 10
129.7370770949
 20
42.07085713749999
 30
0.0
 11
129.7399609569
 21
42.1014390619
 31
0.0
  0
LINE
  5
189E
330
21A
100
AcDbEntity
  8
0
  6
Continuous
 62
     9
100
AcDbLine
 10
129.7347126055
 20
42.1016701274
 30
0.0
 11
129.7324230541
 21
42.07697138239999
 31
0.0
  0
LINE
  5
189F
330
21A
100
AcDbEntity
  8
0
  6
Continuous
 62
     9
100
AcDbLine
 10
129.7324230541
 20
42.07697138239999
 30
0.0
 11
129.7321044848
 21
42.07350536689999
 31
0.0
  0
SPLINE
  5
18A0
330
21A
100
AcDbEntity
  8
0
  6
Continuous
 62
     9
100
AcDbSpline
210
0.0
220
0.0
230
1.0
 70
     8
 71
     3
 72
    26
 73
    22
 74
     0
 42
0.0000001
 43
0.0000000001
 40
0.0
 40
0.0
 40
0.0
 40
0.0
 40
0.2277606247
 40
0.4302242742000001
 40
0.6048660063
 40
0.7495000141000001
 40
0.809997599
 40
0.8623446984
 40
0.9063837626000001
 40
0.9252486473999999
 40
0.9419898162999999
 40
0.9565919932999999
 40
0.9690419284999999
 40
0.9793338207999999
 40
0.9874645493
 40
0.9934333485999999
 40
0.9972471728
 40
0.9983591264000001
 40
0.998975356
 40
0.9993221912999999
 40
1.0
 40
1.0
 40
1.0
 40
1.0
 10
129.7253079211
 20
41.9973377185
 30
0.0
 10
129.7249297629
 20
41.9929360964
 30
0.0
 10
129.7242220033
 20
41.9846211668
 30
0.0
 10
129.7232506351
 20
41.9729289462
 30
0.0
 10
129.7224392718
 20
41.9628414152
 30
0.0
 10
129.721874803
 20
41.9554966417
 30
0.0
 10
129.7215139279
 20
41.9505154132
 30
0.0
 10
129.7213053311
 20
41.947479517
 30
0.0
 10
129.7211631388
 20
41.9452485145
 30
0.0
 10
129.7210737903
 20
41.943706243
 30
0.0
 10
129.7210220036
 20
41.94273370949999
 30
0.0
 10
129.7209819661
 20
41.94188527449999
 30
0.0
 10
129.720953461
 20
41.94116123869999
 30
0.0
 10
129.7209370117
 20
41.9405632611
 30
0.0
 10
129.7209307278
 20
41.940088478
 30
0.0
 10
129.7209382915
 20
41.9397449111
 30
0.0
 10
129.7209486624
 20
41.9395267312
 30
0.0
 10
129.7209718076
 20
41.9394285326
 30
0.0
 10
129.720983764
 20
41.9393818239
 30
0.0
 10
129.7210219967
 20
41.9393827877
 30
0.0
 10
129.7210295303
 20
41.9394053654
 30
0.0
 10
129.7210355516
 20
41.9394170528
 30
0.0
  0
LINE
  5
18A1
330
21A
100
AcDbEntity
  8
0
  6
Continuous
 62
     9
100
AcDbLine
 10
129.7399609569
 20
42.1014390619
 30
0.0
 11
129.7427563948
 21
42.13166933
 31
0.0
  0
LINE
  5
18A2
330
21A
100
AcDbEntity
  8
0
  6
Continuous
 62
     9
100
AcDbLine
 10
129.7427563948
 20
42.13166933
 30
0.0
 11
129.7430313902
 21
42.1346764255
 31
0.0
  0
LINE
  5
18A3
330
21A
100
AcDbEntity
  8
0
  6
Continuous
 62
     9
100
AcDbLine
 10
129.7430313902
 20
42.1346764255
 30
0.0
 11
129.7453538124
 21
42.16034249959999
 31
0.0
  0
LINE
  5
18A4
330
21A
100
AcDbEntity
  8
0
  6
Continuous
 62
     9
100
AcDbLine
 10
129.7453538124
 20
42.16034249959999
 30
0.0
 11
129.7456515151
 21
42.1636710859
 31
0.0
  0
SPLINE
  5
18A5
330
21A
100
AcDbEntity
  8
0
  6
Continuous
 62
     9
100
AcDbSpline
210
0.0
220
0.0
230
1.0
 70
     8
 71
     3
 72
    50
 73
    46
 74
     0
 42
0.0000001
 43
0.0000000001
 40
0.0
 40
0.0
 40
0.0
 40
0.0
 40
0.0930216128
 40
0.1758329588
 40
0.2126553838
 40
0.2460585597
 40
0.2758108588
 40
0.3016902304
 40
0.3131197534
 40
0.3235164149
 40
0.332860743
 40
0.341133464
 40
0.3483197902000001
 40
0.3544097095
 40
0.3593935647999999
 40
0.3632619796
 40
0.3647751796
 40
0.3660066882
 40
0.3669569722
 40
0.3676274579
 40
0.3678590208
 40
0.3680231829
 40
0.3681245787
 40
0.3681847184
 40
0.368407219
 40
0.3688932936
 40
0.3696568842
 40
0.3707008687
 40
0.3736332304
 40
0.3776883616
 40
0.3828574743999999
 40
0.3891310436
 40
0.3964993009
 40
0.4049519319
 40
0.4144731742000001
 40
0.4250435676000001
 40
0.436643559
 40
0.4628535318
 40
0.4929190777000001
 40
0.5266165795000001
 40
0.6039354141
 40
0.6925967933
 40
0.7900396701000001
 40
0.8935197123
 40
1.0
 40
1.0
 40
1.0
 40
1.0
 10
129.7456515151
 20
42.1636710859
 30
0.0
 10
129.746307811
 20
42.17101980129999
 30
0.0
 10
129.7475365229
 20
42.18491168159999
 30
0.0
 10
129.7489868601
 20
42.2017158861
 30
0.0
 10
129.7500040648
 20
42.21381124309999
 30
0.0
 10
129.7506550378
 20
42.2217141805
 30
0.0
 10
129.7512200124
 20
42.22875330439999
 30
0.0
 10
129.7516313474
 20
42.2340563113
 30
0.0
 10
129.7519131662
 20
42.23782954659999
 30
0.0
 10
129.7520918302
 20
42.24029535869999
 30
0.0
 10
129.7522464208
 20
42.2425118712
 30
0.0
 10
129.7523766536
 20
42.2444748279
 30
0.0
 10
129.7524823215
 20
42.2461807115
 30
0.0
 10
129.7525634329
 20
42.24762673879999
 30
0.0
 10
129.7526198799
 20
42.2488105508
 30
0.0
 10
129.7526489253
 20
42.249632188
 30
0.0
 10
129.7526578491
 20
42.2501566971
 30
0.0
 10
129.7526578195
 20
42.25044967639999
 30
0.0
 10
129.7526519468
 20
42.2506761394
 30
0.0
 10
129.7526415101
 20
42.25082221
 30
0.0
 10
129.7526291561
 20
42.25090674519999
 30
0.0
 10
129.7526185705
 20
42.25094360529999
 30
0.0
 10
129.7526092157
 20
42.25097011329999
 30
0.0
 10
129.7525758729999
 20
42.25097945709999
 30
0.0
 10
129.7525482063
 20
42.2509033928
 30
0.0
 10
129.7525122939
 20
42.2508076124
 30
0.0
 10
129.7524694151
 20
42.25062274569999
 30
0.0
 10
129.7523939004
 20
42.250259087
 30
0.0
 10
129.7522879488
 20
42.2496274023
 30
0.0
 10
129.7521448959
 20
42.24867550459999
 30
0.0
 10
129.7519772579
 20
42.24745712969999
 30
0.0
 10
129.7517851211
 20
42.24597779209999
 30
0.0
 10
129.7515691762
 20
42.2442386521
 30
0.0
 10
129.7513298178
 20
42.2422429777
 30
0.0
 10
129.7510675374
 20
42.2399942357
 30
0.0
 10
129.7507828405999
 20
42.2374968049
 30
0.0
 10
129.7503564328
 20
42.2336833028
 30
0.0
 10
129.7497730955
 20
42.2283314782
 30
0.0
 10
129.7490184134
 20
42.2212353245
 30
0.0
 10
129.7478580381
 20
42.21010580579999
 30
0.0
 10
129.7462564555
 20
42.1943496314
 30
0.0
 10
129.7441926889
 20
42.17355852159999
 30
0.0
 10
129.7419677889
 20
42.1506982886
 30
0.0
 10
129.7396461214
 20
42.12642753469999
 30
0.0
 10
129.7380855456
 20
42.10984791099999
 30
0.0
 10
129.7373003262
 20
42.1014390619
 30
0.0
  0
LINE
  5
18A6
330
21A
100
AcDbEntity
  8
0
  6
Continuous
 62
     9
100
AcDbLine
 10
129.7053878836
 20
41.9088152679
 30
0.0
 11
129.7049627142
 21
41.9056682109
 31
0.0
  0
SPLINE
  5
18A7
330
21A
100
AcDbEntity
  8
0
  6
Continuous
 62
     9
100
AcDbSpline
210
0.0
220
0.0
230
1.0
 70
     8
 71
     3
 72
    27
 73
    23
 74
     0
 42
0.0000001
 43
0.0000000001
 40
0.0
 40
0.0
 40
0.0
 40
0.0
 40
0.0918766787
 40
0.1688432445
 40
0.2308473094
 40
0.2778514916
 40
0.2957363641
 40
0.3098953833
 40
0.3203631808
 40
0.3272305277
 40
0.3308686212
 40
0.3336617381
 40
0.3392167977
 40
0.3482946931
 40
0.3610403159
 40
0.3775020211
 40
0.4216479415000001
 40
0.4807948564000001
 40
0.5549119715
 40
0.6439491856
 40
0.7478498931000001
 40
1.0
 40
1.0
 40
1.0
 40
1.0
 10
129.7049627142
 20
41.9056682109
 30
0.0
 10
129.704922525
 20
41.9053900244
 30
0.0
 10
129.7048468693
 20
41.9048790385
 30
0.0
 10
129.7047362992
 20
41.90418155969999
 30
0.0
 10
129.7046385422
 20
41.90362090749999
 30
0.0
 10
129.704563357
 20
41.9032403152
 30
0.0
 10
129.7045074553
 20
41.9030044738
 30
0.0
 10
129.7044736693
 20
41.90287991159999
 30
0.0
 10
129.7044415297
 20
41.9027863258
 30
0.0
 10
129.7044174797
 20
41.9027322659
 30
0.0
 10
129.7043863903
 20
41.9026921367
 30
0.0
 10
129.7043502324
 20
41.9027184093
 30
0.0
 10
129.7043398497
 20
41.9027712464
 30
0.0
 10
129.7043223757
 20
41.90285295199999
 30
0.0
 10
129.7043121732
 20
41.90296996909999
 30
0.0
 10
129.7042985656
 20
41.9031938257
 30
0.0
 10
129.7042935626
 20
41.9035604132
 30
0.0
 10
129.704298749
 20
41.9041030677
 30
0.0
 10
129.7043169119
 20
41.9047829607
 30
0.0
 10
129.7043475318
 20
41.90559937449999
 30
0.0
 10
129.7044095971
 20
41.9069596151
 30
0.0
 10
129.7044694795
 20
41.9080472411
 30
0.0
 10
129.7045143179
 20
41.9088173292
 30
0.0
  0
SPLINE
  5
18A8
330
21A
100
AcDbEntity
  8
0
  6
Continuous
 62
     9
100
AcDbSpline
210
0.0
220
0.0
230
1.0
 70
     8
 71
     3
 72
    12
 73
     8
 74
     0
 42
0.0000001
 43
0.0000000001
 40
0.0
 40
0.0
 40
0.0
 40
0.0
 40
0.0632972639
 40
0.149582595
 40
0.3821679596
 40
0.6751373867
 40
1.0
 40
1.0
 40
1.0
 40
1.0
 10
129.7047525778
 20
41.91261886849999
 30
0.0
 10
129.7050181644
 20
41.9166318455
 30
0.0
 10
129.7057166916
 20
41.92611044449999
 30
0.0
 10
129.7076406448
 20
41.9503161417
 30
0.0
 10
129.7109481478
 20
41.98905033379999
 30
0.0
 10
129.7157408201
 20
42.042870853
 30
0.0
 10
129.7193388214
 20
42.0819612603
 30
0.0
 10
129.721257586
 20
42.1025128731
 30
0.0
  0
LINE
  5
18A9
330
21A
100
AcDbEntity
  8
0
  6
Continuous
 62
     9
100
AcDbLine
 10
129.721257586
 20
42.1025128731
 30
0.0
 11
129.7212929729
 21
42.1028918629
 31
0.0
  0
LINE
  5
18AA
330
21A
100
AcDbEntity
  8
0
  6
Continuous
 62
     9
100
AcDbLine
 10
129.7234273703
 20
42.102701276
 30
0.0
 11
129.7234707287
 21
42.1031655434
 31
0.0
  0
SPLINE
  5
18AB
330
21A
100
AcDbEntity
  8
0
  6
Continuous
 62
     9
100
AcDbSpline
210
0.0
220
0.0
230
1.0
 70
     8
 71
     3
 72
    31
 73
    27
 74
     0
 42
0.0000001
 43
0.0000000001
 40
0.0
 40
0.0
 40
0.0
 40
0.0
 40
0.197771687
 40
0.3876728091
 40
0.5622284854
 40
0.6415677105
 40
0.7145555637000001
 40
0.7804644115000001
 40
0.8386530348
 40
0.8885355601999998
 40
0.9102106415999999
 40
0.9296311002999999
 40
0.9467475583
 40
0.9615233541
 40
0.9739230041999999
 40
0.9839115485999998
 40
0.9879932418
 40
0.9914645583
 40
0.9929709899
 40
0.9943244509999999
 40
0.9955248679
 40
0.9965722187
 40
0.9982080069
 40
0.9992352265
 40
0.9996779418999999
 40
1.0
 40
1.0
 40
1.0
 40
1.0
 10
129.7234707287
 20
42.1031655434
 30
0.0
 10
129.724637315
 20
42.1156554873
 30
0.0
 10
129.7269451609
 20
42.1401363581
 30
0.0
 10
129.7303559134
 20
42.17563404659999
 30
0.0
 10
129.7331044413
 20
42.2036487603
 30
0.0
 10
129.735168994
 20
42.2242793128
 30
0.0
 10
129.7365676793
 20
42.23805078949999
 30
0.0
 10
129.7378527891
 20
42.2504853379
 30
0.0
 10
129.7390113773
 20
42.2614596007
 30
0.0
 10
129.7398987993
 20
42.26964120579999
 30
0.0
 10
129.7405393003
 20
42.27537613139999
 30
0.0
 10
129.7409584447
 20
42.2790445523
 30
0.0
 10
129.7413382436
 20
42.2822769977
 30
0.0
 10
129.7416776219
 20
42.2850657898
 30
0.0
 10
129.7419756929
 20
42.28740413469999
 30
0.0
 10
129.7422014023
 20
42.2890678504
 30
0.0
 10
129.7423628015
 20
42.2901687564
 30
0.0
 10
129.7424513772
 20
42.2907364579
 30
0.0
 10
129.7425174064
 20
42.2911326928
 30
0.0
 10
129.7425617438999
 20
42.2913860905
 30
0.0
 10
129.7426036555
 20
42.2916115775
 30
0.0
 10
129.7426509197
 20
42.2918497896
 30
0.0
 10
129.742706689
 20
42.2920960744
 30
0.0
 10
129.7427511124
 20
42.2922482489
 30
0.0
 10
129.7428140382
 20
42.29240686999999
 30
0.0
 10
129.7428543795
 20
42.29234526049999
 30
0.0
 10
129.7428602067
 20
42.2923256817
 30
0.0
  0
LINE
  5
18AC
330
21A
100
AcDbEntity
  8
0
  6
Continuous
 62
     9
100
AcDbLine
 10
129.7212929729
 20
42.1028918629
 30
0.0
 11
129.7213372463
 21
42.1033659294
 31
0.0
  0
SPLINE
  5
18AD
330
21A
100
AcDbEntity
  8
0
  6
Continuous
 62
     9
100
AcDbSpline
210
0.0
220
0.0
230
1.0
 70
     8
 71
     3
 72
    12
 73
     8
 74
     0
 42
0.0000001
 43
0.0000000001
 40
0.0
 40
0.0
 40
0.0
 40
0.0
 40
0.3248052136
 40
0.6177877629000001
 40
0.8504064137
 40
0.9367021276
 40
1.0
 40
1.0
 40
1.0
 40
1.0
 10
129.7213372463
 20
42.1033659294
 30
0.0
 10
129.7232587729
 20
42.12393873489999
 30
0.0
 10
129.7269648378
 20
42.16306399199999
 30
0.0
 10
129.7322263091
 20
42.21690578349999
 30
0.0
 10
129.7361528138
 20
42.2556331051
 30
0.0
 10
129.7387472783
 20
42.2798085626
 30
0.0
 10
129.7398171703
 20
42.2892647482
 30
0.0
 10
129.7402997795
 20
42.29326239
 30
0.0
  0
SPLINE
  5
18AE
330
21A
100
AcDbEntity
  8
0
  6
Continuous
 62
     9
100
AcDbSpline
210
0.0
220
0.0
230
1.0
 70
     8
 71
     3
 72
    27
 73
    23
 74
     0
 42
0.0000001
 43
0.0000000001
 40
0.0
 40
0.0
 40
0.0
 40
0.0
 40
0.2527627762
 40
0.3570051621
 40
0.4464064954
 40
0.5209092262000001
 40
0.5804621041
 40
0.6250329351000001
 40
0.6417134054
 40
0.6546806646
 40
0.6639798945000001
 40
0.6697432772000001
 40
0.6726369640000001
 40
0.6760934231000001
 40
0.6827220384999999
 40
0.692937156
 40
0.7068360143000002
 40
0.7244549917000001
 40
0.7709122693000002
 40
0.8323492148999999
 40
0.9087290283999999
 40
1.0
 40
1.0
 40
1.0
 40
1.0
 10
129.7407599936
 20
42.2969684579
 30
0.0
 10
129.7408593087
 20
42.2977410886
 30
0.0
 10
129.7410030008
 20
42.2988319399
 30
0.0
 10
129.7411953516
 20
42.3001942164
 30
0.0
 10
129.7413174364
 20
42.3010115526
 30
0.0
 10
129.7414264218
 20
42.30169158
 30
0.0
 10
129.741522665
 20
42.3022336056
 30
0.0
 10
129.7415961605
 20
42.3025987162
 30
0.0
 10
129.7416514441
 20
42.3028207129
 30
0.0
 10
129.7416835267
 20
42.30293637059999
 30
0.0
 10
129.7417161627
 20
42.3030169107
 30
0.0
 10
129.7417363867
 20
42.3030675149
 30
0.0
 10
129.7417757614
 20
42.3030911319
 30
0.0
 10
129.7418012937
 20
42.3030480258
 30
0.0
 10
129.7418140918
 20
42.30299150839999
 30
0.0
 10
129.7418290358
 20
42.3028955052
 30
0.0
 10
129.74183914
 20
42.3027681899
 30
0.0
 10
129.7418507895
 20
42.30252765769999
 30
0.0
 10
129.7418543652
 20
42.3021410713
 30
0.0
 10
129.7418468787
 20
42.3015730575
 30
0.0
 10
129.7418265254
 20
42.3008673537
 30
0.0
 10
129.7418063184
 20
42.3003510479
 30
0.0
 10
129.7417943219
 20
42.3000700165
 30
0.0
  0
SPLINE
  5
18AF
330
21A
100
AcDbEntity
  8
0
  6
Continuous
 62
     9
100
AcDbSpline
210
0.0
220
0.0
230
1.0
 70
     8
 71
     3
 72
    13
 73
     9
 74
     0
 42
0.0000001
 43
0.0000000001
 40
0.0
 40
0.0
 40
0.0
 40
0.0
 40
0.3799733838
 40
0.6752763054999999
 40
0.7901440868999999
 40
0.8826870562000001
 40
0.9526967356
 40
1.0
 40
1.0
 40
1.0
 40
1.0
 10
129.6893547893
 20
41.77514401469999
 30
0.0
 10
129.6889128081
 20
41.7694216143
 30
0.0
 10
129.6881451839
 20
41.75925058449999
 30
0.0
 10
129.6873129809
 20
41.7473444207
 30
0.0
 10
129.6868470567
 20
41.7397653211
 30
0.0
 10
129.6866219515
 20
41.7355807947
 30
0.0
 10
129.6864924442
 20
41.73241374989999
 30
0.0
 10
129.6864549388
 20
41.7306414947
 30
0.0
 10
129.6864649277
 20
41.7299270555
 30
0.0
  0
LINE
  5
18B0
330
21A
100
AcDbEntity
  8
0
  6
Continuous
 62
     9
100
AcDbLine
 10
129.6864649277
 20
41.7299270555
 30
0.0
 11
129.6866477488
 21
41.7286605086
 31
0.0
  0
SPLINE
  5
18B1
330
21A
100
AcDbEntity
  8
0
  6
Continuous
 62
     7
100
AcDbSpline
210
0.0
220
0.0
230
1.0
 70
     8
 71
     3
 72
    32
 73
    28
 74
     0
 42
0.0000001
 43
0.0000000001
 40
0.0
 40
0.0
 40
0.0
 40
0.0
 40
0.000190331
 40
0.000344838
 40
0.0005641942
 40
0.0008942368
 40
0.0019307984
 40
0.0034917669
 40
0.005584863
 40
0.0082128865
 40
0.0113770093
 40
0.0150773707
 40
0.0193133823
 40
0.0240842488
 40
0.0352268121
 40
0.0484967011
 40
0.0638811494
 40
0.100933333
 40
0.1462420872
 40
0.199633069
 40
0.2608983763
 40
0.3298004472
 40
0.4060723069
 40
0.4894166497
 40
0.5795096156000001
 40
0.7785165848000001
 40
1.0
 40
1.0
 40
1.0
 40
1.0
 10
129.6612059092
 20
41.41821572179999
 30
0.0
 10
129.6611919109
 20
41.41820198469999
 30
0.0
 10
129.6611610185
 20
41.4181769179
 30
0.0
 10
129.6610985057
 20
41.418194603
 30
0.0
 10
129.6610585308
 20
41.4182589555
 30
0.0
 10
129.6610005593
 20
41.4184106328
 30
0.0
 10
129.6609503146
 20
41.4187112873
 30
0.0
 10
129.6609035876
 20
41.41919116159999
 30
0.0
 10
129.6608725899
 20
41.4198385189
 30
0.0
 10
129.6608553984
 20
41.4206506954
 30
0.0
 10
129.6608535728
 20
41.42162898019999
 30
0.0
 10
129.6608669177
 20
41.42277275109999
 30
0.0
 10
129.6608956681
 20
41.4240818836
 30
0.0
 10
129.6609579416
 20
41.42615726649999
 30
0.0
 10
129.6610779912
 20
41.42916213969999
 30
0.0
 10
129.661276456
 20
41.4332582434
 30
0.0
 10
129.6616469078
 20
41.4400188817
 30
0.0
 10
129.6622726554
 20
41.45007173639999
 30
0.0
 10
129.6632234961
 20
41.46402801359999
 30
0.0
 10
129.6644132907
 20
41.4804686936
 30
0.0
 10
129.6658376516
 20
41.499329824
 30
0.0
 10
129.667491571
 20
41.520538029
 30
0.0
 10
129.6693688194
 20
41.54401081369999
 30
0.0
 10
129.6714622233
 20
41.56965686689999
 30
0.0
 10
129.6746379815
 20
41.6079038663
 30
0.0
 10
129.6790885174
 20
41.6603285203
 30
0.0
 10
129.6828341357
 20
41.703495875
 30
0.0
 10
129.6848240197
 20
41.7262317731
 30
0.0
  0
LINE
  5
18B2
330
21A
100
AcDbEntity
  8
0
  6
Continuous
 62
     7
100
AcDbLine
 10
129.6848240197
 20
41.7262317731
 30
0.0
 11
129.6850218732
 21
41.72849174769999
 31
0.0
  0
SPLINE
  5
18B3
330
21A
100
AcDbEntity
  8
0
  6
Continuous
 62
     7
100
AcDbSpline
210
0.0
220
0.0
230
1.0
 70
     8
 71
     3
 72
    32
 73
    28
 74
     0
 42
0.0000001
 43
0.0000000001
 40
0.0
 40
0.0
 40
0.0
 40
0.0
 40
0.000190324
 40
0.0003448213
 40
0.0005641745
 40
0.0008942248
 40
0.0019308256
 40
0.0034918501
 40
0.0055850042
 40
0.008213073
 40
0.011377221
 40
0.0150776337
 40
0.0193137232
 40
0.0240846803
 40
0.0352274076
 40
0.0484974331
 40
0.0638821023
 40
0.1009346705
 40
0.1462439018
 40
0.1996353297
 40
0.2609010256
 40
0.3298034761
 40
0.4060755908
 40
0.4894200111
 40
0.5795129067
 40
0.7785189081999999
 40
1.0
 40
1.0
 40
1.0
 40
1.0
 10
129.7890504072
 20
42.78718432149999
 30
0.0
 10
129.7890391938
 20
42.78720041469999
 30
0.0
 10
129.7890134762
 20
42.78723077179999
 30
0.0
 10
129.7889487627
 20
42.7872249688
 30
0.0
 10
129.7888975604
 20
42.7871691193
 30
0.0
 10
129.7888124992
 20
42.78703077449999
 30
0.0
 10
129.7887074448
 20
42.7867445709
 30
0.0
 10
129.7885726585
 20
42.78628156869999
 30
0.0
 10
129.7884223164
 20
42.7856510442
 30
0.0
 10
129.7882550218
 20
42.7848559763
 30
0.0
 10
129.7880720681
 20
42.7838948063
 30
0.0
 10
129.7878733799
 20
42.7827681777
 30
0.0
 10
129.7876592096
 20
42.7814761661
 30
0.0
 10
129.7873360912
 20
42.7794248353
 30
0.0
 10
129.7868976311
 20
42.77644926159999
 30
0.0
 10
129.7863341608
 20
42.7723866515
 30
0.0
 10
129.7854463012
 20
42.7656733652
 30
0.0
 10
129.7841996865
 20
42.7556770548
 30
0.0
 10
129.7825497364
 20
42.7417840904
 30
0.0
 10
129.7806745661
 20
42.72540511199999
 30
0.0
 10
129.7785817084
 20
42.70660379739999
 30
0.0
 10
129.7762798313
 20
42.6854531996
 30
0.0
 10
129.773778089
 20
42.66203556389999
 30
0.0
 10
129.7710863420999
 20
42.6364419768
 30
0.0
 10
129.7671249004
 20
42.598263402
 30
0.0
 10
129.7617909125
 20
42.5459146791
 30
0.0
 10
129.7574783998
 20
42.5027949069
 30
0.0
 10
129.7552238431
 20
42.48008096449999
 30
0.0
  0
LINE
  5
18B4
330
21A
100
AcDbEntity
  8
0
  6
Continuous
 62
     7
100
AcDbLine
 10
129.7552238431
 20
42.48008096449999
 30
0.0
 11
129.7550051391
 21
42.477877045
 31
0.0
  0
SPLINE
  5
18B5
330
21A
100
AcDbEntity
  8
0
  6
Continuous
 62
     9
100
AcDbSpline
210
0.0
220
0.0
230
1.0
 70
     8
 71
     3
 72
    30
 73
    26
 74
     0
 42
0.0000001
 43
0.0000000001
 40
0.0
 40
0.0
 40
0.0
 40
0.0
 40
0.0003223128
 40
0.0007646725
 40
0.0017912002
 40
0.0034260438
 40
0.0056725997
 40
0.0085311197
 40
0.0120009293
 40
0.016080984
 40
0.0207700543
 40
0.0260658718
 40
0.0384609929
 40
0.053231604
 40
0.0703424529
 40
0.089756979
 40
0.111425619
 40
0.1612945989
 40
0.2194696948
 40
0.2853657936
 40
0.3583430395
 40
0.4376748663
 40
0.6122306089000001
 40
0.8021610043
 40
1.0
 40
1.0
 40
1.0
 40
1.0
 10
129.7074424846
 20
41.9130700213
 30
0.0
 10
129.7074331364
 20
41.9130518684
 30
0.0
 10
129.7073821811
 20
41.9129988261
 30
0.0
 10
129.7073496305
 20
41.9131659693
 30
0.0
 10
129.7073341746
 20
41.9133237973
 30
0.0
 10
129.707322158
 20
41.9136548416
 30
0.0
 10
129.7073224452
 20
41.9140731636
 30
0.0
 10
129.707332164
 20
41.9146196495
 30
0.0
 10
129.7073529379
 20
41.91527751379999
 30
0.0
 10
129.7073843659
 20
41.9160526275
 30
0.0
 10
129.7074266799
 20
41.91694250829999
 30
0.0
 10
129.7075016161
 20
41.91835836
 30
0.0
 10
129.7076238741
 20
41.9204111487
 30
0.0
 10
129.707806323
 20
41.923210151
 30
0.0
 10
129.7080312097
 20
41.92645196359999
 30
0.0
 10
129.7082980717
 20
41.9301288885
 30
0.0
 10
129.7087297736
 20
41.9358745149
 30
0.0
 10
129.7093715236
 20
41.9440667357
 30
0.0
 10
129.7102635194
 20
41.9550496904
 30
0.0
 10
129.7113013932
 20
41.96748949469999
 30
0.0
 10
129.7124750598
 20
41.9812628805
 30
0.0
 10
129.7142636459
 20
42.0018923785
 30
0.0
 10
129.7167466414
 20
42.02989841419999
 30
0.0
 10
129.7199638645
 20
42.0653761484
 30
0.0
 10
129.7222263276
 20
42.08983694159999
 30
0.0
 10
129.7233913754
 20
42.1023157722
 30
0.0
  0
LINE
  5
18B6
330
21A
100
AcDbEntity
  8
0
  6
Continuous
 62
     9
100
AcDbLine
 10
129.7233913754
 20
42.1023157722
 30
0.0
 11
129.7234273703
 21
42.102701276
 31
0.0
  0
SPLINE
  5
18B7
330
21A
100
AcDbEntity
  8
0
  6
Continuous
 62
     9
100
AcDbSpline
210
0.0
220
0.0
230
1.0
 70
     8
 71
     3
 72
    26
 73
    22
 74
     0
 42
0.0000001
 43
0.0000000001
 40
0.0
 40
0.0
 40
0.0
 40
0.0
 40
0.0006947812
 40
0.0010499711
 40
0.0016551696
 40
0.0027515153
 40
0.0065289663
 40
0.0124571444
 40
0.0205437075
 40
0.0307881333
 40
0.0431874176
 40
0.0577366822
 40
0.0744241044
 40
0.0932346784
 40
0.1371644177
 40
0.1894034424
 40
0.2498056774
 40
0.3943110607
 40
0.5689699465000001
 40
0.7716736776000001
 40
1.0
 40
1.0
 40
1.0
 40
1.0
 10
129.7513398091
 20
42.2639173451
 30
0.0
 10
129.7513361036
 20
42.26392978639999
 30
0.0
 10
129.7513329276
 20
42.26395249239999
 30
0.0
 10
129.7512970954
 20
42.26396235929999
 30
0.0
 10
129.7512762233
 20
42.2639209936
 30
0.0
 10
129.7512370515
 20
42.2638335123
 30
0.0
 10
129.7511873586
 20
42.26363071969999
 30
0.0
 10
129.7511187993
 20
42.2633092552
 30
0.0
 10
129.7510395038
 20
42.26286128249999
 30
0.0
 10
129.7509480358
 20
42.2622950686
 30
0.0
 10
129.7508454337
 20
42.2616075279
 30
0.0
 10
129.7507315863
 20
42.26080028760001
 30
0.0
 10
129.7506067197
 20
42.2598735434
 30
0.0
 10
129.7504155867
 20
42.2584018724
 30
0.0
 10
129.7501514888
 20
42.25626985749999
 30
0.0
 10
129.7498065398
 20
42.25336487089999
 30
0.0
 10
129.7492581219
 20
42.2485917059
 30
0.0
 10
129.7484800813
 20
42.24154262119999
 30
0.0
 10
129.7474454323999
 20
42.2318470174
 30
0.0
 10
129.7462746129
 20
42.2205909744
 30
0.0
 10
129.7454578697
 20
42.2125790774
 30
0.0
 10
129.7450285939
 20
42.2083346555
 30
0.0
  0
LINE
  5
18B8
330
21A
100
AcDbEntity
  8
0
  6
Continuous
 62
     9
100
AcDbLine
 10
129.7450285939
 20
42.2083346555
 30
0.0
 11
129.7447932127
 21
42.2060039594
 31
0.0
  0
LINE
  5
18B9
330
21A
100
AcDbEntity
  8
0
  6
Continuous
 62
     9
100
AcDbLine
 10
129.7367937944
 20
42.1238127665
 30
0.0
 11
129.7347126055
 21
42.1016701274
 31
0.0
  0
SPLINE
  5
18BA
330
21A
100
AcDbEntity
  8
0
  6
Continuous
 62
     9
100
AcDbSpline
210
0.0
220
0.0
230
1.0
 70
     8
 71
     3
 72
    24
 73
    20
 74
     0
 42
0.0000001
 43
0.0000000001
 40
0.0
 40
0.0
 40
0.0
 40
0.0
 40
0.0006420303
 40
0.0012495248
 40
0.0021740421
 40
0.0035412437
 40
0.0077281376
 40
0.0139198609
 40
0.0221421021
 40
0.0324052859
 40
0.0447129835
 40
0.0590631718
 40
0.0938758735
 40
0.1368090891
 40
0.2468783162
 40
0.3888896937
 40
0.5622257999000001
 40
0.7662013760999999
 40
1.0
 40
1.0
 40
1.0
 40
1.0
 10
129.7565703308
 20
42.4773968296
 30
0.0
 10
129.7565638773
 20
42.47740444709999
 30
0.0
 10
129.7565464913
 20
42.47741853109999
 30
0.0
 10
129.7565111628
 20
42.4774052431
 30
0.0
 10
129.7564833577
 20
42.4773691755
 30
0.0
 10
129.7564345124
 20
42.47728091369999
 30
0.0
 10
129.7563745442
 20
42.4771073908
 30
0.0
 10
129.7562969768
 20
42.4768290203
 30
0.0
 10
129.756210732
 20
42.4764548566
 30
0.0
 10
129.7561147323
 20
42.47598577709999
 30
0.0
 10
129.7560097714
 20
42.4754212777
 30
0.0
 10
129.7558470584
 20
42.4744793435
 30
0.0
 10
129.755624491
 20
42.4730645605
 30
0.0
 10
129.7552042919
 20
42.470174364
 30
0.0
 10
129.7546021002
 20
42.4656263975
 30
0.0
 10
129.7537894227
 20
42.45906118969999
 30
0.0
 10
129.7528437904
 20
42.4510411517
 30
0.0
 10
129.7517691914
 20
42.4415992328
 30
0.0
 10
129.7510200749
 20
42.4348331097
 30
0.0
 10
129.7506240311
 20
42.43121914119999
 30
0.0
  0
LINE
  5
18BB
330
21A
100
AcDbEntity
  8
0
  6
Continuous
 62
     7
100
AcDbLine
 10
129.7142588173
 20
41.9261845709
 30
0.0
 11
129.7129448616
 21
41.9124895852
 31
0.0
  0
SPLINE
  5
18BC
330
21A
100
AcDbEntity
  8
0
  6
Continuous
 62
     7
100
AcDbSpline
210
0.0
220
0.0
230
1.0
 70
     8
 71
     3
 72
    32
 73
    28
 74
     0
 42
0.0000001
 43
0.0000000001
 40
0.0
 40
0.0
 40
0.0
 40
0.0
 40
0.208778721
 40
0.3076405331
 40
0.4019655902000001
 40
0.4911505007
 40
0.5746246413
 40
0.6518539053
 40
0.7223442239
 40
0.7856448669000001
 40
0.8413511842
 40
0.8662434793999999
 40
0.8891072387999999
 40
0.9099065493999999
 40
0.9286081452999999
 40
0.9451819112
 40
0.9596023819
 40
0.9718458676
 40
0.9818944716
 40
0.9860907478000001
 40
0.9897327595
 40
0.9928197371999999
 40
0.9953512749999999
 40
0.9973275356999998
 40
0.9987501538
 40
0.9996263541999999
 40
1.0
 40
1.0
 40
1.0
 40
1.0
 10
129.7129448616
 20
41.9124895852
 30
0.0
 10
129.7097869221
 20
41.8796109548
 30
0.0
 10
129.7050978945
 20
41.83116690739999
 30
0.0
 10
129.6988878743
 20
41.7678776755
 30
0.0
 10
129.6944834802
 20
41.7234225522
 30
0.0
 10
129.6902752163999
 20
41.6813943525
 30
0.0
 10
129.6862900829
 20
41.6420620091
 30
0.0
 10
129.6825536983
 20
41.60567722329999
 30
0.0
 10
129.679090181
 20
41.57247279639999
 30
0.0
 10
129.675921865
 20
41.54266115409999
 30
0.0
 10
129.673460812
 20
41.5200288819
 30
0.0
 10
129.6716503171
 20
41.5037609959
 30
0.0
 10
129.6704298506
 20
41.49298403989999
 30
0.0
 10
129.669297085
 20
41.4831828399
 30
0.0
 10
129.6682539073
 20
41.4743730493
 30
0.0
 10
129.6673020745
 20
41.4665687126
 30
0.0
 10
129.6664434319
 20
41.4597823191
 30
0.0
 10
129.6656794676
 20
41.4540246705
 30
0.0
 10
129.6650932779
 20
41.449875038
 30
0.0
 10
129.6646681176
 20
41.44707754019999
 30
0.0
 10
129.6643930315999
 20
41.4453706044
 30
0.0
 10
129.6641435864
 20
41.4439283569
 30
0.0
 10
129.6639169122
 20
41.4427441933
 30
0.0
 10
129.6637224953
 20
41.4418369144
 30
0.0
 10
129.6635405398
 20
41.4411599827
 30
0.0
 10
129.6634187002
 20
41.44080183719999
 30
0.0
 10
129.6632904499
 20
41.4405815222
 30
0.0
 10
129.6632315934
 20
41.4405870208
 30
0.0
  0
SPLINE
  5
18BD
330
21A
100
AcDbEntity
  8
0
  6
Continuous
 62
     7
100
AcDbSpline
210
0.0
220
0.0
230
1.0
 70
     8
 71
     3
 72
    10
 73
     6
 74
     0
 42
0.0000001
 43
0.0000000001
 40
0.0
 40
0.0
 40
0.0
 40
0.0
 40
0.5781260011000001
 40
0.8107066145999999
 40
1.0
 40
1.0
 40
1.0
 40
1.0
 10
129.759898446
 20
42.4774746303
 30
0.0
 10
129.7636710187999
 20
42.5206968492
 30
0.0
 10
129.7688789868
 20
42.5813148199
 30
0.0
 10
129.7749907117
 20
42.6561124831
 30
0.0
 10
129.7774512333
 20
42.6876772132
 30
0.0
 10
129.7785073427
 20
42.7018437779
 30
0.0
  0
SPLINE
  5
18BE
330
21A
100
AcDbEntity
  8
0
  6
Continuous
 62
     7
100
AcDbSpline
210
0.0
220
0.0
230
1.0
 70
     8
 71
     3
 72
    10
 73
     6
 74
     0
 42
0.0000001
 43
0.0000000001
 40
0.0
 40
0.0
 40
0.0
 40
0.0
 40
0.5780982788
 40
0.8106847716999999
 40
1.0
 40
1.0
 40
1.0
 40
1.0
 10
129.6899028514
 20
41.7279571802
 30
0.0
 10
129.6856081822
 20
41.68479419559999
 30
0.0
 10
129.6795034009
 20
41.62427338439999
 30
0.0
 10
129.6716615149
 20
41.5496518033
 30
0.0
 10
129.6682354931
 20
41.5181812688
 30
0.0
 10
129.666650459
 20
41.5040651978
 30
0.0
  0
LINE
  5
18BF
330
21A
100
AcDbEntity
  8
0
  6
Continuous
 62
     7
100
AcDbLine
 10
129.7471312649
 20
42.2781854933
 30
0.0
 11
129.7481361721
 21
42.2892464537
 31
0.0
  0
LINE
  5
18C0
330
21A
100
AcDbEntity
  8
0
  6
Continuous
 62
     7
100
AcDbLine
 10
129.7481361721
 20
42.2892464537
 30
0.0
 11
129.7483736965
 21
42.2918638599
 31
0.0
  0
SPLINE
  5
18C1
330
21A
100
AcDbEntity
  8
0
  6
Continuous
 62
     7
100
AcDbSpline
210
0.0
220
0.0
230
1.0
 70
     8
 71
     3
 72
    32
 73
    28
 74
     0
 42
0.0000001
 43
0.0000000001
 40
0.0
 40
0.0
 40
0.0
 40
0.0
 40
0.20877765
 40
0.307639149
 40
0.4019640174
 40
0.4911488437
 40
0.5746229803000001
 40
0.6518522978
 40
0.7223427333
 40
0.7856435452
 40
0.8413500646999999
 40
0.8662424468999999
 40
0.8891063351999999
 40
0.909905724
 40
0.9286074522999999
 40
0.9451813029
 40
0.9596018764
 40
0.9718454704
 40
0.9818941448
 40
0.9860904859999999
 40
0.9897325525999999
 40
0.9928195610999999
 40
0.9953511237999999
 40
0.997327422
 40
0.9987501013999999
 40
0.9996263404
 40
1.0
 40
1.0
 40
1.0
 40
1.0
 10
129.7483736965
 20
42.2918638599
 30
0.0
 10
129.7513582497
 20
42.3247594536
 30
0.0
 10
129.7557203207
 20
42.37323520159999
 30
0.0
 10
129.7613364725
 20
42.4365814557
 30
0.0
 10
129.7652396645
 20
42.481084565
 30
0.0
 10
129.7688862226
 20
42.5231663806
 30
0.0
 10
129.772252883
 20
42.5625576027
 30
0.0
 10
129.7753182147
 20
42.5990061253
 30
0.0
 10
129.7780628131
 20
42.63227869539999
 30
0.0
 10
129.780469292
 20
42.6621624156
 30
0.0
 10
129.7822414522
 20
42.6848597434
 30
0.0
 10
129.7834744724
 20
42.70118209119999
 30
0.0
 10
129.7842706032
 20
42.7119990306
 30
0.0
 10
129.7849722434
 20
42.72184082739999
 30
0.0
 10
129.7855783514
 20
42.73069173469999
 30
0.0
 10
129.7860880509
 20
42.738537636
 30
0.0
 10
129.786500844
 20
42.7453659081
 30
0.0
 10
129.7868161939
 20
42.751165662
 30
0.0
 10
129.7870084968
 20
42.7553522367
 30
0.0
 10
129.787108682
 20
42.75818019409999
 30
0.0
 10
129.7871544146
 20
42.7599086219
 30
0.0
 10
129.7871763326
 20
42.7613721769
 30
0.0
 10
129.7871728408
 20
42.7625778843
 30
0.0
 10
129.7871497775
 20
42.763505519
 30
0.0
 10
129.7870963154
 20
42.7642044788
 30
0.0
 10
129.7870428937
 20
42.76457901919999
 30
0.0
 10
129.7869576603
 20
42.764819289
 30
0.0
 10
129.7868987999
 20
42.7648247879
 30
0.0
  0
SPLINE
  5
18C2
330
21A
100
AcDbEntity
  8
0
  6
Continuous
 62
     9
100
AcDbSpline
210
0.0
220
0.0
230
1.0
 70
     8
 71
     3
 72
    14
 73
    10
 74
     0
 42
0.0000001
 43
0.0000000001
 40
0.0
 40
0.0
 40
0.0
 40
0.0
 40
0.3820464962
 40
0.5480233427000001
 40
0.6925967413
 40
0.8133016257999999
 40
0.90623648
 40
0.9671367114
 40
1.0
 40
1.0
 40
1.0
 40
1.0
 10
125.4678579905
 20
44.0102766256
 30
0.0
 10
125.8034854704
 20
44.01022977180001
 30
0.0
 10
126.284922923
 20
44.0093137535
 30
0.0
 10
126.8933683708
 20
44.008895447
 30
0.0
 10
127.2722255913
 20
44.0088070059
 30
0.0
 10
127.586915509
 20
44.0088832731
 30
0.0
 10
127.828098478
 20
44.0091935372
 30
0.0
 10
127.9921123223
 20
44.00961267689999
 30
0.0
 10
128.074481849
 20
44.0102714382
 30
0.0
 10
128.1033522164
 20
44.01027615979999
 30
0.0
  0
SPLINE
  5
18C3
330
21A
100
AcDbEntity
  8
0
  6
Continuous
 62
     9
100
AcDbSpline
210
0.0
220
0.0
230
1.0
 70
     8
 71
     3
 72
    14
 73
    10
 74
     0
 42
0.0000001
 43
0.0000000001
 40
0.0
 40
0.0
 40
0.0
 40
0.0
 40
0.0328620383
 40
0.093756657
 40
0.1866890292
 40
0.307392473
 40
0.4519636758
 40
0.6179397308
 40
1.0
 40
1.0
 40
1.0
 40
1.0
 10
99.5119616905
 20
44.01027615999999
 30
0.0
 10
99.54083095950002
 20
44.01027147229999
 30
0.0
 10
99.62319445730001
 20
44.0096127155
 30
0.0
 10
99.78720009159999
 20
44.00919353689999
 30
0.0
 10
100.0283746839
 20
44.0088832925
 30
0.0
 10
100.3430592265
 20
44.00880700640001
 30
0.0
 10
100.721912557
 20
44.00889543259999
 30
0.0
 10
101.3303674801
 20
44.0093137563
 30
0.0
 10
101.811816337
 20
44.01022972319999
 30
0.0
 10
102.1474559165
 20
44.0102766239
 30
0.0
  0
SPLINE
  5
18C4
330
21A
100
AcDbEntity
  8
0
  6
Continuous
 62
     7
100
AcDbSpline
210
0.0
220
0.0
230
1.0
 70
     8
 71
     3
 72
    13
 73
     9
 74
     0
 42
0.0000001
 43
0.0000000001
 40
0.0
 40
0.0
 40
0.0
 40
0.0
 40
0.2560110893
 40
0.3829192079
 40
0.5087999629
 40
0.7569537415000001
 40
0.8791042337
 40
1.0
 40
1.0
 40
1.0
 40
1.0
 10
128.8106194945
 20
35.2494074187
 30
0.0
 10
128.8852462039
 20
35.7698990379
 30
0.0
 10
128.9937269465
 20
36.54886391530001
 30
0.0
 10
129.129825311
 20
37.5849788667
 30
0.0
 10
129.2579688102
 20
38.6058448992
 30
0.0
 10
129.3757450387
 20
39.6181485848
 30
0.0
 10
129.482955091
 20
40.6213030441
 30
0.0
 10
129.5330894003
 20
41.1179685552
 30
0.0
 10
129.5573758186
 20
41.3650825501
 30
0.0
  0
LINE
  5
18C5
330
21A
100
AcDbEntity
  8
0
  6
Continuous
 62
     7
100
AcDbLine
 10
129.5573758186
 20
41.3650825501
 30
0.0
 11
129.5575364742
 21
41.3667173155
 31
0.0
  0
SPLINE
  5
18C6
330
21A
100
AcDbEntity
  8
0
  6
Continuous
 62
     7
100
AcDbSpline
210
0.0
220
0.0
230
1.0
 70
     8
 71
     3
 72
    15
 73
    11
 74
     0
 42
0.0000001
 43
0.0000000001
 40
0.0
 40
0.0
 40
0.0
 40
0.0
 40
0.1423482449
 40
0.2809330577
 40
0.4146045086
 40
0.5425528317000001
 40
0.6644392337000001
 40
0.7805216431000001
 40
0.8917738607
 40
1.0
 40
1.0
 40
1.0
 40
1.0
 10
128.3063026033
 20
31.8818175346
 30
0.0
 10
128.2298544043
 20
31.384254869
 30
0.0
 10
128.0784318604
 20
30.4023685744
 30
0.0
 10
127.8581810167
 20
28.9527920912
 30
0.0
 10
127.6534588408
 20
27.552378202
 30
0.0
 10
127.4692606899
 20
26.2086862126
 30
0.0
 10
127.3086063661
 20
24.924629521
 30
0.0
 10
127.1718828262
 20
23.6971935866
 30
0.0
 10
127.0561422052
 20
22.5161437467
 30
0.0
 10
126.9878465909
 20
21.7429849271
 30
0.0
 10
126.954465506
 20
21.361711719
 30
0.0
  0
SPLINE
  5
18C7
330
21A
100
AcDbEntity
  8
0
  6
Continuous
 62
     7
100
AcDbSpline
210
0.0
220
0.0
230
1.0
 70
     8
 71
     3
 72
     9
 73
     5
 74
     0
 42
0.0000001
 43
0.0000000001
 40
0.0
 40
0.0
 40
0.0
 40
0.0
 40
0.2508276541
 40
1.0
 40
1.0
 40
1.0
 40
1.0
 10
128.8106194945
 20
35.2494074187
 30
0.0
 10
128.7702128599
 20
34.9675872125
 30
0.0
 10
128.6066565695
 20
33.8443782739
 30
0.0
 10
128.4354393875
 20
32.7223035552
 30
0.0
 10
128.3063026033
 20
31.8818175346
 30
0.0
  0
SPLINE
  5
18C8
330
21A
100
AcDbEntity
  8
0
  6
Continuous
 62
     7
100
AcDbSpline
210
0.0
220
0.0
230
1.0
 70
     8
 71
     3
 72
     9
 73
     5
 74
     0
 42
0.0000001
 43
0.0000000001
 40
0.0
 40
0.0
 40
0.0
 40
0.0
 40
0.4698756078000001
 40
1.0
 40
1.0
 40
1.0
 40
1.0
 10
126.6833616142
 20
21.1124687391
 30
0.0
 10
126.6911704144
 20
21.1124691491
 30
0.0
 10
126.7077920169
 20
21.1125687513
 30
0.0
 10
126.7243876835
 20
21.1139840549
 30
0.0
 10
126.7331058949
 20
21.1152529394
 30
0.0
  0
SPLINE
  5
18C9
330
21A
100
AcDbEntity
  8
0
  6
Continuous
 62
     7
100
AcDbSpline
210
0.0
220
0.0
230
1.0
 70
     8
 71
     3
 72
    15
 73
    11
 74
     0
 42
0.0000001
 43
0.0000000001
 40
0.0
 40
0.0
 40
0.0
 40
0.0
 40
0.1301485382
 40
0.2593075445
 40
0.3870087901
 40
0.5129539554
 40
0.6370176561
 40
0.7592844197
 40
0.8800794416999998
 40
1.0
 40
1.0
 40
1.0
 40
1.0
 10
98.8046944124
 20
35.2494074187
 30
0.0
 10
98.7509284126
 20
35.6244038845
 30
0.0
 10
98.64598434379999
 20
36.3718608024
 30
0.0
 10
98.497124543
 20
37.4884826657
 30
0.0
 10
98.35892837719999
 20
38.5941484173
 30
0.0
 10
98.23216633860001
 20
39.6862548322
 30
0.0
 10
98.1168689855
 20
40.7637228488
 30
0.0
 10
98.0120491205
 20
41.8271947688
 30
0.0
 10
97.91558087450001
 20
42.8793417604
 30
0.0
 10
97.85447482
 20
43.57733806379999
 30
0.0
 10
97.82405223049998
 20
43.9250698526
 30
0.0
  0
SPLINE
  5
18CA
330
21A
100
AcDbEntity
  8
0
  6
Continuous
 62
     7
100
AcDbSpline
210
0.0
220
0.0
230
1.0
 70
     8
 71
     3
 72
     9
 73
     5
 74
     0
 42
0.0000001
 43
0.0000000001
 40
0.0
 40
0.0
 40
0.0
 40
0.0
 40
0.2508276541
 40
1.0
 40
1.0
 40
1.0
 40
1.0
 10
98.8046944124
 20
35.2494074187
 30
0.0
 10
98.84510104700002
 20
34.9675872125
 30
0.0
 10
99.00865733739999
 20
33.8443782739
 30
0.0
 10
99.1798745194
 20
32.7223035552
 30
0.0
 10
99.3090113036
 20
31.8818175346
 30
0.0
  0
SPLINE
  5
18CB
330
21A
100
AcDbEntity
  8
0
  6
Continuous
 62
     7
100
AcDbSpline
210
0.0
220
0.0
230
1.0
 70
     8
 71
     3
 72
    15
 73
    11
 74
     0
 42
0.0000001
 43
0.0000000001
 40
0.0
 40
0.0
 40
0.0
 40
0.0
 40
0.1423482449
 40
0.2809330577
 40
0.4146045086
 40
0.5425528317000001
 40
0.6644392337000001
 40
0.7805216431000001
 40
0.8917738607
 40
1.0
 40
1.0
 40
1.0
 40
1.0
 10
99.3090113036
 20
31.8818175346
 30
0.0
 10
99.38545950259999
 20
31.384254869
 30
0.0
 10
99.53688204649999
 20
30.4023685744
 30
0.0
 10
99.75713289019999
 20
28.9527920912
 30
0.0
 10
99.9618550661
 20
27.552378202
 30
0.0
 10
100.1460532171
 20
26.2086862126
 30
0.0
 10
100.3067075408
 20
24.924629521
 30
0.0
 10
100.4434310807
 20
23.6971935866
 30
0.0
 10
100.5591717017
 20
22.5161437467
 30
0.0
 10
100.627467316
 20
21.7429849271
 30
0.0
 10
100.6608484009
 20
21.361711719
 30
0.0
  0
SPLINE
  5
18CC
330
21A
100
AcDbEntity
  8
0
  6
Continuous
 62
     7
100
AcDbSpline
210
0.0
220
0.0
230
1.0
 70
     8
 71
     3
 72
     9
 73
     5
 74
     0
 42
0.0000001
 43
0.0000000001
 40
0.0
 40
0.0
 40
0.0
 40
0.0
 40
0.4698794813000001
 40
1.0
 40
1.0
 40
1.0
 40
1.0
 10
100.9319522927
 20
21.1124687391
 30
0.0
 10
100.9241447301
 20
21.112469149
 30
0.0
 10
100.9075259009
 20
21.1125687089
 30
0.0
 10
100.8909329878
 20
21.1139833971
 30
0.0
 10
100.8822162473
 20
21.115251741
 30
0.0
  0
SPLINE
  5
18CD
330
21A
100
AcDbEntity
  8
0
  6
Continuous
 62
     7
100
AcDbSpline
210
0.0
220
0.0
230
1.0
 70
     8
 71
     3
 72
     9
 73
     5
 74
     0
 42
0.0000001
 43
0.0000000001
 40
0.0
 40
0.0
 40
0.0
 40
0.0
 40
0.2384536651
 40
1.0
 40
1.0
 40
1.0
 40
1.0
 10
100.882216247
 20
21.115251741
 30
0.0
 10
100.879648502
 20
21.115625365
 30
0.0
 10
100.8689084858
 20
21.1173759705
 30
0.0
 10
100.8582958493
 20
21.1199474057
 30
0.0
 10
100.8503864466
 20
21.1224201712
 30
0.0
  0
SPLINE
  5
18CE
330
21A
100
AcDbEntity
  8
0
  6
Continuous
 62
     7
100
AcDbSpline
210
0.0
220
0.0
230
1.0
 70
     8
 71
     3
 72
    15
 73
    11
 74
     0
 42
0.0000001
 43
0.0000000001
 40
0.0
 40
0.0
 40
0.0
 40
0.0
 40
0.1045324876
 40
0.2181723927
 40
0.3407994445
 40
0.4705049956
 40
0.6044660951
 40
0.7396293758
 40
0.8726284160999998
 40
1.0
 40
1.0
 40
1.0
 40
1.0
 10
100.8503864466
 20
21.1224201712
 30
0.0
 10
100.8442395591
 20
21.1243419107
 30
0.0
 10
100.8316012454
 20
21.128997451
 30
0.0
 10
100.8127196309
 20
21.1382568728
 30
0.0
 10
100.7934403154
 20
21.1500003743
 30
0.0
 10
100.7741096881
 20
21.1639179812
 30
0.0
 10
100.755152759
 20
21.1795774854
 30
0.0
 10
100.7370482585
 20
21.1965133139
 30
0.0
 10
100.7203232169
 20
21.2142586332
 30
0.0
 10
100.7101587217
 20
21.226694419
 30
0.0
 10
100.7054660724
 20
21.232984168
 30
0.0
  0
SPLINE
  5
18CF
330
21A
100
AcDbEntity
  8
0
  6
Continuous
 62
     7
100
AcDbSpline
210
0.0
220
0.0
230
1.0
 70
     8
 71
     3
 72
     9
 73
     5
 74
     0
 42
0.0000001
 43
0.0000000001
 40
0.0
 40
0.0
 40
0.0
 40
0.0
 40
0.2691412119
 40
1.0
 40
1.0
 40
1.0
 40
1.0
 10
100.7054660724
 20
21.232984168
 30
0.0
 10
100.7025018307
 20
21.2369572618
 30
0.0
 10
100.6919129143
 20
21.2520272554
 30
0.0
 10
100.683026294
 20
21.2683252318
 30
0.0
 10
100.6778449911
 20
21.2807490377
 30
0.0
  0
SPLINE
  5
18D0
330
21A
100
AcDbEntity
  8
0
  6
Continuous
 62
     7
100
AcDbSpline
210
0.0
220
0.0
230
1.0
 70
     8
 71
     3
 72
    11
 73
     7
 74
     0
 42
0.0000001
 43
0.0000000001
 40
0.0
 40
0.0
 40
0.0
 40
0.0
 40
0.2858051979
 40
0.5461196639
 40
0.7840553121
 40
1.0
 40
1.0
 40
1.0
 40
1.0
 10
100.6778449911
 20
21.2807490377
 30
0.0
 10
100.6747985452
 20
21.2880538515
 30
0.0
 10
100.6698469979
 20
21.3023928599
 30
0.0
 10
100.6651272383
 20
21.3236199602
 30
0.0
 10
100.6624649931
 20
21.3432324166
 30
0.0
 10
100.6613699674
 20
21.3557544934
 30
0.0
 10
100.6608484009
 20
21.3617117191
 30
0.0
  0
SPLINE
  5
18D1
330
21A
100
AcDbEntity
  8
0
  6
Continuous
 62
     7
100
AcDbSpline
210
0.0
220
0.0
230
1.0
 70
     8
 71
     3
 72
    11
 73
     7
 74
     0
 42
0.0000001
 43
0.0000000001
 40
0.0
 40
0.0
 40
0.0
 40
0.0
 40
0.2858525263
 40
0.5461743744
 40
0.7840925693000001
 40
1.0
 40
1.0
 40
1.0
 40
1.0
 10
126.937424494
 20
21.2806426124
 30
0.0
 10
126.9404800615
 20
21.2879569314
 30
0.0
 10
126.9454462962
 20
21.3023148988
 30
0.0
 10
126.9501789519
 20
21.3235712184
 30
0.0
 10
126.9528468554
 20
21.3432093367
 30
0.0
 10
126.9539433065
 20
21.3557472635
 30
0.0
 10
126.954465506
 20
21.3617117191
 30
0.0
  0
SPLINE
  5
18D2
330
21A
100
AcDbEntity
  8
0
  6
Continuous
 62
     7
100
AcDbSpline
210
0.0
220
0.0
230
1.0
 70
     8
 71
     3
 72
     9
 73
     5
 74
     0
 42
0.0000001
 43
0.0000000001
 40
0.0
 40
0.0
 40
0.0
 40
0.0
 40
0.2691557972
 40
1.0
 40
1.0
 40
1.0
 40
1.0
 10
126.9097314032
 20
21.2328282312
 30
0.0
 10
126.9127030038
 20
21.236805026
 30
0.0
 10
126.9233182213
 20
21.2518887696
 30
0.0
 10
126.9322284042
 20
21.2682043802
 30
0.0
 10
126.937424494
 20
21.2806426124
 30
0.0
  0
SPLINE
  5
18D3
330
21A
100
AcDbEntity
  8
0
  6
Continuous
 62
     7
100
AcDbSpline
210
0.0
220
0.0
230
1.0
 70
     8
 71
     3
 72
    15
 73
    11
 74
     0
 42
0.0000001
 43
0.0000000001
 40
0.0
 40
0.0
 40
0.0
 40
0.0
 40
0.1045324124
 40
0.2181611929
 40
0.3407678432
 40
0.4704506542000001
 40
0.6043947653
 40
0.7395551917000001
 40
0.8725754929
 40
1.0
 40
1.0
 40
1.0
 40
1.0
 10
126.7649470557
 20
21.1224262986
 30
0.0
 10
126.7710865861
 20
21.1243464536
 30
0.0
 10
126.7837092737
 20
21.1289969156
 30
0.0
 10
126.8025678303
 20
21.1382432143
 30
0.0
 10
126.8218237945
 20
21.1499680719
 30
0.0
 10
126.8411320269
 20
21.163862984
 30
0.0
 10
126.8600691731
 20
21.1794973759
 30
0.0
 10
126.8781583284
 20
21.1964074664
 30
0.0
 10
126.8948746744
 20
21.2141279667
 30
0.0
 10
126.9050375998
 20
21.2265466692
 30
0.0
 10
126.9097314032
 20
21.2328282312
 30
0.0
  0
SPLINE
  5
18D4
330
21A
100
AcDbEntity
  8
0
  6
Continuous
 62
     7
100
AcDbSpline
210
0.0
220
0.0
230
1.0
 70
     8
 71
     3
 72
     9
 73
     5
 74
     0
 42
0.0000001
 43
0.0000000001
 40
0.0
 40
0.0
 40
0.0
 40
0.0
 40
0.2384493084
 40
1.0
 40
1.0
 40
1.0
 40
1.0
 10
126.7331058952
 20
21.1152529394
 30
0.0
 10
126.7356745382
 20
21.1156267904
 30
0.0
 10
126.7464184882
 20
21.1173785163
 30
0.0
 10
126.7570349174
 20
21.1199517556
 30
0.0
 10
126.7649470557
 20
21.1224262986
 30
0.0
  0
LINE
  5
18D5
330
21A
100
AcDbEntity
  8
0
  6
Continuous
 62
     9
100
AcDbLine
 10
105.2344629429
 20
21.1153130741
 30
0.0
 11
105.227287735
 21
21.1136921947
 31
0.0
  0
LINE
  5
18D6
330
21A
100
AcDbEntity
  8
0
  6
Continuous
 62
     9
100
AcDbLine
 10
122.380850964
 20
21.1153130741
 30
0.0
 11
122.3880261719
 21
21.1136921947
 31
0.0
  0
ENDSEC
  0
SECTION
  2
OBJECTS
  0
DICTIONARY
  5
C
330
0
100
AcDbDictionary
281
     1
  3
ACAD_CIP_PREVIOUS_PRODUCT_INFO
350
19AC
  3
ACAD_COLOR
350
1942
  3
ACAD_DETAILVIEWSTYLE
350
195B
  3
ACAD_GROUP
350
D
  3
ACAD_LAYOUT
350
1A
  3
ACAD_MATERIAL
350
1910
  3
ACAD_MLEADERSTYLE
350
1957
  3
ACAD_MLINESTYLE
350
17
  3
ACAD_PLOTSETTINGS
350
19
  3
ACAD_PLOTSTYLENAME
350
E
  3
ACAD_SCALELIST
350
1945
  3
ACAD_SECTIONVIEWSTYLE
350
1959
  3
ACAD_TABLESTYLE
350
1943
  3
ACAD_VISUALSTYLE
350
1929
  3
ACDB_RECOMPOSE_DATA
350
1A02
  3
AcDbVariableDictionary
350
199F
  0
DICTIONARY
  5
1960
330
8
100
AcDbDictionary
280
     1
281
     1
  0
DICTIONARY
  5
19F7
330
2
100
AcDbDictionary
280
     1
281
     1
  3
ACAD_LAYERSTATES
360
19F8
  0
DICTIONARY
  5
19AD
330
10
100
AcDbDictionary
280
     1
281
     1
  3
ADSK_XREC_LAYER_RECONCILED
360
19AE
  0
DICTIONARY
  5
19AF
330
1FA
100
AcDbDictionary
280
     1
281
     1
  3
ADSK_XREC_LAYER_RECONCILED
360
19B0
  0
DICTIONARY
  5
19B1
330
1FB
100
AcDbDictionary
280
     1
281
     1
  3
ADSK_XREC_LAYER_RECONCILED
360
19B2
  0
DICTIONARY
  5
19B3
330
1FC
100
AcDbDictionary
280
     1
281
     1
  3
ADSK_XREC_LAYER_RECONCILED
360
19B4
  0
DICTIONARY
  5
19B5
330
1FD
100
AcDbDictionary
280
     1
281
     1
  3
ADSK_XREC_LAYER_RECONCILED
360
19B6
  0
DICTIONARY
  5
19B7
330
1FE
100
AcDbDictionary
280
     1
281
     1
  3
ADSK_XREC_LAYER_RECONCILED
360
19B8
  0
DICTIONARY
  5
19B9
330
1FF
100
AcDbDictionary
280
     1
281
     1
  3
ADSK_XREC_LAYER_RECONCILED
360
19BA
  0
DICTIONARY
  5
19BB
330
200
100
AcDbDictionary
280
     1
281
     1
  3
ADSK_XREC_LAYER_RECONCILED
360
19BC
  0
DICTIONARY
  5
19BD
330
201
100
AcDbDictionary
280
     1
281
     1
  3
ADSK_XREC_LAYER_RECONCILED
360
19BE
  0
DICTIONARY
  5
19BF
330
202
100
AcDbDictionary
280
     1
281
     1
  3
ADSK_XREC_LAYER_RECONCILED
360
19C0
  0
DICTIONARY
  5
19C1
330
203
100
AcDbDictionary
280
     1
281
     1
  3
ADSK_XREC_LAYER_RECONCILED
360
19C2
  0
DICTIONARY
  5
19C3
330
204
100
AcDbDictionary
280
     1
281
     1
  3
ADSK_XREC_LAYER_RECONCILED
360
19C4
  0
DICTIONARY
  5
19C5
330
205
100
AcDbDictionary
280
     1
281
     1
  3
ADSK_XREC_LAYER_RECONCILED
360
19C6
  0
DICTIONARY
  5
19C7
330
206
100
AcDbDictionary
280
     1
281
     1
  3
ADSK_XREC_LAYER_RECONCILED
360
19C8
  0
DICTIONARY
  5
19C9
330
207
100
AcDbDictionary
280
     1
281
     1
  3
ADSK_XREC_LAYER_RECONCILED
360
19CA
  0
DICTIONARY
  5
19CB
330
208
100
AcDbDictionary
280
     1
281
     1
  3
ADSK_XREC_LAYER_RECONCILED
360
19CC
  0
DICTIONARY
  5
19CD
330
209
100
AcDbDictionary
280
     1
281
     1
  3
ADSK_XREC_LAYER_RECONCILED
360
19CE
  0
DICTIONARY
  5
19CF
330
20A
100
AcDbDictionary
280
     1
281
     1
  3
ADSK_XREC_LAYER_RECONCILED
360
19D0
  0
DICTIONARY
  5
19D1
330
20B
100
AcDbDictionary
280
     1
281
     1
  3
ADSK_XREC_LAYER_RECONCILED
360
19D2
  0
DICTIONARY
  5
19D3
330
20C
100
AcDbDictionary
280
     1
281
     1
  3
ADSK_XREC_LAYER_RECONCILED
360
19D4
  0
DICTIONARY
  5
19D5
330
20D
100
AcDbDictionary
280
     1
281
     1
  3
ADSK_XREC_LAYER_RECONCILED
360
19D6
  0
DICTIONARY
  5
19D7
330
20E
100
AcDbDictionary
280
     1
281
     1
  3
ADSK_XREC_LAYER_RECONCILED
360
19D8
  0
DICTIONARY
  5
19D9
330
20F
100
AcDbDictionary
280
     1
281
     1
  3
ADSK_XREC_LAYER_RECONCILED
360
19DA
  0
DICTIONARY
  5
19DB
330
210
100
AcDbDictionary
280
     1
281
     1
  3
ADSK_XREC_LAYER_RECONCILED
360
19DC
  0
DICTIONARY
  5
19DD
330
211
100
AcDbDictionary
280
     1
281
     1
  3
ADSK_XREC_LAYER_RECONCILED
360
19DE
  0
DICTIONARY
  5
19DF
330
212
100
AcDbDictionary
280
     1
281
     1
  3
ADSK_XREC_LAYER_RECONCILED
360
19E0
  0
DICTIONARY
  5
19E1
330
213
100
AcDbDictionary
280
     1
281
     1
  3
ADSK_XREC_LAYER_RECONCILED
360
19E2
  0
DICTIONARY
  5
19E3
330
214
100
AcDbDictionary
280
     1
281
     1
  3
ADSK_XREC_LAYER_RECONCILED
360
19E4
  0
DICTIONARY
  5
19E5
330
215
100
AcDbDictionary
280
     1
281
     1
  3
ADSK_XREC_LAYER_RECONCILED
360
19E6
  0
DICTIONARY
  5
19E7
330
216
100
AcDbDictionary
280
     1
281
     1
  3
ADSK_XREC_LAYER_RECONCILED
360
19E8
  0
DICTIONARY
  5
19E9
330
217
100
AcDbDictionary
280
     1
281
     1
  3
ADSK_XREC_LAYER_RECONCILED
360
19EA
  0
XRECORD
  5
19AC
102
{ACAD_REACTORS
330
C
102
}
330
C
100
AcDbXrecord
280
     1
300
ACDLT
300
2018
300
ACDLT_F_S
  0
DICTIONARY
  5
1942
102
{ACAD_REACTORS
330
C
102
}
330
C
100
AcDbDictionary
281
     1
  0
DICTIONARY
  5
195B
102
{ACAD_REACTORS
330
C
102
}
330
C
100
AcDbDictionary
281
     1
  3
Imperial24
350
195C
  0
DICTIONARY
  5
D
102
{ACAD_REACTORS
330
C
102
}
330
C
100
AcDbDictionary
281
     1
  0
DICTIONARY
  5
1A
102
{ACAD_REACTORS
330
C
102
}
330
C
100
AcDbDictionary
281
     1
  3
Layout1
350
190D
  3
Model
350
190C
  0
DICTIONARY
  5
1910
102
{ACAD_REACTORS
330
C
102
}
330
C
100
AcDbDictionary
281
     1
  3
ByBlock
350
1919
  3
ByLayer
350
1911
  3
Global
350
1921
  0
DICTIONARY
  5
1957
102
{ACAD_REACTORS
330
C
102
}
330
C
100
AcDbDictionary
281
     1
  3
Standard
350
1958
  0
DICTIONARY
  5
17
102
{ACAD_REACTORS
330
C
102
}
330
C
100
AcDbDictionary
281
     1
  3
Standard
350
18
  0
DICTIONARY
  5
19
102
{ACAD_REACTORS
330
C
102
}
330
C
100
AcDbDictionary
281
     1
  0
ACDBDICTIONARYWDFLT
  5
E
102
{ACAD_REACTORS
330
C
102
}
330
C
100
AcDbDictionary
281
     1
  3
Normal
350
F
100
AcDbDictionaryWithDefault
340
F
  0
DICTIONARY
  5
1945
102
{ACAD_REACTORS
330
C
102
}
330
C
100
AcDbDictionary
281
     1
  3
A0
350
1946
  3
A1
350
1947
  3
A2
350
1948
  3
A3
350
1949
  3
A4
350
194A
  3
A5
350
194B
  3
A6
350
194C
  3
A7
350
194D
  3
A8
350
194E
  3
A9
350
194F
  3
B0
350
1950
  3
B1
350
1951
  3
B2
350
1952
  3
B3
350
1953
  3
B4
350
1954
  3
B5
350
1955
  3
B6
350
1956
  0
DICTIONARY
  5
1959
102
{ACAD_REACTORS
330
C
102
}
330
C
100
AcDbDictionary
281
     1
  3
Imperial24
350
195A
  0
DICTIONARY
  5
1943
102
{ACAD_REACTORS
330
C
102
}
330
C
100
AcDbDictionary
281
     1
  3
Standard
350
1944
  0
DICTIONARY
  5
1929
102
{ACAD_REACTORS
330
C
102
}
330
C
100
AcDbDictionary
281
     1
  3
2dWireframe
350
192F
  3
Basic
350
192E
  3
Brighten
350
1935
  3
ColorChange
350
1939
  3
Conceptual
350
1932
  3
Dim
350
1934
  3
EdgeColorOff
350
1941
  3
Facepattern
350
1938
  3
Flat
350
192A
  3
FlatWithEdges
350
192B
  3
Gouraud
350
192C
  3
GouraudWithEdges
350
192D
  3
Hidden
350
1931
  3
JitterOff
350
193F
  3
Linepattern
350
1937
  3
OverhangOff
350
1940
  3
Realistic
350
1933
  3
Shaded
350
193E
  3
Shaded with edges
350
193D
  3
Shades of Gray
350
193A
  3
Sketchy
350
193B
  3
Thicken
350
1936
  3
Wireframe
350
1930
  3
X-Ray
350
193C
  0
XRECORD
  5
1A02
102
{ACAD_REACTORS
330
C
102
}
330
C
100
AcDbXrecord
280
     1
 90
        1
330
1944
  0
DICTIONARY
  5
199F
102
{ACAD_REACTORS
330
C
102
}
330
C
100
AcDbDictionary
281
     1
  3
CANNOSCALE
350
19A4
  3
CMLEADERSTYLE
350
19A1
  3
CTABLESTYLE
350
19A0
  3
CVIEWDETAILSTYLE
350
19A2
  3
CVIEWSECTIONSTYLE
350
19A3
  3
DIMASSOC
350
19A7
  3
INDEXCTL
350
19A6
  3
LAYEREVAL
350
19EE
  3
LAYERNOTIFY
350
19EF
  3
LIGHTINGUNITS
350
19ED
  3
MSLTSCALE
350
19EC
  3
SORTENTS
350
19A5
  0
DICTIONARY
  5
19F8
102
{ACAD_REACTORS
330
19F7
102
}
330
19F7
100
AcDbDictionary
281
     1
  0
XRECORD
  5
19AE
102
{ACAD_REACTORS
330
19AD
102
}
330
19AD
100
AcDbXrecord
280
     1
290
     1
  0
XRECORD
  5
19B0
102
{ACAD_REACTORS
330
19AF
102
}
330
19AF
100
AcDbXrecord
280
     1
290
     1
  0
XRECORD
  5
19B2
102
{ACAD_REACTORS
330
19B1
102
}
330
19B1
100
AcDbXrecord
280
     1
290
     1
  0
XRECORD
  5
19B4
102
{ACAD_REACTORS
330
19B3
102
}
330
19B3
100
AcDbXrecord
280
     1
290
     1
  0
XRECORD
  5
19B6
102
{ACAD_REACTORS
330
19B5
102
}
330
19B5
100
AcDbXrecord
280
     1
290
     1
  0
XRECORD
  5
19B8
102
{ACAD_REACTORS
330
19B7
102
}
330
19B7
100
AcDbXrecord
280
     1
290
     1
  0
XRECORD
  5
19BA
102
{ACAD_REACTORS
330
19B9
102
}
330
19B9
100
AcDbXrecord
280
     1
290
     1
  0
XRECORD
  5
19BC
102
{ACAD_REACTORS
330
19BB
102
}
330
19BB
100
AcDbXrecord
280
     1
290
     1
  0
XRECORD
  5
19BE
102
{ACAD_REACTORS
330
19BD
102
}
330
19BD
100
AcDbXrecord
280
     1
290
     1
  0
XRECORD
  5
19C0
102
{ACAD_REACTORS
330
19BF
102
}
330
19BF
100
AcDbXrecord
280
     1
290
     1
  0
XRECORD
  5
19C2
102
{ACAD_REACTORS
330
19C1
102
}
330
19C1
100
AcDbXrecord
280
     1
290
     1
  0
XRECORD
  5
19C4
102
{ACAD_REACTORS
330
19C3
102
}
330
19C3
100
AcDbXrecord
280
     1
290
     1
  0
XRECORD
  5
19C6
102
{ACAD_REACTORS
330
19C5
102
}
330
19C5
100
AcDbXrecord
280
     1
290
     1
  0
XRECORD
  5
19C8
102
{ACAD_REACTORS
330
19C7
102
}
330
19C7
100
AcDbXrecord
280
     1
290
     1
  0
XRECORD
  5
19CA
102
{ACAD_REACTORS
330
19C9
102
}
330
19C9
100
AcDbXrecord
280
     1
290
     1
  0
XRECORD
  5
19CC
102
{ACAD_REACTORS
330
19CB
102
}
330
19CB
100
AcDbXrecord
280
     1
290
     1
  0
XRECORD
  5
19CE
102
{ACAD_REACTORS
330
19CD
102
}
330
19CD
100
AcDbXrecord
280
     1
290
     1
  0
XRECORD
  5
19D0
102
{ACAD_REACTORS
330
19CF
102
}
330
19CF
100
AcDbXrecord
280
     1
290
     1
  0
XRECORD
  5
19D2
102
{ACAD_REACTORS
330
19D1
102
}
330
19D1
100
AcDbXrecord
280
     1
290
     1
  0
XRECORD
  5
19D4
102
{ACAD_REACTORS
330
19D3
102
}
330
19D3
100
AcDbXrecord
280
     1
290
     1
  0
XRECORD
  5
19D6
102
{ACAD_REACTORS
330
19D5
102
}
330
19D5
100
AcDbXrecord
280
     1
290
     1
  0
XRECORD
  5
19D8
102
{ACAD_REACTORS
330
19D7
102
}
330
19D7
100
AcDbXrecord
280
     1
290
     1
  0
XRECORD
  5
19DA
102
{ACAD_REACTORS
330
19D9
102
}
330
19D9
100
AcDbXrecord
280
     1
290
     1
  0
XRECORD
  5
19DC
102
{ACAD_REACTORS
330
19DB
102
}
330
19DB
100
AcDbXrecord
280
     1
290
     1
  0
XRECORD
  5
19DE
102
{ACAD_REACTORS
330
19DD
102
}
330
19DD
100
AcDbXrecord
280
     1
290
     1
  0
XRECORD
  5
19E0
102
{ACAD_REACTORS
330
19DF
102
}
330
19DF
100
AcDbXrecord
280
     1
290
     1
  0
XRECORD
  5
19E2
102
{ACAD_REACTORS
330
19E1
102
}
330
19E1
100
AcDbXrecord
280
     1
290
     1
  0
XRECORD
  5
19E4
102
{ACAD_REACTORS
330
19E3
102
}
330
19E3
100
AcDbXrecord
280
     1
290
     1
  0
XRECORD
  5
19E6
102
{ACAD_REACTORS
330
19E5
102
}
330
19E5
100
AcDbXrecord
280
     1
290
     1
  0
XRECORD
  5
19E8
102
{ACAD_REACTORS
330
19E7
102
}
330
19E7
100
AcDbXrecord
280
     1
290
     1
  0
XRECORD
  5
19EA
102
{ACAD_REACTORS
330
19E9
102
}
330
19E9
100
AcDbXrecord
280
     1
290
     1
  0
ACDBDETAILVIEWSTYLE
  5
195C
102
{ACAD_REACTORS
330
195B
102
}
330
195B
100
AcDbModelDocViewStyle
 70
     0
  3
Imperial24
290
     0
300
Imperial24
 90
        0
100
AcDbDetailViewStyle
 70
     0
 71
     0
 90
        3
 71
     1
340
11
 62
   256
 40
0.24
340
0
 62
   256
 40
0.24
300

 40
0.36
280
     3
 71
     2
340
16
 90
       25
 62
   256
 71
     3
340
11
 62
   256
 40
0.24
 90
        1
 40
0.75
 90
        1
300
%<\AcVar ViewType \f "%tc1">% %<\AcVar ViewDetailId>%\PSCALE %<\AcVar ViewScale \f "%sn">%
 71
     4
340
16
 90
       25
 62
   256
340
16
 90
       25
 62
   256
280
     0
  0
LAYOUT
  5
190D
102
{ACAD_REACTORS
330
1A
102
}
330
1A
100
AcDbPlotSettings
  1

  2
none_device
  4
ANSI_B_(17.00_x_11.00_Inches)
  6

 40
0.0
 41
0.0
 42
0.0
 43
0.0
 44
431.8
 45
279.4
 46
0.0
 47
0.0
 48
0.0
 49
0.0
140
0.0
141
0.0
142
1.0
143
1.0
 70
     0
 72
     0
 73
     0
 74
     0
  7

 75
     0
147
1.0
 76
     0
 77
     2
 78
   300
148
0.0
149
0.0
100
AcDbLayout
  1
Layout1
 70
     1
 71
     1
 10
0.0
 20
0.0
 11
12.0
 21
9.0
 12
0.0
 22
0.0
 32
0.0
 14
1.000000000000000E+20
 24
1.000000000000000E+20
 34
1.000000000000000E+20
 15
-1.000000000000000E+20
 25
-1.000000000000000E+20
 35
-1.000000000000000E+20
146
0.0
 13
0.0
 23
0.0
 33
0.0
 16
1.0
 26
0.0
 36
0.0
 17
0.0
 27
1.0
 37
0.0
 76
     0
330
21B
  0
LAYOUT
  5
190C
102
{ACAD_REACTORS
330
1A
102
}
330
1A
100
AcDbPlotSettings
  1

  2
none_device
  4
ANSI_B_(17.00_x_11.00_Inches)
  6

 40
0.0
 41
0.0
 42
0.0
 43
0.0
 44
431.8
 45
279.4
 46
0.0
 47
0.0
 48
0.0
 49
0.0
140
0.0
141
0.0
142
1.0
143
1.0
 70
  1024
 72
     0
 73
     0
 74
     0
  7

 75
     0
147
1.0
 76
     0
 77
     2
 78
   300
148
0.0
149
0.0
100
AcDbLayout
  1
Model
 70
     0
 71
     0
 10
0.0
 20
0.0
 11
17.0
 21
11.0
 12
0.0
 22
0.0
 32
0.0
 14
0.0
 24
0.0
 34
0.0
 15
0.0
 25
0.0
 35
0.0
146
0.0
 13
0.0
 23
0.0
 33
0.0
 16
1.0
 26
0.0
 36
0.0
 17
0.0
 27
1.0
 37
0.0
 76
     0
330
21A
331
1F4
  0
MATERIAL
  5
1919
102
{ACAD_XDICTIONARY
360
191A
102
}
102
{ACAD_REACTORS
330
1910
102
}
330
1910
100
AcDbMaterial
  1
ByBlock
 72
     0
 43
0.0208333333333333
 43
0.0
 43
0.0
 43
0.0
 43
0.0
 43
0.0208333333333333
 43
0.0
 43
0.0
 43
0.0
 43
0.0
 43
1.0
 43
0.0
 43
0.0
 43
0.0
 43
0.0
 43
1.0
 77
     0
 47
0.0208333333333333
 47
0.0
 47
0.0
 47
0.0
 47
0.0
 47
0.0208333333333333
 47
0.0
 47
0.0
 47
0.0
 47
0.0
 47
1.0
 47
0.0
 47
0.0
 47
0.0
 47
0.0
 47
1.0
171
     0
 49
0.0208333333333333
 49
0.0
 49
0.0
 49
0.0
 49
0.0
 49
0.0208333333333333
 49
0.0
 49
0.0
 49
0.0
 49
0.0
 49
1.0
 49
0.0
 49
0.0
 49
0.0
 49
0.0
 49
1.0
175
     0
142
0.0208333333333333
142
0.0
142
0.0
142
0.0
142
0.0
142
0.0208333333333333
142
0.0
142
0.0
142
0.0
142
0.0
142
1.0
142
0.0
142
0.0
142
0.0
142
0.0
142
1.0
179
     0
144
0.0208333333333333
144
0.0
144
0.0
144
0.0
144
0.0
144
0.0208333333333333
144
0.0
144
0.0
144
0.0
144
0.0
144
1.0
144
0.0
144
0.0
144
0.0
144
0.0
144
1.0
147
0.0208333333333333
147
0.0
147
0.0
147
0.0
147
0.0
147
0.0208333333333333
147
0.0
147
0.0
147
0.0
147
0.0
147
1.0
147
0.0
147
0.0
147
0.0
147
0.0
147
1.0
  0
MATERIAL
  5
1911
102
{ACAD_XDICTIONARY
360
1912
102
}
102
{ACAD_REACTORS
330
1910
102
}
330
1910
100
AcDbMaterial
  1
ByLayer
 72
     0
 43
0.0208333333333333
 43
0.0
 43
0.0
 43
0.0
 43
0.0
 43
0.0208333333333333
 43
0.0
 43
0.0
 43
0.0
 43
0.0
 43
1.0
 43
0.0
 43
0.0
 43
0.0
 43
0.0
 43
1.0
 77
     0
 47
0.0208333333333333
 47
0.0
 47
0.0
 47
0.0
 47
0.0
 47
0.0208333333333333
 47
0.0
 47
0.0
 47
0.0
 47
0.0
 47
1.0
 47
0.0
 47
0.0
 47
0.0
 47
0.0
 47
1.0
171
     0
 49
0.0208333333333333
 49
0.0
 49
0.0
 49
0.0
 49
0.0
 49
0.0208333333333333
 49
0.0
 49
0.0
 49
0.0
 49
0.0
 49
1.0
 49
0.0
 49
0.0
 49
0.0
 49
0.0
 49
1.0
175
     0
142
0.0208333333333333
142
0.0
142
0.0
142
0.0
142
0.0
142
0.0208333333333333
142
0.0
142
0.0
142
0.0
142
0.0
142
1.0
142
0.0
142
0.0
142
0.0
142
0.0
142
1.0
179
     0
144
0.0208333333333333
144
0.0
144
0.0
144
0.0
144
0.0
144
0.0208333333333333
144
0.0
144
0.0
144
0.0
144
0.0
144
1.0
144
0.0
144
0.0
144
0.0
144
0.0
144
1.0
147
0.0208333333333333
147
0.0
147
0.0
147
0.0
147
0.0
147
0.0208333333333333
147
0.0
147
0.0
147
0.0
147
0.0
147
1.0
147
0.0
147
0.0
147
0.0
147
0.0
147
1.0
  0
MATERIAL
  5
1921
102
{ACAD_XDICTIONARY
360
1922
102
}
102
{ACAD_REACTORS
330
1910
102
}
330
1910
100
AcDbMaterial
  1
Global
 72
     0
 43
0.0208333333333333
 43
0.0
 43
0.0
 43
0.0
 43
0.0
 43
0.0208333333333333
 43
0.0
 43
0.0
 43
0.0
 43
0.0
 43
1.0
 43
0.0
 43
0.0
 43
0.0
 43
0.0
 43
1.0
 77
     0
 47
0.0208333333333333
 47
0.0
 47
0.0
 47
0.0
 47
0.0
 47
0.0208333333333333
 47
0.0
 47
0.0
 47
0.0
 47
0.0
 47
1.0
 47
0.0
 47
0.0
 47
0.0
 47
0.0
 47
1.0
171
     0
 49
0.0208333333333333
 49
0.0
 49
0.0
 49
0.0
 49
0.0
 49
0.0208333333333333
 49
0.0
 49
0.0
 49
0.0
 49
0.0
 49
1.0
 49
0.0
 49
0.0
 49
0.0
 49
0.0
 49
1.0
175
     0
142
0.0208333333333333
142
0.0
142
0.0
142
0.0
142
0.0
142
0.0208333333333333
142
0.0
142
0.0
142
0.0
142
0.0
142
1.0
142
0.0
142
0.0
142
0.0
142
0.0
142
1.0
179
     0
144
0.0208333333333333
144
0.0
144
0.0
144
0.0
144
0.0
144
0.0208333333333333
144
0.0
144
0.0
144
0.0
144
0.0
144
1.0
144
0.0
144
0.0
144
0.0
144
0.0
144
1.0
147
0.0208333333333333
147
0.0
147
0.0
147
0.0
147
0.0
147
0.0208333333333333
147
0.0
147
0.0
147
0.0
147
0.0
147
1.0
147
0.0
147
0.0
147
0.0
147
0.0
147
1.0
  0
MLEADERSTYLE
  5
1958
102
{ACAD_REACTORS
330
1957
102
}
330
1957
100
AcDbMLeaderStyle
179
     2
170
     2
171
     1
172
     0
 90
        2
 40
0.0
 41
0.0
173
     1
 91
-1056964608
340
14
 92
       -2
290
     1
 42
0.09
291
     1
 43
0.36
  3
Standard
 44
0.18
300

342
11
174
     1
178
     6
175
     1
176
     0
 93
-1056964608
 45
0.18
292
     0
297
     0
 46
0.18
 94
-1056964608
 47
1.0
 49
1.0
140
1.0
293
     1
141
0.0
294
     1
177
     0
142
1.0
295
     0
296
     0
143
0.125
271
     0
272
     9
273
     9
298
     0
  0
MLINESTYLE
  5
18
102
{ACAD_REACTORS
330
17
102
}
330
17
100
AcDbMlineStyle
  2
STANDARD
 70
     0
  3

 62
   256
 51
90.0
 52
90.0
 71
     2
 49
0.5
 62
   256
  6
BYLAYER
 49
-0.5
 62
   256
  6
BYLAYER
  0
ACDBPLACEHOLDER
  5
F
102
{ACAD_REACTORS
330
E
102
}
330
E
  0
SCALE
  5
1946
102
{ACAD_REACTORS
330
1945
102
}
330
1945
100
AcDbScale
 70
     0
300
1:1
140
1.0
141
1.0
290
     1
  0
SCALE
  5
1947
102
{ACAD_REACTORS
330
1945
102
}
330
1945
100
AcDbScale
 70
     0
300
1/128" = 1'-0"
140
0.0078125
141
12.0
290
     0
  0
SCALE
  5
1948
102
{ACAD_REACTORS
330
1945
102
}
330
1945
100
AcDbScale
 70
     0
300
1/64" = 1'-0"
140
0.015625
141
12.0
290
     0
  0
SCALE
  5
1949
102
{ACAD_REACTORS
330
1945
102
}
330
1945
100
AcDbScale
 70
     0
300
1/32" = 1'-0"
140
0.03125
141
12.0
290
     0
  0
SCALE
  5
194A
102
{ACAD_REACTORS
330
1945
102
}
330
1945
100
AcDbScale
 70
     0
300
1/16" = 1'-0"
140
0.0625
141
12.0
290
     0
  0
SCALE
  5
194B
102
{ACAD_REACTORS
330
1945
102
}
330
1945
100
AcDbScale
 70
     0
300
3/32" = 1'-0"
140
0.09375
141
12.0
290
     0
  0
SCALE
  5
194C
102
{ACAD_REACTORS
330
1945
102
}
330
1945
100
AcDbScale
 70
     0
300
1/8" = 1'-0"
140
0.125
141
12.0
290
     0
  0
SCALE
  5
194D
102
{ACAD_REACTORS
330
1945
102
}
330
1945
100
AcDbScale
 70
     0
300
3/16" = 1'-0"
140
0.1875
141
12.0
290
     0
  0
SCALE
  5
194E
102
{ACAD_REACTORS
330
1945
102
}
330
1945
100
AcDbScale
 70
     0
300
1/4" = 1'-0"
140
0.25
141
12.0
290
     0
  0
SCALE
  5
194F
102
{ACAD_REACTORS
330
1945
102
}
330
1945
100
AcDbScale
 70
     0
300
3/8" = 1'-0"
140
0.375
141
12.0
290
     0
  0
SCALE
  5
1950
102
{ACAD_REACTORS
330
1945
102
}
330
1945
100
AcDbScale
 70
     0
300
1/2" = 1'-0"
140
0.5
141
12.0
290
     0
  0
SCALE
  5
1951
102
{ACAD_REACTORS
330
1945
102
}
330
1945
100
AcDbScale
 70
     0
300
3/4" = 1'-0"
140
0.75
141
12.0
290
     0
  0
SCALE
  5
1952
102
{ACAD_REACTORS
330
1945
102
}
330
1945
100
AcDbScale
 70
     0
300
1" = 1'-0"
140
1.0
141
12.0
290
     0
  0
SCALE
  5
1953
102
{ACAD_REACTORS
330
1945
102
}
330
1945
100
AcDbScale
 70
     0
300
1-1/2" = 1'-0"
140
1.5
141
12.0
290
     0
  0
SCALE
  5
1954
102
{ACAD_REACTORS
330
1945
102
}
330
1945
100
AcDbScale
 70
     0
300
3" = 1'-0"
140
3.0
141
12.0
290
     0
  0
SCALE
  5
1955
102
{ACAD_REACTORS
330
1945
102
}
330
1945
100
AcDbScale
 70
     0
300
6" = 1'-0"
140
6.0
141
12.0
290
     0
  0
SCALE
  5
1956
102
{ACAD_REACTORS
330
1945
102
}
330
1945
100
AcDbScale
 70
     0
300
1'-0" = 1'-0"
140
12.0
141
12.0
290
     0
  0
ACDBSECTIONVIEWSTYLE
  5
195A
102
{ACAD_REACTORS
330
1959
102
}
330
1959
100
AcDbModelDocViewStyle
 70
     0
  3
Imperial24
290
     0
300
Imperial24
 90
        0
100
AcDbSectionViewStyle
 70
     0
 71
     0
 90
       78
 71
     1
340
11
 62
   256
 40
0.24
340
0
340
0
 62
   256
 40
0.24
300
I, O, Q, S, X, Z
 40
0.48
 90
        3
 40
0.18
 90
        1
 71
     2
340
16
 90
       25
 62
   256
340
16
 90
       50
 62
   256
 40
0.24
 40
0.0
 40
0.24
 71
     3
340
11
 62
   256
 40
0.24
 90
        1
 40
0.75
 90
        1
300
%<\AcVar ViewType \f "%tc1">% %<\AcVar ViewSectionStartId>%-%<\AcVar ViewSectionEndId>%\PSCALE %<\AcVar ViewScale \f "%sn">%
 71
     4
 62
   256
 62
   257
300
ANSI31
 40
1.0
 90
        0
290
     0
290
     0
 90
        6
 40
0.0
 40
1.570796326794896
 40
0.2617993877991494
 40
1.308996938995747
 40
-0.2617993877991494
 40
1.832595714594046
  0
TABLESTYLE
  5
1944
102
{ACAD_XDICTIONARY
360
195D
102
}
102
{ACAD_REACTORS
330
1943
102
}
330
1943
100
AcDbTableStyle
280
     0
  3
Standard
 70
     0
 71
     0
 40
0.06
 41
0.06
280
     0
281
     0
  7
STANDARD
140
0.18
170
     2
 62
     0
 63
     7
283
     0
 90
      512
 91
        0
  1

274
    -2
284
     1
 64
     0
275
    -2
285
     1
 65
     0
276
    -2
286
     1
 66
     0
277
    -2
287
     1
 67
     0
278
    -2
288
     1
 68
     0
279
    -2
289
     1
 69
     0
  7
STANDARD
140
0.25
170
     5
 62
     0
 63
     7
283
     0
 90
      512
 91
        0
  1

274
    -2
284
     1
 64
     0
275
    -2
285
     1
 65
     0
276
    -2
286
     1
 66
     0
277
    -2
287
     1
 67
     0
278
    -2
288
     1
 68
     0
279
    -2
289
     1
 69
     0
  7
STANDARD
140
0.18
170
     5
 62
     0
 63
     7
283
     0
 90
      512
 91
        0
  1

274
    -2
284
     1
 64
     0
275
    -2
285
     1
 65
     0
276
    -2
286
     1
 66
     0
277
    -2
287
     1
 67
     0
278
    -2
288
     1
 68
     0
279
    -2
289
     1
 69
     0
  0
VISUALSTYLE
  5
192F
102
{ACAD_REACTORS
330
1929
102
}
330
1929
100
AcDbVisualStyle
  2
2dWireframe
 70
     4
177
     3
291
     0
 70
    58
 90
        0
176
     1
 90
        2
176
     1
 90
        0
176
     1
 90
        0
176
     1
 40
0.6
176
     1
 40
30.0
176
     1
 62
     7
176
     1
 90
        1
176
     1
 90
        4
176
     1
 62
     7
176
     1
 62
   257
176
     1
 90
        1
176
     1
 90
        1
176
     1
 40
1.0
176
     1
 90
        0
176
     1
 62
   257
176
     1
 40
1.0
176
     1
 90
        1
176
     1
 90
        6
176
     1
 90
        2
176
     1
 62
     7
176
     1
 90
        5
176
     1
 90
        0
176
     1
 90
        0
176
     1
290
     0
176
     1
 90
        1
176
     1
 40
0.0
176
     1
 90
        0
176
     1
290
     1
176
     1
290
     1
176
     1
290
     0
176
     1
290
     0
176
     1
290
     0
176
     1
290
     0
176
     1
290
     0
176
     1
290
     0
176
     1
290
     0
176
     1
 90
       50
176
     1
 40
0.0
176
     1
 40
1.0
176
     1
 90
        0
176
     1
 62
    18
420
        0
176
     1
 90
       50
176
     1
 90
        3
176
     1
 62
     5
420
      255
176
     1
290
     0
176
     1
 90
       50
176
     1
 90
       50
176
     1
 90
       50
176
     1
290
     0
176
     1
 90
       50
176
     1
 62
   256
176
     0
 40
1.0
176
     0
 90
        2
176
     1
  1
strokes_ogs.tif
176
     1
290
     0
176
     1
 40
1.0
176
     1
 40
1.0
176
     1
  0
VISUALSTYLE
  5
192E
102
{ACAD_REACTORS
330
1929
102
}
330
1929
100
AcDbVisualStyle
  2
Basic
 70
     7
177
     3
291
     1
 70
    58
 90
        1
176
     1
 90
        0
176
     1
 90
        1
176
     1
 90
        0
176
     1
 40
0.6
176
     1
 40
30.0
176
     1
 62
     7
176
     1
 90
        0
176
     1
 90
        4
176
     1
 62
     7
176
     1
 62
   257
176
     1
 90
        1
176
     1
 90
        1
176
     1
 40
1.0
176
     1
 90
        8
176
     1
 62
     7
176
     1
 40
1.0
176
     1
 90
        1
176
     1
 90
        6
176
     1
 90
        2
176
     1
 62
     7
176
     1
 90
        5
176
     1
 90
        0
176
     1
 90
        0
176
     1
290
     0
176
     1
 90
        1
176
     1
 40
0.0
176
     1
 90
        0
176
     1
290
     0
176
     1
290
     1
176
     1
290
     1
176
     1
290
     0
176
     1
290
     0
176
     1
290
     0
176
     1
290
     0
176
     1
290
     0
176
     1
290
     0
176
     1
 90
       50
176
     1
 40
0.0
176
     1
 40
1.0
176
     1
 90
        0
176
     1
 62
    18
420
        0
176
     1
 90
       50
176
     1
 90
        3
176
     1
 62
     5
420
      255
176
     1
290
     0
176
     1
 90
       50
176
     1
 90
       50
176
     1
 90
       50
176
     1
290
     0
176
     1
 90
       50
176
     1
 62
   256
176
     0
 40
1.0
176
     0
 90
        2
176
     1
  1
strokes_ogs.tif
176
     1
290
     0
176
     1
 40
1.0
176
     1
 40
1.0
176
     1
  0
VISUALSTYLE
  5
1935
102
{ACAD_REACTORS
330
1929
102
}
330
1929
100
AcDbVisualStyle
  2
Brighten
 70
    12
177
     3
291
     1
 70
    58
 90
        2
176
     1
 90
        2
176
     1
 90
        0
176
     1
 90
        0
176
     1
 40
0.6
176
     1
 40
30.0
176
     1
 62
     7
176
     1
 90
        1
176
     1
 90
        4
176
     1
 62
     7
176
     1
 62
   257
176
     1
 90
        1
176
     1
 90
        1
176
     1
 40
1.0
176
     1
 90
        8
176
     1
 62
     7
176
     1
 40
1.0
176
     1
 90
        1
176
     1
 90
        6
176
     1
 90
        2
176
     1
 62
     7
176
     1
 90
        5
176
     1
 90
        0
176
     1
 90
        0
176
     1
290
     0
176
     1
 90
        1
176
     1
 40
50.0
176
     1
 90
        0
176
     1
290
     0
176
     1
290
     1
176
     1
290
     1
176
     1
290
     0
176
     1
290
     0
176
     1
290
     0
176
     1
290
     0
176
     1
290
     0
176
     1
290
     0
176
     1
 90
       50
176
     1
 40
0.0
176
     1
 40
1.0
176
     1
 90
        0
176
     1
 62
    18
420
        0
176
     1
 90
       50
176
     1
 90
        3
176
     1
 62
     5
420
      255
176
     1
290
     0
176
     1
 90
       50
176
     1
 90
       50
176
     1
 90
       50
176
     1
290
     0
176
     1
 90
       50
176
     1
 62
   256
176
     0
 40
1.0
176
     0
 90
        2
176
     1
  1
strokes_ogs.tif
176
     1
290
     0
176
     1
 40
1.0
176
     1
 40
1.0
176
     1
  0
VISUALSTYLE
  5
1939
102
{ACAD_REACTORS
330
1929
102
}
330
1929
100
AcDbVisualStyle
  2
ColorChange
 70
    16
177
     3
291
     1
 70
    58
 90
        2
176
     1
 90
        2
176
     1
 90
        3
176
     1
 90
        0
176
     1
 40
0.6
176
     1
 40
30.0
176
     1
 62
     8
176
     1
 90
        1
176
     1
 90
        4
176
     1
 62
     7
176
     1
 62
   257
176
     1
 90
        1
176
     1
 90
        1
176
     1
 40
1.0
176
     1
 90
        8
176
     1
 62
     8
176
     1
 40
1.0
176
     1
 90
        1
176
     1
 90
        6
176
     1
 90
        2
176
     1
 62
     7
176
     1
 90
        5
176
     1
 90
        0
176
     1
 90
        0
176
     1
290
     0
176
     1
 90
        1
176
     1
 40
0.0
176
     1
 90
        0
176
     1
290
     0
176
     1
290
     1
176
     1
290
     1
176
     1
290
     0
176
     1
290
     0
176
     1
290
     0
176
     1
290
     0
176
     1
290
     0
176
     1
290
     0
176
     1
 90
       50
176
     1
 40
0.0
176
     1
 40
1.0
176
     1
 90
        0
176
     1
 62
    18
420
        0
176
     1
 90
       50
176
     1
 90
        3
176
     1
 62
     5
420
      255
176
     1
290
     0
176
     1
 90
       50
176
     1
 90
       50
176
     1
 90
       50
176
     1
290
     0
176
     1
 90
       50
176
     1
 62
   256
176
     0
 40
1.0
176
     0
 90
        2
176
     1
  1
strokes_ogs.tif
176
     1
290
     0
176
     1
 40
1.0
176
     1
 40
1.0
176
     1
  0
VISUALSTYLE
  5
1932
102
{ACAD_REACTORS
330
1929
102
}
330
1929
100
AcDbVisualStyle
  2
Conceptual
 70
     9
177
     3
291
     0
 70
    58
 90
        3
176
     1
 90
        2
176
     1
 90
        0
176
     1
 90
        0
176
     1
 40
0.6
176
     1
 40
30.0
176
     1
 62
     7
176
     1
 90
        2
176
     1
 90
        2
176
     1
 62
     7
176
     1
 62
   257
176
     1
 90
        1
176
     1
 90
        1
176
     1
 40
179.0
176
     1
 90
        8
176
     1
 62
     7
176
     1
 40
1.0
176
     1
 90
        1
176
     1
 90
        6
176
     1
 90
        2
176
     1
 62
     7
176
     1
 90
        3
176
     1
 90
        0
176
     1
 90
        0
176
     1
290
     0
176
     1
 90
        1
176
     1
 40
0.0
176
     1
 90
        0
176
     1
290
     0
176
     1
290
     1
176
     1
290
     1
176
     1
290
     0
176
     1
290
     0
176
     1
290
     0
176
     1
290
     0
176
     1
290
     0
176
     1
290
     0
176
     1
 90
       50
176
     1
 40
0.0
176
     1
 40
1.0
176
     1
 90
        0
176
     1
 62
    18
420
        0
176
     1
 90
       50
176
     1
 90
        3
176
     1
 62
     5
420
      255
176
     1
290
     0
176
     1
 90
       50
176
     1
 90
       50
176
     1
 90
       50
176
     1
290
     0
176
     1
 90
       50
176
     1
 62
   256
176
     0
 40
1.0
176
     0
 90
        2
176
     1
  1
strokes_ogs.tif
176
     1
290
     0
176
     1
 40
1.0
176
     1
 40
1.0
176
     1
  0
VISUALSTYLE
  5
1934
102
{ACAD_REACTORS
330
1929
102
}
330
1929
100
AcDbVisualStyle
  2
Dim
 70
    11
177
     3
291
     1
 70
    58
 90
        2
176
     1
 90
        2
176
     1
 90
        0
176
     1
 90
        0
176
     1
 40
0.6
176
     1
 40
30.0
176
     1
 62
     7
176
     1
 90
        1
176
     1
 90
        4
176
     1
 62
     7
176
     1
 62
   257
176
     1
 90
        1
176
     1
 90
        1
176
     1
 40
1.0
176
     1
 90
        8
176
     1
 62
     7
176
     1
 40
1.0
176
     1
 90
        1
176
     1
 90
        6
176
     1
 90
        2
176
     1
 62
     7
176
     1
 90
        5
176
     1
 90
        0
176
     1
 90
        0
176
     1
290
     0
176
     1
 90
        1
176
     1
 40
-50.0
176
     1
 90
        0
176
     1
290
     0
176
     1
290
     1
176
     1
290
     1
176
     1
290
     0
176
     1
290
     0
176
     1
290
     0
176
     1
290
     0
176
     1
290
     0
176
     1
290
     0
176
     1
 90
       50
176
     1
 40
0.0
176
     1
 40
1.0
176
     1
 90
        0
176
     1
 62
    18
420
        0
176
     1
 90
       50
176
     1
 90
        3
176
     1
 62
     5
420
      255
176
     1
290
     0
176
     1
 90
       50
176
     1
 90
       50
176
     1
 90
       50
176
     1
290
     0
176
     1
 90
       50
176
     1
 62
   256
176
     0
 40
1.0
176
     0
 90
        2
176
     1
  1
strokes_ogs.tif
176
     1
290
     0
176
     1
 40
1.0
176
     1
 40
1.0
176
     1
  0
VISUALSTYLE
  5
1941
102
{ACAD_REACTORS
330
1929
102
}
330
1929
100
AcDbVisualStyle
  2
EdgeColorOff
 70
    22
177
     3
291
     1
 70
    58
 90
        2
176
     0
 90
        2
176
     0
 90
        0
176
     0
 90
        0
176
     0
 40
0.6
176
     0
 40
30.0
176
     0
 62
     7
176
     0
 90
        1
176
     0
 90
        4
176
     0
 62
     7
176
     0
 62
   257
176
     0
 90
        1
176
     0
 90
        1
176
     0
 40
1.0
176
     0
 90
        8
176
     2
 62
     7
176
     0
 40
1.0
176
     0
 90
        1
176
     0
 90
        6
176
     0
 90
        2
176
     0
 62
     7
176
     0
 90
        5
176
     0
 90
        0
176
     0
 90
        0
176
     0
290
     0
176
     0
 90
        1
176
     0
 40
0.0
176
     0
 90
        0
176
     0
290
     0
176
     1
290
     1
176
     1
290
     1
176
     1
290
     0
176
     1
290
     0
176
     1
290
     0
176
     1
290
     0
176
     1
290
     0
176
     1
290
     0
176
     1
 90
       50
176
     0
 40
0.0
176
     0
 40
1.0
176
     0
 90
        0
176
     0
 62
    18
420
        0
176
     0
 90
       50
176
     0
 90
        3
176
     0
 62
     5
420
      255
176
     0
290
     0
176
     1
 90
       50
176
     0
 90
       50
176
     0
 90
       50
176
     0
290
     0
176
     1
 90
       50
176
     0
 62
   256
176
     0
 40
1.0
176
     0
 90
        2
176
     0
  1
strokes_ogs.tif
176
     0
290
     0
176
     1
 40
1.0
176
     0
 40
1.0
176
     0
  0
VISUALSTYLE
  5
1938
102
{ACAD_REACTORS
330
1929
102
}
330
1929
100
AcDbVisualStyle
  2
Facepattern
 70
    15
177
     3
291
     1
 70
    58
 90
        2
176
     1
 90
        2
176
     1
 90
        0
176
     1
 90
        0
176
     1
 40
0.6
176
     1
 40
30.0
176
     1
 62
     7
176
     1
 90
        1
176
     1
 90
        4
176
     1
 62
     7
176
     1
 62
   257
176
     1
 90
        1
176
     1
 90
        1
176
     1
 40
1.0
176
     1
 90
        8
176
     1
 62
     7
176
     1
 40
1.0
176
     1
 90
        1
176
     1
 90
        6
176
     1
 90
        2
176
     1
 62
     7
176
     1
 90
        5
176
     1
 90
        0
176
     1
 90
        0
176
     1
290
     0
176
     1
 90
        1
176
     1
 40
0.0
176
     1
 90
        0
176
     1
290
     0
176
     1
290
     1
176
     1
290
     1
176
     1
290
     0
176
     1
290
     0
176
     1
290
     0
176
     1
290
     0
176
     1
290
     0
176
     1
290
     0
176
     1
 90
       50
176
     1
 40
0.0
176
     1
 40
1.0
176
     1
 90
        0
176
     1
 62
    18
420
        0
176
     1
 90
       50
176
     1
 90
        3
176
     1
 62
     5
420
      255
176
     1
290
     0
176
     1
 90
       50
176
     1
 90
       50
176
     1
 90
       50
176
     1
290
     0
176
     1
 90
       50
176
     1
 62
   256
176
     0
 40
1.0
176
     0
 90
        2
176
     1
  1
strokes_ogs.tif
176
     1
290
     0
176
     1
 40
1.0
176
     1
 40
1.0
176
     1
  0
VISUALSTYLE
  5
192A
102
{ACAD_REACTORS
330
1929
102
}
330
1929
100
AcDbVisualStyle
  2
Flat
 70
     0
177
     3
291
     1
 70
    58
 90
        2
176
     1
 90
        1
176
     1
 90
        1
176
     1
 90
        2
176
     1
 40
0.6
176
     1
 40
30.0
176
     1
 62
     7
176
     1
 90
        0
176
     1
 90
        0
176
     1
 62
     7
176
     1
 62
   257
176
     1
 90
        1
176
     1
 90
        1
176
     1
 40
1.0
176
     1
 90
        8
176
     1
 62
     7
176
     1
 40
1.0
176
     1
 90
        1
176
     1
 90
        6
176
     1
 90
        2
176
     1
 62
     7
176
     1
 90
        5
176
     1
 90
        0
176
     1
 90
        0
176
     1
290
     0
176
     1
 90
       13
176
     1
 40
0.0
176
     1
 90
        0
176
     1
290
     0
176
     1
290
     1
176
     1
290
     1
176
     1
290
     0
176
     1
290
     0
176
     1
290
     0
176
     1
290
     0
176
     1
290
     0
176
     1
290
     0
176
     1
 90
       50
176
     1
 40
0.0
176
     1
 40
1.0
176
     1
 90
        0
176
     1
 62
    18
420
        0
176
     1
 90
       50
176
     1
 90
        3
176
     1
 62
     5
420
      255
176
     1
290
     0
176
     1
 90
       50
176
     1
 90
       50
176
     1
 90
       50
176
     1
290
     0
176
     1
 90
       50
176
     1
 62
   256
176
     0
 40
1.0
176
     0
 90
        2
176
     1
  1
strokes_ogs.tif
176
     1
290
     0
176
     1
 40
1.0
176
     1
 40
1.0
176
     1
  0
VISUALSTYLE
  5
192B
102
{ACAD_REACTORS
330
1929
102
}
330
1929
100
AcDbVisualStyle
  2
FlatWithEdges
 70
     1
177
     3
291
     1
 70
    58
 90
        2
176
     1
 90
        1
176
     1
 90
        1
176
     1
 90
        2
176
     1
 40
0.6
176
     1
 40
30.0
176
     1
 62
     7
176
     1
 90
        1
176
     1
 90
        0
176
     1
 62
     7
176
     1
 62
   257
176
     1
 90
        1
176
     1
 90
        1
176
     1
 40
1.0
176
     1
 90
        0
176
     1
 62
   257
176
     1
 40
1.0
176
     1
 90
        1
176
     1
 90
        6
176
     1
 90
        2
176
     1
 62
     7
176
     1
 90
        5
176
     1
 90
        0
176
     1
 90
        0
176
     1
290
     0
176
     1
 90
       13
176
     1
 40
0.0
176
     1
 90
        0
176
     1
290
     0
176
     1
290
     1
176
     1
290
     1
176
     1
290
     0
176
     1
290
     0
176
     1
290
     0
176
     1
290
     0
176
     1
290
     0
176
     1
290
     0
176
     1
 90
       50
176
     1
 40
0.0
176
     1
 40
1.0
176
     1
 90
        0
176
     1
 62
    18
420
        0
176
     1
 90
       50
176
     1
 90
        3
176
     1
 62
     5
420
      255
176
     1
290
     0
176
     1
 90
       50
176
     1
 90
       50
176
     1
 90
       50
176
     1
290
     0
176
     1
 90
       50
176
     1
 62
   256
176
     0
 40
1.0
176
     0
 90
        2
176
     1
  1
strokes_ogs.tif
176
     1
290
     0
176
     1
 40
1.0
176
     1
 40
1.0
176
     1
  0
VISUALSTYLE
  5
192C
102
{ACAD_REACTORS
330
1929
102
}
330
1929
100
AcDbVisualStyle
  2
Gouraud
 70
     2
177
     3
291
     1
 70
    58
 90
        2
176
     1
 90
        2
176
     1
 90
        1
176
     1
 90
        2
176
     1
 40
0.6
176
     1
 40
30.0
176
     1
 62
     7
176
     1
 90
        0
176
     1
 90
        0
176
     1
 62
     7
176
     1
 62
   257
176
     1
 90
        1
176
     1
 90
        1
176
     1
 40
1.0
176
     1
 90
        0
176
     1
 62
     7
176
     1
 40
1.0
176
     1
 90
        1
176
     1
 90
        6
176
     1
 90
        2
176
     1
 62
     7
176
     1
 90
        5
176
     1
 90
        0
176
     1
 90
        0
176
     1
290
     0
176
     1
 90
       13
176
     1
 40
0.0
176
     1
 90
        0
176
     1
290
     0
176
     1
290
     1
176
     1
290
     1
176
     1
290
     0
176
     1
290
     0
176
     1
290
     0
176
     1
290
     0
176
     1
290
     0
176
     1
290
     0
176
     1
 90
       50
176
     1
 40
0.0
176
     1
 40
1.0
176
     1
 90
        0
176
     1
 62
    18
420
        0
176
     1
 90
       50
176
     1
 90
        3
176
     1
 62
     5
420
      255
176
     1
290
     0
176
     1
 90
       50
176
     1
 90
       50
176
     1
 90
       50
176
     1
290
     0
176
     1
 90
       50
176
     1
 62
   256
176
     0
 40
1.0
176
     0
 90
        2
176
     1
  1
strokes_ogs.tif
176
     1
290
     0
176
     1
 40
1.0
176
     1
 40
1.0
176
     1
  0
VISUALSTYLE
  5
192D
102
{ACAD_REACTORS
330
1929
102
}
330
1929
100
AcDbVisualStyle
  2
GouraudWithEdges
 70
     3
177
     3
291
     1
 70
    58
 90
        2
176
     1
 90
        2
176
     1
 90
        1
176
     1
 90
        2
176
     1
 40
0.6
176
     1
 40
30.0
176
     1
 62
     7
176
     1
 90
        1
176
     1
 90
        0
176
     1
 62
     7
176
     1
 62
   257
176
     1
 90
        1
176
     1
 90
        1
176
     1
 40
1.0
176
     1
 90
        0
176
     1
 62
   257
176
     1
 40
1.0
176
     1
 90
        1
176
     1
 90
        6
176
     1
 90
        2
176
     1
 62
     7
176
     1
 90
        5
176
     1
 90
        0
176
     1
 90
        0
176
     1
290
     0
176
     1
 90
       13
176
     1
 40
0.0
176
     1
 90
        0
176
     1
290
     0
176
     1
290
     1
176
     1
290
     1
176
     1
290
     0
176
     1
290
     0
176
     1
290
     0
176
     1
290
     0
176
     1
290
     0
176
     1
290
     0
176
     1
 90
       50
176
     1
 40
0.0
176
     1
 40
1.0
176
     1
 90
        0
176
     1
 62
    18
420
        0
176
     1
 90
       50
176
     1
 90
        3
176
     1
 62
     5
420
      255
176
     1
290
     0
176
     1
 90
       50
176
     1
 90
       50
176
     1
 90
       50
176
     1
290
     0
176
     1
 90
       50
176
     1
 62
   256
176
     0
 40
1.0
176
     0
 90
        2
176
     1
  1
strokes_ogs.tif
176
     1
290
     0
176
     1
 40
1.0
176
     1
 40
1.0
176
     1
  0
VISUALSTYLE
  5
1931
102
{ACAD_REACTORS
330
1929
102
}
330
1929
100
AcDbVisualStyle
  2
Hidden
 70
     6
177
     3
291
     0
 70
    58
 90
        1
176
     1
 90
        2
176
     1
 90
        2
176
     1
 90
        0
176
     1
 40
0.6
176
     1
 40
30.0
176
     1
 62
     7
176
     1
 90
        2
176
     1
 90
        2
176
     1
 62
     7
176
     1
 62
   257
176
     1
 90
        2
176
     1
 90
        1
176
     1
 40
40.0
176
     1
 90
        0
176
     1
 62
   257
176
     1
 40
1.0
176
     1
 90
        1
176
     1
 90
        6
176
     1
 90
        2
176
     1
 62
     7
176
     1
 90
        3
176
     1
 90
        0
176
     1
 90
        0
176
     1
290
     0
176
     1
 90
        1
176
     1
 40
0.0
176
     1
 90
        0
176
     1
290
     0
176
     1
290
     1
176
     1
290
     1
176
     1
290
     0
176
     1
290
     0
176
     1
290
     0
176
     1
290
     0
176
     1
290
     0
176
     1
290
     0
176
     1
 90
       50
176
     1
 40
0.0
176
     1
 40
1.0
176
     1
 90
        0
176
     1
 62
    18
420
        0
176
     1
 90
       50
176
     1
 90
        3
176
     1
 62
     5
420
      255
176
     1
290
     0
176
     1
 90
       50
176
     1
 90
       50
176
     1
 90
       50
176
     1
290
     0
176
     1
 90
       50
176
     1
 62
   256
176
     0
 40
1.0
176
     0
 90
        2
176
     1
  1
strokes_ogs.tif
176
     1
290
     0
176
     1
 40
1.0
176
     1
 40
1.0
176
     1
  0
VISUALSTYLE
  5
193F
102
{ACAD_REACTORS
330
1929
102
}
330
1929
100
AcDbVisualStyle
  2
JitterOff
 70
    20
177
     3
291
     1
 70
    58
 90
        2
176
     0
 90
        2
176
     0
 90
        0
176
     0
 90
        0
176
     0
 40
0.6
176
     0
 40
30.0
176
     0
 62
     7
176
     0
 90
        1
176
     0
 90
        4
176
     0
 62
     7
176
     0
 62
   257
176
     0
 90
        1
176
     0
 90
        1
176
     0
 40
1.0
176
     0
 90
       10
176
     2
 62
     7
176
     0
 40
1.0
176
     0
 90
        1
176
     0
 90
        6
176
     0
 90
        2
176
     0
 62
     7
176
     0
 90
        5
176
     0
 90
        0
176
     0
 90
        0
176
     0
290
     0
176
     0
 90
        1
176
     0
 40
0.0
176
     0
 90
        0
176
     0
290
     0
176
     1
290
     1
176
     1
290
     1
176
     1
290
     0
176
     1
290
     0
176
     1
290
     0
176
     1
290
     0
176
     1
290
     0
176
     1
290
     0
176
     1
 90
       50
176
     0
 40
0.0
176
     0
 40
1.0
176
     0
 90
        0
176
     0
 62
    18
420
        0
176
     0
 90
       50
176
     0
 90
        3
176
     0
 62
     5
420
      255
176
     0
290
     0
176
     1
 90
       50
176
     0
 90
       50
176
     0
 90
       50
176
     0
290
     0
176
     1
 90
       50
176
     0
 62
   256
176
     0
 40
1.0
176
     0
 90
        2
176
     0
  1
strokes_ogs.tif
176
     0
290
     0
176
     1
 40
1.0
176
     0
 40
1.0
176
     0
  0
VISUALSTYLE
  5
1937
102
{ACAD_REACTORS
330
1929
102
}
330
1929
100
AcDbVisualStyle
  2
Linepattern
 70
    14
177
     3
291
     1
 70
    58
 90
        2
176
     1
 90
        2
176
     1
 90
        0
176
     1
 90
        0
176
     1
 40
0.6
176
     1
 40
30.0
176
     1
 62
     7
176
     1
 90
        1
176
     1
 90
        4
176
     1
 62
     7
176
     1
 62
   257
176
     1
 90
        7
176
     1
 90
        7
176
     1
 40
1.0
176
     1
 90
        8
176
     1
 62
     7
176
     1
 40
1.0
176
     1
 90
        1
176
     1
 90
        6
176
     1
 90
        2
176
     1
 62
     7
176
     1
 90
        5
176
     1
 90
        0
176
     1
 90
        0
176
     1
290
     0
176
     1
 90
        1
176
     1
 40
0.0
176
     1
 90
        0
176
     1
290
     0
176
     1
290
     1
176
     1
290
     1
176
     1
290
     0
176
     1
290
     0
176
     1
290
     0
176
     1
290
     0
176
     1
290
     0
176
     1
290
     0
176
     1
 90
       50
176
     1
 40
0.0
176
     1
 40
1.0
176
     1
 90
        0
176
     1
 62
    18
420
        0
176
     1
 90
       50
176
     1
 90
        3
176
     1
 62
     5
420
      255
176
     1
290
     0
176
     1
 90
       50
176
     1
 90
       50
176
     1
 90
       50
176
     1
290
     0
176
     1
 90
       50
176
     1
 62
   256
176
     0
 40
1.0
176
     0
 90
        2
176
     1
  1
strokes_ogs.tif
176
     1
290
     0
176
     1
 40
1.0
176
     1
 40
1.0
176
     1
  0
VISUALSTYLE
  5
1940
102
{ACAD_REACTORS
330
1929
102
}
330
1929
100
AcDbVisualStyle
  2
OverhangOff
 70
    21
177
     3
291
     1
 70
    58
 90
        2
176
     0
 90
        2
176
     0
 90
        0
176
     0
 90
        0
176
     0
 40
0.6
176
     0
 40
30.0
176
     0
 62
     7
176
     0
 90
        1
176
     0
 90
        4
176
     0
 62
     7
176
     0
 62
   257
176
     0
 90
        1
176
     0
 90
        1
176
     0
 40
1.0
176
     0
 90
        9
176
     2
 62
     7
176
     0
 40
1.0
176
     0
 90
        1
176
     0
 90
        6
176
     0
 90
        2
176
     0
 62
     7
176
     0
 90
        5
176
     0
 90
        0
176
     0
 90
        0
176
     0
290
     0
176
     0
 90
        1
176
     0
 40
0.0
176
     0
 90
        0
176
     0
290
     0
176
     1
290
     1
176
     1
290
     1
176
     1
290
     0
176
     1
290
     0
176
     1
290
     0
176
     1
290
     0
176
     1
290
     0
176
     1
290
     0
176
     1
 90
       50
176
     0
 40
0.0
176
     0
 40
1.0
176
     0
 90
        0
176
     0
 62
    18
420
        0
176
     0
 90
       50
176
     0
 90
        3
176
     0
 62
     5
420
      255
176
     0
290
     0
176
     1
 90
       50
176
     0
 90
       50
176
     0
 90
       50
176
     0
290
     0
176
     1
 90
       50
176
     0
 62
   256
176
     0
 40
1.0
176
     0
 90
        2
176
     0
  1
strokes_ogs.tif
176
     0
290
     0
176
     1
 40
1.0
176
     0
 40
1.0
176
     0
  0
VISUALSTYLE
  5
1933
102
{ACAD_REACTORS
330
1929
102
}
330
1929
100
AcDbVisualStyle
  2
Realistic
 70
     8
177
     3
291
     0
 70
    58
 90
        2
176
     1
 90
        2
176
     1
 90
        0
176
     1
 90
        2
176
     1
 40
0.6
176
     1
 40
30.0
176
     1
 62
     7
176
     1
 90
        0
176
     1
 90
        0
176
     1
 62
     7
176
     1
 62
   257
176
     1
 90
        1
176
     1
 90
        1
176
     1
 40
1.0
176
     1
 90
        8
176
     1
 62
   257
176
     1
 40
1.0
176
     1
 90
        1
176
     1
 90
        6
176
     1
 90
        2
176
     1
 62
     7
176
     1
 90
        3
176
     1
 90
        0
176
     1
 90
        0
176
     1
290
     0
176
     1
 90
       13
176
     1
 40
0.0
176
     1
 90
        0
176
     1
290
     0
176
     1
290
     1
176
     1
290
     1
176
     1
290
     0
176
     1
290
     0
176
     1
290
     0
176
     1
290
     0
176
     1
290
     0
176
     1
290
     0
176
     1
 90
       50
176
     1
 40
0.0
176
     1
 40
1.0
176
     1
 90
        0
176
     1
 62
    18
420
        0
176
     1
 90
       50
176
     1
 90
        3
176
     1
 62
     5
420
      255
176
     1
290
     0
176
     1
 90
       50
176
     1
 90
       50
176
     1
 90
       50
176
     1
290
     0
176
     1
 90
       50
176
     1
 62
   256
176
     0
 40
1.0
176
     0
 90
        2
176
     1
  1
strokes_ogs.tif
176
     1
290
     0
176
     1
 40
1.0
176
     1
 40
1.0
176
     1
  0
VISUALSTYLE
  5
193E
102
{ACAD_REACTORS
330
1929
102
}
330
1929
100
AcDbVisualStyle
  2
Shaded
 70
    27
177
     3
291
     0
 70
    58
 90
        2
176
     1
 90
        2
176
     1
 90
        1
176
     1
 90
        2
176
     1
 40
0.6
176
     1
 40
30.0
176
     1
 62
     7
176
     1
 90
        0
176
     1
 90
        4
176
     1
 62
     7
176
     1
 62
   257
176
     1
 90
        1
176
     1
 90
        1
176
     1
 40
1.0
176
     1
 90
        8
176
     1
 62
   257
176
     1
 40
1.0
176
     1
 90
        1
176
     1
 90
        6
176
     1
 90
        2
176
     1
 62
     8
176
     1
 90
        3
176
     1
 90
        0
176
     1
 90
        0
176
     1
290
     0
176
     1
 90
        5
176
     1
 40
0.0
176
     1
 90
        0
176
     1
290
     0
176
     1
290
     1
176
     1
290
     1
176
     1
290
     0
176
     1
290
     0
176
     1
290
     0
176
     1
290
     0
176
     1
290
     0
176
     1
290
     0
176
     1
 90
       50
176
     1
 40
0.0
176
     1
 40
1.0
176
     1
 90
        0
176
     1
 62
    18
420
        0
176
     1
 90
       50
176
     1
 90
        3
176
     1
 62
     5
420
      255
176
     1
290
     0
176
     1
 90
       50
176
     1
 90
       50
176
     1
 90
       50
176
     1
290
     0
176
     1
 90
       50
176
     1
 62
   256
176
     0
 40
1.0
176
     0
 90
        2
176
     1
  1
strokes_ogs.tif
176
     1
290
     0
176
     1
 40
1.0
176
     1
 40
1.0
176
     1
  0
VISUALSTYLE
  5
193D
102
{ACAD_REACTORS
330
1929
102
}
330
1929
100
AcDbVisualStyle
  2
Shaded with edges
 70
    26
177
     3
291
     0
 70
    58
 90
        2
176
     1
 90
        2
176
     1
 90
        1
176
     1
 90
        2
176
     1
 40
0.6
176
     1
 40
30.0
176
     1
 62
     7
176
     1
 90
        1
176
     1
 90
        2
176
     1
 62
     7
176
     1
 62
   257
176
     1
 90
        2
176
     1
 90
        1
176
     1
 40
1.0
176
     1
 90
        8
176
     1
 62
   257
176
     1
 40
1.0
176
     1
 90
        1
176
     1
 90
        6
176
     1
 90
        2
176
     1
 62
     7
176
     1
 90
        3
176
     1
 90
        0
176
     1
 90
        0
176
     1
290
     0
176
     1
 90
        5
176
     1
 40
0.0
176
     1
 90
        0
176
     1
290
     0
176
     1
290
     1
176
     1
290
     1
176
     1
290
     0
176
     1
290
     0
176
     1
290
     0
176
     1
290
     0
176
     1
290
     0
176
     1
290
     0
176
     1
 90
       50
176
     1
 40
0.0
176
     1
 40
1.0
176
     1
 90
        0
176
     1
 62
    18
420
        0
176
     1
 90
       50
176
     1
 90
        3
176
     1
 62
     5
420
      255
176
     1
290
     0
176
     1
 90
       50
176
     1
 90
       50
176
     1
 90
       50
176
     1
290
     0
176
     1
 90
       50
176
     1
 62
   256
176
     0
 40
1.0
176
     0
 90
        2
176
     1
  1
strokes_ogs.tif
176
     1
290
     0
176
     1
 40
1.0
176
     1
 40
1.0
176
     1
  0
VISUALSTYLE
  5
193A
102
{ACAD_REACTORS
330
1929
102
}
330
1929
100
AcDbVisualStyle
  2
Shades of Gray
 70
    23
177
     3
291
     0
 70
    58
 90
        2
176
     1
 90
        2
176
     1
 90
        3
176
     1
 90
        0
176
     1
 40
0.6
176
     1
 40
30.0
176
     1
 62
     7
176
     1
 90
        2
176
     1
 90
        2
176
     1
 62
     7
176
     1
 62
     7
176
     1
 90
        1
176
     1
 90
        1
176
     1
 40
40.0
176
     1
 90
        8
176
     1
 62
     7
176
     1
 40
1.0
176
     1
 90
        1
176
     1
 90
        6
176
     1
 90
        2
176
     1
 62
     7
176
     1
 90
        3
176
     1
 90
        0
176
     1
 90
        0
176
     1
290
     0
176
     1
 90
        1
176
     1
 40
0.0
176
     1
 90
        0
176
     1
290
     0
176
     1
290
     1
176
     1
290
     1
176
     1
290
     0
176
     1
290
     0
176
     1
290
     0
176
     1
290
     0
176
     1
290
     0
176
     1
290
     0
176
     1
 90
       50
176
     1
 40
0.0
176
     1
 40
1.0
176
     1
 90
        0
176
     1
 62
    18
420
        0
176
     1
 90
       50
176
     1
 90
        3
176
     1
 62
     5
420
      255
176
     1
290
     0
176
     1
 90
       50
176
     1
 90
       50
176
     1
 90
       50
176
     1
290
     0
176
     1
 90
       50
176
     1
 62
   256
176
     0
 40
1.0
176
     0
 90
        2
176
     1
  1
strokes_ogs.tif
176
     1
290
     0
176
     1
 40
1.0
176
     1
 40
1.0
176
     1
  0
VISUALSTYLE
  5
193B
102
{ACAD_REACTORS
330
1929
102
}
330
1929
100
AcDbVisualStyle
  2
Sketchy
 70
    24
177
     3
291
     0
 70
    58
 90
        1
176
     1
 90
        2
176
     1
 90
        2
176
     1
 90
        0
176
     1
 40
0.6
176
     1
 40
30.0
176
     1
 62
     7
176
     1
 90
        2
176
     1
 90
        2
176
     1
 62
     7
176
     1
 62
     7
176
     1
 90
        1
176
     1
 90
        1
176
     1
 40
40.0
176
     1
 90
       11
176
     1
 62
     7
176
     1
 40
1.0
176
     1
 90
        1
176
     1
 90
        6
176
     1
 90
        2
176
     1
 62
     7
176
     1
 90
        6
176
     1
 90
        0
176
     1
 90
        0
176
     1
290
     0
176
     1
 90
        1
176
     1
 40
0.0
176
     1
 90
        0
176
     1
290
     0
176
     1
290
     1
176
     1
290
     1
176
     1
290
     0
176
     1
290
     0
176
     1
290
     0
176
     1
290
     0
176
     1
290
     0
176
     1
290
     0
176
     1
 90
       50
176
     1
 40
0.0
176
     1
 40
1.0
176
     1
 90
        0
176
     1
 62
    18
420
        0
176
     1
 90
       50
176
     1
 90
        3
176
     1
 62
     5
420
      255
176
     1
290
     0
176
     1
 90
       50
176
     1
 90
       50
176
     1
 90
       50
176
     1
290
     0
176
     1
 90
       50
176
     1
 62
   256
176
     0
 40
1.0
176
     0
 90
        2
176
     1
  1
strokes_ogs.tif
176
     1
290
     0
176
     1
 40
1.0
176
     1
 40
1.0
176
     1
  0
VISUALSTYLE
  5
1936
102
{ACAD_REACTORS
330
1929
102
}
330
1929
100
AcDbVisualStyle
  2
Thicken
 70
    13
177
     3
291
     1
 70
    58
 90
        2
176
     1
 90
        2
176
     1
 90
        0
176
     1
 90
        0
176
     1
 40
0.6
176
     1
 40
30.0
176
     1
 62
     7
176
     1
 90
        1
176
     1
 90
        4
176
     1
 62
     7
176
     1
 62
   257
176
     1
 90
        1
176
     1
 90
        1
176
     1
 40
1.0
176
     1
 90
       12
176
     1
 62
     7
176
     1
 40
1.0
176
     1
 90
        1
176
     1
 90
        6
176
     1
 90
        2
176
     1
 62
     7
176
     1
 90
        5
176
     1
 90
        0
176
     1
 90
        0
176
     1
290
     0
176
     1
 90
        1
176
     1
 40
0.0
176
     1
 90
        0
176
     1
290
     0
176
     1
290
     1
176
     1
290
     1
176
     1
290
     0
176
     1
290
     0
176
     1
290
     0
176
     1
290
     0
176
     1
290
     0
176
     1
290
     0
176
     1
 90
       50
176
     1
 40
0.0
176
     1
 40
1.0
176
     1
 90
        0
176
     1
 62
    18
420
        0
176
     1
 90
       50
176
     1
 90
        3
176
     1
 62
     5
420
      255
176
     1
290
     0
176
     1
 90
       50
176
     1
 90
       50
176
     1
 90
       50
176
     1
290
     0
176
     1
 90
       50
176
     1
 62
   256
176
     0
 40
1.0
176
     0
 90
        2
176
     1
  1
strokes_ogs.tif
176
     1
290
     0
176
     1
 40
1.0
176
     1
 40
1.0
176
     1
  0
VISUALSTYLE
  5
1930
102
{ACAD_REACTORS
330
1929
102
}
330
1929
100
AcDbVisualStyle
  2
Wireframe
 70
     5
177
     3
291
     0
 70
    58
 90
        0
176
     1
 90
        2
176
     1
 90
        0
176
     1
 90
        0
176
     1
 40
0.6
176
     1
 40
30.0
176
     1
 62
     7
176
     1
 90
        1
176
     1
 90
        4
176
     1
 62
     7
176
     1
 62
   257
176
     1
 90
        1
176
     1
 90
        1
176
     1
 40
1.0
176
     1
 90
        0
176
     1
 62
   257
176
     1
 40
1.0
176
     1
 90
        1
176
     1
 90
        6
176
     1
 90
        2
176
     1
 62
     7
176
     1
 90
        3
176
     1
 90
        0
176
     1
 90
        0
176
     1
290
     0
176
     1
 90
        1
176
     1
 40
0.0
176
     1
 90
        0
176
     1
290
     0
176
     1
290
     1
176
     1
290
     1
176
     1
290
     0
176
     1
290
     0
176
     1
290
     0
176
     1
290
     0
176
     1
290
     0
176
     1
290
     0
176
     1
 90
       50
176
     1
 40
0.0
176
     1
 40
1.0
176
     1
 90
        0
176
     1
 62
    18
420
        0
176
     1
 90
       50
176
     1
 90
        3
176
     1
 62
     5
420
      255
176
     1
290
     0
176
     1
 90
       50
176
     1
 90
       50
176
     1
 90
       50
176
     1
290
     0
176
     1
 90
       50
176
     1
 62
   256
176
     0
 40
1.0
176
     0
 90
        2
176
     1
  1
strokes_ogs.tif
176
     1
290
     0
176
     1
 40
1.0
176
     1
 40
1.0
176
     1
  0
VISUALSTYLE
  5
193C
102
{ACAD_REACTORS
330
1929
102
}
330
1929
100
AcDbVisualStyle
  2
X-Ray
 70
    25
177
     3
291
     0
 70
    58
 90
        2
176
     1
 90
        2
176
     1
 90
        1
176
     1
 90
        1
176
     1
 40
0.5
176
     1
 40
30.0
176
     1
 62
     7
176
     1
 90
        1
176
     1
 90
        0
176
     1
 62
     7
176
     1
 62
   257
176
     1
 90
        1
176
     1
 90
        1
176
     1
 40
1.0
176
     1
 90
        8
176
     1
 62
     7
176
     1
 40
1.0
176
     1
 90
        1
176
     1
 90
        6
176
     1
 90
        2
176
     1
 62
     7
176
     1
 90
        3
176
     1
 90
        0
176
     1
 90
        0
176
     1
290
     0
176
     1
 90
       13
176
     1
 40
0.0
176
     1
 90
        0
176
     1
290
     0
176
     1
290
     1
176
     1
290
     1
176
     1
290
     0
176
     1
290
     0
176
     1
290
     0
176
     1
290
     0
176
     1
290
     0
176
     1
290
     0
176
     1
 90
       50
176
     1
 40
0.0
176
     1
 40
1.0
176
     1
 90
        0
176
     1
 62
    18
420
        0
176
     1
 90
       50
176
     1
 90
        3
176
     1
 62
     5
420
      255
176
     1
290
     0
176
     1
 90
       50
176
     1
 90
       50
176
     1
 90
       50
176
     1
290
     0
176
     1
 90
       50
176
     1
 62
   256
176
     0
 40
1.0
176
     0
 90
        2
176
     1
  1
strokes_ogs.tif
176
     1
290
     0
176
     1
 40
1.0
176
     1
 40
1.0
176
     1
  0
DICTIONARYVAR
  5
19A4
102
{ACAD_REACTORS
330
199F
102
}
330
199F
100
DictionaryVariables
280
     0
  1
1:1
  0
DICTIONARYVAR
  5
19A1
102
{ACAD_REACTORS
330
199F
102
}
330
199F
100
DictionaryVariables
280
     0
  1
STANDARD
  0
DICTIONARYVAR
  5
19A0
102
{ACAD_REACTORS
330
199F
102
}
330
199F
100
DictionaryVariables
280
     0
  1
STANDARD
  0
DICTIONARYVAR
  5
19A2
102
{ACAD_REACTORS
330
199F
102
}
330
199F
100
DictionaryVariables
280
     0
  1
Imperial24
  0
DICTIONARYVAR
  5
19A3
102
{ACAD_REACTORS
330
199F
102
}
330
199F
100
DictionaryVariables
280
     0
  1
Imperial24
  0
DICTIONARYVAR
  5
19A7
102
{ACAD_REACTORS
330
199F
102
}
330
199F
100
DictionaryVariables
280
     0
  1
1
  0
DICTIONARYVAR
  5
19A6
102
{ACAD_REACTORS
330
199F
102
}
330
199F
100
DictionaryVariables
280
     0
  1
0
  0
DICTIONARYVAR
  5
19EE
102
{ACAD_REACTORS
330
199F
102
}
330
199F
100
DictionaryVariables
280
     0
  1
1
  0
DICTIONARYVAR
  5
19EF
102
{ACAD_REACTORS
330
199F
102
}
330
199F
100
DictionaryVariables
280
     0
  1
15
  0
DICTIONARYVAR
  5
19ED
102
{ACAD_REACTORS
330
199F
102
}
330
199F
100
DictionaryVariables
280
     0
  1
0
  0
DICTIONARYVAR
  5
19EC
102
{ACAD_REACTORS
330
199F
102
}
330
199F
100
DictionaryVariables
280
     0
  1
0
  0
DICTIONARYVAR
  5
19A5
102
{ACAD_REACTORS
330
199F
102
}
330
199F
100
DictionaryVariables
280
     0
  1
127
  0
DICTIONARY
  5
191A
330
1919
100
AcDbDictionary
280
     1
281
     1
  3
BUMPTILE
360
191C
  3
DIFFUSETILE
360
191B
  3
OPACITYTILE
360
191F
  3
REFLECTIONTILE
360
191E
  3
REFRACTIONTILE
360
1920
  3
SPECULARTILE
360
191D
  0
DICTIONARY
  5
1912
330
1911
100
AcDbDictionary
280
     1
281
     1
  3
BUMPTILE
360
1914
  3
DIFFUSETILE
360
1913
  3
OPACITYTILE
360
1917
  3
REFLECTIONTILE
360
1916
  3
REFRACTIONTILE
360
1918
  3
SPECULARTILE
360
1915
  0
DICTIONARY
  5
1922
330
1921
100
AcDbDictionary
280
     1
281
     1
  3
BUMPTILE
360
1924
  3
DIFFUSETILE
360
1923
  3
OPACITYTILE
360
1927
  3
REFLECTIONTILE
360
1926
  3
REFRACTIONTILE
360
1928
  3
SPECULARTILE
360
1925
  0
DICTIONARY
  5
195D
330
1944
100
AcDbDictionary
280
     1
281
     1
  3
ACAD_ROUNDTRIP_2008_TABLESTYLE_CELLSTYLEMAP
360
1A01
  0
XRECORD
  5
191C
102
{ACAD_REACTORS
330
191A
102
}
330
191A
100
AcDbXrecord
280
     1
270
     1
271
     1
  0
XRECORD
  5
191B
102
{ACAD_REACTORS
330
191A
102
}
330
191A
100
AcDbXrecord
280
     1
270
     1
271
     1
  0
XRECORD
  5
191F
102
{ACAD_REACTORS
330
191A
102
}
330
191A
100
AcDbXrecord
280
     1
270
     1
271
     1
  0
XRECORD
  5
191E
102
{ACAD_REACTORS
330
191A
102
}
330
191A
100
AcDbXrecord
280
     1
270
     1
271
     1
  0
XRECORD
  5
1920
102
{ACAD_REACTORS
330
191A
102
}
330
191A
100
AcDbXrecord
280
     1
270
     1
271
     1
  0
XRECORD
  5
191D
102
{ACAD_REACTORS
330
191A
102
}
330
191A
100
AcDbXrecord
280
     1
270
     1
271
     1
  0
XRECORD
  5
1914
102
{ACAD_REACTORS
330
1912
102
}
330
1912
100
AcDbXrecord
280
     1
270
     1
271
     1
  0
XRECORD
  5
1913
102
{ACAD_REACTORS
330
1912
102
}
330
1912
100
AcDbXrecord
280
     1
270
     1
271
     1
  0
XRECORD
  5
1917
102
{ACAD_REACTORS
330
1912
102
}
330
1912
100
AcDbXrecord
280
     1
270
     1
271
     1
  0
XRECORD
  5
1916
102
{ACAD_REACTORS
330
1912
102
}
330
1912
100
AcDbXrecord
280
     1
270
     1
271
     1
  0
XRECORD
  5
1918
102
{ACAD_REACTORS
330
1912
102
}
330
1912
100
AcDbXrecord
280
     1
270
     1
271
     1
  0
XRECORD
  5
1915
102
{ACAD_REACTORS
330
1912
102
}
330
1912
100
AcDbXrecord
280
     1
270
     1
271
     1
  0
XRECORD
  5
1924
102
{ACAD_REACTORS
330
1922
102
}
330
1922
100
AcDbXrecord
280
     1
270
     1
271
     1
  0
XRECORD
  5
1923
102
{ACAD_REACTORS
330
1922
102
}
330
1922
100
AcDbXrecord
280
     1
270
     1
271
     1
  0
XRECORD
  5
1927
102
{ACAD_REACTORS
330
1922
102
}
330
1922
100
AcDbXrecord
280
     1
270
     1
271
     1
  0
XRECORD
  5
1926
102
{ACAD_REACTORS
330
1922
102
}
330
1922
100
AcDbXrecord
280
     1
270
     1
271
     1
  0
XRECORD
  5
1928
102
{ACAD_REACTORS
330
1922
102
}
330
1922
100
AcDbXrecord
280
     1
270
     1
271
     1
  0
XRECORD
  5
1925
102
{ACAD_REACTORS
330
1922
102
}
330
1922
100
AcDbXrecord
280
     1
270
     1
271
     1
  0
CELLSTYLEMAP
  5
1A01
102
{ACAD_REACTORS
330
195D
102
}
330
195D
100
AcDbCellStyleMap
 90
        3
300
CELLSTYLE
  1
TABLEFORMAT_BEGIN
 90
        5
170
     1
 91
        0
 92
    32768
 62
   257
 93
        1
300
CONTENTFORMAT
  1
CONTENTFORMAT_BEGIN
 90
        0
 91
        0
 92
      512
 93
        0
300

 40
0.0
140
1.0
 94
        5
 62
     0
340
11
144
0.25
309
CONTENTFORMAT_END
171
     0
 94
        0
309
TABLEFORMAT_END
  1
CELLSTYLE_BEGIN
 90
        1
 91
        1
300
_TITLE
309
CELLSTYLE_END
300
CELLSTYLE
  1
TABLEFORMAT_BEGIN
 90
        5
170
     1
 91
        0
 92
        0
 62
   257
 93
        1
300
CONTENTFORMAT
  1
CONTENTFORMAT_BEGIN
 90
        0
 91
        0
 92
      512
 93
        0
300

 40
0.0
140
1.0
 94
        5
 62
     0
340
11
144
0.18
309
CONTENTFORMAT_END
171
     0
 94
        0
309
TABLEFORMAT_END
  1
CELLSTYLE_BEGIN
 90
        2
 91
        1
300
_HEADER
309
CELLSTYLE_END
300
CELLSTYLE
  1
TABLEFORMAT_BEGIN
 90
        5
170
     1
 91
        0
 92
        0
 62
   257
 93
        1
300
CONTENTFORMAT
  1
CONTENTFORMAT_BEGIN
 90
        0
 91
        0
 92
      512
 93
        0
300

 40
0.0
140
1.0
 94
        2
 62
     0
340
11
144
0.18
309
CONTENTFORMAT_END
171
     0
 94
        0
309
TABLEFORMAT_END
  1
CELLSTYLE_BEGIN
 90
        3
 91
        2
300
_DATA
309
CELLSTYLE_END
  0
ENDSEC
  0
SECTION
  2
ACDSDATA
 70
     2
 71
     8
  0
ACDSSCHEMA
 90
        0
  1
AcDb_Thumbnail_Schema
  2
AcDbDs::ID
280
    10
 91
        8
  2
Thumbnail_Data
280
    15
 91
        0
101
ACDSRECORD
 95
        0
 90
        1
  2
AcDbDs::TreatedAsObjectData
280
     1
291
     1
101
ACDSRECORD
 95
        0
 90
        2
  2
AcDbDs::Legacy
280
     1
291
     1
101
ACDSRECORD
  1
AcDbDs::ID
 90
        3
  2
AcDs:Indexable
280
     1
291
     1
101
ACDSRECORD
  1
AcDbDs::ID
 90
        4
  2
AcDbDs::HandleAttribute
280
     7
282
     1
  0
ACDSSCHEMA
 90
        1
  1
AcDbDs::TreatedAsObjectDataSchema
  2
AcDbDs::TreatedAsObjectData
280
     1
 91
        0
  0
ACDSSCHEMA
 90
        2
  1
AcDbDs::LegacySchema
  2
AcDbDs::Legacy
280
     1
 91
        0
  0
ACDSSCHEMA
 90
        3
  1
AcDbDs::IndexedPropertySchema
  2
AcDs:Indexable
280
     1
 91
        0
  0
ACDSSCHEMA
 90
        4
  1
AcDbDs::HandleAttributeSchema
  2
AcDbDs::HandleAttribute
280
     7
 91
        1
284
     1
  0
ACDSRECORD
 90
        0
  2
AcDbDs::ID
280
    10
320
190C
  2
Thumbnail_Data
280
    15
 94
     1099
310
89504E470D0A1A0A0000000D4948445200000100000000730803000000406D2C8F00000300504C5445212830FFFFFF2128300000000000000000000000000000000000000000000000000000330000660000990000CC0000FF0033000033330033660033990033CC0033FF0066000066330066660066990066CC0066FF0099
310
000099330099660099990099CC0099FF00CC0000CC3300CC6600CC9900CCCC00CCFF00FF0000FF3300FF6600FF9900FFCC00FFFF3300003300333300663300993300CC3300FF3333003333333333663333993333CC3333FF3366003366333366663366993366CC3366FF3399003399333399663399993399CC3399FF33CC00
310
33CC3333CC6633CC9933CCCC33CCFF33FF0033FF3333FF6633FF9933FFCC33FFFF6600006600336600666600996600CC6600FF6633006633336633666633996633CC6633FF6666006666336666666666996666CC6666FF6699006699336699666699996699CC6699FF66CC0066CC3366CC6666CC9966CCCC66CCFF66FF0066
310
FF3366FF6666FF9966FFCC66FFFF9900009900339900669900999900CC9900FF9933009933339933669933999933CC9933FF9966009966339966669966999966CC9966FF9999009999339999669999999999CC9999FF99CC0099CC3399CC6699CC9999CCCC99CCFF99FF0099FF3399FF6699FF9999FFCC99FFFFCC0000CC00
310
33CC0066CC0099CC00CCCC00FFCC3300CC3333CC3366CC3399CC33CCCC33FFCC6600CC6633CC6666CC6699CC66CCCC66FFCC9900CC9933CC9966CC9999CC99CCCC99FFCCCC00CCCC33CCCC66CCCC99CCCCCCCCCCFFCCFF00CCFF33CCFF66CCFF99CCFFCCCCFFFFFF0000FF0033FF0066FF0099FF00CCFF00FFFF3300FF3333
310
FF3366FF3399FF33CCFF33FFFF6600FF6633FF6666FF6699FF66CCFF66FFFF9900FF9933FF9966FF9999FF99CCFF99FFFFCC00FFCC33FFCC66FFCC99FFCCCCFFCCFFFFFF00FFFF33FFFF66FFFF99FFFFCCFFFFFF0000000D0D0D1A1A1A2828283535354343435050505D5D5D6B6B6B787878868686939393A1A1A1AEAEAEBB
310
BBBBC9C9C9D6D6D6E4E4E4F1F1F1FFFFFF0000000000000000000000000000000000000000000000000000000000002E4550F1000001064944415478DAEDDA316EC3300C0550DDFFAC1CBC70AFA3A2010AC485A50619C8F79618413CF09BA432780C0000000000000000E03F32E398F2A6EF5F47669500C688F5BB62DED837
310
808CB373B24C001B0DF008E038BAB6C0F9F0636E83BE3350A9FEBD00469D25380B0901F4AD5F001B95140C203E915B9919888201349E80CD19E81C4008A062004307B4AD7F3581AA01E880B6A7E06200210001145D822180AE87C0523D151B60E31CAC19C09D04A27407C48D01281CC08D1E88D223F0620FE445FD8503387B
310
7C9A1FE7F7F1F4B8AC1FC0AF751791B3F02EA7C08B859F579BB15A0057056593BF01CB15094000E50278BE04F8F72B823F170300000000000000000078832F0DDD1E36813408D00000000049454E44AE426082
  0
ENDSEC
  0
EOF
