  0
SECTION
  2
HEADER
  9
$ACADVER
  1
AC1015
  9
$ACADMAINTVER
 70
    20
  9
$DWGCODEPAGE
  3
ANSI_1252
  9
$INSBASE
 10
0.0
 20
0.0
 30
0.0
  9
$EXTMIN
 10
98.81612846320001
 20
22.1188668003
 30
0.0
  9
$EXTMAX
 10
128.798962465
 20
43.11886680029999
 30
0.0
  9
$LIMMIN
 10
0.0
 20
0.0
  9
$LIMMAX
 10
181.3333333333
 20
117.3333333333
  9
$ORTHOMODE
 70
     0
  9
$REGENMODE
 70
     1
  9
$FILLMODE
 70
     1
  9
$QTEXTMODE
 70
     0
  9
$MIRRTEXT
 70
     0
  9
$LTSCALE
 40
9.973333333300001
  9
$ATTMODE
 70
     1
  9
$TEXTSIZE
 40
0.2
  9
$TRACEWID
 40
0.05
  9
$TEXTSTYLE
  7
STANDARD
  9
$CLAYER
  8
0
  9
$CELTYPE
  6
BYLAYER
  9
$CECOLOR
 62
   256
  9
$CELTSCALE
 40
1.0
  9
$DISPSILH
 70
     0
  9
$DIMSCALE
 40
1.0
  9
$DIMASZ
 40
2.0
  9
$DIMEXO
 40
0.0625
  9
$DIMDLI
 40
6.890666666699999
  9
$DIMRND
 40
0.0
  9
$DIMDLE
 40
0.0
  9
$DIMEXE
 40
0.125
  9
$DIMTP
 40
0.001
  9
$DIMTM
 40
0.001
  9
$DIMTXT
 40
1.333333333299999
  9
$DIMCEN
 40
1.631999999999999
  9
$DIMTSZ
 40
0.0
  9
$DIMTOL
 70
     1
  9
$DIMLIM
 70
     0
  9
$DIMTIH
 70
     1
  9
$DIMTOH
 70
     1
  9
$DIMSE1
 70
     0
  9
$DIMSE2
 70
     0
  9
$DIMTAD
 70
     0
  9
$DIMZIN
 70
     0
  9
$DIMBLK
  1
_FILLED
  9
$DIMASO
 70
     1
  9
$DIMSHO
 70
     1
  9
$DIMPOST
  1

  9
$DIMAPOST
  1

  9
$DIMALT
 70
     1
  9
$DIMALTD
 70
     2
  9
$DIMALTF
 40
25.4
  9
$DIMLFAC
 40
1.0
  9
$DIMTOFL
 70
     0
  9
$DIMTVP
 40
0.0
  9
$DIMTIX
 70
     0
  9
$DIMSOXD
 70
     0
  9
$DIMSAH
 70
     0
  9
$DIMBLK1
  1

  9
$DIMBLK2
  1

  9
$DIMSTYLE
  2
STANDARD
  9
$DIMCLRD
 70
     0
  9
$DIMCLRE
 70
     0
  9
$DIMCLRT
 70
     0
  9
$DIMTFAC
 40
1.0
  9
$DIMGAP
 40
0.09
  9
$DIMJUST
 70
     0
  9
$DIMSD1
 70
     0
  9
$DIMSD2
 70
     0
  9
$DIMTOLJ
 70
     1
  9
$DIMTZIN
 70
     0
  9
$DIMALTZ
 70
     0
  9
$DIMALTTZ
 70
     0
  9
$DIMUPT
 70
     0
  9
$DIMDEC
 70
     4
  9
$DIMTDEC
 70
     4
  9
$DIMALTU
 70
     2
  9
$DIMALTTD
 70
     2
  9
$DIMTXSTY
  7
STANDARD
  9
$DIMAUNIT
 70
     0
  9
$DIMADEC
 70
     0
  9
$DIMALTRND
 40
0.0
  9
$DIMAZIN
 70
     0
  9
$DIMDSEP
 70
    46
  9
$DIMATFIT
 70
     3
  9
$DIMFRAC
 70
     0
  9
$DIMLDRBLK
  1

  9
$DIMLUNIT
 70
     2
  9
$DIMLWD
 70
    -2
  9
$DIMLWE
 70
    -2
  9
$DIMTMOVE
 70
     0
  9
$LUNITS
 70
     2
  9
$LUPREC
 70
     4
  9
$SKETCHINC
 40
0.1
  9
$FILLETRAD
 40
0.0
  9
$AUNITS
 70
     0
  9
$AUPREC
 70
     0
  9
$MENU
  1
.
  9
$ELEVATION
 40
0.0
  9
$PELEVATION
 40
0.0
  9
$THICKNESS
 40
0.0
  9
$LIMCHECK
 70
     0
  9
$CHAMFERA
 40
0.0
  9
$CHAMFERB
 40
0.0
  9
$CHAMFERC
 40
0.0
  9
$CHAMFERD
 40
0.0
  9
$SKPOLY
 70
     0
  9
$TDCREATE
 40
2458436.413784723
  9
$TDUCREATE
 40
2458436.622118056
  9
$TDUPDATE
 40
2458465.479004630
  9
$TDUUPDATE
 40
2458465.687337963
  9
$TDINDWG
 40
0.0015740741
  9
$TDUSRTIMER
 40
0.0015740741
  9
$USRTIMER
 70
     1
  9
$ANGBASE
 50
0.0
  9
$ANGDIR
 70
     0
  9
$PDMODE
 70
     3
  9
$PDSIZE
 40
0.03125
  9
$PLINEWID
 40
0.0
  9
$SPLFRAME
 70
     0
  9
$SPLINETYPE
 70
     6
  9
$SPLINESEGS
 70
     8
  9
$HANDSEED
  5
290E
  9
$SURFTAB1
 70
     6
  9
$SURFTAB2
 70
     6
  9
$SURFTYPE
 70
     6
  9
$SURFU
 70
     6
  9
$SURFV
 70
     6
  9
$UCSBASE
  2

  9
$UCSNAME
  2

  9
$UCSORG
 10
0.0
 20
0.0
 30
0.0
  9
$UCSXDIR
 10
1.0
 20
0.0
 30
0.0
  9
$UCSYDIR
 10
0.0
 20
1.0
 30
0.0
  9
$UCSORTHOREF
  2

  9
$UCSORTHOVIEW
 70
     0
  9
$UCSORGTOP
 10
0.0
 20
0.0
 30
0.0
  9
$UCSORGBOTTOM
 10
0.0
 20
0.0
 30
0.0
  9
$UCSORGLEFT
 10
0.0
 20
0.0
 30
0.0
  9
$UCSORGRIGHT
 10
0.0
 20
0.0
 30
0.0
  9
$UCSORGFRONT
 10
0.0
 20
0.0
 30
0.0
  9
$UCSORGBACK
 10
0.0
 20
0.0
 30
0.0
  9
$PUCSBASE
  2

  9
$PUCSNAME
  2

  9
$PUCSORG
 10
0.0
 20
0.0
 30
0.0
  9
$PUCSXDIR
 10
1.0
 20
0.0
 30
0.0
  9
$PUCSYDIR
 10
0.0
 20
1.0
 30
0.0
  9
$PUCSORTHOREF
  2

  9
$PUCSORTHOVIEW
 70
     0
  9
$PUCSORGTOP
 10
0.0
 20
0.0
 30
0.0
  9
$PUCSORGBOTTOM
 10
0.0
 20
0.0
 30
0.0
  9
$PUCSORGLEFT
 10
0.0
 20
0.0
 30
0.0
  9
$PUCSORGRIGHT
 10
0.0
 20
0.0
 30
0.0
  9
$PUCSORGFRONT
 10
0.0
 20
0.0
 30
0.0
  9
$PUCSORGBACK
 10
0.0
 20
0.0
 30
0.0
  9
$USERI1
 70
     0
  9
$USERI2
 70
     0
  9
$USERI3
 70
     0
  9
$USERI4
 70
     0
  9
$USERI5
 70
     0
  9
$USERR1
 40
0.0
  9
$USERR2
 40
0.0
  9
$USERR3
 40
0.0
  9
$USERR4
 40
0.0
  9
$USERR5
 40
0.0
  9
$WORLDVIEW
 70
     1
  9
$SHADEDGE
 70
     3
  9
$SHADEDIF
 70
    70
  9
$TILEMODE
 70
     1
  9
$MAXACTVP
 70
    64
  9
$PINSBASE
 10
0.0
 20
0.0
 30
0.0
  9
$PLIMCHECK
 70
     0
  9
$PEXTMIN
 10
1.000000000000000E+20
 20
1.000000000000000E+20
 30
1.000000000000000E+20
  9
$PEXTMAX
 10
-1.000000000000000E+20
 20
-1.000000000000000E+20
 30
-1.000000000000000E+20
  9
$PLIMMIN
 10
0.0
 20
0.0
  9
$PLIMMAX
 10
12.0
 20
9.0
  9
$UNITMODE
 70
     0
  9
$VISRETAIN
 70
     1
  9
$PLINEGEN
 70
     0
  9
$PSLTSCALE
 70
     1
  9
$TREEDEPTH
 70
  3020
  9
$CMLSTYLE
  2
Standard
  9
$CMLJUST
 70
     0
  9
$CMLSCALE
 40
1.0
  9
$PROXYGRAPHICS
 70
     1
  9
$MEASUREMENT
 70
     0
  9
$CELWEIGHT
370
    -1
  9
$ENDCAPS
280
     0
  9
$JOINSTYLE
280
     0
  9
$LWDISPLAY
290
     0
  9
$INSUNITS
 70
     1
  9
$HYPERLINKBASE
  1

  9
$STYLESHEET
  1

  9
$XEDIT
290
     1
  9
$CEPSNTYPE
380
     0
  9
$PSTYLEMODE
290
     1
  9
$FINGERPRINTGUID
  2
{B1CCD70D-0327-FA4F-A383-1C481C9F713C}
  9
$VERSIONGUID
  2
{7D732051-8805-0049-9576-327A496C226B}
  9
$EXTNAMES
290
     1
  9
$PSVPSCALE
 40
0.0
  9
$OLESTARTUP
290
     0
  0
ENDSEC
  0
SECTION
  2
CLASSES
  0
CLASS
  1
ACDBDICTIONARYWDFLT
  2
AcDbDictionaryWithDefault
  3
ObjectDBX Classes
 90
        0
280
     0
281
     0
  0
CLASS
  1
ACDBPLACEHOLDER
  2
AcDbPlaceHolder
  3
ObjectDBX Classes
 90
        0
280
     0
281
     0
  0
CLASS
  1
LAYOUT
  2
AcDbLayout
  3
ObjectDBX Classes
 90
        0
280
     0
281
     0
  0
CLASS
  1
RASTERVARIABLES
  2
AcDbRasterVariables
  3
ISM
 90
        0
280
     0
281
     0
  0
CLASS
  1
IMAGEDEF
  2
AcDbRasterImageDef
  3
ISM
 90
        0
280
     0
281
     0
  0
CLASS
  1
IMAGEDEF_REACTOR
  2
AcDbRasterImageDefReactor
  3
ISM
 90
    32769
280
     0
281
     0
  0
CLASS
  1
IMAGE
  2
AcDbRasterImage
  3
ISM
 90
    34943
280
     0
281
     1
  0
CLASS
  1
MATERIAL
  2
AcDbMaterial
  3
ObjectDBX Classes
 90
     1153
280
     0
281
     0
  0
CLASS
  1
VISUALSTYLE
  2
AcDbVisualStyle
  3
ObjectDBX Classes
 90
     4095
280
     0
281
     0
  0
CLASS
  1
TABLESTYLE
  2
AcDbTableStyle
  3
ObjectDBX Classes
 90
     4095
280
     0
281
     0
  0
CLASS
  1
SCALE
  2
AcDbScale
  3
ObjectDBX Classes
 90
     1153
280
     0
281
     0
  0
CLASS
  1
MLEADERSTYLE
  2
AcDbMLeaderStyle
  3
ACDB_MLEADERSTYLE_CLASS
 90
     4095
280
     0
281
     0
  0
CLASS
  1
ACDBSECTIONVIEWSTYLE
  2
AcDbSectionViewStyle
  3
ObjectDBX Classes
 90
     1025
280
     0
281
     0
  0
CLASS
  1
ACDBDETAILVIEWSTYLE
  2
AcDbDetailViewStyle
  3
ObjectDBX Classes
 90
     1025
280
     0
281
     0
  0
CLASS
  1
CELLSTYLEMAP
  2
AcDbCellStyleMap
  3
ObjectDBX Classes
 90
     1152
280
     0
281
     0
  0
CLASS
  1
DICTIONARYVAR
  2
AcDbDictionaryVar
  3
ObjectDBX Classes
 90
        0
280
     0
281
     0
  0
CLASS
  1
EXACXREFPANELOBJECT
  2
ExAcXREFPanelObject
  3
EXAC_ESW
 90
     1025
280
     0
281
     0
  0
CLASS
  1
NPOCOLLECTION
  2
AcDbImpNonPersistentObjectsCollection
  3
ObjectDBX Classes
 90
     1153
280
     0
281
     0
  0
ENDSEC
  0
SECTION
  2
TABLES
  0
TABLE
  2
VPORT
  5
8
102
{ACAD_XDICTIONARY
360
26F1
102
}
330
0
100
AcDbSymbolTable
 70
     1
  0
VPORT
  5
1F4
330
8
100
AcDbSymbolTableRecord
100
AcDbViewportTableRecord
  2
*ACTIVE
 70
     0
 10
0.0
 20
0.0
 11
1.0
 21
1.0
 12
113.8120121678734
 22
32.62133813348297
 13
0.0
 23
0.0
 14
1.0
 24
1.0
 15
0.0
 25
0.0
 16
0.0
 26
0.0
 36
1.0
 17
0.0
 27
0.0
 37
0.0
 40
21.14151446287852
 41
2.005224660397074
 42
50.0
 43
0.0
 44
0.0
 50
0.0
 51
0.0
 71
     0
 72
   100
 73
     1
 74
     1
 75
     0
 76
     0
 77
     0
 78
     0
281
     0
 65
     1
110
0.0
120
0.0
130
0.0
111
1.0
121
0.0
131
0.0
112
0.0
122
1.0
132
0.0
 79
     0
146
0.0
1001
ACAD_NAV_VCDISPLAY
1070
     3
  0
ENDTAB
  0
TABLE
  2
LTYPE
  5
5
330
0
100
AcDbSymbolTable
 70
     6
  0
LTYPE
  5
14
330
5
100
AcDbSymbolTableRecord
100
AcDbLinetypeTableRecord
  2
BYBLOCK
 70
     0
  3

 72
    65
 73
     0
 40
0.0
  0
LTYPE
  5
15
330
5
100
AcDbSymbolTableRecord
100
AcDbLinetypeTableRecord
  2
BYLAYER
 70
     0
  3

 72
    65
 73
     0
 40
0.0
  0
LTYPE
  5
16
330
5
100
AcDbSymbolTableRecord
100
AcDbLinetypeTableRecord
  2
CONTINUOUS
 70
     0
  3
Solid line
 72
    65
 73
     0
 40
0.0
  0
LTYPE
  5
1F5
330
5
100
AcDbSymbolTableRecord
100
AcDbLinetypeTableRecord
  2
CENTER
 70
     0
  3
____ _ ____ _ ____ _ ____ _ ____ _ ____ _ ____
 72
    65
 73
     4
 40
0.6
 49
0.375
 74
     0
 49
-0.075
 74
     0
 49
0.075
 74
     0
 49
-0.075
 74
     0
  0
LTYPE
  5
1F6
330
5
100
AcDbSymbolTableRecord
100
AcDbLinetypeTableRecord
  2
HIDDEN
 70
     0
  3
- - - - - - - - - - - - - - - - - - - -
 72
    65
 73
     2
 40
0.2
 49
0.1
 74
     0
 49
-0.1
 74
     0
  0
LTYPE
  5
1F7
330
5
100
AcDbSymbolTableRecord
100
AcDbLinetypeTableRecord
  2
PHANTOM
 70
     0
  3
_____ _ _ _____ _ _ _____ _ _ _____
 72
    65
 73
     6
 40
0.8
 49
0.45
 74
     0
 49
-0.05
 74
     0
 49
0.1
 74
     0
 49
-0.05
 74
     0
 49
0.1
 74
     0
 49
-0.05
 74
     0
  0
LTYPE
  5
1F8
330
5
100
AcDbSymbolTableRecord
100
AcDbLinetypeTableRecord
  2
DOT
 70
     0
  3
. . . . . . . . . . . . . . . . . . . .
 72
    65
 73
     2
 40
0.2
 49
0.1
 74
     0
 49
-0.1
 74
     0
  0
LTYPE
  5
1F9
330
5
100
AcDbSymbolTableRecord
100
AcDbLinetypeTableRecord
  2
DASHED
 70
     0
  3
- - - - - - - - - - - - - - - - - - - -
 72
    65
 73
     2
 40
0.2
 49
0.1
 74
     0
 49
-0.1
 74
     0
  0
ENDTAB
  0
TABLE
  2
LAYER
  5
2
330
0
100
AcDbSymbolTable
 70
    34
  0
LAYER
  5
10
102
{ACAD_XDICTIONARY
360
273F
102
}
330
2
100
AcDbSymbolTableRecord
100
AcDbLayerTableRecord
  2
0
 70
     0
 62
     7
  6
CONTINUOUS
370
    -3
390
F
  0
LAYER
  5
1FA
102
{ACAD_XDICTIONARY
360
2741
102
}
330
2
100
AcDbSymbolTableRecord
100
AcDbLayerTableRecord
  2
DEFAULT_1
 70
     0
 62
     7
  6
CENTER
370
    -3
390
F
  0
LAYER
  5
1FB
102
{ACAD_XDICTIONARY
360
2743
102
}
330
2
100
AcDbSymbolTableRecord
100
AcDbLayerTableRecord
  2
DEFAULT_2
 70
     0
 62
     8
  6
HIDDEN
370
    -3
390
F
  0
LAYER
  5
1FC
102
{ACAD_XDICTIONARY
360
2745
102
}
330
2
100
AcDbSymbolTableRecord
100
AcDbLayerTableRecord
  2
DEFAULT_3
 70
     0
 62
     7
  6
PHANTOM
370
    -3
390
F
  0
LAYER
  5
1FD
102
{ACAD_XDICTIONARY
360
2747
102
}
330
2
100
AcDbSymbolTableRecord
100
AcDbLayerTableRecord
  2
0_DEFAULT
 70
     0
 62
     7
  6
CONTINUOUS
370
    -3
390
F
  0
LAYER
  5
1FE
102
{ACAD_XDICTIONARY
360
2749
102
}
330
2
100
AcDbSymbolTableRecord
100
AcDbLayerTableRecord
  2
1_CURVES
 70
     0
 62
     7
  6
CONTINUOUS
370
    -3
390
F
  0
LAYER
  5
1FF
102
{ACAD_XDICTIONARY
360
274B
102
}
330
2
100
AcDbSymbolTableRecord
100
AcDbLayerTableRecord
  2
1_CURVES_CHROMO_INV
 70
     0
 62
     7
  6
CONTINUOUS
370
    -3
390
F
  0
LAYER
  5
200
102
{ACAD_XDICTIONARY
360
274D
102
}
330
2
100
AcDbSymbolTableRecord
100
AcDbLayerTableRecord
  2
1_CURVES_DOT
 70
     0
 62
     7
  6
CONTINUOUS
370
    -3
390
F
  0
LAYER
  5
201
102
{ACAD_XDICTIONARY
360
274F
102
}
330
2
100
AcDbSymbolTableRecord
100
AcDbLayerTableRecord
  2
1_CURVES_JETS
 70
     0
 62
     7
  6
CONTINUOUS
370
    -3
390
F
  0
LAYER
  5
202
102
{ACAD_XDICTIONARY
360
2751
102
}
330
2
100
AcDbSymbolTableRecord
100
AcDbLayerTableRecord
  2
1_CURVES_SPEC_FRONT
 70
     0
 62
     7
  6
CONTINUOUS
370
    -3
390
F
  0
LAYER
  5
203
102
{ACAD_XDICTIONARY
360
2753
102
}
330
2
100
AcDbSymbolTableRecord
100
AcDbLayerTableRecord
  2
1_CURVES_SPEC_RIGHT
 70
     0
 62
     7
  6
CONTINUOUS
370
    -3
390
F
  0
LAYER
  5
204
102
{ACAD_XDICTIONARY
360
2755
102
}
330
2
100
AcDbSymbolTableRecord
100
AcDbLayerTableRecord
  2
2_PLANES
 70
     0
 62
     7
  6
CONTINUOUS
370
    -3
390
F
  0
LAYER
  5
205
102
{ACAD_XDICTIONARY
360
2757
102
}
330
2
100
AcDbSymbolTableRecord
100
AcDbLayerTableRecord
  2
2_PLANES_CHROMO_INV
 70
     0
 62
     7
  6
CONTINUOUS
370
    -3
390
F
  0
LAYER
  5
206
102
{ACAD_XDICTIONARY
360
2759
102
}
330
2
100
AcDbSymbolTableRecord
100
AcDbLayerTableRecord
  2
2_PLANES_JETS
 70
     0
 62
     7
  6
CONTINUOUS
370
    -3
390
F
  0
LAYER
  5
207
102
{ACAD_XDICTIONARY
360
275B
102
}
330
2
100
AcDbSymbolTableRecord
100
AcDbLayerTableRecord
  2
3_POINTS
 70
     0
 62
     7
  6
CONTINUOUS
370
    -3
390
F
  0
LAYER
  5
208
102
{ACAD_XDICTIONARY
360
275D
102
}
330
2
100
AcDbSymbolTableRecord
100
AcDbLayerTableRecord
  2
3_POINTS_JETS
 70
     0
 62
     7
  6
CONTINUOUS
370
    -3
390
F
  0
LAYER
  5
209
102
{ACAD_XDICTIONARY
360
275F
102
}
330
2
100
AcDbSymbolTableRecord
100
AcDbLayerTableRecord
  2
3_POINTS_SPEC
 70
     0
 62
     7
  6
CONTINUOUS
370
    -3
390
F
  0
LAYER
  5
20A
102
{ACAD_XDICTIONARY
360
2761
102
}
330
2
100
AcDbSymbolTableRecord
100
AcDbLayerTableRecord
  2
4_CSYS
 70
     0
 62
     7
  6
CONTINUOUS
370
    -3
390
F
  0
LAYER
  5
20B
102
{ACAD_XDICTIONARY
360
2763
102
}
330
2
100
AcDbSymbolTableRecord
100
AcDbLayerTableRecord
  2
5_AXIS
 70
     0
 62
     7
  6
CONTINUOUS
370
    -3
390
F
  0
LAYER
  5
20C
102
{ACAD_XDICTIONARY
360
2765
102
}
330
2
100
AcDbSymbolTableRecord
100
AcDbLayerTableRecord
  2
5_AXIS_CHROMO_INV
 70
     0
 62
     7
  6
CONTINUOUS
370
    -3
390
F
  0
LAYER
  5
20D
102
{ACAD_XDICTIONARY
360
2767
102
}
330
2
100
AcDbSymbolTableRecord
100
AcDbLayerTableRecord
  2
5_AXIS_JETS
 70
     0
 62
     7
  6
CONTINUOUS
370
    -3
390
F
  0
LAYER
  5
20E
102
{ACAD_XDICTIONARY
360
2769
102
}
330
2
100
AcDbSymbolTableRecord
100
AcDbLayerTableRecord
  2
6_SURFACES
 70
     0
 62
     7
  6
CONTINUOUS
370
    -3
390
F
  0
LAYER
  5
20F
102
{ACAD_XDICTIONARY
360
276B
102
}
330
2
100
AcDbSymbolTableRecord
100
AcDbLayerTableRecord
  2
6_SURFACES_CHROMO_INV
 70
     0
 62
     7
  6
CONTINUOUS
370
    -3
390
F
  0
LAYER
  5
210
102
{ACAD_XDICTIONARY
360
276D
102
}
330
2
100
AcDbSymbolTableRecord
100
AcDbLayerTableRecord
  2
6_SURFACES_JUPE_C
 70
     0
 62
     7
  6
CONTINUOUS
370
    -3
390
F
  0
LAYER
  5
211
102
{ACAD_XDICTIONARY
360
276F
102
}
330
2
100
AcDbSymbolTableRecord
100
AcDbLayerTableRecord
  2
6_SURFACES_JUPE_F
 70
     0
 62
     7
  6
CONTINUOUS
370
    -3
390
F
  0
LAYER
  5
212
102
{ACAD_XDICTIONARY
360
2771
102
}
330
2
100
AcDbSymbolTableRecord
100
AcDbLayerTableRecord
  2
6_SURFACES_OFFSET_FIBRE_ACRYLIQ
 70
     0
 62
     7
  6
CONTINUOUS
370
    -3
390
F
  0
LAYER
  5
213
102
{ACAD_XDICTIONARY
360
2773
102
}
330
2
100
AcDbSymbolTableRecord
100
AcDbLayerTableRecord
  2
6_SURFACES_TOOLING
 70
     0
 62
     7
  6
CONTINUOUS
370
    -3
390
F
  0
LAYER
  5
214
102
{ACAD_XDICTIONARY
360
2775
102
}
330
2
100
AcDbSymbolTableRecord
100
AcDbLayerTableRecord
  2
6_SURFACES_TOOLING_BRIDE
 70
     0
 62
     7
  6
CONTINUOUS
370
    -3
390
F
  0
LAYER
  5
215
102
{ACAD_XDICTIONARY
360
2777
102
}
330
2
100
AcDbSymbolTableRecord
100
AcDbLayerTableRecord
  2
6_SURFACES_TOOLING_DROP-IN
 70
     0
 62
     7
  6
CONTINUOUS
370
    -3
390
F
  0
LAYER
  5
216
102
{ACAD_XDICTIONARY
360
2779
102
}
330
2
100
AcDbSymbolTableRecord
100
AcDbLayerTableRecord
  2
6_SURFACES_TOOLING_FS_C-INT
 70
     0
 62
     7
  6
CONTINUOUS
370
    -3
390
F
  0
LAYER
  5
217
102
{ACAD_XDICTIONARY
360
277B
102
}
330
2
100
AcDbSymbolTableRecord
100
AcDbLayerTableRecord
  2
6_SURFACES_TOOLING_FS_F
 70
     0
 62
     7
  6
CONTINUOUS
370
    -3
390
F
  0
LAYER
  5
218
102
{ACAD_XDICTIONARY
360
277D
102
}
330
2
100
AcDbSymbolTableRecord
100
AcDbLayerTableRecord
  2
7_NOTES
 70
     0
 62
     7
  6
CONTINUOUS
370
    -3
390
F
  0
LAYER
  5
219
102
{ACAD_XDICTIONARY
360
277F
102
}
330
2
100
AcDbSymbolTableRecord
100
AcDbLayerTableRecord
  2
DEGAGEMENT_SERIGRAPHIE
 70
     0
 62
     7
  6
CONTINUOUS
370
    -3
390
F
  0
LAYER
  5
21A
102
{ACAD_XDICTIONARY
360
2781
102
}
330
2
100
AcDbSymbolTableRecord
100
AcDbLayerTableRecord
  2
XSEC_DATUMS
 70
     0
 62
     7
  6
CONTINUOUS
370
    -3
390
F
  0
ENDTAB
  0
TABLE
  2
STYLE
  5
3
330
0
100
AcDbSymbolTable
 70
     7
  0
STYLE
  5
11
330
3
100
AcDbSymbolTableRecord
100
AcDbTextStyleTableRecord
  2
STANDARD
 70
     0
 40
0.0
 41
1.0
 50
0.0
 71
     0
 42
0.2
  3
trium.ttf
  4

  0
STYLE
  5
21B
330
3
100
AcDbSymbolTableRecord
100
AcDbTextStyleTableRecord
  2
TEXTSTYLE_1
 70
     0
 40
0.0
 41
0.8
 50
0.0
 71
     0
 42
0.2
  3
gdt
  4

  0
STYLE
  5
21C
330
3
100
AcDbSymbolTableRecord
100
AcDbTextStyleTableRecord
  2
TEXTSTYLE_2
 70
     0
 40
0.0
 41
1.0
 50
0.0
 71
     0
 42
0.2
  3
trium.ttf
  4

  0
STYLE
  5
21D
330
3
100
AcDbSymbolTableRecord
100
AcDbTextStyleTableRecord
  2
TEXTSTYLE_3
 70
     0
 40
0.0
 41
1.0
 50
0.0
 71
     0
 42
0.2
  3
txt
  4

  0
STYLE
  5
21E
330
3
100
AcDbSymbolTableRecord
100
AcDbTextStyleTableRecord
  2
TEXTSTYLE_4
 70
     0
 40
0.0
 41
1.0
 50
0.0
 71
     0
 42
0.2
  3
txt
  4

  0
STYLE
  5
21F
330
3
100
AcDbSymbolTableRecord
100
AcDbTextStyleTableRecord
  2
TEXTSTYLE_5
 70
     0
 40
0.0
 41
1.0
 50
0.0
 71
     0
 42
0.2
  3
trium.ttf
  4

  0
STYLE
  5
220
330
3
100
AcDbSymbolTableRecord
100
AcDbTextStyleTableRecord
  2
TEXTSTYLE_6
 70
     0
 40
0.0
 41
0.8
 50
0.0
 71
     0
 42
0.2
  3
txt
  4

  0
ENDTAB
  0
TABLE
  2
VIEW
  5
6
330
0
100
AcDbSymbolTable
 70
     0
  0
ENDTAB
  0
TABLE
  2
UCS
  5
7
330
0
100
AcDbSymbolTable
 70
     0
  0
ENDTAB
  0
TABLE
  2
APPID
  5
9
330
0
100
AcDbSymbolTable
 70
     3
  0
APPID
  5
221
330
9
100
AcDbSymbolTableRecord
100
AcDbRegAppTableRecord
  2
ACAD
 70
     0
  0
APPID
  5
272B
330
9
100
AcDbSymbolTableRecord
100
AcDbRegAppTableRecord
  2
ACAD_MLEADERVER
 70
     0
  0
APPID
  5
2783
330
9
100
AcDbSymbolTableRecord
100
AcDbRegAppTableRecord
  2
ACAD_NAV_VCDISPLAY
 70
     0
  0
ENDTAB
  0
TABLE
  2
DIMSTYLE
  5
A
330
0
100
AcDbSymbolTable
 70
     7
100
AcDbDimStyleTable
 71
     0
  0
DIMSTYLE
105
241
330
A
100
AcDbSymbolTableRecord
100
AcDbDimStyleTableRecord
  2
STANDARD
 70
     0
 41
2.0
 44
0.125
 47
0.001
 48
0.001
 71
     1
 78
     4
 79
     1
140
1.333333333299999
170
     1
179
     3
271
     3
272
     3
284
     4
340
11
341
224
342
224
343
224
344
224
  0
DIMSTYLE
105
242
330
A
100
AcDbSymbolTableRecord
100
AcDbDimStyleTableRecord
  2
DIMSTYLE_1
 70
     0
 41
2.0
 44
0.125
 47
0.00001
 48
0.00001
 78
     4
 79
     1
140
1.333333333299999
147
0.0625
170
     1
171
    -2
179
     3
271
     3
272
     8
274
     0
284
     4
340
11
341
224
342
224
343
224
344
224
  0
DIMSTYLE
105
243
330
A
100
AcDbSymbolTableRecord
100
AcDbDimStyleTableRecord
  2
DIMSTYLE_2
 70
     0
 41
2.0
 44
0.125
 47
0.001
 48
0.001
 78
     4
 79
     1
140
1.333333333299999
147
0.0625
170
     1
171
     0
179
     3
271
     3
272
     8
274
     0
284
     4
340
11
341
224
342
224
343
224
344
224
  0
DIMSTYLE
105
244
330
A
100
AcDbSymbolTableRecord
100
AcDbDimStyleTableRecord
  2
DIMSTYLE_3
 70
     0
 41
2.0
 44
0.125
 47
0.00001
 48
0.00001
 78
     4
 79
     1
140
1.333333333299999
147
0.0625
170
     1
171
     0
179
     3
271
     3
272
     8
274
     0
284
     4
340
11
341
224
342
224
343
224
344
224
  0
DIMSTYLE
105
245
330
A
100
AcDbSymbolTableRecord
100
AcDbDimStyleTableRecord
  2
DIMSTYLE_4
 70
     0
 41
2.0
 44
0.125
 47
0.03125
 48
0.03125
 78
     4
 79
     1
140
1.333333333299999
147
0.0625
170
     1
171
     1
179
     3
271
     5
272
    32
274
    -1
284
     4
340
11
341
224
342
224
343
224
344
224
  0
DIMSTYLE
105
246
330
A
100
AcDbSymbolTableRecord
100
AcDbDimStyleTableRecord
  2
DIMSTYLE_5
 70
     0
 41
2.0
 44
0.125
 47
0.001
 48
0.001
 78
     4
 79
     1
140
1.333333333299999
147
0.0625
170
     1
171
     1
179
     3
271
     5
272
    32
274
     1
284
     4
340
11
341
224
342
224
343
224
344
224
  0
DIMSTYLE
105
247
330
A
100
AcDbSymbolTableRecord
100
AcDbDimStyleTableRecord
  2
DIMSTYLE_6
 70
     0
 41
2.0
 44
0.125
 47
0.5
 48
0.5
 78
     4
 79
     1
140
1.333333333299999
147
0.0625
179
     3
271
     5
272
    32
284
     4
340
11
341
224
342
224
343
224
344
224
  0
ENDTAB
  0
TABLE
  2
BLOCK_RECORD
  5
1
330
0
100
AcDbSymbolTable
 70
    29
  0
BLOCK_RECORD
  5
222
330
1
100
AcDbSymbolTableRecord
100
AcDbBlockTableRecord
  2
*Model_Space
340
269B
  0
BLOCK_RECORD
  5
223
330
1
100
AcDbSymbolTableRecord
100
AcDbBlockTableRecord
  2
*Paper_Space
340
269C
  0
BLOCK_RECORD
  5
224
330
1
100
AcDbSymbolTableRecord
100
AcDbBlockTableRecord
  2
_FILLED
340
0
102
{BLKREFS
102
}
  0
BLOCK_RECORD
  5
23E
330
1
100
AcDbSymbolTableRecord
100
AcDbBlockTableRecord
  2
L03-MOTEUR-CONTROLE-LED_BL2
340
0
  0
BLOCK_RECORD
  5
23F
330
1
100
AcDbSymbolTableRecord
100
AcDbBlockTableRecord
  2
L03-USAGE_INTERNE_SEULEM_BL1
340
0
  0
BLOCK_RECORD
  5
240
330
1
100
AcDbSymbolTableRecord
100
AcDbBlockTableRecord
  2
L03-NOTE_SPECS_BAINS_BL0
340
0
  0
ENDTAB
  0
ENDSEC
  0
SECTION
  2
BLOCKS
  0
BLOCK
  5
20
330
222
100
AcDbEntity
  8
0
100
AcDbBlockBegin
  2
*Model_Space
 70
     0
 10
0.0
 20
0.0
 30
0.0
  3
*Model_Space
  1

  0
ENDBLK
  5
21
330
222
100
AcDbEntity
  8
0
100
AcDbBlockEnd
  0
BLOCK
  5
1C
330
223
100
AcDbEntity
 67
     1
  8
0
100
AcDbBlockBegin
  2
*Paper_Space
 70
     0
 10
0.0
 20
0.0
 30
0.0
  3
*Paper_Space
  1

  0
ENDBLK
  5
1D
330
223
100
AcDbEntity
 67
     1
  8
0
100
AcDbBlockEnd
  0
BLOCK
  5
317
330
224
100
AcDbEntity
  8
0
100
AcDbBlockBegin
  2
_FILLED
 70
     0
 10
0.0
 20
0.0
 30
0.0
  3
_FILLED
  1

  0
SOLID
  5
318
330
224
100
AcDbEntity
  8
0
  6
ByBlock
 62
     0
100
AcDbTrace
 10
0.0
 20
0.0
 30
0.0
 11
-1.0
 21
0.1666666667
 31
0.0
 12
-1.0
 22
-0.1666666667
 32
0.0
 13
-1.0
 23
-0.1666666667
 33
0.0
  0
ENDBLK
  5
319
330
224
100
AcDbEntity
  8
0
  6
ByBlock
 62
     0
100
AcDbBlockEnd
  0
BLOCK
  5
248
330
23E
100
AcDbEntity
  8
0
  6
Continuous
 62
     2
100
AcDbBlockBegin
  2
L03-MOTEUR-CONTROLE-LED_BL2
 70
     0
 10
77.0647414119
 20
79.0262363156
 30
0.0
  3
L03-MOTEUR-CONTROLE-LED_BL2
  1

  0
TEXT
  5
249
330
23E
100
AcDbEntity
  8
0
  6
Continuous
 62
     2
100
AcDbText
 10
75.73140755979999
 20
78.35956938959999
 30
0.0
 40
1.333333852099999
  1
DC
 41
1.166666666622919
 72
     5
 11
78.3980752639
 21
78.35956938959999
 31
0.0
100
AcDbText
  0
ELLIPSE
  5
24A
330
23E
100
AcDbEntity
  8
0
  6
Continuous
 62
     7
100
AcDbEllipse
 10
77.0647414119
 20
79.0262363156
 30
0.0
 11
-1.942887567899999
 21
0.0
 31
0.0
210
0.0
220
0.0
230
1.0
 40
0.6606458385
 41
0.0
 42
6.283185307179586
  0
ENDBLK
  5
24B
330
23E
100
AcDbEntity
  8
0
  6
ByBlock
 62
     0
100
AcDbBlockEnd
  0
BLOCK
  5
24C
330
23F
100
AcDbEntity
  8
0
  6
Continuous
 62
     2
100
AcDbBlockBegin
  2
L03-USAGE_INTERNE_SEULEM_BL1
 70
     0
 10
99.24436896790002
 20
48.68730372479999
 30
0.0
  3
L03-USAGE_INTERNE_SEULEM_BL1
  1

  0
TEXT
  5
24D
330
23F
100
AcDbEntity
  8
0
  6
Continuous
 62
     7
100
AcDbText
 10
92.93030866610001
 20
50.9323377106
 30
0.0
 40
1.1626666667
  1
INTERNAL USE 
 50
10.00000000025735
 41
0.898521505349985
  7
TEXTSTYLE_2
 72
     5
 11
105.0800642868
 21
53.0746674356
 31
0.0
100
AcDbText
  0
TEXT
  5
24E
330
23F
100
AcDbEntity
  8
0
  6
Continuous
 62
     7
100
AcDbText
 10
92.18662446209998
 20
48.93081653300001
 30
0.0
 40
1.1626666667
  1
DOCUMENT ONLY
 50
9.999999999672899
 41
0.9764779873947645
  7
TEXTSTYLE_2
 72
     5
 11
106.2956076908
 21
51.4186109465
 31
0.0
100
AcDbText
  0
TEXT
  5
24F
330
23F
100
AcDbEntity
  8
0
  6
Continuous
 62
     7
100
AcDbText
 10
98.30849184100001
 20
48.7418353282
 30
0.0
 40
1.1626666667
  1
 
 50
9.999999992915462
 41
0.4543859648938215
  7
TEXTSTYLE_2
 72
     5
 11
98.77921535719998
 21
48.82483658449999
 31
0.0
100
AcDbText
  0
TEXT
  5
250
330
23F
100
AcDbEntity
  8
0
  6
Continuous
 62
     7
100
AcDbText
 10
89.52670414229999
 20
44.50529407609999
 30
0.0
 40
1.1626666667
  1
DOCUMENT POUR USAGE
 50
9.999999999970015
 41
0.9550156294151401
  7
TEXTSTYLE_2
 72
     5
 11
109.8865564059
 21
48.0952853534
 31
0.0
100
AcDbText
  0
TEXT
  5
251
330
23F
100
AcDbEntity
  8
0
  6
Continuous
 62
     7
100
AcDbText
 10
89.9558035883
 20
42.4885456157
 30
0.0
 40
1.1626666667
  1
A L'INTERNE SEULEMENT
 50
10.00000000000814
 41
0.9468599033580915
  7
TEXTSTYLE_2
 72
     5
 11
110.1417850036
 21
46.04787877129999
 31
0.0
100
AcDbText
  0
LINE
  5
252
330
23F
100
AcDbEntity
  8
0
  6
Continuous
 62
     1
100
AcDbLine
 10
113.1009206912
 20
44.34377010689999
 30
0.0
 11
113.1076796238
 21
44.35052903949999
 31
0.0
  0
LINE
  5
253
330
23F
100
AcDbEntity
  8
0
  6
Continuous
 62
     1
100
AcDbLine
 10
112.3683511248
 20
44.2145983271
 30
0.0
 11
113.0172325699
 21
44.8634797722
 31
0.0
  0
LINE
  5
254
330
23F
100
AcDbEntity
  8
0
  6
Continuous
 62
     1
100
AcDbLine
 10
111.6357815584
 20
44.08542654729999
 30
0.0
 11
112.926785516
 21
45.37643050479999
 31
0.0
  0
LINE
  5
255
330
23F
100
AcDbEntity
  8
0
  6
Continuous
 62
     1
100
AcDbLine
 10
110.9032119919
 20
43.9562547674
 30
0.0
 11
112.836338462
 21
45.8893812375
 31
0.0
  0
LINE
  5
256
330
23F
100
AcDbEntity
  8
0
  6
Continuous
 62
     1
100
AcDbLine
 10
110.1706424255
 20
43.82708298759999
 30
0.0
 11
112.7458914081
 21
46.4023319702
 31
0.0
  0
LINE
  5
257
330
23F
100
AcDbEntity
  8
0
  6
Continuous
 62
     1
100
AcDbLine
 10
109.4380728591
 20
43.69791120779999
 30
0.0
 11
110.9790766739
 21
45.2389150226
 31
0.0
  0
LINE
  5
258
330
23F
100
AcDbEntity
  8
0
  6
Continuous
 62
     1
100
AcDbLine
 10
111.5764218666
 20
45.83626021529999
 30
0.0
 11
112.6554443541
 21
46.9152827029
 31
0.0
  0
LINE
  5
259
330
23F
100
AcDbEntity
  8
0
  6
Continuous
 62
     1
100
AcDbLine
 10
108.7055032927
 20
43.568739428
 30
0.0
 11
110.2465071075
 21
45.1097432428
 31
0.0
  0
LINE
  5
25A
330
23F
100
AcDbEntity
  8
0
  6
Continuous
 62
     1
100
AcDbLine
 10
111.4859748127
 20
46.349210948
 30
0.0
 11
112.5649973002
 21
47.4282334355
 31
0.0
  0
LINE
  5
25B
330
23F
100
AcDbEntity
  8
0
  6
Continuous
 62
     1
100
AcDbLine
 10
107.9729337263
 20
43.43956764819999
 30
0.0
 11
109.513937541
 21
44.980571463
 31
0.0
  0
LINE
  5
25C
330
23F
100
AcDbEntity
  8
0
  6
Continuous
 62
     1
100
AcDbLine
 10
111.3955277587
 20
46.86216168069999
 30
0.0
 11
112.4745502462
 21
47.94118416819999
 31
0.0
  0
LINE
  5
25D
330
23F
100
AcDbEntity
  8
0
  6
Continuous
 62
     1
100
AcDbLine
 10
107.2403641599
 20
43.3103958684
 30
0.0
 11
108.7813679746
 21
44.8513996832
 31
0.0
  0
LINE
  5
25E
330
23F
100
AcDbEntity
  8
0
  6
Continuous
 62
     1
100
AcDbLine
 10
111.3050807048
 20
47.3751124133
 30
0.0
 11
112.3841031923
 21
48.4541349009
 31
0.0
  0
LINE
  5
25F
330
23F
100
AcDbEntity
  8
0
  6
Continuous
 62
     1
100
AcDbLine
 10
106.5077945934
 20
43.18122408859999
 30
0.0
 11
108.0487984082
 21
44.7222279034
 31
0.0
  0
LINE
  5
260
330
23F
100
AcDbEntity
  8
0
  6
Continuous
 62
     1
100
AcDbLine
 10
111.2146336508
 20
47.888063146
 30
0.0
 11
112.2936561383
 21
48.9670856335
 31
0.0
  0
LINE
  5
261
330
23F
100
AcDbEntity
  8
0
  6
Continuous
 62
     1
100
AcDbLine
 10
105.775225027
 20
43.0520523088
 30
0.0
 11
107.3162288418
 21
44.59305612359999
 31
0.0
  0
LINE
  5
262
330
23F
100
AcDbEntity
  8
0
  6
Continuous
 62
     1
100
AcDbLine
 10
111.1241865969
 20
48.40101387869999
 30
0.0
 11
112.2032090844
 21
49.4800363662
 31
0.0
  0
LINE
  5
263
330
23F
100
AcDbEntity
  8
0
  6
Continuous
 62
     1
100
AcDbLine
 10
105.0426554606
 20
42.922880529
 30
0.0
 11
106.5836592754
 21
44.4638843438
 31
0.0
  0
LINE
  5
264
330
23F
100
AcDbEntity
  8
0
  6
Continuous
 62
     1
100
AcDbLine
 10
111.0337395429
 20
48.91396461140001
 30
0.0
 11
112.1127620305
 21
49.9929870989
 31
0.0
  0
LINE
  5
265
330
23F
100
AcDbEntity
  8
0
  6
Continuous
 62
     1
100
AcDbLine
 10
104.3100858942
 20
42.7937087492
 30
0.0
 11
105.851089709
 21
44.33471256399999
 31
0.0
  0
LINE
  5
266
330
23F
100
AcDbEntity
  8
0
  6
Continuous
 62
     1
100
AcDbLine
 10
110.943292489
 20
49.42691534399999
 30
0.0
 11
112.0223149765
 21
50.5059378315
 31
0.0
  0
LINE
  5
267
330
23F
100
AcDbEntity
  8
0
  6
Continuous
 62
     1
100
AcDbLine
 10
103.5775163278
 20
42.6645369694
 30
0.0
 11
105.1185201425
 21
44.2055407842
 31
0.0
  0
LINE
  5
268
330
23F
100
AcDbEntity
  8
0
  6
Continuous
 62
     1
100
AcDbLine
 10
110.8528454351
 20
49.9398660767
 30
0.0
 11
111.9318679226
 21
51.0188885642
 31
0.0
  0
LINE
  5
269
330
23F
100
AcDbEntity
  8
0
  6
Continuous
 62
     1
100
AcDbLine
 10
102.8449467613
 20
42.53536518959999
 30
0.0
 11
104.3859505761
 21
44.07636900439999
 31
0.0
  0
LINE
  5
26A
330
23F
100
AcDbEntity
  8
0
  6
Continuous
 62
     1
100
AcDbLine
 10
110.5499658352
 20
50.2403842635
 30
0.0
 11
111.8414208686
 21
51.53183929689999
 31
0.0
  0
LINE
  5
26B
330
23F
100
AcDbEntity
  8
0
  6
Continuous
 62
     1
100
AcDbLine
 10
102.1123771949
 20
42.4061934098
 30
0.0
 11
103.6533810097
 21
43.9471972246
 31
0.0
  0
LINE
  5
26C
330
23F
100
AcDbEntity
  8
0
  6
Continuous
 62
     1
100
AcDbLine
 10
109.8173962688
 20
50.1112124837
 30
0.0
 11
111.7509738147
 21
52.0447900295
 31
0.0
  0
LINE
  5
26D
330
23F
100
AcDbEntity
  8
0
  6
Continuous
 62
     1
100
AcDbLine
 10
101.3798076285
 20
42.27702163
 30
0.0
 11
102.9208114433
 21
43.81802544479999
 31
0.0
  0
LINE
  5
26E
330
23F
100
AcDbEntity
  8
0
  6
Continuous
 62
     1
100
AcDbLine
 10
109.0848267024
 20
49.9820407039
 30
0.0
 11
110.1121690007
 21
51.0093830021
 31
0.0
  0
LINE
  5
26F
330
23F
100
AcDbEntity
  8
0
  6
Continuous
 62
     1
100
AcDbLine
 10
110.5815042732
 20
51.4787182747
 30
0.0
 11
111.6605267607
 21
52.5577407622
 31
0.0
  0
LINE
  5
270
330
23F
100
AcDbEntity
  8
0
  6
Continuous
 62
     1
100
AcDbLine
 10
100.6472380621
 20
42.14784985019999
 30
0.0
 11
102.1882418769
 21
43.68885366489999
 31
0.0
  0
LINE
  5
271
330
23F
100
AcDbEntity
  8
0
  6
Continuous
 62
     1
100
AcDbLine
 10
108.352257136
 20
49.8528689241
 30
0.0
 11
109.3795992246
 21
50.8802110127
 31
0.0
  0
LINE
  5
272
330
23F
100
AcDbEntity
  8
0
  6
Continuous
 62
     1
100
AcDbLine
 10
110.4910572193
 20
51.99166900739999
 30
0.0
 11
111.5700797068
 21
53.0706914949
 31
0.0
  0
LINE
  5
273
330
23F
100
AcDbEntity
  8
0
  6
Continuous
 62
     1
100
AcDbLine
 10
99.9146684957
 20
42.0186780704
 30
0.0
 11
101.4556723104
 21
43.5596818851
 31
0.0
  0
LINE
  5
274
330
23F
100
AcDbEntity
  8
0
  6
Continuous
 62
     1
100
AcDbLine
 10
107.6196875696
 20
49.7236971443
 30
0.0
 11
108.6470294486
 21
50.7510390233
 31
0.0
  0
LINE
  5
275
330
23F
100
AcDbEntity
  8
0
  6
Continuous
 62
     1
100
AcDbLine
 10
110.4006101653
 20
52.50461974
 30
0.0
 11
111.4796326529
 21
53.5836422275
 31
0.0
  0
LINE
  5
276
330
23F
100
AcDbEntity
  8
0
  6
Continuous
 62
     1
100
AcDbLine
 10
99.18209892930001
 20
41.88950629059999
 30
0.0
 11
100.723102744
 21
43.43051010529999
 31
0.0
  0
LINE
  5
277
330
23F
100
AcDbEntity
  8
0
  6
Continuous
 62
     1
100
AcDbLine
 10
106.8871180031
 20
49.5945253644
 30
0.0
 11
107.9144596726
 21
50.6218670339
 31
0.0
  0
LINE
  5
278
330
23F
100
AcDbEntity
  8
0
  6
Continuous
 62
     1
100
AcDbLine
 10
110.3101631114
 20
53.01757047270001
 30
0.0
 11
111.3891855989
 21
54.0965929602
 31
0.0
  0
LINE
  5
279
330
23F
100
AcDbEntity
  8
0
  6
Continuous
 62
     1
100
AcDbLine
 10
98.44952936280002
 20
41.7603345108
 30
0.0
 11
99.99053317760001
 21
43.3013383255
 31
0.0
  0
LINE
  5
27A
330
23F
100
AcDbEntity
  8
0
  6
Continuous
 62
     1
100
AcDbLine
 10
106.1545484367
 20
49.4653535846
 30
0.0
 11
107.1818898965
 21
50.49269504449999
 31
0.0
  0
LINE
  5
27B
330
23F
100
AcDbEntity
  8
0
  6
Continuous
 62
     1
100
AcDbLine
 10
110.2197160575
 20
53.5305212054
 30
0.0
 11
111.298738545
 21
54.6095436929
 31
0.0
  0
LINE
  5
27C
330
23F
100
AcDbEntity
  8
0
  6
Continuous
 62
     1
100
AcDbLine
 10
97.7169597964
 20
41.63116273099999
 30
0.0
 11
99.25796361120001
 21
43.17216654569999
 31
0.0
  0
LINE
  5
27D
330
23F
100
AcDbEntity
  8
0
  6
Continuous
 62
     1
100
AcDbLine
 10
105.4219788703
 20
49.33618180479999
 30
0.0
 11
106.4493201205
 21
50.363523055
 31
0.0
  0
LINE
  5
27E
330
23F
100
AcDbEntity
  8
0
  6
Continuous
 62
     1
100
AcDbLine
 10
110.1292690035
 20
54.043471938
 30
0.0
 11
111.208291491
 21
55.1224944256
 31
0.0
  0
LINE
  5
27F
330
23F
100
AcDbEntity
  8
0
  6
Continuous
 62
     1
100
AcDbLine
 10
96.98439023
 20
41.50199095109999
 30
0.0
 11
98.52539404479999
 21
43.0429947659
 31
0.0
  0
LINE
  5
280
330
23F
100
AcDbEntity
  8
0
  6
Continuous
 62
     1
100
AcDbLine
 10
104.6894093039
 20
49.207010025
 30
0.0
 11
105.7167503445
 21
50.2343510656
 31
0.0
  0
LINE
  5
281
330
23F
100
AcDbEntity
  8
0
  6
Continuous
 62
     1
100
AcDbLine
 10
110.0388219496
 20
54.55642267069999
 30
0.0
 11
111.1178444371
 21
55.6354451582
 31
0.0
  0
LINE
  5
282
330
23F
100
AcDbEntity
  8
0
  6
Continuous
 62
     1
100
AcDbLine
 10
96.2518206636
 20
41.3728191713
 30
0.0
 11
97.79282447840001
 21
42.9138229861
 31
0.0
  0
LINE
  5
283
330
23F
100
AcDbEntity
  8
0
  6
Continuous
 62
     1
100
AcDbLine
 10
103.9568397375
 20
49.0778382452
 30
0.0
 11
104.9841805685
 21
50.10517907619999
 31
0.0
  0
LINE
  5
284
330
23F
100
AcDbEntity
  8
0
  6
Continuous
 62
     1
100
AcDbLine
 10
109.9483748956
 20
55.0693734034
 30
0.0
 11
111.0273973831
 21
56.14839589089999
 31
0.0
  0
LINE
  5
285
330
23F
100
AcDbEntity
  8
0
  6
Continuous
 62
     1
100
AcDbLine
 10
95.5192510972
 20
41.24364739149999
 30
0.0
 11
97.06025491190001
 21
42.78465120629999
 31
0.0
  0
LINE
  5
286
330
23F
100
AcDbEntity
  8
0
  6
Continuous
 62
     1
100
AcDbLine
 10
103.224270171
 20
48.9486664654
 30
0.0
 11
104.2516107924
 21
49.9760070868
 31
0.0
  0
LINE
  5
287
330
23F
100
AcDbEntity
  8
0
  6
Continuous
 62
     1
100
AcDbLine
 10
109.8579278417
 20
55.582324136
 30
0.0
 11
110.9369503292
 21
56.6613466236
 31
0.0
  0
LINE
  5
288
330
23F
100
AcDbEntity
  8
0
  6
Continuous
 62
     1
100
AcDbLine
 10
94.7866815307
 20
41.1144756117
 30
0.0
 11
96.32768534549999
 21
42.6554794265
 31
0.0
  0
LINE
  5
289
330
23F
100
AcDbEntity
  8
0
  6
Continuous
 62
     1
100
AcDbLine
 10
102.4917006046
 20
48.81949468560001
 30
0.0
 11
103.5190410164
 21
49.84683509739999
 31
0.0
  0
LINE
  5
28A
330
23F
100
AcDbEntity
  8
0
  6
Continuous
 62
     1
100
AcDbLine
 10
109.6830517403
 20
56.0108458212
 30
0.0
 11
110.8465032752
 21
57.1742973562
 31
0.0
  0
LINE
  5
28B
330
23F
100
AcDbEntity
  8
0
  6
Continuous
 62
     1
100
AcDbLine
 10
94.0541119643
 20
40.98530383189999
 30
0.0
 11
95.59511577909999
 21
42.5263076467
 31
0.0
  0
LINE
  5
28C
330
23F
100
AcDbEntity
  8
0
  6
Continuous
 62
     1
100
AcDbLine
 10
101.7591310382
 20
48.6903229058
 30
0.0
 11
102.7864712404
 21
49.717663108
 31
0.0
  0
LINE
  5
28D
330
23F
100
AcDbEntity
  8
0
  6
Continuous
 62
     1
100
AcDbLine
 10
108.9504821738
 20
55.8816740414
 30
0.0
 11
110.4914859886
 21
57.4226778562
 31
0.0
  0
LINE
  5
28E
330
23F
100
AcDbEntity
  8
0
  6
Continuous
 62
     1
100
AcDbLine
 10
93.3215423979
 20
40.8561320521
 30
0.0
 11
94.86254621270001
 21
42.3971358669
 31
0.0
  0
LINE
  5
28F
330
23F
100
AcDbEntity
  8
0
  6
Continuous
 62
     1
100
AcDbLine
 10
101.0265614718
 20
48.56115112600001
 30
0.0
 11
102.0539014643
 21
49.5884911185
 31
0.0
  0
LINE
  5
290
330
23F
100
AcDbEntity
  8
0
  6
Continuous
 62
     1
100
AcDbLine
 10
108.2179126074
 20
55.7525022616
 30
0.0
 11
109.7589164222
 21
57.2935060764
 31
0.0
  0
LINE
  5
291
330
23F
100
AcDbEntity
  8
0
  6
Continuous
 62
     1
100
AcDbLine
 10
92.5889728315
 20
40.7269602723
 30
0.0
 11
94.12997664629999
 21
42.2679640871
 31
0.0
  0
LINE
  5
292
330
23F
100
AcDbEntity
  8
0
  6
Continuous
 62
     1
100
AcDbLine
 10
100.2939919054
 20
48.4319793462
 30
0.0
 11
101.3213316883
 21
49.45931912909999
 31
0.0
  0
LINE
  5
293
330
23F
100
AcDbEntity
  8
0
  6
Continuous
 62
     1
100
AcDbLine
 10
107.485343041
 20
55.62333048180001
 30
0.0
 11
109.0263468558
 21
57.1643342966
 31
0.0
  0
LINE
  5
294
330
23F
100
AcDbEntity
  8
0
  6
Continuous
 62
     1
100
AcDbLine
 10
91.8564032651
 20
40.5977884925
 30
0.0
 11
93.39740707989999
 21
42.13879230729999
 31
0.0
  0
LINE
  5
295
330
23F
100
AcDbEntity
  8
0
  6
Continuous
 62
     1
100
AcDbLine
 10
99.56142233899999
 20
48.3028075664
 30
0.0
 11
100.5887619123
 21
49.3301471397
 31
0.0
  0
LINE
  5
296
330
23F
100
AcDbEntity
  8
0
  6
Continuous
 62
     1
100
AcDbLine
 10
106.7527734746
 20
55.494158702
 30
0.0
 11
108.2937772894
 21
57.03516251679999
 31
0.0
  0
LINE
  5
297
330
23F
100
AcDbEntity
  8
0
  6
Continuous
 62
     1
100
AcDbLine
 10
91.1238336987
 20
40.4686167127
 30
0.0
 11
92.6648375134
 21
42.00962052749999
 31
0.0
  0
LINE
  5
298
330
23F
100
AcDbEntity
  8
0
  6
Continuous
 62
     1
100
AcDbLine
 10
98.8288527725
 20
48.1736357866
 30
0.0
 11
99.8561921363
 21
49.2009751503
 31
0.0
  0
LINE
  5
299
330
23F
100
AcDbEntity
  8
0
  6
Continuous
 62
     1
100
AcDbLine
 10
106.0202039082
 20
55.3649869222
 30
0.0
 11
107.5612077229
 21
56.90599073699999
 31
0.0
  0
LINE
  5
29A
330
23F
100
AcDbEntity
  8
0
  6
Continuous
 62
     1
100
AcDbLine
 10
90.39126413219999
 20
40.33944493289999
 30
0.0
 11
91.93226794700001
 21
41.8804487477
 31
0.0
  0
LINE
  5
29B
330
23F
100
AcDbEntity
  8
0
  6
Continuous
 62
     1
100
AcDbLine
 10
98.09628320610002
 20
48.0444640068
 30
0.0
 11
99.12362236020001
 21
49.0718031609
 31
0.0
  0
LINE
  5
29C
330
23F
100
AcDbEntity
  8
0
  6
Continuous
 62
     1
100
AcDbLine
 10
105.2876343418
 20
55.23581514239999
 30
0.0
 11
106.8286381565
 21
56.7768189572
 31
0.0
  0
LINE
  5
29D
330
23F
100
AcDbEntity
  8
0
  6
Continuous
 62
     1
100
AcDbLine
 10
89.6586945658
 20
40.21027315309999
 30
0.0
 11
91.19969838059999
 21
41.75127696789999
 31
0.0
  0
LINE
  5
29E
330
23F
100
AcDbEntity
  8
0
  6
Continuous
 62
     1
100
AcDbLine
 10
97.3637136397
 20
47.91529222699999
 30
0.0
 11
98.3910525842
 21
48.9426311715
 31
0.0
  0
LINE
  5
29F
330
23F
100
AcDbEntity
  8
0
  6
Continuous
 62
     1
100
AcDbLine
 10
104.5550647753
 20
55.1066433626
 30
0.0
 11
106.0960685901
 21
56.64764717739999
 31
0.0
  0
LINE
  5
2A0
330
23F
100
AcDbEntity
  8
0
  6
Continuous
 62
     1
100
AcDbLine
 10
88.9261249994
 20
40.0811013733
 30
0.0
 11
90.46712881419999
 21
41.6221051881
 31
0.0
  0
LINE
  5
2A1
330
23F
100
AcDbEntity
  8
0
  6
Continuous
 62
     1
100
AcDbLine
 10
96.63114407329999
 20
47.7861204472
 30
0.0
 11
97.6584828082
 21
48.8134591821
 31
0.0
  0
LINE
  5
2A2
330
23F
100
AcDbEntity
  8
0
  6
Continuous
 62
     1
100
AcDbLine
 10
103.8224952089
 20
54.9774715828
 30
0.0
 11
105.3634990237
 21
56.5184753976
 31
0.0
  0
LINE
  5
2A3
330
23F
100
AcDbEntity
  8
0
  6
Continuous
 62
     1
100
AcDbLine
 10
88.19355543299998
 20
39.9519295935
 30
0.0
 11
89.73455924780001
 21
41.49293340829999
 31
0.0
  0
LINE
  5
2A4
330
23F
100
AcDbEntity
  8
0
  6
Continuous
 62
     1
100
AcDbLine
 10
95.89857450690001
 20
47.65694866739999
 30
0.0
 11
96.92591303209999
 21
48.6842871926
 31
0.0
  0
LINE
  5
2A5
330
23F
100
AcDbEntity
  8
0
  6
Continuous
 62
     1
100
AcDbLine
 10
103.0899256425
 20
54.848299803
 30
0.0
 11
104.6309294573
 21
56.38930361779999
 31
0.0
  0
LINE
  5
2A6
330
23F
100
AcDbEntity
  8
0
  6
Continuous
 62
     1
100
AcDbLine
 10
87.64223466049999
 20
40.0040066076
 30
0.0
 11
89.00198968129998
 21
41.3637616285
 31
0.0
  0
LINE
  5
2A7
330
23F
100
AcDbEntity
  8
0
  6
Continuous
 62
     1
100
AcDbLine
 10
95.16600494049999
 20
47.52777688760001
 30
0.0
 11
96.19334325610001
 21
48.5551152032
 31
0.0
  0
LINE
  5
2A8
330
23F
100
AcDbEntity
  8
0
  6
Continuous
 62
     1
100
AcDbLine
 10
102.3573560761
 20
54.7191280232
 30
0.0
 11
103.8983598909
 21
56.260131838
 31
0.0
  0
LINE
  5
2A9
330
23F
100
AcDbEntity
  8
0
  6
Continuous
 62
     1
100
AcDbLine
 10
87.5517876065
 20
40.51695734019999
 30
0.0
 11
88.630810094
 21
41.5959798278
 31
0.0
  0
LINE
  5
2AA
330
23F
100
AcDbEntity
  8
0
  6
Continuous
 62
     1
100
AcDbLine
 10
94.433435374
 20
47.39860510779999
 30
0.0
 11
95.46077348009999
 21
48.4259432138
 31
0.0
  0
LINE
  5
2AB
330
23F
100
AcDbEntity
  8
0
  6
Continuous
 62
     1
100
AcDbLine
 10
101.6247865097
 20
54.5899562434
 30
0.0
 11
103.1657903244
 21
56.1309600582
 31
0.0
  0
LINE
  5
2AC
330
23F
100
AcDbEntity
  8
0
  6
Continuous
 62
     1
100
AcDbLine
 10
87.4613405526
 20
41.0299080729
 30
0.0
 11
88.5403630401
 21
42.10893056039999
 31
0.0
  0
LINE
  5
2AD
330
23F
100
AcDbEntity
  8
0
  6
Continuous
 62
     1
100
AcDbLine
 10
93.7008658076
 20
47.26943332789999
 30
0.0
 11
94.7282037041
 21
48.29677122439999
 31
0.0
  0
LINE
  5
2AE
330
23F
100
AcDbEntity
  8
0
  6
Continuous
 62
     1
100
AcDbLine
 10
100.8922169432
 20
54.4607844636
 30
0.0
 11
102.433220758
 21
56.0017882784
 31
0.0
  0
LINE
  5
2AF
330
23F
100
AcDbEntity
  8
0
  6
Continuous
 62
     1
100
AcDbLine
 10
87.37089349860001
 20
41.54285880559999
 30
0.0
 11
88.44991598620001
 21
42.6218812931
 31
0.0
  0
LINE
  5
2B0
330
23F
100
AcDbEntity
  8
0
  6
Continuous
 62
     1
100
AcDbLine
 10
92.9682962412
 20
47.1402615481
 30
0.0
 11
93.99563392799999
 21
48.167599235
 31
0.0
  0
LINE
  5
2B1
330
23F
100
AcDbEntity
  8
0
  6
Continuous
 62
     1
100
AcDbLine
 10
100.1596473768
 20
54.33161268380001
 30
0.0
 11
101.7006511916
 21
55.8726164985
 31
0.0
  0
LINE
  5
2B2
330
23F
100
AcDbEntity
  8
0
  6
Continuous
 62
     1
100
AcDbLine
 10
87.28044644469999
 20
42.0558095382
 30
0.0
 11
88.35946893219999
 21
43.1348320258
 31
0.0
  0
LINE
  5
2B3
330
23F
100
AcDbEntity
  8
0
  6
Continuous
 62
     1
100
AcDbLine
 10
92.23572667479999
 20
47.01108976829999
 30
0.0
 11
93.26306415200001
 21
48.0384272456
 31
0.0
  0
LINE
  5
2B4
330
23F
100
AcDbEntity
  8
0
  6
Continuous
 62
     1
100
AcDbLine
 10
99.42707781040001
 20
54.202440904
 30
0.0
 11
100.9680816252
 21
55.74344471869999
 31
0.0
  0
LINE
  5
2B5
330
23F
100
AcDbEntity
  8
0
  6
Continuous
 62
     1
100
AcDbLine
 10
87.1899993907
 20
42.5687602709
 30
0.0
 11
88.26902187829999
 21
43.64778275839999
 31
0.0
  0
LINE
  5
2B6
330
23F
100
AcDbEntity
  8
0
  6
Continuous
 62
     1
100
AcDbLine
 10
91.50315710840001
 20
46.88191798850001
 30
0.0
 11
92.53049437600001
 21
47.90925525609999
 31
0.0
  0
LINE
  5
2B7
330
23F
100
AcDbEntity
  8
0
  6
Continuous
 62
     1
100
AcDbLine
 10
98.69450824399999
 20
54.0732691242
 30
0.0
 11
100.2355120588
 21
55.6142729389
 31
0.0
  0
LINE
  5
2B8
330
23F
100
AcDbEntity
  8
0
  6
Continuous
 62
     1
100
AcDbLine
 10
87.0995523368
 20
43.0817110036
 30
0.0
 11
88.1785748243
 21
44.16073349109999
 31
0.0
  0
LINE
  5
2B9
330
23F
100
AcDbEntity
  8
0
  6
Continuous
 62
     1
100
AcDbLine
 10
90.7705875419
 20
46.75274620869999
 30
0.0
 11
91.7979245999
 21
47.7800832667
 31
0.0
  0
LINE
  5
2BA
330
23F
100
AcDbEntity
  8
0
  6
Continuous
 62
     1
100
AcDbLine
 10
97.96193867760001
 20
53.94409734439999
 30
0.0
 11
99.50294249229999
 21
55.4851011591
 31
0.0
  0
LINE
  5
2BB
330
23F
100
AcDbEntity
  8
0
  6
Continuous
 62
     1
100
AcDbLine
 10
87.0091052829
 20
43.5946617363
 30
0.0
 11
88.08812777040001
 21
44.6736842238
 31
0.0
  0
LINE
  5
2BC
330
23F
100
AcDbEntity
  8
0
  6
Continuous
 62
     1
100
AcDbLine
 10
90.0380179755
 20
46.62357442890001
 30
0.0
 11
91.06535482389999
 21
47.65091127729999
 31
0.0
  0
LINE
  5
2BD
330
23F
100
AcDbEntity
  8
0
  6
Continuous
 62
     1
100
AcDbLine
 10
97.22936911120001
 20
53.8149255645
 30
0.0
 11
98.77037292590001
 21
55.3559293793
 31
0.0
  0
LINE
  5
2BE
330
23F
100
AcDbEntity
  8
0
  6
Continuous
 62
     1
100
AcDbLine
 10
86.91865822889999
 20
44.10761246889999
 30
0.0
 11
87.9976807164
 21
45.18663495640001
 31
0.0
  0
LINE
  5
2BF
330
23F
100
AcDbEntity
  8
0
  6
Continuous
 62
     1
100
AcDbLine
 10
89.3054484091
 20
46.49440264909999
 30
0.0
 11
90.33278504790001
 21
47.52173928789999
 31
0.0
  0
LINE
  5
2C0
330
23F
100
AcDbEntity
  8
0
  6
Continuous
 62
     1
100
AcDbLine
 10
96.4967995447
 20
53.6857537847
 30
0.0
 11
98.03780335950001
 21
55.2267575995
 31
0.0
  0
LINE
  5
2C1
330
23F
100
AcDbEntity
  8
0
  6
Continuous
 62
     1
100
AcDbLine
 10
86.82821117500001
 20
44.6205632016
 30
0.0
 11
87.9072336625
 21
45.69958568909999
 31
0.0
  0
LINE
  5
2C2
330
23F
100
AcDbEntity
  8
0
  6
Continuous
 62
     1
100
AcDbLine
 10
88.5728788427
 20
46.3652308693
 30
0.0
 11
89.60021527190001
 21
47.39256729850001
 31
0.0
  0
LINE
  5
2C3
330
23F
100
AcDbEntity
  8
0
  6
Continuous
 62
     1
100
AcDbLine
 10
95.76422997829999
 20
53.5565820049
 30
0.0
 11
97.3052337931
 21
55.0975858197
 31
0.0
  0
LINE
  5
2C4
330
23F
100
AcDbEntity
  8
0
  6
Continuous
 62
     1
100
AcDbLine
 10
86.737764121
 20
45.1335139343
 30
0.0
 11
87.81678660850001
 21
46.2125364218
 31
0.0
  0
LINE
  5
2C5
330
23F
100
AcDbEntity
  8
0
  6
Continuous
 62
     1
100
AcDbLine
 10
87.84030927629999
 20
46.2360590895
 30
0.0
 11
88.8676454958
 21
47.26339530909999
 31
0.0
  0
LINE
  5
2C6
330
23F
100
AcDbEntity
  8
0
  6
Continuous
 62
     1
100
AcDbLine
 10
95.0316604119
 20
53.42741022510001
 30
0.0
 11
96.5726642267
 21
54.9684140399
 31
0.0
  0
LINE
  5
2C7
330
23F
100
AcDbEntity
  8
0
  6
Continuous
 62
     1
100
AcDbLine
 10
86.64731706709998
 20
45.64646466689999
 30
0.0
 11
88.1350757198
 21
47.1342233196
 31
0.0
  0
LINE
  5
2C8
330
23F
100
AcDbEntity
  8
0
  6
Continuous
 62
     1
100
AcDbLine
 10
94.29909084549999
 20
53.2982384453
 30
0.0
 11
95.84009466030002
 21
54.8392422601
 31
0.0
  0
LINE
  5
2C9
330
23F
100
AcDbEntity
  8
0
  6
Continuous
 62
     1
100
AcDbLine
 10
86.55687001309999
 20
46.1594153996
 30
0.0
 11
87.63589250069999
 21
47.23843788709999
 31
0.0
  0
LINE
  5
2CA
330
23F
100
AcDbEntity
  8
0
  6
Continuous
 62
     1
100
AcDbLine
 10
93.56652127910001
 20
53.1690666655
 30
0.0
 11
95.10752509379999
 21
54.71007048029999
 31
0.0
  0
LINE
  5
2CB
330
23F
100
AcDbEntity
  8
0
  6
Continuous
 62
     1
100
AcDbLine
 10
86.46642295920001
 20
46.6723661323
 30
0.0
 11
87.5454454467
 21
47.75138861979999
 31
0.0
  0
LINE
  5
2CC
330
23F
100
AcDbEntity
  8
0
  6
Continuous
 62
     1
100
AcDbLine
 10
92.8339517126
 20
53.0398948857
 30
0.0
 11
94.37495552740001
 21
54.5808987005
 31
0.0
  0
LINE
  5
2CD
330
23F
100
AcDbEntity
  8
0
  6
Continuous
 62
     1
100
AcDbLine
 10
86.37597590530001
 20
47.18531686489999
 30
0.0
 11
87.4549983928
 21
48.2643393525
 31
0.0
  0
LINE
  5
2CE
330
23F
100
AcDbEntity
  8
0
  6
Continuous
 62
     1
100
AcDbLine
 10
92.1013821462
 20
52.9107231059
 30
0.0
 11
93.64238596099999
 21
54.45172692069999
 31
0.0
  0
LINE
  5
2CF
330
23F
100
AcDbEntity
  8
0
  6
Continuous
 62
     1
100
AcDbLine
 10
86.28552885129998
 20
47.69826759759999
 30
0.0
 11
87.36455133879999
 21
48.7772900851
 31
0.0
  0
LINE
  5
2D0
330
23F
100
AcDbEntity
  8
0
  6
Continuous
 62
     1
100
AcDbLine
 10
91.36881257979998
 20
52.78155132609999
 30
0.0
 11
92.90981639459998
 21
54.3225551409
 31
0.0
  0
LINE
  5
2D1
330
23F
100
AcDbEntity
  8
0
  6
Continuous
 62
     1
100
AcDbLine
 10
86.1950817974
 20
48.2112183303
 30
0.0
 11
87.27410428489999
 21
49.29024081779999
 31
0.0
  0
LINE
  5
2D2
330
23F
100
AcDbEntity
  8
0
  6
Continuous
 62
     1
100
AcDbLine
 10
90.6362430134
 20
52.6523795463
 30
0.0
 11
92.1772468282
 21
54.1933833611
 31
0.0
  0
LINE
  5
2D3
330
23F
100
AcDbEntity
  8
0
  6
Continuous
 62
     1
100
AcDbLine
 10
86.10463474339999
 20
48.72416906289999
 30
0.0
 11
87.1836572309
 21
49.80319155050001
 31
0.0
  0
LINE
  5
2D4
330
23F
100
AcDbEntity
  8
0
  6
Continuous
 62
     1
100
AcDbLine
 10
89.903673447
 20
52.52320776649999
 30
0.0
 11
91.44467726180002
 21
54.0642115813
 31
0.0
  0
LINE
  5
2D5
330
23F
100
AcDbEntity
  8
0
  6
Continuous
 62
     1
100
AcDbLine
 10
86.01418768950001
 20
49.2371197956
 30
0.0
 11
87.093210177
 21
50.31614228310001
 31
0.0
  0
LINE
  5
2D6
330
23F
100
AcDbEntity
  8
0
  6
Continuous
 62
     1
100
AcDbLine
 10
89.17110388060001
 20
52.3940359867
 30
0.0
 11
90.71210769530001
 21
53.9350398015
 31
0.0
  0
LINE
  5
2D7
330
23F
100
AcDbEntity
  8
0
  6
Continuous
 62
     1
100
AcDbLine
 10
85.9237406355
 20
49.7500705283
 30
0.0
 11
87.0027631231
 21
50.82909301579999
 31
0.0
  0
LINE
  5
2D8
330
23F
100
AcDbEntity
  8
0
  6
Continuous
 62
     1
100
AcDbLine
 10
88.4385343141
 20
52.26486420689999
 30
0.0
 11
89.97953812889999
 21
53.8058680217
 31
0.0
  0
LINE
  5
2D9
330
23F
100
AcDbEntity
  8
0
  6
Continuous
 62
     1
100
AcDbLine
 10
85.8332935816
 20
50.2630212609
 30
0.0
 11
86.91231606909999
 21
51.3420437485
 31
0.0
  0
LINE
  5
2DA
330
23F
100
AcDbEntity
  8
0
  6
Continuous
 62
     1
100
AcDbLine
 10
87.7059647477
 20
52.1356924271
 30
0.0
 11
89.24696856249999
 21
53.6766962419
 31
0.0
  0
LINE
  5
2DB
330
23F
100
AcDbEntity
  8
0
  6
Continuous
 62
     1
100
AcDbLine
 10
85.74284652760001
 20
50.77597199359999
 30
0.0
 11
86.82186901520001
 21
51.85499448109999
 31
0.0
  0
LINE
  5
2DC
330
23F
100
AcDbEntity
  8
0
  6
Continuous
 62
     1
100
AcDbLine
 10
86.97339518129998
 20
52.00652064729999
 30
0.0
 11
88.51439899610001
 21
53.5475244621
 31
0.0
  0
LINE
  5
2DD
330
23F
100
AcDbEntity
  8
0
  6
Continuous
 62
     1
100
AcDbLine
 10
85.65239947370001
 20
51.2889227263
 30
0.0
 11
87.7818294297
 21
53.4183526822
 31
0.0
  0
LINE
  5
2DE
330
23F
100
AcDbEntity
  8
0
  6
Continuous
 62
     1
100
AcDbLine
 10
85.56195241979999
 20
51.801873459
 30
0.0
 11
87.04925986319999
 21
53.2891809024
 31
0.0
  0
LINE
  5
2DF
330
23F
100
AcDbEntity
  8
0
  6
Continuous
 62
     1
100
AcDbLine
 10
85.4715053658
 20
52.31482419159999
 30
0.0
 11
86.31669029680001
 21
53.1600091226
 31
0.0
  0
LINE
  5
2E0
330
23F
100
AcDbEntity
  8
0
  6
Continuous
 62
     1
100
AcDbLine
 10
85.3810583119
 20
52.8277749243
 30
0.0
 11
85.58412073040001
 21
53.0308373428
 31
0.0
  0
ENDBLK
  5
2E1
330
23F
100
AcDbEntity
  8
0
  6
ByBlock
 62
     0
100
AcDbBlockEnd
  0
BLOCK
  5
2E2
330
240
100
AcDbEntity
  8
0
  6
Continuous
 62
     2
100
AcDbBlockBegin
  2
L03-NOTE_SPECS_BAINS_BL0
 70
     0
 10
160.6665744185
 20
55.3333957601
 30
0.0
  3
L03-NOTE_SPECS_BAINS_BL0
  1

  0
TEXT
  5
2E3
330
240
100
AcDbEntity
  8
0
  6
Continuous
 62
     2
100
AcDbText
 10
144.4187893423
 20
63.1068291512
 30
0.0
 40
0.5
  1
Infomations Techniques/Technical Infomations
 41
0.8282282282286493
 72
     5
 11
159.0113819349
 21
63.1068291512
 31
0.0
100
AcDbText
  0
TEXT
  5
2E4
330
240
100
AcDbEntity
  8
0
  6
Continuous
 62
     2
100
AcDbText
 10
144.6665744185
 20
61.6667290935
 30
0.0
 40
0.6666666667
  1
NOMBRE DE JETS:     
 41
0.7951282050848596
 72
     5
 11
154.5110188629
 21
61.6667290935
 31
0.0
100
AcDbText
  0
TEXT
  5
2E5
330
240
100
AcDbEntity
  8
0
  6
Continuous
 62
     2
100
AcDbText
 10
154.5110188629
 20
61.6667290935
 30
0.0
 40
0.6666666667
  1
35
 41
0.9470588235541194
 72
     5
 11
155.5332410852
 21
61.6667290935
 31
0.0
100
AcDbText
  0
TEXT
  5
2E6
330
240
100
AcDbEntity
  8
0
  6
Continuous
 62
     2
100
AcDbText
 10
144.6665744185
 20
60.6667290935
 30
0.0
 40
0.6666666667
  1
 
 41
0.4543859649325198
 72
     5
 11
144.9406484926
 21
60.6667290935
 31
0.0
100
AcDbText
  0
TEXT
  5
2E7
330
240
100
AcDbEntity
  8
0
  6
Continuous
 62
     2
100
AcDbText
 10
144.6665744185
 20
59.6667290935
 30
0.0
 40
0.6666666667
  1
NIVEAU D'EAU              GALLONS(US)        LITRES        GALLONS(UK)
 41
0.7326737696243262
 72
     5
 11
175.2295373815
 21
59.6667290935
 31
0.0
100
AcDbText
  0
TEXT
  5
2E8
330
240
100
AcDbEntity
  8
0
  6
Continuous
 62
     2
100
AcDbText
 10
144.6665744185
 20
58.6667290935
 30
0.0
 40
0.6666666667
  1
PLEIN
 41
1.076090014011386
 72
     5
 11
147.3653398506
 21
58.6667290935
 31
0.0
100
AcDbText
  0
TEXT
  5
2E9
330
240
100
AcDbEntity
  8
0
  6
Continuous
 62
     2
100
AcDbText
 10
144.6665744185
 20
57.6667290935
 30
0.0
 40
0.6666666667
  1
HAUT T.PLEIN
 41
0.9533333332923344
 72
     5
 11
151.0221299741
 21
57.6667290935
 31
0.0
100
AcDbText
  0
TEXT
  5
2EA
330
240
100
AcDbEntity
  8
0
  6
Continuous
 62
     2
100
AcDbText
 10
144.6665744185
 20
56.6667290935
 30
0.0
 40
0.6666666667
  1
MILIEU T.PLEIN
 41
0.9753472221684196
 72
     5
 11
151.6023768876
 21
56.6667290935
 31
0.0
100
AcDbText
  0
TEXT
  5
2EB
330
240
100
AcDbEntity
  8
0
  6
Continuous
 62
     2
100
AcDbText
 10
144.6665744185
 20
55.6667290935
 30
0.0
 40
0.6666666667
  1
BAS T.PLEIN
 41
0.945267489669402
 72
     5
 11
150.3381793568
 21
55.6667290935
 31
0.0
100
AcDbText
  0
TEXT
  5
2EC
330
240
100
AcDbEntity
  8
0
  6
Continuous
 62
     2
100
AcDbText
 10
144.6665744185
 20
54.6667290935
 30
0.0
 40
0.6666666667
  1
3" EN BAS T.PLEIN
 41
0.8791712504189138
 72
     5
 11
153.123364542
 21
54.6667290935
 31
0.0
100
AcDbText
  0
TEXT
  5
2ED
330
240
100
AcDbEntity
  8
0
  6
Continuous
 62
     2
100
AcDbText
 10
144.6665744185
 20
53.6667290935
 30
0.0
 40
0.6666666667
  1
 
 41
0.4543859649325198
 72
     5
 11
144.9406484926
 21
53.6667290935
 31
0.0
100
AcDbText
  0
TEXT
  5
2EE
330
240
100
AcDbEntity
  8
0
  6
Continuous
 62
     2
100
AcDbText
 10
144.4664129129
 20
53.1199421686
 30
0.0
 40
0.5
  1
Legende/Legend
 41
0.8786122090482196
 72
     5
 11
149.7590055055
 21
53.1199421686
 31
0.0
100
AcDbText
  0
TEXT
  5
2EF
330
240
100
AcDbEntity
  8
0
  6
Continuous
 62
     2
100
AcDbText
 10
150.995247857
 20
51.6086771909
 30
0.0
 40
0.6666666667
  1
ZONE DE ROBINETTERIE
 41
0.9557651991088162
 72
     5
 11
162.2520379804
 21
51.6086771909
 31
0.0
100
AcDbText
  0
TEXT
  5
2F0
330
240
100
AcDbEntity
  8
0
  6
Continuous
 62
     2
100
AcDbText
 10
145.91552329
 20
50.1134326765
 30
0.0
 40
0.6666666667
  1
L   :  SYSTEME LED       DC   :  DOUBLE DOSSIER CHAUFFANT
 41
0.795242424203509
 72
     5
 11
173.6858936604
 21
50.1134326765
 31
0.0
100
AcDbText
  0
TEXT
  5
2F1
330
240
100
AcDbEntity
  8
0
  6
Continuous
 62
     2
100
AcDbText
 10
145.91552329
 20
48.7800993432
 30
0.0
 40
0.6666666667
  1
C   :  CONTROLE
 41
0.8195121950846322
 72
     5
 11
153.3821899567
 21
48.7800993432
 31
0.0
100
AcDbText
  0
TEXT
  5
2F2
330
240
100
AcDbEntity
  8
0
  6
Continuous
 62
     2
100
AcDbText
 10
145.91552329
 20
47.4467660099
 30
0.0
 40
0.6666666667
  1
T   :  MOTEUR
 41
0.7954116058934268
 72
     5
 11
152.152560327
 21
47.4467660099
 31
0.0
100
AcDbText
  0
TEXT
  5
2F3
330
240
100
AcDbEntity
  8
0
  6
Continuous
 62
     2
100
AcDbText
 10
157.4992711178
 20
58.6667290935
 30
0.0
 40
0.6666666667
  1
68
 41
0.9470588234614575
 72
     5
 11
158.52149334
 21
58.6667290935
 31
0.0
100
AcDbText
  0
TEXT
  5
2F4
330
240
100
AcDbEntity
  8
0
  6
Continuous
 62
     2
100
AcDbText
 10
157.4992711178
 20
57.6667290935
 30
0.0
 40
0.6666666667
  1
56
 41
0.9757575756875622
 72
     5
 11
158.52149334
 21
57.6667290935
 31
0.0
100
AcDbText
  0
TEXT
  5
2F5
330
240
100
AcDbEntity
  8
0
  6
Continuous
 62
     2
100
AcDbText
 10
157.4992711178
 20
56.6667290935
 30
0.0
 40
0.6666666667
  1
55
 41
0.9470588234614575
 72
     5
 11
158.52149334
 21
56.6667290935
 31
0.0
100
AcDbText
  0
TEXT
  5
2F6
330
240
100
AcDbEntity
  8
0
  6
Continuous
 62
     2
100
AcDbText
 10
157.4992711178
 20
55.6667290935
 30
0.0
 40
0.6666666667
  1
54
 41
0.9199999999339873
 72
     5
 11
158.52149334
 21
55.6667290935
 31
0.0
100
AcDbText
  0
TEXT
  5
2F7
330
240
100
AcDbEntity
  8
0
  6
Continuous
 62
     2
100
AcDbText
 10
157.4992711178
 20
54.6667290935
 30
0.0
 40
0.6666666667
  1
40
 41
0.9470588234614575
 72
     5
 11
158.52149334
 21
54.6667290935
 31
0.0
100
AcDbText
  0
TEXT
  5
2F8
330
240
100
AcDbEntity
  8
0
  6
Continuous
 62
     2
100
AcDbText
 10
164.4194770615
 20
58.68380849560001
 30
0.0
 40
0.6666666667
  1
259
 41
0.9113207546515996
 72
     5
 11
165.9528103948
 21
58.68380849560001
 31
0.0
100
AcDbText
  0
TEXT
  5
2F9
330
240
100
AcDbEntity
  8
0
  6
Continuous
 62
     2
100
AcDbText
 10
164.4194770615
 20
57.6838084956
 30
0.0
 40
0.6666666667
  1
211
 41
1.178048780403287
 72
     5
 11
165.9528103948
 21
57.6838084956
 31
0.0
100
AcDbText
  0
TEXT
  5
2FA
330
240
100
AcDbEntity
  8
0
  6
Continuous
 62
     2
100
AcDbText
 10
164.4194770615
 20
56.6838084956
 30
0.0
 40
0.6666666667
  1
207
 41
0.8944444443802737
 72
     5
 11
165.9528103948
 21
56.6838084956
 31
0.0
100
AcDbText
  0
TEXT
  5
2FB
330
240
100
AcDbEntity
  8
0
  6
Continuous
 62
     2
100
AcDbText
 10
164.4194770615
 20
55.6838084956
 30
0.0
 40
0.6666666667
  1
204
 41
0.8781818181188141
 72
     5
 11
165.9528103948
 21
55.6838084956
 31
0.0
100
AcDbText
  0
TEXT
  5
2FC
330
240
100
AcDbEntity
  8
0
  6
Continuous
 62
     2
100
AcDbText
 10
164.4194770615
 20
54.6838084956
 30
0.0
 40
0.6666666667
  1
152
 41
0.9659999999306958
 72
     5
 11
165.9528103948
 21
54.6838084956
 31
0.0
100
AcDbText
  0
TEXT
  5
2FD
330
240
100
AcDbEntity
  8
0
  6
Continuous
 62
     2
100
AcDbText
 10
171.364115999
 20
58.6667290935
 30
0.0
 40
0.6666666667
  1
57
 41
0.9470588234614575
 72
     5
 11
172.3863382212
 21
58.6667290935
 31
0.0
100
AcDbText
  0
TEXT
  5
2FE
330
240
100
AcDbEntity
  8
0
  6
Continuous
 62
     2
100
AcDbText
 10
171.364115999
 20
57.6667290935
 30
0.0
 40
0.6666666667
  1
46
 41
0.9757575756875622
 72
     5
 11
172.3863382212
 21
57.6667290935
 31
0.0
100
AcDbText
  0
TEXT
  5
2FF
330
240
100
AcDbEntity
  8
0
  6
Continuous
 62
     2
100
AcDbText
 10
171.364115999
 20
56.6667290935
 30
0.0
 40
0.6666666667
  1
46
 41
0.9757575756875622
 72
     5
 11
172.3863382212
 21
56.6667290935
 31
0.0
100
AcDbText
  0
TEXT
  5
300
330
240
100
AcDbEntity
  8
0
  6
Continuous
 62
     2
100
AcDbText
 10
171.364115999
 20
55.6667290935
 30
0.0
 40
0.6666666667
  1
45
 41
0.9470588234614575
 72
     5
 11
172.3863382212
 21
55.6667290935
 31
0.0
100
AcDbText
  0
TEXT
  5
301
330
240
100
AcDbEntity
  8
0
  6
Continuous
 62
     2
100
AcDbText
 10
171.364115999
 20
54.6667290935
 30
0.0
 40
0.6666666667
  1
34
 41
0.9199999999339873
 72
     5
 11
172.3863382212
 21
54.6667290935
 31
0.0
100
AcDbText
  0
LINE
  5
302
330
240
100
AcDbEntity
  8
0
  6
Continuous
 62
     7
100
AcDbLine
 10
143.9999077518
 20
64.00006242679999
 30
0.0
 11
143.9999077518
 21
46.6667290935
 31
0.0
  0
LINE
  5
303
330
240
100
AcDbEntity
  8
0
  6
Continuous
 62
     7
100
AcDbLine
 10
143.9999077518
 20
64.00006242679999
 30
0.0
 11
177.3332410852
 21
64.00006242679999
 31
0.0
  0
LINE
  5
304
330
240
100
AcDbEntity
  8
0
  6
Continuous
 62
     7
100
AcDbLine
 10
177.3332410852
 20
64.00006242679999
 30
0.0
 11
177.3332410852
 21
46.6667290935
 31
0.0
  0
LINE
  5
305
330
240
100
AcDbEntity
  8
0
  6
Continuous
 62
     7
100
AcDbLine
 10
143.9999077518
 20
46.6667290935
 30
0.0
 11
177.3332410852
 21
46.6667290935
 31
0.0
  0
LINE
  5
306
330
240
100
AcDbEntity
  8
0
  6
Continuous
 62
     7
100
AcDbLine
 10
145.3332410852
 20
54.00006242679999
 30
0.0
 11
175.9999077518
 21
54.00006242679999
 31
0.0
  0
LINE
  5
307
330
240
100
AcDbEntity
  8
0
  6
Continuous
 62
     7
100
AcDbLine
 10
145.3332410852
 20
61.0000624268
 30
0.0
 11
175.9999077518
 21
61.0000624268
 31
0.0
  0
LINE
  5
308
330
240
100
AcDbEntity
  8
0
  6
Continuous
 62
     7
100
AcDbLine
 10
144.8088143111
 20
52.3782269312
 30
0.0
 11
144.4397935688
 21
52.0092061888
 31
0.0
  0
LINE
  5
309
330
240
100
AcDbEntity
  8
0
  6
Continuous
 62
     7
100
AcDbLine
 10
145.4754809778
 20
52.3782269312
 30
0.0
 11
144.6774651873
 21
51.58021114069999
 31
0.0
  0
LINE
  5
30A
330
240
100
AcDbEntity
  8
0
  6
Continuous
 62
     7
100
AcDbLine
 10
146.1421476444
 20
52.3782269312
 30
0.0
 11
145.344131854
 21
51.58021114069999
 31
0.0
  0
LINE
  5
30B
330
240
100
AcDbEntity
  8
0
  6
Continuous
 62
     7
100
AcDbLine
 10
146.8088143111
 20
52.3782269312
 30
0.0
 11
146.0107985207
 21
51.58021114069999
 31
0.0
  0
LINE
  5
30C
330
240
100
AcDbEntity
  8
0
  6
Continuous
 62
     7
100
AcDbLine
 10
147.4754809778
 20
52.3782269312
 30
0.0
 11
146.6774651873
 21
51.58021114069999
 31
0.0
  0
LINE
  5
30D
330
240
100
AcDbEntity
  8
0
  6
Continuous
 62
     7
100
AcDbLine
 10
148.1421476444
 20
52.3782269312
 30
0.0
 11
147.344131854
 21
51.58021114069999
 31
0.0
  0
LINE
  5
30E
330
240
100
AcDbEntity
  8
0
  6
Continuous
 62
     7
100
AcDbLine
 10
148.8088143111
 20
52.3782269312
 30
0.0
 11
148.0107985207
 21
51.58021114069999
 31
0.0
  0
LINE
  5
30F
330
240
100
AcDbEntity
  8
0
  6
Continuous
 62
     7
100
AcDbLine
 10
149.4754809778
 20
52.3782269312
 30
0.0
 11
148.6774651873
 21
51.58021114069999
 31
0.0
  0
LINE
  5
310
330
240
100
AcDbEntity
  8
0
  6
Continuous
 62
     7
100
AcDbLine
 10
150.1421476444
 20
52.3782269312
 30
0.0
 11
149.344131854
 21
51.58021114069999
 31
0.0
  0
LINE
  5
311
330
240
100
AcDbEntity
  8
0
  6
Continuous
 62
     7
100
AcDbLine
 10
150.5856350786
 20
52.15504769859999
 30
0.0
 11
150.0107985207
 21
51.58021114069999
 31
0.0
  0
ELLIPSE
  5
312
330
240
100
AcDbEntity
  8
0
  6
Continuous
 62
     7
100
AcDbEllipse
 10
146.145310234
 20
50.4310101337
 30
0.0
 11
1.0473539356
 21
0.0
 31
0.0
210
0.0
220
0.0
230
1.0
 40
0.4938647983
 41
0.0
 42
6.283185307179586
  0
ELLIPSE
  5
313
330
240
100
AcDbEntity
  8
0
  6
Continuous
 62
     7
100
AcDbEllipse
 10
146.145310234
 20
49.0976768004
 30
0.0
 11
1.0473539356
 21
0.0
 31
0.0
210
0.0
220
0.0
230
1.0
 40
0.4938647983
 41
0.0
 42
6.283185307179586
  0
ELLIPSE
  5
314
330
240
100
AcDbEntity
  8
0
  6
Continuous
 62
     7
100
AcDbEllipse
 10
146.145310234
 20
47.7643434671
 30
0.0
 11
1.0473539356
 21
0.0
 31
0.0
210
0.0
220
0.0
230
1.0
 40
0.4938647983
 41
0.0
 42
6.283185307179586
  0
ELLIPSE
  5
315
330
240
100
AcDbEntity
  8
0
  6
Continuous
 62
     7
100
AcDbEllipse
 10
157.1639458151
 20
50.4505314908
 30
0.0
 11
1.0473539356
 21
0.0
 31
0.0
210
0.0
220
0.0
230
1.0
 40
0.4938647983
 41
0.0
 42
6.283185307179586
  0
ENDBLK
  5
316
330
240
100
AcDbEntity
  8
0
  6
ByBlock
 62
     0
100
AcDbBlockEnd
  0
ENDSEC
  0
SECTION
  2
ENTITIES
  0
LWPOLYLINE
  5
1519
330
222
100
AcDbEntity
  8
0
  6
Continuous
 62
     7
100
AcDbPolyline
 90
       16
 70
     0
 43
0.0
 10
101.7650411295
 20
22.2007745666
 10
101.7727153518
 20
22.1942007696
 10
101.7814470534
 20
22.1872134654
 10
101.7913808303
 20
22.1798506266
 10
101.8026809393
 20
22.1721723335
 10
101.8155065506
 20
22.1642831551
 10
101.8299915352
 20
22.1563427777
 10
101.8462283286
 20
22.1485658363
 10
101.8642523958
 20
22.1412128612
 10
101.8840594402
 20
22.1345613691
 10
101.9055931807
 20
22.1288857176
 10
101.928737691
 20
22.1244223572
 10
101.9533435749
 20
22.1213161023
 10
101.9792746037
 20
22.1195589068
 10
102.006395086
 20
22.1189215238
 10
102.0261074876
 20
22.1188668003
  0
LWPOLYLINE
  5
151A
330
222
100
AcDbEntity
  8
0
  6
Continuous
 62
     7
100
AcDbPolyline
 90
        7
 70
     0
 43
0.0
 10
101.7583051616
 20
22.2069064004
 10
101.7650364356
 20
22.2007787185
 10
101.7727095008
 20
22.1942056229
 10
101.7814398672
 20
22.1872190117
 10
101.7913721518
 20
22.1798568012
 10
101.8026706715
 20
22.1721789917
 10
101.8154946771
 20
22.1642900745
  0
LINE
  5
151B
330
222
100
AcDbEntity
  8
0
  6
Continuous
 62
     7
100
AcDbLine
 10
101.7524404064
 20
22.2125428999
 30
0.0
 11
101.7583088919
 21
22.206902906
 31
0.0
  0
LWPOLYLINE
  5
151C
330
222
100
AcDbEntity
  8
0
  6
Continuous
 62
     7
100
AcDbPolyline
 90
        5
 70
     0
 43
0.0
 10
101.7377671342
 20
22.2280135007
 10
101.7399505455
 20
22.225576475
 10
101.7432230921
 20
22.2220162384
 10
101.7474059448
 20
22.2176194281
 10
101.7524374981
 20
22.2125457674
  0
LINE
  5
151D
330
222
100
AcDbEntity
  8
0
  6
Continuous
 62
     7
100
AcDbLine
 10
101.7369620233
 20
22.2289249961
 30
0.0
 11
101.7377671342
 21
22.2280135007
 31
0.0
  0
LWPOLYLINE
  5
151E
330
222
100
AcDbEntity
  8
0
  6
Continuous
 62
     7
100
AcDbPolyline
 90
        7
 70
     0
 43
0.0
 10
101.8299780941
 20
22.1563496947
 10
101.8462134157
 20
22.1485724631
 10
101.8642361708
 20
22.1412189067
 10
101.8840420987
 20
22.134566574
 10
101.9055749982
 20
22.1288898675
 10
101.9287190033
 20
22.1244253275
 10
101.9533247213
 20
22.1213179028
  0
LWPOLYLINE
  5
151F
330
222
100
AcDbEntity
  8
0
  6
Continuous
 62
     7
100
AcDbPolyline
 90
        3
 70
     0
 43
0.0
 10
99.19858524280002
 20
38.6930646192
 10
99.27336349850001
 20
37.9032793643
 10
99.3129085598
 20
37.5022396832
  0
LINE
  5
1520
330
222
100
AcDbEntity
  8
0
  6
Continuous
 62
     7
100
AcDbLine
 10
99.12513088270001
 20
39.5006343779
 30
0.0
 11
99.19858524280002
 21
38.6930646192
 31
0.0
  0
LINE
  5
1521
330
222
100
AcDbEntity
  8
0
  6
Continuous
 62
     7
100
AcDbLine
 10
99.0516553375
 20
40.3287504655
 30
0.0
 11
99.12513088270001
 21
39.5006343779
 31
0.0
  0
LINE
  5
1522
330
222
100
AcDbEntity
  8
0
  6
Continuous
 62
     7
100
AcDbLine
 10
98.97714041190001
 20
41.178819763
 30
0.0
 11
99.0516553375
 21
40.3287504655
 31
0.0
  0
LINE
  5
1523
330
222
100
AcDbEntity
  8
0
  6
Continuous
 62
     7
100
AcDbLine
 10
98.9206843918
 20
41.82497298949999
 30
0.0
 11
98.97714041190001
 21
41.178819763
 31
0.0
  0
LINE
  5
1524
330
222
100
AcDbEntity
  8
0
  6
Continuous
 62
     7
100
AcDbLine
 10
98.81648616159999
 20
43.0166741605
 30
0.0
 11
98.9206843918
 21
41.82497298949999
 31
0.0
  0
LWPOLYLINE
  5
1525
330
222
100
AcDbEntity
  8
0
  6
Continuous
 62
     7
100
AcDbPolyline
 90
        6
 70
     0
 43
0.0
 10
125.709497748
 20
22.1288857177
 10
125.7310314884
 20
22.1345613693
 10
125.7508385329
 20
22.1412128614
 10
125.7688626001
 20
22.1485658365
 10
125.7850993934
 20
22.1563427779
 10
125.799584378
 20
22.1642831553
  0
LWPOLYLINE
  5
1526
330
222
100
AcDbEntity
  8
0
  6
Continuous
 62
     7
100
AcDbPolyline
 90
        7
 70
     0
 43
0.0
 10
101.4095468713
 20
24.6445681582
 10
101.4236537944
 20
24.5431737578
 10
101.486790013
 20
24.0613618099
 10
101.5402657467
 20
23.6072779957
 10
101.584831569
 20
23.1859778097
 10
101.6219520979
 20
22.8003767861
 10
101.6525615472
 20
22.46087319969999
  0
LINE
  5
1527
330
222
100
AcDbEntity
  8
0
  6
Continuous
 62
     7
100
AcDbLine
 10
125.6863532376
 20
22.1244223572
 30
0.0
 11
125.7095159095
 21
22.1288898628
 31
0.0
  0
LINE
  5
1528
330
222
100
AcDbEntity
  8
0
  6
Continuous
 62
     7
100
AcDbLine
 10
125.6617473537
 20
22.1213161023
 30
0.0
 11
125.6863719017
 21
22.1244253238
 31
0.0
  0
LWPOLYLINE
  5
1529
330
222
100
AcDbEntity
  8
DEFAULT_2
  6
HIDDEN
 62
     8
100
AcDbPolyline
 90
       59
 70
     0
 43
0.0
 10
103.4790792301
 20
27.8835092227
 10
103.4849939929
 20
27.8256564829
 10
103.4925236523
 20
27.7573525477
 10
103.5010265125
 20
27.6908875236
 10
103.5109269762
 20
27.6262662607
 10
103.5225665975
 20
27.5634886071
 10
103.5360955684
 20
27.5026024036
 10
103.5515595427
 20
27.4436722967
 10
103.5689888209
 20
27.386745882
 10
103.5884020959
 20
27.3318545732
 10
103.6097723921
 20
27.2790190502
 10
103.6329737134
 20
27.2282689139
 10
103.6578753243
 20
27.1796265091
 10
103.6843640385
 20
27.133094731
 10
103.7123382357
 20
27.0886709499
 10
103.7416860937
 20
27.0463558025
 10
103.7722701845
 20
27.0061264677
 10
103.8039590251
 20
26.9679537548
 10
103.836634603
 20
26.9318057187
 10
103.8701913643
 20
26.8976485154
 10
103.9045348922
 20
26.86544694050001
 10
103.9395612436
 20
26.8351655354
 10
103.9751467631
 20
26.80677155170001
 10
104.0111731998
 20
26.7802299829
 10
104.0475289742
 20
26.7555034515
 10
104.0841085914
 20
26.73255252010001
 10
104.1208123832
 20
26.7113356852
 10
104.1575443155
 20
26.6918012836
 10
104.1941964727
 20
26.6738848315
 10
104.2306606566
 20
26.6575211315
 10
104.2667636039
 20
26.6426718147
 10
104.3022724047
 20
26.6293114965
 10
104.3369627892
 20
26.6173965711
 10
104.3706157831
 20
26.6068692729
 10
104.4030719772
 20
26.5976402749
 10
104.4342221074
 20
26.5895891402
 10
104.4639894001
 20
26.5825922091
 10
104.4923205541
 20
26.5765319577
 10
104.5191754822
 20
26.5713000928
 10
104.5445224342
 20
26.566798271
 10
104.5683321188
 20
26.5629384266
 10
104.5905955077
 20
26.559639292
 10
104.611325379
 20
26.556826422
 10
104.6305204307
 20
26.5544365498
 10
104.6481802048
 20
26.5524140867
 10
104.6645375569
 20
26.5506852853
 10
104.6797945083
 20
26.549191223
 10
104.6941624438
 20
26.547883021
 10
104.7078741941
 20
26.5467190922
 10
104.7213692381
 20
26.5456497563
 10
104.7354854913
 20
26.5446074587
 10
104.7510985285
 20
26.5435397249
 10
104.7685057749
 20
26.5424469383
 10
104.7876917155
 20
26.5413513799
 10
104.8086219241
 20
26.5402728337
 10
104.8311446097
 20
26.5392309451
 10
104.8549940456
 20
26.5382386056
 10
104.8799531321
 20
26.5372895106
 10
104.9191078501
 20
26.535900088
  0
LINE
  5
152A
330
222
100
AcDbEntity
  8
0
  6
Continuous
 62
     7
100
AcDbLine
 10
125.6358163248
 20
22.1195589068
 30
0.0
 11
125.661766181
 21
22.1213179004
 31
0.0
  0
LWPOLYLINE
  5
152B
330
222
100
AcDbEntity
  8
0
  6
Continuous
 62
     7
100
AcDbPolyline
 90
        4
 70
     0
 43
0.0
 10
101.9533247213
 20
22.1213179028
 10
101.9792559131
 20
22.1195597071
 10
102.0063768697
 20
22.1189216736
 10
102.0248679863
 20
22.1188702413
  0
LWPOLYLINE
  5
152C
330
222
100
AcDbEntity
  8
6_SURFACES
  6
HIDDEN
 62
     8
100
AcDbPolyline
 90
        3
 70
     0
 43
0.0
 10
103.3282034461
 20
29.1982680364
 10
103.3888892963
 20
28.7035678438
 10
103.4790905741
 20
27.8834987818
  0
LINE
  5
152D
330
222
100
AcDbEntity
  8
0
  6
Continuous
 62
     7
100
AcDbLine
 10
125.5889858315
 20
22.1188668003
 30
0.0
 11
125.6087140271
 21
22.1189216733
 31
0.0
  0
LWPOLYLINE
  5
152E
330
222
100
AcDbEntity
  8
0
  6
Continuous
 62
     7
100
AcDbPolyline
 90
        3
 70
     0
 43
0.0
 10
125.5889829916
 20
22.1188668003
 10
125.6086958424
 20
22.1189215238
 10
125.6358349864
 20
22.1195597058
  0
LINE
  5
152F
330
222
100
AcDbEntity
  8
0
  6
Continuous
 62
     7
100
AcDbLine
 10
102.0248679863
 20
22.1188702413
 30
0.0
 11
125.5889818487
 21
22.1188668003
 31
0.0
  0
LWPOLYLINE
  5
1530
330
222
100
AcDbEntity
  8
6_SURFACES
  6
HIDDEN
 62
     8
100
AcDbPolyline
 90
        9
 70
     0
 43
0.0
 10
100.2016496047
 20
42.8533273111
 10
100.7918848961
 20
40.9287657944
 10
101.3475153788
 20
39.0702677613
 10
101.856382306
 20
37.1152787444
 10
102.285358036
 20
35.23741691770001
 10
102.640709722
 20
33.4840763416
 10
102.9412716771
 20
31.8083639453
 10
103.190202735
 20
30.2144985512
 10
103.3087532811
 20
29.3496529054
  0
LWPOLYLINE
  5
1531
330
222
100
AcDbEntity
  8
DEFAULT_2
  6
HIDDEN
 62
     8
100
AcDbPolyline
 90
        5
 70
     0
 43
0.0
 10
122.0914718309
 20
26.2677290045
 10
122.2036895526
 20
26.299505809
 10
122.3069904929
 20
26.338711829
 10
122.4012028885
 20
26.3842469716
 10
122.4872042034
 20
26.4354993446
  0
LWPOLYLINE
  5
1532
330
222
100
AcDbEntity
  8
DEFAULT_2
  6
HIDDEN
 62
     8
100
AcDbPolyline
 90
        6
 70
     0
 43
0.0
 10
122.0914285168
 20
26.2677185888
 10
122.2036427677
 20
26.2994902722
 10
122.3069429419
 20
26.3386912673
 10
122.4011515674
 20
26.3842192601
 10
122.4871461878
 20
26.4354612522
 10
122.5662900761
 20
26.4923081973
  0
LWPOLYLINE
  5
1533
330
222
100
AcDbEntity
  8
DEFAULT_2
  6
HIDDEN
 62
     8
100
AcDbPolyline
 90
        3
 70
     0
 43
0.0
 10
121.7708360123
 20
26.2196555007
 10
121.8421052939
 20
26.2266552386
 10
121.970763616
 20
26.2436571588
  0
LWPOLYLINE
  5
1534
330
222
100
AcDbEntity
  8
DEFAULT_2
  6
HIDDEN
 62
     8
100
AcDbPolyline
 90
        4
 70
     0
 43
0.0
 10
121.7183750725
 20
26.2150019611
 10
121.8420926568
 20
26.2266538822
 10
121.9707329667
 20
26.243652149
 10
122.0914718309
 20
26.2677290045
  0
LINE
  5
1535
330
222
100
AcDbEntity
  8
DEFAULT_2
  6
HIDDEN
 62
     8
100
AcDbLine
 10
121.7183750777
 20
26.2150019615
 30
0.0
 11
121.7708360123
 21
26.2196555007
 31
0.0
  0
LINE
  5
1536
330
222
100
AcDbEntity
  8
DEFAULT_2
  6
HIDDEN
 62
     8
100
AcDbLine
 10
121.7183750777
 20
26.2150019615
 30
0.0
 11
120.7101917649
 21
26.1267973263
 31
0.0
  0
LINE
  5
1537
330
222
100
AcDbEntity
  8
DEFAULT_2
  6
HIDDEN
 62
     8
100
AcDbLine
 10
120.014960928
 20
25.6188668003
 30
0.0
 11
117.4741300003
 21
25.6188668003
 31
0.0
  0
LINE
  5
1538
330
222
100
AcDbEntity
  8
DEFAULT_2
  6
HIDDEN
 62
     8
100
AcDbLine
 10
117.4730988547
 20
25.6188668003
 30
0.0
 11
117.4741300003
 21
25.6188668003
 31
0.0
  0
LINE
  5
1539
330
222
100
AcDbEntity
  8
DEFAULT_2
  6
HIDDEN
 62
     8
100
AcDbLine
 10
120.014960928
 20
25.6188668003
 30
0.0
 11
120.0159920735
 21
25.6188668003
 31
0.0
  0
LWPOLYLINE
  5
153A
330
222
100
AcDbEntity
  8
DEFAULT_2
  6
HIDDEN
 62
     8
100
AcDbPolyline
 90
       23
 70
     0
 43
0.0
 10
104.632752479
 20
26.5541717846
 10
104.6006530829
 20
26.5582440757
 10
104.567173933
 20
26.5631183446
 10
104.5326043188
 20
26.5688638192
 10
104.4969304083
 20
26.5755995611
 10
104.4602206898
 20
26.5834423704
 10
104.422553521
 20
26.5925163619
 10
104.3840146961
 20
26.6029532427
 10
104.3446967358
 20
26.6148902843
 10
104.3047408881
 20
26.6284289637
 10
104.2643214214
 20
26.6436375718
 10
104.223601845
 20
26.6605818787
 10
104.1827344881
 20
26.679328038
 10
104.1418431614
 20
26.699954617
 10
104.1010174078
 20
26.7225636351
 10
104.0603642971
 20
26.7472414976
 10
104.0200009527
 20
26.7740472171
 10
103.9800502087
 20
26.803038626
 10
103.9406422102
 20
26.8342751671
 10
103.9019167029
 20
26.8678175033
 10
103.8640242763
 20
26.9037248293
 10
103.8271029234
 20
26.942048099
 10
103.8116740765
 20
26.959150702
  0
LINE
  5
153B
330
222
100
AcDbEntity
  8
DEFAULT_2
  6
HIDDEN
 62
     8
100
AcDbLine
 10
104.9191078562
 20
26.5359000878
 30
0.0
 11
116.7711243136
 21
26.1223013939
 31
0.0
  0
LINE
  5
153C
330
222
100
AcDbEntity
  8
6_SURFACES
  6
HIDDEN
 62
     8
100
AcDbLine
 10
117.2963221594
 20
25.692090105
 30
0.0
 11
116.9391820899
 21
26.0492301745
 31
0.0
  0
LINE
  5
153D
330
222
100
AcDbEntity
  8
DEFAULT_1
  6
CENTER
 62
     7
100
AcDbLine
 10
118.7445454641
 20
23.6716759695
 30
0.0
 11
118.7445454641
 21
27.0099116594
 31
0.0
  0
LINE
  5
153E
330
222
100
AcDbEntity
  8
6_SURFACES
  6
HIDDEN
 62
     8
100
AcDbLine
 10
120.1927687688
 20
25.692090105
 30
0.0
 11
120.5552040114
 21
26.0545253476
 31
0.0
  0
LINE
  5
153F
330
222
100
AcDbEntity
  8
DEFAULT_2
  6
HIDDEN
 62
     8
100
AcDbLine
 10
126.5675619579
 20
40.4410464564
 30
0.0
 11
126.5675313097
 21
40.4410464564
 31
0.0
  0
LINE
  5
1540
330
222
100
AcDbEntity
  8
DEFAULT_1
  6
CENTER
 62
     7
100
AcDbLine
 10
126.7208774383
 20
40.62153971239999
 30
0.0
 11
125.6541107717
 21
40.62153971239999
 31
0.0
  0
LINE
  5
1541
330
222
100
AcDbEntity
  8
DEFAULT_1
  6
CENTER
 62
     7
100
AcDbLine
 10
126.7208774383
 20
40.62153971239999
 30
0.0
 11
127.787644105
 21
40.62153971239999
 31
0.0
  0
LINE
  5
1542
330
222
100
AcDbEntity
  8
DEFAULT_2
  6
HIDDEN
 62
     8
100
AcDbLine
 10
126.6949658337
 20
40.8569616426
 30
0.0
 11
126.694996482
 21
40.8569616426
 31
0.0
  0
LWPOLYLINE
  5
1543
330
222
100
AcDbEntity
  8
6_SURFACES
  6
HIDDEN
 62
     8
100
AcDbPolyline
 90
        6
 70
     0
 43
0.0
 10
123.0440024215
 20
27.3501106867
 10
123.7497419472
 20
30.1304784773
 10
124.5405709494
 20
33.0871189515
 10
125.419048813
 20
36.2146099156
 10
126.3964053186
 20
39.52619540860001
 10
126.6381436854
 20
40.32005664079999
  0
LINE
  5
1544
330
222
100
AcDbEntity
  8
6_SURFACES
  6
HIDDEN
 62
     8
100
AcDbLine
 10
126.8212075701
 20
40.9176456427
 30
0.0
 11
127.413422577
 21
42.85346481829999
 31
0.0
  0
LINE
  5
1545
330
222
100
AcDbEntity
  8
DEFAULT_2
  6
HIDDEN
 62
     8
100
AcDbLine
 10
126.59271564
 20
40.20323420909999
 30
0.0
 11
126.8490494528
 21
41.03984521570001
 31
0.0
  0
LINE
  5
1546
330
222
100
AcDbEntity
  8
DEFAULT_2
  6
HIDDEN
 62
     8
100
AcDbLine
 10
126.592752126
 20
40.20323420909999
 30
0.0
 11
126.8490859388
 21
41.03984521570001
 31
0.0
  0
LWPOLYLINE
  5
1547
330
222
100
AcDbEntity
  8
DEFAULT_2
  6
HIDDEN
 62
     8
100
AcDbPolyline
 90
       15
 70
     0
 43
0.0
 10
127.4134248558
 20
42.8534640723
 10
127.422136302
 20
42.88141111729999
 10
127.4355480015
 20
42.9188110944
 10
127.4511108978
 20
42.9531089882
 10
127.4693291263
 20
42.9841744206
 10
127.4901959846
 20
43.01200041
 10
127.5134837235
 20
43.0366643056
 10
127.5391372639
 20
43.0581772909
 10
127.5671523272
 20
43.07645933159999
 10
127.5974545153
 20
43.09154828399999
 10
127.6300485138
 20
43.1034067179
 10
127.6649565751
 20
43.111806
 10
127.70218725
 20
43.11673053899999
 10
127.7417831025
 20
43.118686407
 10
127.7720497142
 20
43.11886680029999
  0
LINE
  5
1548
330
222
100
AcDbEntity
  8
0
  6
Continuous
 62
     7
100
AcDbLine
 10
128.7116624207
 20
40.92000924399999
 30
0.0
 11
128.7250939494
 21
40.94643670139999
 31
0.0
  0
LWPOLYLINE
  5
1549
330
222
100
AcDbEntity
  8
DEFAULT_2
  6
HIDDEN
 62
     8
100
AcDbPolyline
 90
        3
 70
     0
 43
0.0
 10
122.5662264281
 20
26.4922582424
 10
122.6394857746
 20
26.5549357317
 10
122.6689073659
 20
26.5833522181
  0
LWPOLYLINE
  5
154A
330
222
100
AcDbEntity
  8
DEFAULT_2
  6
HIDDEN
 62
     8
100
AcDbPolyline
 90
       10
 70
     0
 43
0.0
 10
122.5662900761
 20
26.4923081973
 10
122.6395505796
 20
26.5549961256
 10
122.7078418023
 20
26.6242868204
 10
122.771685672
 20
26.7012320929
 10
122.8311484404
 20
26.7871734174
 10
122.8857627218
 20
26.8830907128
 10
122.9343974887
 20
26.9889742165
 10
122.9767094309
 20
27.1044293473
 10
123.0132489371
 20
27.2288045795
 10
123.0440018819
 20
27.3501084969
  0
LINE
  5
154B
330
222
100
AcDbEntity
  8
0
  6
Continuous
 62
     9
100
AcDbLine
 10
98.82394958849999
 20
42.9313668003
 30
0.0
 11
128.7911413397
 21
42.9313668003
 31
0.0
  0
LINE
  5
154C
330
222
100
AcDbEntity
  8
0
  6
Continuous
 62
     7
100
AcDbLine
 10
128.7966093812
 20
42.99386680029999
 30
0.0
 11
98.81848154709999
 21
42.99386680029999
 31
0.0
  0
LINE
  5
154D
330
222
100
AcDbEntity
  8
0
  6
Continuous
 62
     9
100
AcDbLine
 10
98.81648616159999
 20
43.0166741605
 30
0.0
 11
128.7986047667
 21
43.0166741605
 31
0.0
  0
LINE
  5
154E
330
222
100
AcDbEntity
  8
0
  6
Continuous
 62
     7
100
AcDbLine
 10
128.704962465
 20
43.11886680029999
 30
0.0
 11
98.9101284632
 21
43.11886680029999
 31
0.0
  0
LINE
  5
154F
330
222
100
AcDbEntity
  8
DEFAULT_1
  6
CENTER
 62
     7
100
AcDbLine
 10
126.7208774383
 20
40.62153971239999
 30
0.0
 11
126.7208774383
 21
39.5547730457
 31
0.0
  0
LINE
  5
1550
330
222
100
AcDbEntity
  8
DEFAULT_1
  6
CENTER
 62
     7
100
AcDbLine
 10
126.7208774383
 20
40.62153971239999
 30
0.0
 11
126.7208774383
 21
41.6883063791
 31
0.0
  0
LWPOLYLINE
  5
1551
330
222
100
AcDbEntity
  8
6_SURFACES
  6
Continuous
 62
     7
100
AcDbPolyline
 90
        7
 70
     0
 43
0.0
 10
125.9625293286
 20
22.4608726048
 10
125.9931388428
 20
22.8003769202
 10
126.0302593725
 20
23.1859779418
 10
126.0748251959
 20
23.6072781248
 10
126.1283009309
 20
24.0613619356
 10
126.1914371507
 20
24.5431738797
 10
126.2050726764
 20
24.6412120248
  0
LINE
  5
1552
330
222
100
AcDbEntity
  8
0
  6
Continuous
 62
     7
100
AcDbLine
 10
125.9625815944
 20
22.4614523087
 30
0.0
 11
125.9931388428
 21
22.8003769201
 31
0.0
  0
LWPOLYLINE
  5
1553
330
222
100
AcDbEntity
  8
0
  6
Continuous
 62
     7
100
AcDbPolyline
 90
        3
 70
     0
 43
0.0
 10
125.9931388428
 20
22.8003769201
 10
126.0302593725
 20
23.1859779418
 10
126.0748251959
 20
23.6072781248
  0
LINE
  5
1554
330
222
100
AcDbEntity
  8
DEFAULT_1
  6
CENTER
 62
     7
100
AcDbLine
 10
125.6113952401
 20
40.9614871737
 30
0.0
 11
128.0395590903
 21
40.2175087979
 31
0.0
  0
LINE
  5
1555
330
222
100
AcDbEntity
  8
0
  6
Continuous
 62
     7
100
AcDbLine
 10
128.7390381609
 20
41.0837511805
 30
0.0
 11
128.7428916088
 21
41.1305334711
 31
0.0
  0
LINE
  5
1556
330
222
100
AcDbEntity
  8
0
  6
Continuous
 62
     7
100
AcDbLine
 10
128.7433668218
 20
41.1333537389
 30
0.0
 11
128.7395133738
 21
41.0865714483
 31
0.0
  0
LINE
  5
1557
330
222
100
AcDbEntity
  8
0
  6
Continuous
 62
     7
100
AcDbLine
 10
128.7395335899
 20
41.08375300289999
 30
0.0
 11
128.7433870379
 21
41.1305352935
 31
0.0
  0
LINE
  5
1558
330
222
100
AcDbEntity
  8
0
  6
Continuous
 62
     7
100
AcDbLine
 10
128.7438622508
 20
41.1333555613
 30
0.0
 11
128.7400088029
 21
41.0865732707
 31
0.0
  0
LINE
  5
1559
330
222
100
AcDbEntity
  8
0
  6
Continuous
 62
     7
100
AcDbLine
 10
128.7400288231
 20
41.08375300289999
 30
0.0
 11
128.7438822711
 21
41.1305352935
 31
0.0
  0
LINE
  5
155A
330
222
100
AcDbEntity
  8
0
  6
Continuous
 62
     7
100
AcDbLine
 10
128.7443574841
 20
41.1333555613
 30
0.0
 11
128.7405040361
 21
41.0865732707
 31
0.0
  0
LINE
  5
155B
330
222
100
AcDbEntity
  8
0
  6
Continuous
 62
     7
100
AcDbLine
 10
128.7911413397
 20
42.9313668003
 30
0.0
 11
128.7986047667
 21
43.0166741605
 31
0.0
  0
LINE
  5
155C
330
222
100
AcDbEntity
  8
6_SURFACES
  6
Continuous
 62
     7
100
AcDbLine
 10
128.6979232271
 20
41.8652223895
 30
0.0
 11
128.7911413397
 21
42.9313668003
 31
0.0
  0
LINE
  5
155D
330
222
100
AcDbEntity
  8
6_SURFACES
  6
Continuous
 62
     7
100
AcDbLine
 10
128.5634355922
 20
40.3287504822
 30
0.0
 11
128.5673688134
 21
40.37362082869999
 31
0.0
  0
LWPOLYLINE
  5
155E
330
222
100
AcDbEntity
  8
6_SURFACES
  6
Continuous
 62
     7
100
AcDbPolyline
 90
        5
 70
     0
 43
0.0
 10
128.3021823684
 20
37.502239683
 10
128.3417274328
 20
37.9032793962
 10
128.416505688
 20
38.6930646462
 10
128.4899600475
 20
39.5006343998
 10
128.5634355922
 20
40.3287504822
  0
LINE
  5
155F
330
222
100
AcDbEntity
  8
0
  6
Continuous
 62
     7
100
AcDbLine
 10
126.0748251959
 20
23.6072781248
 30
0.0
 11
126.1283009309
 21
24.0613619355
 31
0.0
  0
LINE
  5
1560
330
222
100
AcDbEntity
  8
0
  6
Continuous
 62
     7
100
AcDbLine
 10
126.1283009309
 20
24.0613619355
 30
0.0
 11
126.1914371507
 21
24.5431738797
 31
0.0
  0
LINE
  5
1561
330
222
100
AcDbEntity
  8
0
  6
Continuous
 62
     7
100
AcDbLine
 10
126.1914371507
 20
24.5431738797
 30
0.0
 11
126.205544057
 21
24.6445681582
 31
0.0
  0
LWPOLYLINE
  5
1562
330
222
100
AcDbEntity
  8
0
  6
Continuous
 62
     7
100
AcDbPolyline
 90
       10
 70
     0
 43
0.0
 10
125.7310488116
 20
22.1345665686
 10
125.750854742
 20
22.1412189009
 10
125.7688774996
 20
22.1485724573
 10
125.7851128232
 20
22.156349689
 10
125.7995962421
 20
22.1642900692
 10
125.8124202493
 20
22.1721789868
 10
125.8237187704
 20
22.1798567968
 10
125.833651056
 20
22.1872190078
 10
125.8423814233
 20
22.1942056195
 10
125.8500544893
 20
22.2007787154
  0
LINE
  5
1563
330
222
100
AcDbEntity
  8
0
  6
Continuous
 62
     7
100
AcDbLine
 10
125.8774461867
 20
22.2281516138
 30
0.0
 11
125.878128905
 21
22.2289249961
 31
0.0
  0
LWPOLYLINE
  5
1564
330
222
100
AcDbEntity
  8
0
  6
Continuous
 62
     7
100
AcDbPolyline
 90
        4
 70
     0
 43
0.0
 10
125.8676827647
 20
22.21761714
 10
125.8718661829
 20
22.2220144671
 10
125.8751391862
 20
22.2255751532
 10
125.8774461867
 20
22.2281516138
  0
LWPOLYLINE
  5
1565
330
222
100
AcDbEntity
  8
0
  6
Continuous
 62
     7
100
AcDbPolyline
 90
        6
 70
     0
 43
0.0
 10
125.8336438751
 20
22.1872134655
 10
125.8423755766
 20
22.1942007697
 10
125.8500497988
 20
22.2007745667
 10
125.8567820364
 20
22.206902906
 10
125.8626505219
 20
22.2125428999
 10
125.8676827647
 20
22.21761714
  0
LINE
  5
1566
330
222
100
AcDbEntity
  8
0
  6
Continuous
 62
     7
100
AcDbLine
 10
128.7447785648
 20
41.2994499979
 30
0.0
 11
128.7534289172
 21
41.2710953179
 31
0.0
  0
ARC
  5
25A8
330
222
100
AcDbEntity
  8
0
  6
Continuous
 62
     7
100
AcDbCircle
 10
235.1464583094
 20
51.1028019339
 30
0.0
 40
136.5127412668
100
AcDbArc
 50
185.451826852
 51
185.7177793639
  0
ARC
  5
25A9
330
222
100
AcDbEntity
  8
0
  6
Continuous
 62
     7
100
AcDbCircle
 10
193.9971531041
 20
35.4006600958
 30
0.0
 40
65.63063373140001
100
AcDbArc
 50
175.0016474486
 51
175.3553006085
  0
ARC
  5
25AA
330
222
100
AcDbEntity
  8
0
  6
Continuous
 62
     7
100
AcDbCircle
 10
188.4525577711
 20
35.9091107654
 30
0.0
 40
59.9572165096
100
AcDbArc
 50
174.6637754342
 51
175.0239701171
  0
ARC
  5
25AB
330
222
100
AcDbEntity
  8
0
  6
Continuous
 62
     7
100
AcDbCircle
 10
188.4127651601
 20
35.8886456727
 30
0.0
 40
59.9193537375
100
AcDbArc
 50
175.0011744012
 51
175.3604510568
  0
ARC
  5
25AC
330
222
100
AcDbEntity
  8
0
  6
Continuous
 62
     7
100
AcDbCircle
 10
185.7982405092
 20
36.14171960130001
 30
0.0
 40
57.2925049287
100
AcDbArc
 50
174.6484694420999
 51
175.0254502773
  0
ARC
  5
25AD
330
222
100
AcDbEntity
  8
0
  6
Continuous
 62
     7
100
AcDbCircle
 10
185.7583393737
 20
36.1193577472
 30
0.0
 40
57.2546989418
100
AcDbArc
 50
174.9996942291
 51
175.3757665954
  0
ARC
  5
25AE
330
222
100
AcDbEntity
  8
0
  6
Continuous
 62
     7
100
AcDbCircle
 10
78.4273293354
 20
45.5452461516
 30
0.0
 40
50.49745291779999
100
AcDbArc
 50
355.1845315295
 51
355.3877734119
  0
ARC
  5
25AF
330
222
100
AcDbEntity
  8
0
  6
Continuous
 62
     7
100
AcDbCircle
 10
78.43271022189999
 20
45.4538174379
 30
0.0
 40
50.4841429256
100
AcDbArc
 50
354.6363530166
 51
354.8394216892
  0
ARC
  5
25B0
330
222
100
AcDbEntity
  8
0
  6
Continuous
 62
     7
100
AcDbCircle
 10
64.6073000208
 20
19.4720198625
 30
0.0
 40
37.16396933489999
100
AcDbArc
 50
7.454546652799999
 51
7.995278565899999
  0
ARC
  5
25B1
330
222
100
AcDbEntity
  8
0
  6
Continuous
 62
     7
100
AcDbCircle
 10
163.0077908548
 20
19.4720198697
 30
0.0
 40
37.1639692817
100
AcDbArc
 50
172.004721433
 51
172.5454533822
  0
ARC
  5
25B2
330
222
100
AcDbEntity
  8
0
  6
Continuous
 62
     7
100
AcDbCircle
 10
162.0129424557999
 20
19.6051471454
 30
0.0
 40
36.1602715057
100
AcDbArc
 50
172.867417592
 51
173.6045660825999
  0
ARC
  5
25B3
330
222
100
AcDbEntity
  8
0
  6
Continuous
 62
     7
100
AcDbCircle
 10
65.60214968470001
 20
19.6051472907
 30
0.0
 40
36.1602702849
100
AcDbArc
 50
6.3954351113
 51
7.1325823223
  0
ARC
  5
25B4
330
222
100
AcDbEntity
  8
0
  6
Continuous
 62
     7
100
AcDbCircle
 10
161.8606942798
 20
19.6220846474
 30
0.0
 40
36.0070985071
100
AcDbArc
 50
172.5454097236
 51
172.8640798468999
  0
ARC
  5
25B5
330
222
100
AcDbEntity
  8
0
  6
Continuous
 62
     7
100
AcDbCircle
 10
65.7543967571
 20
19.6220846614
 30
0.0
 40
36.0070983976
100
AcDbArc
 50
7.135920056099999
 51
7.454590312299999
  0
ARC
  5
25B6
330
222
100
AcDbEntity
  8
0
  6
Continuous
 62
     9
100
AcDbCircle
 10
113.3875370486
 20
42.5604889806
 30
0.0
 40
15.4099770512
100
AcDbArc
 50
355.4555197589
 51
355.6162742413
  0
ARC
  5
25B7
330
222
100
AcDbEntity
  8
0
  6
Continuous
 62
     9
100
AcDbCircle
 10
113.7718232571
 20
42.41509839389999
 30
0.0
 40
15.0282648192
100
AcDbArc
 50
355.0124553996
 51
355.1294626166001
  0
ARC
  5
25B8
330
222
100
AcDbEntity
  8
0
  6
Continuous
 62
     9
100
AcDbCircle
 10
114.3847401287
 20
42.2403487098
 30
0.0
 40
14.3886742468
100
AcDbArc
 50
354.4033573144
 51
354.5771701489
  0
ARC
  5
25B9
330
222
100
AcDbEntity
  8
0
  6
Continuous
 62
     9
100
AcDbCircle
 10
114.9810083149
 20
42.30793239949999
 30
0.0
 40
13.8143413671
100
AcDbArc
 50
354.7722855235
 51
355.0192352701
  0
ARC
  5
25BA
330
222
100
AcDbEntity
  8
0
  6
Continuous
 62
     9
100
AcDbCircle
 10
115.5332372231
 20
42.2650483786
 30
0.0
 40
13.2604711977
100
AcDbArc
 50
355.1379416712001
 51
355.2528308065
  0
ARC
  5
25BB
330
222
100
AcDbEntity
  8
0
  6
Continuous
 62
     9
100
AcDbCircle
 10
141.4246112552
 20
39.9936790095
 30
0.0
 40
12.7359025897
100
AcDbArc
 50
175.104295709
 51
175.4483124300999
  0
ARC
  5
25BC
330
222
100
AcDbEntity
  8
0
  6
Continuous
 62
     9
100
AcDbCircle
 10
140.1986732365
 20
40.1218334325
 30
0.0
 40
11.50346143
100
AcDbArc
 50
174.556194483
 51
174.9674825324
  0
ARC
  5
25BD
330
222
100
AcDbEntity
  8
0
  6
Continuous
 62
     7
100
AcDbCircle
 10
118.5572557231
 20
42.01131478839999
 30
0.0
 40
10.2258329434
100
AcDbArc
 50
355.0899997923
 51
355.5338937681
  0
ARC
  5
25BE
330
222
100
AcDbEntity
  8
0
  6
Continuous
 62
     7
100
AcDbCircle
 10
119.1394358541
 20
41.9293017605
 30
0.0
 40
9.638722235499999
100
AcDbArc
 50
354.4985005822
 51
354.9425520958999
  0
ARC
  5
25BF
330
222
100
AcDbEntity
  8
0
  6
Continuous
 62
     9
100
AcDbCircle
 10
119.6029166891
 20
42.0834748961
 30
0.0
 40
9.1763194669
100
AcDbArc
 50
355.6238931586
 51
355.852055201
  0
ARC
  5
25C0
330
222
100
AcDbEntity
  8
0
  6
Continuous
 62
     9
100
AcDbCircle
 10
120.3977937527
 20
41.64893587019999
 30
0.0
 40
8.346607029699999
100
AcDbArc
 50
354.1629918492
 51
354.4158193139
  0
ARC
  5
25C1
330
222
100
AcDbEntity
  8
0
  6
Continuous
 62
     9
100
AcDbCircle
 10
129.2031730583
 20
41.2461661373
 30
0.0
 40
0.4642115143
100
AcDbArc
 50
172.8314161495999
 51
173.2923496939
  0
ARC
  5
25C2
330
222
100
AcDbEntity
  8
0
  6
Continuous
 62
     9
100
AcDbCircle
 10
129.1171080965
 20
40.89601243399999
 30
0.0
 40
0.4088853446
100
AcDbArc
 50
176.7016092799
 51
177.2358300413
  0
ARC
  5
25C3
330
222
100
AcDbEntity
  8
0
  6
Continuous
 62
     7
100
AcDbCircle
 10
125.6393274464
 20
22.4390761795
 30
0.0
 40
0.318103295
100
AcDbArc
 50
312.534943731
 51
318.4660947804
  0
ARC
  5
25C4
330
222
100
AcDbEntity
  8
0
  6
Continuous
 62
     7
100
AcDbCircle
 10
125.6401187894
 20
22.4383481357
 30
0.0
 40
0.3170281861
100
AcDbArc
 50
318.4697593397
 51
318.6488035998
  0
ARC
  5
25C5
330
222
100
AcDbEntity
  8
DEFAULT_2
  6
HIDDEN
 62
     8
100
AcDbCircle
 10
117.4730988547
 20
25.8688668003
 30
0.0
 40
0.25
100
AcDbArc
 50
225.0
 51
270.0
  0
ARC
  5
25C6
330
222
100
AcDbEntity
  8
DEFAULT_2
  6
HIDDEN
 62
     8
100
AcDbCircle
 10
120.0159920735
 20
25.8688668003
 30
0.0
 40
0.25
100
AcDbArc
 50
270.0
 51
315.0
  0
ARC
  5
25C7
330
222
100
AcDbEntity
  8
DEFAULT_2
  6
HIDDEN
 62
     8
100
AcDbCircle
 10
116.7624053946
 20
25.8724534792
 30
0.0
 40
0.25
100
AcDbArc
 50
45.0
 51
88.00136566290001
  0
ARC
  5
25C8
330
222
100
AcDbEntity
  8
DEFAULT_2
  6
HIDDEN
 62
     8
100
AcDbCircle
 10
120.7319807067
 20
25.8777486523
 30
0.0
 40
0.25
100
AcDbArc
 50
95.00000138870001
 51
135.0
  0
ARC
  5
25C9
330
222
100
AcDbEntity
  8
0
  6
Continuous
 62
     7
100
AcDbCircle
 10
128.634732081
 20
41.6863749496
 30
0.0
 40
0.1875949414
100
AcDbArc
 50
35.2261955133
 51
73.2640866119
  0
ARC
  5
25CA
330
222
100
AcDbEntity
  8
0
  6
Continuous
 62
     7
100
AcDbCircle
 10
128.5362516357
 20
40.557997906
 30
0.0
 40
0.1875949268
100
AcDbArc
 50
276.7600749588
 51
314.7979683817
  0
ARC
  5
25CB
330
222
100
AcDbEntity
  8
0
  6
Continuous
 62
     7
100
AcDbCircle
 10
128.704962465
 20
43.02486680029999
 30
0.0
 40
0.094
100
AcDbArc
 50
355.0
 51
90.0
  0
ARC
  5
25CC
330
222
100
AcDbEntity
  8
0
  6
Continuous
 62
     7
100
AcDbCircle
 10
98.9101284632
 20
43.02486680029999
 30
0.0
 40
0.094
100
AcDbArc
 50
90.0
 51
185.0
  0
ARC
  5
25CD
330
222
100
AcDbEntity
  8
0
  6
Continuous
 62
     7
100
AcDbCircle
 10
102.0513072333
 20
22.1818668003
 30
0.0
 40
0.063
100
AcDbArc
 50
270.0000068883
 51
281.3099337581
  0
ARC
  5
25CE
330
222
100
AcDbEntity
  8
0
  6
Continuous
 62
     7
100
AcDbCircle
 10
125.5637836949
 20
22.1818668003
 30
0.0
 40
0.063
100
AcDbArc
 50
258.6900662419
 51
269.9999931117
  0
SPLINE
  5
25F8
330
222
100
AcDbEntity
  8
DEFAULT_2
  6
HIDDEN
 62
     8
100
AcDbSpline
210
0.0
220
0.0
230
1.0
 70
     8
 71
     3
 72
    51
 73
    47
 74
     0
 42
0.0000001
 43
0.0000000001
 40
0.0
 40
0.0
 40
0.0
 40
0.0
 40
0.0001678431
 40
0.0006256708
 40
0.0013817731
 40
0.0024370811
 40
0.0037916241
 40
0.0054448398
 40
0.0096427726
 40
0.0150213462
 40
0.0215680434
 40
0.0292666911
 40
0.0380994885
 40
0.048044494
 40
0.0590784583
 40
0.0843033228
 40
0.1135313768
 40
0.1464811039
 40
0.1828351122
 40
0.2222435451
 40
0.2643271042
 40
0.3086803849
 40
0.4024689136
 40
0.5000058513000001
 40
0.5975420149000001
 40
0.6913288054000001
 40
0.735680928
 40
0.7777632021
 40
0.8171703051000001
 40
0.8535231213999999
 40
0.8864717877
 40
0.9156989569
 40
0.9409231334999999
 40
0.951956842
 40
0.9619016387999998
 40
0.9707342719999999
 40
0.9784328298999998
 40
0.9849794413999999
 40
0.9903579769
 40
0.9945558640000001
 40
0.9962090546999998
 40
0.9975635708
 40
0.9986188393
 40
0.9993748756999998
 40
0.9998325734999999
 40
1.0
 40
1.0
 40
1.0
 40
1.0
 10
126.8175092195
 20
40.9187788006
 30
0.0
 10
126.8174757829
 20
40.91878904539999
 30
0.0
 10
126.8174014579
 20
40.91861668049999
 30
0.0
 10
126.8172841196
 20
40.9184117773
 30
0.0
 10
126.8171017577
 20
40.9179430116
 30
0.0
 10
126.8168667825
 20
40.9173408487
 30
0.0
 10
126.8165746068
 20
40.9165407909
 30
0.0
 10
126.8160707796
 20
40.9151291107
 30
0.0
 10
126.8153077968
 20
40.9129154868
 30
0.0
 10
126.814235015
 20
40.90973276929999
 30
0.0
 10
126.8129479645
 20
40.90585160349999
 30
0.0
 10
126.8114498967
 20
40.90128256479999
 30
0.0
 10
126.8097447095
 20
40.8960361935
 30
0.0
 10
126.8078365656
 20
40.8901251284
 30
0.0
 10
126.8048941866
 20
40.8809590176
 30
0.0
 10
126.8007508671
 20
40.8679587993
 30
0.0
 10
126.7952545492
 20
40.8505972781
 30
0.0
 10
126.7890885888
 20
40.83101554499999
 30
0.0
 10
126.7823131983
 20
40.80940193039999
 30
0.0
 10
126.774994486
 20
40.78596425919999
 30
0.0
 10
126.7672037026
 20
40.7609279578
 30
0.0
 10
126.756078895
 20
40.72506290089999
 30
0.0
 10
126.7415914894
 20
40.6781438507
 30
0.0
 10
126.7239241661
 20
40.620609637
 30
0.0
 10
126.7063447771
 20
40.56304887289999
 30
0.0
 10
126.6920756071
 20
40.51606379089999
 30
0.0
 10
126.6812108
 20
40.4801200266
 30
0.0
 10
126.6736473749
 20
40.45501492599999
 30
0.0
 10
126.6665882085
 20
40.4314986082
 30
0.0
 10
126.6601003957
 20
40.40979771589999
 30
0.0
 10
126.6542454093
 20
40.3901214452
 30
0.0
 10
126.6490786793
 20
40.37265957679999
 30
0.0
 10
126.6452326968
 20
40.3595687102
 30
0.0
 10
126.6425382559
 20
40.35032692749999
 30
0.0
 10
126.6408093809
 20
40.34436110269999
 30
0.0
 10
126.6392844116
 20
40.33905964239999
 30
0.0
 10
126.6379669667
 20
40.3344353617
 30
0.0
 10
126.6368597098
 20
40.3304991734
 30
0.0
 10
126.635965881
 20
40.3272616826
 30
0.0
 10
126.6353579185
 20
40.3250005766
 30
0.0
 10
126.6349843381
 20
40.32354902499999
 30
0.0
 10
126.6347779183
 20
40.3227226574
 30
0.0
 10
126.634635135
 20
40.32209236949999
 30
0.0
 10
126.6345228533
 20
40.32160189649999
 30
0.0
 10
126.6345055802
 20
40.32136684050001
 30
0.0
 10
126.6344694695
 20
40.32118240389999
 30
0.0
 10
126.6345028231
 20
40.32117218449999
 30
0.0
  0
SPLINE
  5
25F9
330
222
100
AcDbEntity
  8
DEFAULT_2
  6
HIDDEN
 62
     8
100
AcDbSpline
210
0.0
220
0.0
230
1.0
 70
     8
 71
     3
 72
    11
 73
     7
 74
     0
 42
0.0000001
 43
0.0000000001
 40
0.0
 40
0.0
 40
0.0
 40
0.0
 40
0.2498730331
 40
0.4997698160000001
 40
0.7497613756
 40
1.0
 40
1.0
 40
1.0
 40
1.0
 10
100.2016495474
 20
42.85332757659999
 30
0.0
 10
100.1978864626
 20
42.8656580323
 30
0.0
 10
100.1903133739
 20
42.8903088987
 30
0.0
 10
100.176951077
 20
42.92664896109999
 30
0.0
 10
100.1602668196
 20
42.96164765859999
 30
0.0
 10
100.1464490404
 20
42.9835386883
 30
0.0
 10
100.1388861114
 20
42.994002423
 30
0.0
  0
SPLINE
  5
25FA
330
222
100
AcDbEntity
  8
DEFAULT_2
  6
HIDDEN
 62
     8
100
AcDbSpline
210
0.0
220
0.0
230
1.0
 70
     8
 71
     3
 72
    14
 73
    10
 74
     0
 42
0.0000001
 43
0.0000000001
 40
0.0
 40
0.0
 40
0.0
 40
0.0
 40
0.2495485973
 40
0.374470611
 40
0.4996105347000001
 40
0.6248424378000001
 40
0.7499284612000001
 40
0.8749737101
 40
1.0
 40
1.0
 40
1.0
 40
1.0
 10
100.1388861114
 20
42.994002423
 30
0.0
 10
100.1225472851
 20
43.0166081018
 30
0.0
 10
100.0932184566
 20
43.04752121569999
 30
0.0
 10
100.0465020107
 20
43.0784043362
 30
0.0
 10
100.0084146867
 20
43.0963225454
 30
0.0
 10
99.96824895270002
 20
43.10891043979999
 30
0.0
 10
99.92680222629999
 20
43.11607088189999
 30
0.0
 10
99.88491052229999
 20
43.11881314189999
 30
0.0
 10
99.85695496259999
 20
43.11886680029999
 30
0.0
 10
99.8429807051
 20
43.11886680029999
 30
0.0
  0
SPLINE
  5
25FB
330
222
100
AcDbEntity
  8
DEFAULT_2
  6
HIDDEN
 62
     8
100
AcDbSpline
210
0.0
220
0.0
230
1.0
 70
     8
 71
     3
 72
    17
 73
    13
 74
     0
 42
0.0000001
 43
0.0000000001
 40
0.0
 40
0.0
 40
0.0
 40
0.0
 40
0.1248942673
 40
0.1873485522
 40
0.2498383043
 40
0.3748095239
 40
0.4373091632000001
 40
0.4998346222
 40
0.6248647832000001
 40
0.7499017903000001
 40
0.8749527010999999
 40
1.0
 40
1.0
 40
1.0
 40
1.0
 10
121.7708338634
 20
26.2196789117
 30
0.0
 10
121.8119141627
 20
26.223449813
 30
0.0
 10
121.8735026444
 20
26.2296260413
 30
0.0
 10
121.9552696918
 20
26.2408625064
 30
0.0
 10
122.0366515618
 20
26.2547439786
 30
0.0
 10
122.1172696095
 20
26.2730420074
 30
0.0
 10
122.1964371417
 20
26.2966129842
 30
0.0
 10
122.2744035883
 20
26.323950776
 30
0.0
 10
122.3692505086
 20
26.3652314987
 30
0.0
 10
122.4772627148
 20
26.4264136479
 30
0.0
 10
122.5781051161
 20
26.49881268570001
 30
0.0
 10
122.639715345
 20
26.5541321979
 30
0.0
 10
122.6689076154
 20
26.5833519689
 30
0.0
  0
SPLINE
  5
25FC
330
222
100
AcDbEntity
  8
DEFAULT_2
  6
HIDDEN
 62
     8
100
AcDbSpline
210
0.0
220
0.0
230
1.0
 70
     8
 71
     3
 72
    14
 73
    10
 74
     0
 42
0.0000001
 43
0.0000000001
 40
0.0
 40
0.0
 40
0.0
 40
0.0
 40
0.1250830147
 40
0.2501453318
 40
0.3752073419
 40
0.5002264883
 40
0.6252199184000001
 40
0.7501993515000001
 40
1.0
 40
1.0
 40
1.0
 40
1.0
 10
122.6689076154
 20
26.5833519689
 30
0.0
 10
122.6944152218
 20
26.6088836046
 30
0.0
 10
122.7430565222
 20
26.6623767103
 30
0.0
 10
122.8081313288
 20
26.7490777124
 30
0.0
 10
122.8651009097
 20
26.84128062340001
 30
0.0
 10
122.9139105454
 20
26.9380086759
 30
0.0
 10
122.9549276582
 20
27.0382313556
 30
0.0
 10
123.0006175028
 20
27.17509767760001
 30
0.0
 10
123.0267430192
 20
27.2801303886
 30
0.0
 10
123.0440018771
 20
27.3501084821
 30
0.0
  0
SPLINE
  5
25FD
330
222
100
AcDbEntity
  8
DEFAULT_2
  6
HIDDEN
 62
     8
100
AcDbSpline
210
0.0
220
0.0
230
1.0
 70
     8
 71
     3
 72
    51
 73
    47
 74
     0
 42
0.0000001
 43
0.0000000001
 40
0.0
 40
0.0
 40
0.0
 40
0.0
 40
0.0001675319
 40
0.0006252693
 40
0.0013813302
 40
0.0024366165
 40
0.0037911461
 40
0.0054443489
 40
0.0096422549
 40
0.0150207967
 40
0.0215674078
 40
0.0292659632
 40
0.038098594
 40
0.0480433949
 40
0.0590771186
 40
0.0843013267
 40
0.1135284933
 40
0.1464771112
 40
0.1828298762
 40
0.2222369654
 40
0.2643192052
 40
0.3086712345
 40
0.4024578268
 40
0.4999939270000001
 40
0.5975307174
 40
0.6913192664
 40
0.735672572
 40
0.7777561066
 40
0.8171645145000001
 40
0.8535185439000001
 40
0.8864683203
 40
0.9156963812
 40
0.9409212278
 40
0.9519551863
 40
0.9619002012999999
 40
0.9707330162999999
 40
0.9784316837
 40
0.9849784060999999
 40
0.9903569990999999
 40
0.9945549487
 40
0.9962081741999998
 40
0.9975627298
 40
0.9986180541999999
 40
0.9993741798
 40
0.9998320470999999
 40
1.0
 40
1.0
 40
1.0
 40
1.0
 10
126.6344708397
 20
40.3211819841
 30
0.0
 10
126.6344374651
 20
40.3211922099
 30
0.0
 10
126.6344732953
 20
40.3213766437
 30
0.0
 10
126.6344906154
 20
40.3216118096
 30
0.0
 10
126.6346026691
 20
40.3221022954
 30
0.0
 10
126.6347453585
 20
40.3227326425
 30
0.0
 10
126.6349516243
 20
40.3235590483
 30
0.0
 10
126.6353250121
 20
40.325010665
 30
0.0
 10
126.635932732
 20
40.32727184289999
 30
0.0
 10
126.6368262949
 20
40.33050941599999
 30
0.0
 10
126.6379332853
 20
40.3344456822
 30
0.0
 10
126.6392504682
 20
40.33907003969999
 30
0.0
 10
126.6407751807
 20
40.3443715773
 30
0.0
 10
126.6425038057
 20
40.3503374824
 30
0.0
 10
126.6451979081
 20
40.3595793809
 30
0.0
 10
126.6490434936
 20
40.3726703828
 30
0.0
 10
126.6542097904
 20
40.39013238689999
 30
0.0
 10
126.6600643708
 20
40.40980876959999
 30
0.0
 10
126.6665518115
 20
40.4315097632
 30
0.0
 10
126.6736106432
 20
40.4550261759
 30
0.0
 10
126.6811737694
 20
40.4801313528
 30
0.0
 10
126.6920382167
 20
40.51607517949999
 30
0.0
 10
126.7063070534
 20
40.5630603175
 30
0.0
 10
126.7238862176
 20
40.6206211005
 30
0.0
 10
126.741553505
 20
40.6781553231
 30
0.0
 10
126.7560410372
 20
40.7250743441
 30
0.0
 10
126.7671660537
 20
40.7609393652
 30
0.0
 10
126.7749570361
 20
40.7859756164
 30
0.0
 10
126.7822759942
 20
40.8094132207
 30
0.0
 10
126.7890516813
 20
40.8310267671
 30
0.0
 10
126.7952179852
 20
40.85060842229999
 30
0.0
 10
126.8007146869
 20
40.8679698423
 30
0.0
 10
126.8048583702
 20
40.88096994999999
 30
0.0
 10
126.8078010676
 20
40.8901359618
 30
0.0
 10
126.8097094506
 20
40.8960469585
 30
0.0
 10
126.8114148866
 20
40.9012932628
 30
0.0
 10
126.8129132118
 20
40.90586223409999
 30
0.0
 10
126.8142005266
 20
40.9097433287
 30
0.0
 10
126.815273576
 20
40.91292597329999
 30
0.0
 10
126.8160368021
 20
40.9151395218
 30
0.0
 10
126.8165408276
 20
40.91655114619999
 30
0.0
 10
126.8168331548
 20
40.9173511471
 30
0.0
 10
126.8170682433
 20
40.9179533058
 30
0.0
 10
126.817250806
 20
40.91842194909999
 30
0.0
 10
126.8173681685
 20
40.91862697389999
 30
0.0
 10
126.8174427315
 20
40.91879917219999
 30
0.0
 10
126.8174761901
 20
40.9187889207
 30
0.0
  0
SPLINE
  5
25FE
330
222
100
AcDbEntity
  8
0
  6
Continuous
 62
     7
100
AcDbSpline
210
0.0
220
0.0
230
1.0
 70
     8
 71
     3
 72
     9
 73
     5
 74
     0
 42
0.0000001
 43
0.0000000001
 40
0.0
 40
0.0
 40
0.0
 40
0.0
 40
0.6909305172
 40
1.0
 40
1.0
 40
1.0
 40
1.0
 10
128.6919831756
 20
40.7354687205
 30
0.0
 10
128.692492665
 20
40.7358878429
 30
0.0
 10
128.6931239272
 20
40.7366466625
 30
0.0
 10
128.6935046484
 20
40.7375244067
 30
0.0
 10
128.6936084938
 20
40.737800645
 30
0.0
  0
SPLINE
  5
25FF
330
222
100
AcDbEntity
  8
0
  6
Continuous
 62
     7
100
AcDbSpline
210
0.0
220
0.0
230
1.0
 70
     8
 71
     3
 72
    20
 73
    16
 74
     0
 42
0.0000001
 43
0.0000000001
 40
0.0
 40
0.0
 40
0.0
 40
0.0
 40
0.0067691843
 40
0.0133612094
 40
0.0308750321
 40
0.0555263533
 40
0.0876385725
 40
0.1272131383
 40
0.1741515529
 40
0.2283029277
 40
0.2894789843
 40
0.4319988228
 40
0.5996304592000001
 40
0.7899025547000001
 40
1.0
 40
1.0
 40
1.0
 40
1.0
 10
128.6936084938
 20
40.737800645
 30
0.0
 10
128.6937483812
 20
40.7381727588
 30
0.0
 10
128.6939560874
 20
40.73893210619999
 30
0.0
 10
128.6943189592
 20
40.7407082554
 30
0.0
 10
128.6947640258
 20
40.74353827849999
 30
0.0
 10
128.6953594123
 20
40.7478592044
 30
0.0
 10
128.6960624512
 20
40.7534733775
 30
0.0
 10
128.6968776814999
 20
40.76039206179999
 30
0.0
 10
128.6978012994
 20
40.768601223
 30
0.0
 10
128.6988306217
 20
40.7780749837
 30
0.0
 10
128.7004214043
 20
40.7931340036
 30
0.0
 10
128.702633018
 20
40.81482885769999
 30
0.0
 10
128.7055206498
 20
40.8440754276
 30
0.0
 10
128.7087171949
 20
40.8772793706
 30
0.0
 10
128.7109245379
 20
40.9006883439
 30
0.0
 10
128.7120730989
 20
40.91297331809999
 30
0.0
  0
LINE
  5
2600
330
222
100
AcDbEntity
  8
0
  6
Continuous
 62
     7
100
AcDbLine
 10
128.7120730989
 20
40.91297331809999
 30
0.0
 11
128.7122738213
 21
40.9151213202
 31
0.0
  0
LINE
  5
2601
330
222
100
AcDbEntity
  8
0
  6
Continuous
 62
     7
100
AcDbLine
 10
128.7122738213
 20
40.9151213202
 30
0.0
 11
128.7127079404
 21
40.9197743107
 31
0.0
  0
LINE
  5
2602
330
222
100
AcDbEntity
  8
0
  6
Continuous
 62
     7
100
AcDbLine
 10
128.7127079404
 20
40.9197743107
 30
0.0
 11
128.7129503764
 21
40.9223770972
 31
0.0
  0
LINE
  5
2603
330
222
100
AcDbEntity
  8
0
  6
Continuous
 62
     7
100
AcDbLine
 10
128.7456371139
 20
41.2968979702
 30
0.0
 11
128.7458493017
 21
41.29950427109999
 31
0.0
  0
LINE
  5
2604
330
222
100
AcDbEntity
  8
0
  6
Continuous
 62
     7
100
AcDbLine
 10
128.7458493017
 20
41.29950427109999
 30
0.0
 11
128.7462417695
 21
41.3043342969
 31
0.0
  0
LINE
  5
2605
330
222
100
AcDbEntity
  8
0
  6
Continuous
 62
     7
100
AcDbLine
 10
128.7462417695
 20
41.3043342969
 30
0.0
 11
128.7463850227
 21
41.30610037719999
 31
0.0
  0
SPLINE
  5
2606
330
222
100
AcDbEntity
  8
0
  6
Continuous
 62
     7
100
AcDbSpline
210
0.0
220
0.0
230
1.0
 70
     8
 71
     3
 72
    22
 73
    18
 74
     0
 42
0.0000001
 43
0.0000000001
 40
0.0
 40
0.0
 40
0.0
 40
0.0
 40
0.2122702199
 40
0.4038458554
 40
0.5717272575
 40
0.7132961583
 40
0.8263689983999999
 40
0.8716746848999999
 40
0.9092818054
 40
0.9391108038
 40
0.9511196041999999
 40
0.9612366378
 40
0.9695673767
 40
0.976416517
 40
0.9830079979999998
 40
0.9880688329999999
 40
1.0
 40
1.0
 40
1.0
 40
1.0
 10
128.7463850227
 20
41.30610037719999
 30
0.0
 10
128.7474099662
 20
41.3187422887
 30
0.0
 10
128.7493403545999
 20
41.34279522609999
 30
0.0
 10
128.7520042301
 20
41.3768525965
 30
0.0
 10
128.754263364
 20
41.40670416519999
 30
0.0
 10
128.7560829502
 20
41.4318847994
 30
0.0
 10
128.7572894244
 20
41.4497665014
 30
0.0
 10
128.7580007718
 20
41.4614553011
 30
0.0
 10
128.7583695545
 20
41.4681816923
 30
0.0
 10
128.7585885643
 20
41.4729236867
 30
0.0
 10
128.7586939334
 20
41.47602632549999
 30
0.0
 10
128.7587356271
 20
41.477845663
 30
0.0
 10
128.7587453121
 20
41.4793574017
 30
0.0
 10
128.7587184287
 20
41.48065780569999
 30
0.0
 10
128.7586302285
 20
41.4817624029
 30
0.0
 10
128.7583321002
 20
41.4831420805
 30
0.0
 10
128.7578291034
 20
41.48406809749999
 30
0.0
 10
128.7573653326
 20
41.48460952579999
 30
0.0
  0
SPLINE
  5
2607
330
222
100
AcDbEntity
  8
0
  6
Continuous
 62
     7
100
AcDbSpline
210
0.0
220
0.0
230
1.0
 70
     8
 71
     3
 72
     9
 73
     5
 74
     0
 42
0.0000001
 43
0.0000000001
 40
0.0
 40
0.0
 40
0.0
 40
0.0
 40
0.825704902
 40
1.0
 40
1.0
 40
1.0
 40
1.0
 10
128.6919831756
 20
40.7354687205
 30
0.0
 10
128.6914548133
 20
40.7350340725
 30
0.0
 10
128.6909223749
 20
40.7343553261
 30
0.0
 10
128.6905923068
 20
40.73359276979999
 30
0.0
 10
128.6905513472
 20
40.7334542814
 30
0.0
  0
SPLINE
  5
2608
330
222
100
AcDbEntity
  8
0
  6
Continuous
 62
     7
100
AcDbSpline
210
0.0
220
0.0
230
1.0
 70
     8
 71
     3
 72
     9
 73
     5
 74
     0
 42
0.0000001
 43
0.0000000001
 40
0.0
 40
0.0
 40
0.0
 40
0.0
 40
0.2505467024
 40
1.0
 40
1.0
 40
1.0
 40
1.0
 10
128.7563039441
 20
41.48684039559999
 30
0.0
 10
128.756333843
 20
41.48663471539999
 30
0.0
 10
128.7565348629
 20
41.48582688
 30
0.0
 10
128.7569623694
 20
41.4850829665
 30
0.0
 10
128.7573653326
 20
41.48460952579999
 30
0.0
  0
SPLINE
  5
2609
330
222
100
AcDbEntity
  8
0
  6
Continuous
 62
     7
100
AcDbSpline
210
0.0
220
0.0
230
1.0
 70
     8
 71
     3
 72
    13
 73
     9
 74
     0
 42
0.0000001
 43
0.0000000001
 40
0.0
 40
0.0
 40
0.0
 40
0.0
 40
0.0265345772
 40
0.0939165671
 40
0.1917169948
 40
0.365062112
 40
0.6402729941
 40
1.0
 40
1.0
 40
1.0
 40
1.0
 10
128.7436150927
 20
41.3062714931
 30
0.0
 10
128.7436161584
 20
41.3063362828
 30
0.0
 10
128.7436175143
 20
41.3066797265
 30
0.0
 10
128.743630612
 20
41.30573198389999
 30
0.0
 10
128.7436808887
 20
41.30516759909999
 30
0.0
 10
128.7438149063
 20
41.3036932781
 30
0.0
 10
128.7441433755
 20
41.3018197324
 30
0.0
 10
128.7445222287
 20
41.30029023289999
 30
0.0
 10
128.7447785648
 20
41.2994499979
 30
0.0
  0
SPLINE
  5
260A
330
222
100
AcDbEntity
  8
0
  6
Continuous
 62
     7
100
AcDbSpline
210
0.0
220
0.0
230
1.0
 70
     8
 71
     3
 72
    13
 73
     9
 74
     0
 42
0.0000001
 43
0.0000000001
 40
0.0
 40
0.0
 40
0.0
 40
0.0
 40
0.2961648025
 40
0.5463786603000001
 40
0.7283178987000002
 40
0.8496868378
 40
0.9711920227
 40
1.0
 40
1.0
 40
1.0
 40
1.0
 10
128.7116624207
 20
40.92000924399999
 30
0.0
 10
128.7113431888
 20
40.9193811333
 30
0.0
 10
128.7108043313
 20
40.9182050289
 30
0.0
 10
128.7101782756
 20
40.9165587763
 30
0.0
 10
128.7097984989
 20
40.915365485
 30
0.0
 10
128.7095080477
 20
40.9142369607
 30
0.0
 10
128.7094337929
 20
40.9139911082
 30
0.0
 10
128.7092900906
 20
40.9132285173
 30
0.0
 10
128.7093025323
 20
40.913295913
 30
0.0
  0
LINE
  5
260B
330
222
100
AcDbEntity
  8
0
  6
Continuous
 62
     7
100
AcDbLine
 10
128.7431870584
 20
41.10855351589999
 30
0.0
 11
128.745081961
 21
41.1304504065
 31
0.0
  0
LINE
  5
260C
330
222
100
AcDbEntity
  8
0
  6
Continuous
 62
     7
100
AcDbLine
 10
128.745081961
 20
41.1304504065
 30
0.0
 11
128.7455636702
 21
41.1360773564
 31
0.0
  0
SPLINE
  5
260D
330
222
100
AcDbEntity
  8
0
  6
Continuous
 62
     7
100
AcDbSpline
210
0.0
220
0.0
230
1.0
 70
     8
 71
     3
 72
    15
 73
    11
 74
     0
 42
0.0000001
 43
0.0000000001
 40
0.0
 40
0.0
 40
0.0
 40
0.0
 40
0.3354899591
 40
0.4719862286
 40
0.5863949666
 40
0.6787581128
 40
0.7516266267000001
 40
0.8211876754
 40
0.8857815994999999
 40
1.0
 40
1.0
 40
1.0
 40
1.0
 10
128.7520386651
 20
41.2150358468
 30
0.0
 10
128.7525236435
 20
41.2213130878
 30
0.0
 10
128.7531920618
 20
41.2301453655
 30
0.0
 10
128.7539692068
 20
41.2411224804
 30
0.0
 10
128.754396324
 20
41.2475501851
 30
0.0
 10
128.7547104652
 20
41.2527888594
 30
0.0
 10
128.7549257395
 20
41.2571894644
 30
0.0
 10
128.7550157376
 20
41.261076012
 30
0.0
 10
128.7547352583
 20
41.2657337123
 30
0.0
 10
128.7540543813
 20
41.26904513159999
 30
0.0
 10
128.7534289172
 20
41.2710953179
 30
0.0
  0
SPLINE
  5
260E
330
222
100
AcDbEntity
  8
0
  6
Continuous
 62
     7
100
AcDbSpline
210
0.0
220
0.0
230
1.0
 70
     8
 71
     3
 72
    15
 73
    11
 74
     0
 42
0.0000001
 43
0.0000000001
 40
0.0
 40
0.0
 40
0.0
 40
0.0
 40
0.1142821887
 40
0.1790037233
 40
0.2486582515
 40
0.3215142612
 40
0.4138454326
 40
0.5282063042000001
 40
0.6646431578000001
 40
1.0
 40
1.0
 40
1.0
 40
1.0
 10
128.7250939494
 20
40.94643670139999
 30
0.0
 10
128.7260641842
 20
40.94834570519999
 30
0.0
 10
128.7273087666
 20
40.95148736289999
 30
0.0
 10
128.728390628
 20
40.9560245743
 30
0.0
 10
128.7289763287
 20
40.9598657451
 30
0.0
 10
128.7295257476
 20
40.96423142739999
 30
0.0
 10
128.7301230271
 20
40.969435646
 30
0.0
 10
128.7308146304
 20
40.9758278379
 30
0.0
 10
128.7319488829
 20
40.9867524961
 30
0.0
 10
128.7328190696
 20
40.9955500489
 30
0.0
 10
128.733427782
 20
41.00180439499999
 30
0.0
  0
LINE
  5
260F
330
222
100
AcDbEntity
  8
0
  6
Continuous
 62
     7
100
AcDbLine
 10
128.733427782
 20
41.00180439499999
 30
0.0
 11
128.7337591447
 21
41.00522009289999
 31
0.0
  0
LINE
  5
2610
330
222
100
AcDbEntity
  8
0
  6
Continuous
 62
     7
100
AcDbLine
 10
128.7406327146
 20
41.07960465069999
 30
0.0
 11
128.7409858607
 21
41.083568845
 31
0.0
  0
LINE
  5
2611
330
222
100
AcDbEntity
  8
0
  6
Continuous
 62
     7
100
AcDbLine
 10
128.7409858607
 20
41.083568845
 30
0.0
 11
128.7431870584
 21
41.10855351589999
 31
0.0
  0
SPLINE
  5
2612
330
222
100
AcDbEntity
  8
0
  6
Continuous
 62
     7
100
AcDbSpline
210
0.0
220
0.0
230
1.0
 70
     8
 71
     3
 72
    30
 73
    26
 74
     0
 42
0.0000001
 43
0.0000000001
 40
0.0
 40
0.0
 40
0.0
 40
0.0
 40
0.2055888534
 40
0.3032972858
 40
0.3967444153
 40
0.4853115581000001
 40
0.5684122529
 40
0.6454962690000001
 40
0.7160532950000001
 40
0.7796163581000001
 40
0.8357649012999999
 40
0.8841276256999998
 40
0.9052875954000001
 40
0.9243851264999999
 40
0.9413894135999999
 40
0.9562722444
 40
0.9690094291999999
 40
0.979580896
 40
0.9879697775
 40
0.9913424114999999
 40
0.9941657984
 40
0.9964395498
 40
0.9981649455999999
 40
0.9993462823999998
 40
1.0
 40
1.0
 40
1.0
 40
1.0
 10
128.7498376556
 20
41.28305248639999
 30
0.0
 10
128.752803811
 20
41.3180856158
 30
0.0
 10
128.7571369619
 20
41.3697722729
 30
0.0
 10
128.7627068657
 20
41.4373919282
 30
0.0
 10
128.7665843292
 20
41.48507089559999
 30
0.0
 10
128.7702076124
 20
41.5302641376
 30
0.0
 10
128.7735527939
 20
41.5726723503
 30
0.0
 10
128.7765978654999
 20
41.61201465579999
 30
0.0
 10
128.7793228389
 20
41.64803049449999
 30
0.0
 10
128.7817100428
 20
41.6804813463
 30
0.0
 10
128.7837439473999
 20
41.7091523126
 30
0.0
 10
128.7851924465
 20
41.73059499239999
 30
0.0
 10
128.7861579246
 20
41.7457194819
 30
0.0
 10
128.7867532365
 20
41.75549392519999
 30
0.0
 10
128.7872519886
 20
41.76419874079999
 30
0.0
 10
128.7876534634
 20
41.7718195527
 30
0.0
 10
128.787957586
 20
41.7783438214
 30
0.0
 10
128.7881639319
 20
41.7837605788
 30
0.0
 10
128.7882627553
 20
41.7875789359
 30
0.0
 10
128.7882848044
 20
41.79007284509999
 30
0.0
 10
128.7882762909
 20
41.7915219333
 30
0.0
 10
128.7882426341
 20
41.7926867402
 30
0.0
 10
128.7881903461
 20
41.7935752366
 30
0.0
 10
128.7881098154
 20
41.7941716238
 30
0.0
 10
128.7880394864
 20
41.79448955019999
 30
0.0
 10
128.7879750198
 20
41.79458088519999
 30
0.0
  0
SPLINE
  5
2613
330
222
100
AcDbEntity
  8
0
  6
Continuous
 62
     7
100
AcDbSpline
210
0.0
220
0.0
230
1.0
 70
     8
 71
     3
 72
    30
 73
    26
 74
     0
 42
0.0000001
 43
0.0000000001
 40
0.0
 40
0.0
 40
0.0
 40
0.0
 40
0.2055883106
 40
0.3032966019
 40
0.3967436584000001
 40
0.485310786
 40
0.5684115154000001
 40
0.6454956071
 40
0.7160527275000001
 40
0.7796158920999999
 40
0.8357645362999999
 40
0.8841273553
 40
0.9052873838
 40
0.9243849404
 40
0.9413892911999999
 40
0.9562721295999999
 40
0.9690093701
 40
0.9795808385
 40
0.9879697541
 40
0.9913424055
 40
0.9941657840999999
 40
0.9964395235999999
 40
0.9981649306999999
 40
0.9993462826
 40
1.0
 40
1.0
 40
1.0
 40
1.0
 10
128.7194863652
 20
40.9352908392
 30
0.0
 10
128.7163387476
 20
40.90027305969999
 30
0.0
 10
128.7116524985
 20
40.8486164805
 30
0.0
 10
128.7054241631
 20
40.7810533001
 30
0.0
 10
128.7009833765
 20
40.73342274669999
 30
0.0
 10
128.6967228619
 20
40.6882843805
 30
0.0
 10
128.6926709096
 20
40.64593713319999
 30
0.0
 10
128.6888545026
 20
40.60666145999999
 30
0.0
 10
128.6852990933
 20
40.5707174556
 30
0.0
 10
128.6820285979
 20
40.5383431058
 30
0.0
 10
128.6790649502
 20
40.50975275819999
 30
0.0
 10
128.6767769346
 20
40.4883829496
 30
0.0
 10
128.6751077308
 20
40.4733195977
 30
0.0
 10
128.6740007681
 20
40.4635896222
 30
0.0
 10
128.6729840048
 20
40.454929856
 30
0.0
 10
128.6720592178
 20
40.44735456889999
 30
0.0
 10
128.6712285137
 20
40.4408761392
 30
0.0
 10
128.6704933665
 20
40.4355054285
 30
0.0
 10
128.6699292227
 20
40.4317276106
 30
0.0
 10
128.6695189063
 20
40.42926753919999
 30
0.0
 10
128.6692594883
 20
40.4278418115
 30
0.0
 10
128.6690245533
 20
40.42670042909999
 30
0.0
 10
128.6688191373
 20
40.42583440619999
 30
0.0
 10
128.6686365074
 20
40.42526097369999
 30
0.0
 10
128.668512167
 20
40.4249600266
 30
0.0
 10
128.6684328502
 20
40.4248812403
 30
0.0
  0
SPLINE
  5
2614
330
222
100
AcDbEntity
  8
0
  6
Continuous
 62
     7
100
AcDbSpline
210
0.0
220
0.0
230
1.0
 70
     8
 71
     3
 72
    10
 73
     6
 74
     0
 42
0.0000001
 43
0.0000000001
 40
0.0
 40
0.0
 40
0.0
 40
0.0
 40
0.2054520323
 40
0.4541511115
 40
1.0
 40
1.0
 40
1.0
 40
1.0
 10
128.7505320733
 20
41.2150286616
 30
0.0
 10
128.7499547036
 20
41.20924732679999
 30
0.0
 10
128.7487339718
 20
41.19646218559999
 30
0.0
 10
128.7461346294
 20
41.1683023911
 30
0.0
 10
128.7441590036
 20
41.14591956
 30
0.0
 10
128.7428918046
 20
41.1305352935
 30
0.0
  0
LINE
  5
2615
330
222
100
AcDbEntity
  8
0
  6
Continuous
 62
     7
100
AcDbLine
 10
128.7390381609
 20
41.0837511805
 30
0.0
 11
128.7318731052
 21
41.0020780802
 31
0.0
  0
SPLINE
  5
2616
330
222
100
AcDbEntity
  8
0
  6
Continuous
 62
     7
100
AcDbSpline
210
0.0
220
0.0
230
1.0
 70
     8
 71
     3
 72
    10
 73
     6
 74
     0
 42
0.0000001
 43
0.0000000001
 40
0.0
 40
0.0
 40
0.0
 40
0.0
 40
0.2054520323
 40
0.4541511115
 40
1.0
 40
1.0
 40
1.0
 40
1.0
 10
128.7510273065
 20
41.2150286616
 30
0.0
 10
128.7504499368
 20
41.20924732679999
 30
0.0
 10
128.749229205
 20
41.19646218559999
 30
0.0
 10
128.7466298626
 20
41.1683023911
 30
0.0
 10
128.7446542368
 20
41.14591956
 30
0.0
 10
128.7433870379
 20
41.1305352935
 30
0.0
  0
LINE
  5
2617
330
222
100
AcDbEntity
  8
0
  6
Continuous
 62
     7
100
AcDbLine
 10
128.7395333941
 20
41.0837511805
 30
0.0
 11
128.7323683384
 21
41.0020780802
 31
0.0
  0
SPLINE
  5
2618
330
222
100
AcDbEntity
  8
0
  6
Continuous
 62
     7
100
AcDbSpline
210
0.0
220
0.0
230
1.0
 70
     8
 71
     3
 72
    10
 73
     6
 74
     0
 42
0.0000001
 43
0.0000000001
 40
0.0
 40
0.0
 40
0.0
 40
0.0
 40
0.2054520323
 40
0.4541511115
 40
1.0
 40
1.0
 40
1.0
 40
1.0
 10
128.7515225397
 20
41.2150286616
 30
0.0
 10
128.7509451701
 20
41.20924732679999
 30
0.0
 10
128.7497244383
 20
41.19646218559999
 30
0.0
 10
128.7471250958
 20
41.1683023911
 30
0.0
 10
128.7451494701
 20
41.14591956
 30
0.0
 10
128.7438822711
 20
41.1305352935
 30
0.0
  0
LINE
  5
2619
330
222
100
AcDbEntity
  8
0
  6
Continuous
 62
     7
100
AcDbLine
 10
128.7400286273
 20
41.0837511805
 30
0.0
 11
128.7328635717
 21
41.0020780802
 31
0.0
  0
SPLINE
  5
261A
330
222
100
AcDbEntity
  8
0
  6
Continuous
 62
     7
100
AcDbSpline
210
0.0
220
0.0
230
1.0
 70
     8
 71
     3
 72
    30
 73
    26
 74
     0
 42
0.0000001
 43
0.0000000001
 40
0.0
 40
0.0
 40
0.0
 40
0.0
 40
0.0003895755
 40
0.0007316786
 40
0.001194365
 40
0.0024999236
 40
0.0043250888
 40
0.0095510064
 40
0.0168856208
 40
0.0263283905
 40
0.0378723184
 40
0.0515069742
 40
0.0672208746
 40
0.0849986154
 40
0.1048229022
 40
0.1505347996
 40
0.2041788705
 40
0.2655465734
 40
0.3343996357
 40
0.4104691989
 40
0.4934583302
 40
0.5830438866
 40
0.6788762471
 40
0.7805810044000001
 40
1.0
 40
1.0
 40
1.0
 40
1.0
 10
128.5583338145
 20
40.3717073889
 30
0.0
 10
128.558289508
 20
40.3717021401
 30
0.0
 10
128.5582166567
 20
40.37178062419999
 30
0.0
 10
128.5581701697
 20
40.37190254979999
 30
0.0
 10
128.5581020684
 20
40.37213809469999
 30
0.0
 10
128.5580416208
 20
40.37254405699999
 30
0.0
 10
128.557952746
 20
40.37349823769999
 30
0.0
 10
128.5579030874
 20
40.3751453927
 30
0.0
 10
128.5578988718
 20
40.3776655377
 30
0.0
 10
128.5579584279
 20
40.3809086488
 30
0.0
 10
128.5580790608
 20
40.3848719003
 30
0.0
 10
128.5582629167
 20
40.3895515744
 30
0.0
 10
128.5585096867
 20
40.394943124
 30
0.0
 10
128.5588194777
 20
40.4010413198
 30
0.0
 10
128.5593417568
 20
40.4105686119
 30
0.0
 10
128.5601574936
 20
40.4241934837
 30
0.0
 10
128.5613395826
 20
40.4425625005
 30
0.0
 10
128.5627631465
 20
40.4635715899
 30
0.0
 10
128.5644228622
 20
40.48713876439999
 30
0.0
 10
128.5663125844
 20
40.5131720158
 30
0.0
 10
128.5684250856
 20
40.54156969469999
 30
0.0
 10
128.5707522587
 20
40.5722209658
 30
0.0
 10
128.5732850826
 20
40.60500617989999
 30
0.0
 10
128.5770188786
 20
40.6526121383
 30
0.0
 10
128.5799530501
 20
40.6892718238
 30
0.0
 10
128.5819784917
 20
40.71431915619999
 30
0.0
  0
LINE
  5
261B
330
222
100
AcDbEntity
  8
0
  6
Continuous
 62
     7
100
AcDbLine
 10
128.5819784917
 20
40.71431915619999
 30
0.0
 11
128.5820498614
 21
40.7152016307
 31
0.0
  0
SPLINE
  5
261C
330
222
100
AcDbEntity
  8
0
  6
Continuous
 62
     7
100
AcDbSpline
210
0.0
220
0.0
230
1.0
 70
     8
 71
     3
 72
    29
 73
    25
 74
     0
 42
0.0000001
 43
0.0000000001
 40
0.0
 40
0.0
 40
0.0
 40
0.0
 40
0.0004344648
 40
0.0012977569
 40
0.0026609549
 40
0.0045391316
 40
0.0098562529
 40
0.0172619491
 40
0.0267558416
 40
0.0383324227
 40
0.0519814414
 40
0.0676917335
 40
0.0854504003
 40
0.1052405511
 40
0.1508437805
 40
0.2043371528
 40
0.2655279436
 40
0.3341927636
 40
0.410083017
 40
0.4929230569
 40
0.5824107743
 40
0.6782218631
 40
0.7800072983
 40
1.0
 40
1.0
 40
1.0
 40
1.0
 10
128.67030621
 20
40.44725640969999
 30
0.0
 10
128.6702648544
 20
40.4472600205
 30
0.0
 10
128.6701795285
 20
40.44738096429999
 30
0.0
 10
128.6701230311
 20
40.4476168201
 30
0.0
 10
128.6700568672
 20
40.4480099753
 30
0.0
 10
128.6699866679
 20
40.44882163999999
 30
0.0
 10
128.6699382398
 20
40.450219013
 30
0.0
 10
128.6699334868
 20
40.4523407082
 30
0.0
 10
128.6699785623
 20
40.455061819
 30
0.0
 10
128.6700752537
 20
40.4583777211
 30
0.0
 10
128.6702238059
 20
40.46228640339999
 30
0.0
 10
128.670424498
 20
40.4667840342
 30
0.0
 10
128.6706772912
 20
40.47186665969999
 30
0.0
 10
128.6711043964
 20
40.47980032709999
 30
0.0
 10
128.6717733136
 20
40.4911402617
 30
0.0
 10
128.6727449187
 20
40.5064248326
 30
0.0
 10
128.6739169541
 20
40.5239045263
 30
0.0
 10
128.6752853248
 20
40.54351578939999
 30
0.0
 10
128.6768453514
 20
40.56518722879999
 30
0.0
 10
128.6785914873
 20
40.58883999459999
 30
0.0
 10
128.68051748
 20
40.6143880561
 30
0.0
 10
128.6826163876
 20
40.64173841659999
 30
0.0
 10
128.685716677
 20
40.6815182583
 30
0.0
 10
128.6881552704
 20
40.7121671811
 30
0.0
 10
128.6898398003
 20
40.733119779
 30
0.0
  0
LINE
  5
261D
330
222
100
AcDbEntity
  8
0
  6
Continuous
 62
     7
100
AcDbLine
 10
128.6898398003
 20
40.733119779
 30
0.0
 11
128.6900119803
 21
40.7352606304
 31
0.0
  0
SPLINE
  5
261E
330
222
100
AcDbEntity
  8
0
  6
Continuous
 62
     7
100
AcDbSpline
210
0.0
220
0.0
230
1.0
 70
     8
 71
     3
 72
    35
 73
    31
 74
     0
 42
0.0000001
 43
0.0000000001
 40
0.0
 40
0.0
 40
0.0
 40
0.0
 40
0.0003492559
 40
0.000721658
 40
0.0012391073
 40
0.0019041855
 40
0.0027179408
 40
0.0047930436
 40
0.0074658852
 40
0.0107362797
 40
0.0146029432
 40
0.0190636324
 40
0.0297571889
 40
0.0427926042
 40
0.0581389138
 40
0.0757593041
 40
0.0956116833
 40
0.1176478274
 40
0.1418150824
 40
0.1680545583
 40
0.1963034315
 40
0.2264929616
 40
0.2923985766
 40
0.3651346508
 40
0.4439983237
 40
0.5282274446999999
 40
0.617008036
 40
0.7094818590000001
 40
0.8047558076999999
 40
1.0
 40
1.0
 40
1.0
 40
1.0
 10
128.6887520411
 20
41.86602357239999
 30
0.0
 10
128.6886683284
 20
41.8660487332
 30
0.0
 10
128.6885323663
 20
41.8658269395
 30
0.0
 10
128.6884281517
 20
41.8655723145
 30
0.0
 10
128.6883015028
 20
41.86518938529999
 30
0.0
 10
128.6881726847
 20
41.8647120467
 30
0.0
 10
128.6879656384
 20
41.8638442869
 30
0.0
 10
128.6876914339
 20
41.86248092929999
 30
0.0
 10
128.6873410927
 20
41.8605041165
 30
0.0
 10
128.686951669
 20
41.85808013369999
 30
0.0
 10
128.6865227846
 20
41.85520917159999
 30
0.0
 10
128.6858585225
 20
41.8504951626
 30
0.0
 10
128.6849426602
 20
41.8434993536
 30
0.0
 10
128.6837491575
 20
41.83379260419999
 30
0.0
 10
128.6824086349
 20
41.822357395
 30
0.0
 10
128.6809245555
 20
41.8092213181
 30
0.0
 10
128.6793009858
 20
41.7944160942
 30
0.0
 10
128.6775419887
 20
41.77797740619999
 30
0.0
 10
128.6756520023
 20
41.75994508539999
 30
0.0
 10
128.6736356477
 20
41.7403625988
 30
0.0
 10
128.6714978873
 20
41.7192774098
 30
0.0
 10
128.6684009522
 20
41.68831091709999
 30
0.0
 10
128.6642733342
 20
41.64625769479999
 30
0.0
 10
128.6590591056
 20
41.59207047779999
 30
0.0
 10
128.6535000274
 20
41.533309313
 30
0.0
 10
128.6476500263
 20
41.47054216679999
 30
0.0
 10
128.6415658756
 20
41.4043757711
 30
0.0
 10
128.6353064639
 20
41.33544956229999
 30
0.0
 10
128.6267379382
 20
41.2399776293
 30
0.0
 10
128.620347572
 20
41.1675477195
 30
0.0
 10
128.6160993036
 20
41.1188668003
 30
0.0
  0
SPLINE
  5
261F
330
222
100
AcDbEntity
  8
0
  6
Continuous
 62
     7
100
AcDbSpline
210
0.0
220
0.0
230
1.0
 70
     8
 71
     3
 72
    29
 73
    25
 74
     0
 42
0.0000001
 43
0.0000000001
 40
0.0
 40
0.0
 40
0.0
 40
0.0
 40
0.0004344535
 40
0.0012977122
 40
0.0026608478
 40
0.0045389508
 40
0.0098560022
 40
0.0172616461
 40
0.0267554077
 40
0.038331909
 40
0.051980884
 40
0.0676910631
 40
0.0854496423
 40
0.1052397589
 40
0.1508428105
 40
0.2043361062
 40
0.2655268034
 40
0.3341915375
 40
0.4100818225000001
 40
0.492921869
 40
0.5824096641
 40
0.6782209395000001
 40
0.7800065693000002
 40
1.0
 40
1.0
 40
1.0
 40
1.0
 10
128.7859439508
 20
41.7722194866
 30
0.0
 10
128.7859025974
 20
41.7722230971
 30
0.0
 10
128.7857976101
 20
41.7721187745
 30
0.0
 10
128.7857011128
 20
41.7718962873
 30
0.0
 10
128.7855678442
 20
41.77152056659999
 30
0.0
 10
128.7853581034
 20
41.7707333763
 30
0.0
 10
128.7850683459
 20
41.7693655761
 30
0.0
 10
128.7846961278
 20
41.76727686409999
 30
0.0
 10
128.7842691456
 20
41.76458918489999
 30
0.0
 10
128.7837899651
 20
41.7613067806
 30
0.0
 10
128.7832591736
 20
41.7574315888
 30
0.0
 10
128.7826777083
 20
41.75296733769999
 30
0.0
 10
128.7820462183
 20
41.74791792599999
 30
0.0
 10
128.7810925197
 20
41.7400304647
 30
0.0
 10
128.7797869061
 20
41.7287464387
 30
0.0
 10
128.7780960759
 20
41.7135250933
 30
0.0
 10
128.7762223811
 20
41.696107144
 30
0.0
 10
128.774172799
 20
41.6765558891
 30
0.0
 10
128.7719550896
 20
41.6549424516
 30
0.0
 10
128.7695774466
 20
41.6313454423
 30
0.0
 10
128.7670486166
 20
41.60585067249999
 30
0.0
 10
128.7643778725
 20
41.5785509298
 30
0.0
 10
128.7605401984
 20
41.5388364346
 30
0.0
 10
128.7576325872
 20
41.5082292026
 30
0.0
 10
128.7556620135
 20
41.48730207739999
 30
0.0
  0
LINE
  5
2620
330
222
100
AcDbEntity
  8
0
  6
Continuous
 62
     7
100
AcDbLine
 10
128.7556620135
 20
41.48730207739999
 30
0.0
 11
128.7554610384
 21
41.4851671073
 31
0.0
  0
SPLINE
  5
2621
330
222
100
AcDbEntity
  8
0
  6
Continuous
 62
     7
100
AcDbSpline
210
0.0
220
0.0
230
1.0
 70
     8
 71
     3
 72
    10
 73
     6
 74
     0
 42
0.0000001
 43
0.0000000001
 40
0.0
 40
0.0
 40
0.0
 40
0.0
 40
0.2054520323
 40
0.4541511115
 40
1.0
 40
1.0
 40
1.0
 40
1.0
 10
128.7318731052
 20
41.0020780802
 30
0.0
 10
128.7324504749
 20
41.00785941499999
 30
0.0
 10
128.7336712067
 20
41.02064455619999
 30
0.0
 10
128.7362705491
 20
41.0488043507
 30
0.0
 10
128.7382461749
 20
41.07118718179999
 30
0.0
 10
128.7395133738
 20
41.0865714483
 30
0.0
  0
LINE
  5
2622
330
222
100
AcDbEntity
  8
0
  6
Continuous
 62
     7
100
AcDbLine
 10
128.7433670176
 20
41.1333555613
 30
0.0
 11
128.7505320733
 21
41.2150286616
 31
0.0
  0
SPLINE
  5
2623
330
222
100
AcDbEntity
  8
0
  6
Continuous
 62
     7
100
AcDbSpline
210
0.0
220
0.0
230
1.0
 70
     8
 71
     3
 72
    10
 73
     6
 74
     0
 42
0.0000001
 43
0.0000000001
 40
0.0
 40
0.0
 40
0.0
 40
0.0
 40
0.2054520323
 40
0.4541511115
 40
1.0
 40
1.0
 40
1.0
 40
1.0
 10
128.7323683384
 20
41.0020780802
 30
0.0
 10
128.7329457081
 20
41.00785941499999
 30
0.0
 10
128.7341664399
 20
41.02064455619999
 30
0.0
 10
128.7367657823
 20
41.0488043507
 30
0.0
 10
128.7387414081
 20
41.07118718179999
 30
0.0
 10
128.7400086070999
 20
41.0865714483
 30
0.0
  0
LINE
  5
2624
330
222
100
AcDbEntity
  8
0
  6
Continuous
 62
     7
100
AcDbLine
 10
128.7438622508
 20
41.1333555613
 30
0.0
 11
128.7510273065
 21
41.2150286616
 31
0.0
  0
SPLINE
  5
2625
330
222
100
AcDbEntity
  8
0
  6
Continuous
 62
     7
100
AcDbSpline
210
0.0
220
0.0
230
1.0
 70
     8
 71
     3
 72
    10
 73
     6
 74
     0
 42
0.0000001
 43
0.0000000001
 40
0.0
 40
0.0
 40
0.0
 40
0.0
 40
0.2054520323
 40
0.4541511115
 40
1.0
 40
1.0
 40
1.0
 40
1.0
 10
128.7328635717
 20
41.0020780802
 30
0.0
 10
128.7334409413
 20
41.00785941499999
 30
0.0
 10
128.7346616731
 20
41.02064455619999
 30
0.0
 10
128.7372610156
 20
41.0488043507
 30
0.0
 10
128.7392366413
 20
41.07118718179999
 30
0.0
 10
128.7405038403
 20
41.0865714483
 30
0.0
  0
LINE
  5
2626
330
222
100
AcDbEntity
  8
0
  6
Continuous
 62
     7
100
AcDbLine
 10
128.7443574841
 20
41.1333555613
 30
0.0
 11
128.7515225397
 21
41.2150286616
 31
0.0
  0
LINE
  5
2627
330
222
100
AcDbEntity
  8
0
  6
Continuous
 62
     9
100
AcDbLine
 10
128.7458489699
 20
41.2995042981
 30
0.0
 11
128.7458775977
 21
41.2998562099
 31
0.0
  0
LINE
  5
2628
330
222
100
AcDbEntity
  8
0
  6
Continuous
 62
     9
100
AcDbLine
 10
128.7458775977
 20
41.2998562099
 30
0.0
 11
128.7464320321
 21
41.3066845664
 31
0.0
  0
LINE
  5
2629
330
222
100
AcDbEntity
  8
0
  6
Continuous
 62
     9
100
AcDbLine
 10
128.7464320321
 20
41.3066845664
 30
0.0
 11
128.748865654
 21
41.33697725909999
 31
0.0
  0
LINE
  5
262A
330
222
100
AcDbEntity
  8
0
  6
Continuous
 62
     9
100
AcDbLine
 10
128.748865654
 20
41.33697725909999
 30
0.0
 11
128.7490670341
 21
41.339510184
 31
0.0
  0
LINE
  5
262B
330
222
100
AcDbEntity
  8
0
  6
Continuous
 62
     9
100
AcDbLine
 10
128.7524322613
 20
41.38261470119999
 30
0.0
 11
128.7524840506
 21
41.3832920241
 31
0.0
  0
LINE
  5
262C
330
222
100
AcDbEntity
  8
0
  6
Continuous
 62
     9
100
AcDbLine
 10
128.755199751
 20
41.4197326932
 30
0.0
 11
128.7553028906
 21
41.4211639504
 31
0.0
  0
SPLINE
  5
262D
330
222
100
AcDbEntity
  8
0
  6
Continuous
 62
     9
100
AcDbSpline
210
0.0
220
0.0
230
1.0
 70
     8
 71
     3
 72
    51
 73
    47
 74
     0
 42
0.0000001
 43
0.0000000001
 40
0.0
 40
0.0
 40
0.0
 40
0.0
 40
0.029731884
 40
0.0560848708
 40
0.0789369279
 40
0.0890175043
 40
0.0981870044
 40
0.1064349984
 40
0.1137511054
 40
0.1201265865
 40
0.1255560214
 40
0.1300345689
 40
0.1335577837
 40
0.136122238
 40
0.13772974
 40
0.1381812693
 40
0.1384161462
 40
0.138487394
 40
0.1385790076
 40
0.1387168896
 40
0.1389090647
 40
0.1394658437
 40
0.1402586791
 40
0.1412901754
 40
0.1425614232
 40
0.1440725641
 40
0.1458232807
 40
0.1500415466
 40
0.1552119705
 40
0.1613297357
 40
0.1683897223
 40
0.17638439
 40
0.1853034582
 40
0.1951364532
 40
0.2175020777
 40
0.2433844296
 40
0.2726625089
 40
0.305209585
 40
0.3408763954
 40
0.3795030805
 40
0.4649315171000001
 40
0.55995988
 40
0.6628833927000001
 40
0.7718403464
 40
0.8849055392
 40
1.0
 40
1.0
 40
1.0
 40
1.0
 10
128.7553028906
 20
41.4211639504
 30
0.0
 10
128.7556106736
 20
41.4254420182
 30
0.0
 10
128.7561828291
 20
41.4335125827
 30
0.0
 10
128.756956907
 20
41.4448737078
 30
0.0
 10
128.7575081816
 20
41.453408504
 30
0.0
 10
128.7578766798
 20
41.4594709782
 30
0.0
 10
128.7581056951
 20
41.4634312506
 30
0.0
 10
128.758298938
 20
41.46699407349999
 30
0.0
 10
128.7584562627
 20
41.470155249
 30
0.0
 10
128.758577402
 20
41.4729108025
 30
0.0
 10
128.7586629331
 20
41.4752589322
 30
0.0
 10
128.7587117327
 20
41.4771942796
 30
0.0
 10
128.7587282098
 20
41.47872291249999
 30
0.0
 10
128.7587046784
 20
41.47982302199999
 30
0.0
 10
128.7586675119
 20
41.48050697369999
 30
0.0
 10
128.7585990384
 20
41.48081435489999
 30
0.0
 10
128.7585586618
 20
41.4809342763
 30
0.0
 10
128.7584962207
 20
41.48094496649999
 30
0.0
 10
128.7584610231
 20
41.4809139426
 30
0.0
 10
128.758427373
 20
41.4808643266
 30
0.0
 10
128.7583713848
 20
41.4807482284
 30
0.0
 10
128.7583009467
 20
41.48053723719999
 30
0.0
 10
128.7582121824
 20
41.48020517159999
 30
0.0
 10
128.7581141636
 20
41.47976945829999
 30
0.0
 10
128.7580064441
 20
41.4792298669
 30
0.0
 10
128.7578895442
 20
41.4785864338
 30
0.0
 10
128.7577100882
 20
41.47752235449999
 30
0.0
 10
128.7574665579
 20
41.4759338673
 30
0.0
 10
128.757153519
 20
41.47371888969999
 30
0.0
 10
128.7568051301
 20
41.47109498179999
 30
0.0
 10
128.7564218459
 20
41.4680647767
 30
0.0
 10
128.756004256
 20
41.46463161739999
 30
0.0
 10
128.7555528733
 20
41.46079961669999
 30
0.0
 10
128.7548772469
 20
41.4549065698
 30
0.0
 10
128.7539559669
 20
41.4465785739
 30
0.0
 10
128.7527670114
 20
41.43545801760001
 30
0.0
 10
128.7514575903
 20
41.42287324589999
 30
0.0
 10
128.7500338747
 20
41.4088812805
 30
0.0
 10
128.7485022675
 20
41.3935447275
 30
0.0
 10
128.7462489122
 20
41.3706136634
 30
0.0
 10
128.7432238334
 20
41.33915372479999
 30
0.0
 10
128.7393964837
 20
41.29845278269999
 30
0.0
 10
128.7353291854
 20
41.2543652748
 30
0.0
 10
128.7310948843
 20
41.207680189
 30
0.0
 10
128.7267703496
 20
41.15924034869999
 30
0.0
 10
128.7238873123
 20
41.12645250729999
 30
0.0
 10
128.7224438467
 20
41.109911831
 30
0.0
  0
SPLINE
  5
262E
330
222
100
AcDbEntity
  8
0
  6
Continuous
 62
     9
100
AcDbSpline
210
0.0
220
0.0
230
1.0
 70
     8
 71
     3
 72
    53
 73
    49
 74
     0
 42
0.0000001
 43
0.0000000001
 40
0.0
 40
0.0
 40
0.0
 40
0.0
 40
0.1151586165
 40
0.2282605529
 40
0.3372264823
 40
0.4401313914000001
 40
0.5351142116
 40
0.6204712707
 40
0.6590530493
 40
0.6946691026
 40
0.7271598393000001
 40
0.7563762601999999
 40
0.7821919483
 40
0.8044862245
 40
0.8142818897999999
 40
0.8231625880999999
 40
0.831117895
 40
0.8381375773
 40
0.8442141373
 40
0.8493425137999999
 40
0.8535179578000001
 40
0.8552470004999999
 40
0.8567363115
 40
0.8579855969
 40
0.8589950364999999
 40
0.8597658091999999
 40
0.8603007802
 40
0.8604824651000001
 40
0.8606107426999999
 40
0.8606956629999999
 40
0.8607683144999999
 40
0.860871539
 40
0.8610243216
 40
0.8614979433
 40
0.8622059337999999
 40
0.8631520493000001
 40
0.8657634429000001
 40
0.8693341353
 40
0.8738605694
 40
0.8793382156999999
 40
0.8857621638999999
 40
0.8931269366
 40
0.9014237484999998
 40
0.9106421595
 40
0.9207716806
 40
0.9437215017999999
 40
0.9701717658999999
 40
1.0
 40
1.0
 40
1.0
 40
1.0
 10
128.7224438467
 20
41.109911831
 30
0.0
 10
128.7210006697
 20
41.09337446269999
 30
0.0
 10
128.7181616348
 20
41.06059319129999
 30
0.0
 10
128.7140320377
 20
41.0121573941
 30
0.0
 10
128.7101184329
 20
40.9654760177
 30
0.0
 10
128.7064911404
 20
40.92139173729999
 30
0.0
 10
128.7032149062
 20
40.8806933746
 30
0.0
 10
128.7007489596
 20
40.8492320745
 30
0.0
 10
128.6989998183
 20
40.82629869
 30
0.0
 10
128.6978546213
 20
40.8109621243
 30
0.0
 10
128.6968361862
 20
40.7969698994
 30
0.0
 10
128.695949036
 20
40.7843846159
 30
0.0
 10
128.6951969538
 20
40.773263331
 30
0.0
 10
128.6946644981
 20
40.76493314949999
 30
0.0
 10
128.6943113831
 20
40.7590377522
 30
0.0
 10
128.6940938543
 20
40.75520493289999
 30
0.0
 10
128.6939121376
 20
40.7517709074
 30
0.0
 10
128.6937664378
 20
40.7487397934
 30
0.0
 10
128.6936567458
 20
40.7461149625
 30
0.0
 10
128.6935830697
 20
40.7438990657
 30
0.0
 10
128.6935491981
 20
40.7423089499
 30
0.0
 10
128.6935428287
 20
40.7412431264
 30
0.0
 10
128.6935473381
 20
40.74059909949999
 30
0.0
 10
128.693560816
 20
40.7400589574
 30
0.0
 10
128.6935826025
 20
40.7396227021
 30
0.0
 10
128.6936134232
 20
40.7392902897
 30
0.0
 10
128.6936465507
 20
40.7390781603
 30
0.0
 10
128.6936826651
 20
40.7389610079
 30
0.0
 10
128.6937071274
 20
40.73891022489999
 30
0.0
 10
128.6937391217
 20
40.7388785968
 30
0.0
 10
128.693780447
 20
40.73888509969999
 30
0.0
 10
128.6938133568
 20
40.7389213708
 30
0.0
 10
128.6938681332
 20
40.7390107259
 30
0.0
 10
128.6939351469
 20
40.73919288239999
 30
0.0
 10
128.6940204948
 20
40.7394868564
 30
0.0
 10
128.6941620982
 20
40.7400858023
 30
0.0
 10
128.6943550164
 20
40.7410950686
 30
0.0
 10
128.6946068788
 20
40.7426182008
 30
0.0
 10
128.694895181
 20
40.74455368539999
 30
0.0
 10
128.6952195679
 20
40.74689951799999
 30
0.0
 10
128.6955791485
 20
40.74965342239999
 30
0.0
 10
128.6959734212
 20
40.7528125781
 30
0.0
 10
128.6964018351
 20
40.75637338169999
 30
0.0
 10
128.6968638473
 20
40.760331531
 30
0.0
 10
128.6975530593
 20
40.7663897196
 30
0.0
 10
128.6984909675
 20
40.7749195867
 30
0.0
 10
128.6996994392
 20
40.7862763207
 30
0.0
 10
128.7005358163
 20
40.7943456991
 30
0.0
 10
128.7009746559
 20
40.7986230136
 30
0.0
  0
LINE
  5
262F
330
222
100
AcDbEntity
  8
0
  6
Continuous
 62
     9
100
AcDbLine
 10
128.7009746559
 20
40.7986230136
 30
0.0
 11
128.7011255247
 21
40.8000952541
 31
0.0
  0
LINE
  5
2630
330
222
100
AcDbEntity
  8
0
  6
Continuous
 62
     9
100
AcDbLine
 10
128.7047903278
 20
40.8367432765
 30
0.0
 11
128.7048252381
 21
40.83709925319999
 31
0.0
  0
LINE
  5
2631
330
222
100
AcDbEntity
  8
0
  6
Continuous
 62
     9
100
AcDbLine
 10
128.7090162457
 20
40.880547143
 30
0.0
 11
128.7092227273
 21
40.8827200078
 31
0.0
  0
LINE
  5
2632
330
222
100
AcDbEntity
  8
0
  6
Continuous
 62
     9
100
AcDbLine
 10
128.7092227273
 20
40.8827200078
 30
0.0
 11
128.7120183408
 21
40.9123914192
 31
0.0
  0
LINE
  5
2633
330
222
100
AcDbEntity
  8
0
  6
Continuous
 62
     9
100
AcDbLine
 10
128.7120183408
 20
40.9123914192
 30
0.0
 11
128.7126732278
 21
40.9194054847
 31
0.0
  0
LINE
  5
2634
330
222
100
AcDbEntity
  8
0
  6
Continuous
 62
     9
100
AcDbLine
 10
128.7126732278
 20
40.9194054847
 30
0.0
 11
128.7127076087
 21
40.91977434159999
 31
0.0
  0
SPLINE
  5
2635
330
222
100
AcDbEntity
  8
0
  6
Continuous
 62
     9
100
AcDbSpline
210
0.0
220
0.0
230
1.0
 70
     8
 71
     3
 72
    51
 73
    47
 74
     0
 42
0.0000001
 43
0.0000000001
 40
0.0
 40
0.0
 40
0.0
 40
0.0
 40
0.1065710067
 40
0.2101194209
 40
0.3076156818
 40
0.3963241019
 40
0.4736907655
 40
0.5074144715
 40
0.5375086438000001
 40
0.5637504889000001
 40
0.5753675660999999
 40
0.5859559587
 40
0.595496254
 40
0.6039691108
 40
0.61135855
 40
0.617654294
 40
0.6228467527000001
 40
0.6269266349000001
 40
0.6298854801
 40
0.6309434388000001
 40
0.6317217078000001
 40
0.6322236802000001
 40
0.6324646945
 40
0.6325309515999999
 40
0.6326315568
 40
0.6327923093
 40
0.6330193546000001
 40
0.6336791699000001
 40
0.6346176398
 40
0.6358366091
 40
0.6373367828000001
 40
0.6411783094
 40
0.6461344153999999
 40
0.6521958281
 40
0.659352916
 40
0.6675957451
 40
0.6769100739000001
 40
0.6872767191
 40
0.6986761925
 40
0.7244953895
 40
0.754189411
 40
0.7875370322000001
 40
0.8243075365999999
 40
0.8642341533999999
 40
0.9070324260999999
 40
1.0
 40
1.0
 40
1.0
 40
1.0
 10
128.7402102728
 20
41.1085533709
 30
0.0
 10
128.7394773889
 20
41.10015525219999
 30
0.0
 10
128.7380460819
 20
41.0835960074
 30
0.0
 10
128.7359917474
 20
41.05934968999999
 30
0.0
 10
128.7340989273
 20
41.03650776139999
 30
0.0
 10
128.7324216785
 20
41.0157261582
 30
0.0
 10
128.7311918536
 20
40.9999694588
 30
0.0
 10
128.7303549959
 20
40.98883279429999
 30
0.0
 10
128.7298375826
 20
40.9817276497
 30
0.0
 10
128.7294628423
 20
40.9763654544
 30
0.0
 10
128.72920755
 20
40.972541658
 30
0.0
 10
128.7290462853
 20
40.9700356701
 30
0.0
 10
128.7289075483
 20
40.96777746309999
 30
0.0
 10
128.7287916112
 20
40.9657714154
 30
0.0
 10
128.7286986006
 20
40.9640210598
 30
0.0
 10
128.7286286923
 20
40.9625295904
 30
0.0
 10
128.7285813841
 20
40.96129851439999
 30
0.0
 10
128.7285575402
 20
40.960332513
 30
0.0
 10
128.728553871
 20
40.9596893351
 30
0.0
 10
128.7285674305
 20
40.95931371079999
 30
0.0
 10
128.728579465
 20
40.95912307159999
 30
0.0
 10
128.7286004801
 20
40.95901594669999
 30
0.0
 10
128.7286167168
 20
40.9589375211
 30
0.0
 10
128.7286530531
 20
40.9589360004
 30
0.0
 10
128.7286697998
 20
40.9589589663
 30
0.0
 10
128.728687816
 20
40.9589919294
 30
0.0
 10
128.7287176423
 20
40.9590701804
 30
0.0
 10
128.7287563523999
 20
40.9592088684
 30
0.0
 10
128.7288056325
 20
40.959426504
 30
0.0
 10
128.7288609292
 20
40.95971042739999
 30
0.0
 10
128.7289503201
 20
40.9602217037
 30
0.0
 10
128.7290738133
 20
40.9610269087
 30
0.0
 10
128.7292358298
 20
40.96219110229999
 30
0.0
 10
128.7294204746
 20
40.96361686749999
 30
0.0
 10
128.7296274337
 20
40.96530185949999
 30
0.0
 10
128.7298561678
 20
40.9672433977
 30
0.0
 10
128.7301062385
 20
40.96943804409999
 30
0.0
 10
128.7303771568
 20
40.9718816169
 30
0.0
 10
128.730782594
 20
40.9756238402
 30
0.0
 10
128.7313357743
 20
40.98088783029999
 30
0.0
 10
128.7320493512
 20
40.9878806409
 30
0.0
 10
128.732832376
 20
40.99573711659999
 30
0.0
 10
128.7336790442
 20
41.0044006656
 30
0.0
 10
128.7345833428
 20
41.0138097016
 30
0.0
 10
128.7358937351
 20
41.02764550839999
 30
0.0
 10
128.7368863881
 20
41.0383389685
 30
0.0
 10
128.7375591974
 20
41.04566209699999
 30
0.0
  0
LINE
  5
2636
330
222
100
AcDbEntity
  8
0
  6
Continuous
 62
     9
100
AcDbLine
 10
128.7375591974
 20
41.04566209699999
 30
0.0
 11
128.7378881324
 21
41.0492485259
 31
0.0
  0
LINE
  5
2637
330
222
100
AcDbEntity
  8
0
  6
Continuous
 62
     9
100
AcDbLine
 10
128.7376078118
 20
41.1087694317
 30
0.0
 11
128.7354705073
 21
41.08406262139999
 31
0.0
  0
LINE
  5
2638
330
222
100
AcDbEntity
  8
0
  6
Continuous
 62
     9
100
AcDbLine
 10
128.7354705073
 20
41.08406262139999
 30
0.0
 11
128.7351730913
 21
41.08058924379999
 31
0.0
  0
SPLINE
  5
2639
330
222
100
AcDbEntity
  8
0
  6
Continuous
 62
     9
100
AcDbSpline
210
0.0
220
0.0
230
1.0
 70
     8
 71
     3
 72
    28
 73
    24
 74
     0
 42
0.0000001
 43
0.0000000001
 40
0.0
 40
0.0
 40
0.0
 40
0.0
 40
0.2283077233
 40
0.4311725746000001
 40
0.6060506964
 40
0.6822901868000001
 40
0.7507411383
 40
0.8111961045999999
 40
0.8634518190999999
 40
0.9073512828
 40
0.9427690048999998
 40
0.9572588062000001
 40
0.9695847029999999
 40
0.9749344942
 40
0.9797416456
 40
0.9840058997999999
 40
0.9877271784999999
 40
0.9935417935
 40
0.9971973318999999
 40
0.9982354883999999
 40
0.9988020043
 40
0.9992122051
 40
1.0
 40
1.0
 40
1.0
 40
1.0
 10
128.7288758084
 20
41.0043798747
 30
0.0
 10
128.7285272869
 20
40.9999639015
 30
0.0
 10
128.727876438
 20
40.9916234919
 30
0.0
 10
128.7269884041
 20
40.9798982579
 30
0.0
 10
128.7263488558
 20
40.9711131612
 30
0.0
 10
128.7259186404
 20
40.9649277202
 30
0.0
 10
128.7256526511
 20
40.9609563103
 30
0.0
 10
128.7254289758
 20
40.9574484675
 30
0.0
 10
128.7252482187
 20
40.95441523019999
 30
0.0
 10
128.7251108907
 20
40.9518660935
 30
0.0
 10
128.7250275585
 20
40.9500478797
 30
0.0
 10
128.7249850967
 20
40.9488411482
 30
0.0
 10
128.7249688767
 20
40.9482172458
 30
0.0
 10
128.7249620077
 20
40.9477810975
 30
0.0
 10
128.7249598854
 20
40.94750124389999
 30
0.0
 10
128.7249605068
 20
40.9472531973
 30
0.0
 10
128.7249646979
 20
40.9469848399
 30
0.0
 10
128.7249746524
 20
40.9467321306
 30
0.0
 10
128.724994402
 20
40.9465223003
 30
0.0
 10
128.7250185447
 20
40.9464297289
 30
0.0
 10
128.7250394321
 20
40.94638686389999
 30
0.0
 10
128.7250785366
 20
40.94640015639999
 30
0.0
 10
128.7250870389
 20
40.946423158
 30
0.0
 10
128.7250939569
 20
40.94643678789999
 30
0.0
  0
LINE
  5
263A
330
222
100
AcDbEntity
  8
0
  6
Continuous
 62
     9
100
AcDbLine
 10
128.7458223273
 20
41.1391300087
 30
0.0
 11
128.7459924905
 21
41.1411290627
 31
0.0
  0
LINE
  5
263B
330
222
100
AcDbEntity
  8
0
  6
Continuous
 62
     9
100
AcDbLine
 10
128.748219602
 20
41.1676254379
 30
0.0
 11
128.74849882
 21
41.1709956609
 31
0.0
  0
SPLINE
  5
263C
330
222
100
AcDbEntity
  8
0
  6
Continuous
 62
     9
100
AcDbSpline
210
0.0
220
0.0
230
1.0
 70
     8
 71
     3
 72
    51
 73
    47
 74
     0
 42
0.0000001
 43
0.0000000001
 40
0.0
 40
0.0
 40
0.0
 40
0.0
 40
0.0929727808
 40
0.1357805334
 40
0.1757194678
 40
0.2125049796
 40
0.2458690178
 40
0.275580419
 40
0.3014175647
 40
0.3128257583
 40
0.3232009932
 40
0.332523829
 40
0.3407750552
 40
0.3479400813
 40
0.354008981
 40
0.358972191
 40
0.3628205043
 40
0.3643239692
 40
0.3655460892
 40
0.3664875279999999
 40
0.3671501224
 40
0.3673784673
 40
0.3675404203
 40
0.3676419802000001
 40
0.3677082986
 40
0.3679472062
 40
0.368446891
 40
0.3692229323
 40
0.3702787418
 40
0.3732335916
 40
0.3773101107
 40
0.3824997697999999
 40
0.3887931755
 40
0.3961806343
 40
0.4046518515
 40
0.414191005
 40
0.4247786590000001
 40
0.4363952878
 40
0.4626367291
 40
0.4927312007
 40
0.5264551949000001
 40
0.6038200095000001
 40
0.6925188747
 40
0.7899921577
 40
0.8934975129999999
 40
1.0
 40
1.0
 40
1.0
 40
1.0
 10
128.74849882
 20
41.1709956609
 30
0.0
 10
128.7491061745
 20
41.1783396755
 30
0.0
 10
128.749983033
 20
41.189065964
 30
0.0
 10
128.7510919362
 20
41.2029493973
 30
0.0
 10
128.7518331715
 20
41.212394564
 30
0.0
 10
128.7525019178
 20
41.22109459229999
 30
0.0
 10
128.7530934005
 20
41.2289875143
 30
0.0
 10
128.7536035114
 20
41.23601630729999
 30
0.0
 10
128.7539717467
 20
41.24131056679999
 30
0.0
 10
128.7542215454
 20
41.245076734
 30
0.0
 10
128.7543785815
 20
41.24753723469999
 30
0.0
 10
128.7545129781
 20
41.2497484386
 30
0.0
 10
128.7546244916
 20
41.2517061082
 30
0.0
 10
128.7547129523
 20
41.2534067457
 30
0.0
 10
128.7547784249
 20
41.25484759059999
 30
0.0
 10
128.754820816
 20
41.2560262858
 30
0.0
 10
128.7548388722
 20
41.2568436971
 30
0.0
 10
128.7548395399
 20
41.2573648137
 30
0.0
 10
128.7548343355
 20
41.2576553514
 30
0.0
 10
128.7548235751
 20
41.2578793834
 30
0.0
 10
128.7548094866
 20
41.258023544
 30
0.0
 10
128.7547937307
 20
41.25810636489999
 30
0.0
 10
128.7547816541
 20
41.258142339
 30
0.0
 10
128.7547692884
 20
41.25816809599999
 30
0.0
 10
128.7547333742
 20
41.2581737184
 30
0.0
 10
128.7547033348
 20
41.2580992512
 30
0.0
 10
128.7546643985
 20
41.2579979164
 30
0.0
 10
128.7546193534
 20
41.2578122766
 30
0.0
 10
128.754540948
 20
41.25744468039999
 30
0.0
 10
128.7544329717
 20
41.2568100117
 30
0.0
 10
128.7542889763
 20
41.25585339829999
 30
0.0
 10
128.7541220706
 20
41.2546309534
 30
0.0
 10
128.7539322743
 20
41.2531475225
 30
0.0
 10
128.7537203257
 20
41.25140450269999
 30
0.0
 10
128.7534866126
 20
41.24940508119999
 30
0.0
 10
128.7532316231
 20
41.2471527598
 30
0.0
 10
128.7529558483
 20
41.2446519117
 30
0.0
 10
128.7525441369
 20
41.24083420269999
 30
0.0
 10
128.7519832817
 20
41.235477507
 30
0.0
 10
128.7512607034
 20
41.2283759565
 30
0.0
 10
128.7501536489
 20
41.2172405604
 30
0.0
 10
128.7486325842
 20
41.20147844449999
 30
0.0
 10
128.7466810728
 20
41.18068166989999
 30
0.0
 10
128.7445849901
 20
41.15781749579999
 30
0.0
 10
128.742404965
 20
41.13354401859999
 30
0.0
 10
128.7409441499
 20
41.1169628696
 30
0.0
 10
128.7402102728
 20
41.1085533709
 30
0.0
  0
LINE
  5
263D
330
222
100
AcDbEntity
  8
0
  6
Continuous
 62
     9
100
AcDbLine
 10
128.7096753445
 20
40.9157289305
 30
0.0
 11
128.7093028699
 21
40.9129242663
 31
0.0
  0
SPLINE
  5
263E
330
222
100
AcDbEntity
  8
0
  6
Continuous
 62
     9
100
AcDbSpline
210
0.0
220
0.0
230
1.0
 70
     8
 71
     3
 72
    27
 73
    23
 74
     0
 42
0.0000001
 43
0.0000000001
 40
0.0
 40
0.0
 40
0.0
 40
0.0
 40
0.0957564231
 40
0.1765212207
 40
0.2422407698
 40
0.2928744877
 40
0.3125362707999999
 40
0.3284444699
 40
0.3406287026
 40
0.3491575291
 40
0.3542494675
 40
0.3570809635
 40
0.3614410624
 40
0.3691162233
 40
0.3954185043
 40
0.4367070696
 40
0.4930837542
 40
0.5645319912
 40
0.6510053951
 40
0.7524483244
 40
0.8688006897000001
 40
1.0
 40
1.0
 40
1.0
 40
1.0
 10
128.7093028699
 20
40.9129242663
 30
0.0
 10
128.7092602847
 20
40.9126227761
 30
0.0
 10
128.7091797811
 20
40.9120672679
 30
0.0
 10
128.7090612976
 20
40.9113061718
 30
0.0
 10
128.708955514
 20
40.91068827289999
 30
0.0
 10
128.7088727421
 20
40.9102638629
 30
0.0
 10
128.7088113212
 20
40.9099964158
 30
0.0
 10
128.7087721
 20
40.9098502416
 30
0.0
 10
128.7087376124
 20
40.9097375719
 30
0.0
 10
128.7087040029
 20
40.9096653254
 30
0.0
 10
128.7086789603
 20
40.9096141636
 30
0.0
 10
128.708633039
 20
40.9096089205
 30
0.0
 10
128.7086118348
 20
40.90966038349999
 30
0.0
 10
128.7085811186
 20
40.9097718064
 30
0.0
 10
128.7085593034
 20
40.91001718909999
 30
0.0
 10
128.7085420123
 20
40.9104073118
 30
0.0
 10
128.708538028
 20
40.91094672429999
 30
0.0
 10
128.7085453318
 20
40.9116275021
 30
0.0
 10
128.7085652669
 20
40.9124522205
 30
0.0
 10
128.7085975599
 20
40.91341911759999
 30
0.0
 10
128.7086424058
 20
40.9145279644
 30
0.0
 10
128.7086785009
 20
40.9153142894
 30
0.0
 10
128.7086984939
 20
40.915730993
 30
0.0
  0
SPLINE
  5
263F
330
222
100
AcDbEntity
  8
0
  6
Continuous
 62
     9
100
AcDbSpline
210
0.0
220
0.0
230
1.0
 70
     8
 71
     3
 72
    12
 73
     8
 74
     0
 42
0.0000001
 43
0.0000000001
 40
0.0
 40
0.0
 40
0.0
 40
0.0
 40
0.0633031147
 40
0.1495907201
 40
0.3821737596
 40
0.675137874
 40
1.0
 40
1.0
 40
1.0
 40
1.0
 10
128.7089000978
 20
40.9195380556
 30
0.0
 10
128.7091284672
 20
40.9235531921
 30
0.0
 10
128.7097474564
 20
40.93303669239999
 30
0.0
 10
128.7114847436
 20
40.9572538353
 30
0.0
 10
128.7145204267
 20
40.99600514499999
 30
0.0
 10
128.7189585983
 20
41.0498487754
 30
0.0
 10
128.7223128951
 20
41.0889555821
 30
0.0
 10
128.7241067358
 20
41.10951585859999
 30
0.0
  0
LINE
  5
2640
330
222
100
AcDbEntity
  8
0
  6
Continuous
 62
     9
100
AcDbLine
 10
128.7241067358
 20
41.10951585859999
 30
0.0
 11
128.7241412875
 21
41.109911831
 31
0.0
  0
LINE
  5
2641
330
222
100
AcDbEntity
  8
0
  6
Continuous
 62
     9
100
AcDbLine
 10
128.726287843
 20
41.10973362030001
 30
0.0
 11
128.7263303016
 21
41.11022008199999
 31
0.0
  0
SPLINE
  5
2642
330
222
100
AcDbEntity
  8
0
  6
Continuous
 62
     9
100
AcDbSpline
210
0.0
220
0.0
230
1.0
 70
     8
 71
     3
 72
    30
 73
    26
 74
     0
 42
0.0000001
 43
0.0000000001
 40
0.0
 40
0.0
 40
0.0
 40
0.0
 40
0.1980691402
 40
0.388227563
 40
0.5629676885000001
 40
0.6423623947000001
 40
0.7153770719
 40
0.7812817726000001
 40
0.8394330230999999
 40
0.8892439618
 40
0.9108701106999998
 40
0.9302326023999999
 40
0.9472825137999999
 40
0.9619832476
 40
0.9742992495999999
 40
0.9795519718999999
 40
0.9841957176000001
 40
0.9882285222
 40
0.9916492142
 40
0.9944568585999999
 40
0.9966510218000001
 40
0.9982325535999999
 40
0.9992068257999999
 40
0.9996117025
 40
1.0
 40
1.0
 40
1.0
 40
1.0
 10
128.7263303016
 20
41.11022008199999
 30
0.0
 10
128.7274228856
 20
41.1227363267
 30
0.0
 10
128.729588106
 20
41.1472668676
 30
0.0
 10
128.7327994824
 20
41.182832138
 30
0.0
 10
128.7353970582
 20
41.21089443779999
 30
0.0
 10
128.7373548025
 20
41.2315535062
 30
0.0
 10
128.7386840985
 20
41.245337576
 30
0.0
 10
128.7399087495
 20
41.2577779584
 30
0.0
 10
128.7410163495
 20
41.2687508661
 30
0.0
 10
128.741868206
 20
41.2769266269
 30
0.0
 10
128.7424856287
 20
41.28265300569999
 30
0.0
 10
128.7428907979
 20
41.2863121271
 30
0.0
 10
128.7432592378
 20
41.289533319
 30
0.0
 10
128.743589998
 20
41.29230891899999
 30
0.0
 10
128.7438451238
 20
41.2943398615
 30
0.0
 10
128.7440313026
 20
41.295736528
 30
0.0
 10
128.7441533616
 20
41.2966115173
 30
0.0
 10
128.744265656
 20
41.2973709269
 30
0.0
 10
128.7443669463
 20
41.2980129751
 30
0.0
 10
128.744460231
 20
41.2985416332
 30
0.0
 10
128.7445366626
 20
41.2989454804
 30
0.0
 10
128.7446164486
 20
41.2992522711
 30
0.0
 10
128.7446544513
 20
41.29940667409999
 30
0.0
 10
128.744736719
 20
41.29954407199999
 30
0.0
 10
128.7447713823
 20
41.2994734126
 30
0.0
 10
128.7447785518
 20
41.2994498488
 30
0.0
  0
LINE
  5
2643
330
222
100
AcDbEntity
  8
0
  6
Continuous
 62
     9
100
AcDbLine
 10
128.7241412875
 20
41.109911831
 30
0.0
 11
128.7241846406
 21
41.1104085443
 31
0.0
  0
SPLINE
  5
2644
330
222
100
AcDbEntity
  8
0
  6
Continuous
 62
     9
100
AcDbSpline
210
0.0
220
0.0
230
1.0
 70
     8
 71
     3
 72
    12
 73
     8
 74
     0
 42
0.0000001
 43
0.0000000001
 40
0.0
 40
0.0
 40
0.0
 40
0.0
 40
0.3248022614
 40
0.6177799258
 40
0.8503976262
 40
0.9366961175
 40
1.0
 40
1.0
 40
1.0
 40
1.0
 10
128.7241846406
 20
41.1104085443
 30
0.0
 10
128.7259813198
 20
41.1309908545
 30
0.0
 10
128.7294560226
 20
41.1701338406
 30
0.0
 10
128.7344181002
 20
41.22399933739999
 30
0.0
 10
128.7381459835
 20
41.2627431728
 30
0.0
 10
128.7406333419
 20
41.2869285185
 30
0.0
 10
128.7416678409
 20
41.2963885186
 30
0.0
 10
128.7421390428
 20
41.300387596
 30
0.0
  0
SPLINE
  5
2645
330
222
100
AcDbEntity
  8
0
  6
Continuous
 62
     9
100
AcDbSpline
210
0.0
220
0.0
230
1.0
 70
     8
 71
     3
 72
    27
 73
    23
 74
     0
 42
0.0000001
 43
0.0000000001
 40
0.0
 40
0.0
 40
0.0
 40
0.0
 40
0.1313996615
 40
0.2479661318
 40
0.3496358858
 40
0.4363477499
 40
0.5080448989999999
 40
0.564679533
 40
0.6062337567000001
 40
0.6328059792000001
 40
0.6406110689000001
 40
0.6450760845
 40
0.6478729223
 40
0.652830565
 40
0.6612094139
 40
0.6732387094
 40
0.6889891296
 40
0.7084909617
 40
0.7587982644000001
 40
0.8241811744999999
 40
0.9045994861
 40
1.0
 40
1.0
 40
1.0
 40
1.0
 10
128.7425901581
 20
41.30409473159999
 30
0.0
 10
128.7426431417
 20
41.304513365
 30
0.0
 10
128.7427447501
 20
41.30530316409999
 30
0.0
 10
128.7428940332
 20
41.3064160386
 30
0.0
 10
128.7430309903
 20
41.30738565
 30
0.0
 10
128.7431553547
 20
41.30821178699999
 30
0.0
 10
128.7432671859
 20
41.30889266119999
 30
0.0
 10
128.7433653456
 20
41.3094310022
 30
0.0
 10
128.7434511136
 20
41.3098186826
 30
0.0
 10
128.7435151324
 20
41.310061086
 30
0.0
 10
128.743565802
 20
41.310168328
 30
0.0
 10
128.743594729
 20
41.31021678429999
 30
0.0
 10
128.7436399542
 20
41.3102065273
 30
0.0
 10
128.7436563449
 20
41.31015163119999
 30
0.0
 10
128.7436768893
 20
41.3100757328
 30
0.0
 10
128.7436915381
 20
41.3099589264
 30
0.0
 10
128.7437049293
 20
41.3098082718
 30
0.0
 10
128.7437192403
 20
41.30953353459999
 30
0.0
 10
128.7437272925
 20
41.3090995748
 30
0.0
 10
128.7437244124
 20
41.3084696918
 30
0.0
 10
128.743709114
 20
41.3076952644
 30
0.0
 10
128.743692016
 20
41.3071308874
 30
0.0
 10
128.7436816363
 20
41.30682469689999
 30
0.0
  0
SPLINE
  5
2646
330
222
100
AcDbEntity
  8
0
  6
Continuous
 62
     9
100
AcDbSpline
210
0.0
220
0.0
230
1.0
 70
     8
 71
     3
 72
    15
 73
    11
 74
     0
 42
0.0000001
 43
0.0000000001
 40
0.0
 40
0.0
 40
0.0
 40
0.0
 40
0.3886446635
 40
0.5505497921
 40
0.6894602059999999
 40
0.8044847766
 40
0.8949332097999999
 40
0.9602201377
 40
0.9833154563999999
 40
1.0
 40
1.0
 40
1.0
 40
1.0
 10
128.6975370054
 20
40.82750651309999
 30
0.0
 10
128.6966457491
 20
40.8157555542
 30
0.0
 10
128.6954082603
 20
40.7991073191
 30
0.0
 10
128.6939470157
 20
40.7782521929
 30
0.0
 10
128.6931111683
 20
40.7656705725
 30
0.0
 10
128.6924698054
 20
40.7552475577
 30
0.0
 10
128.6920282008
 20
40.74704937489999
 30
0.0
 10
128.6917980962
 20
40.74163108749999
 30
0.0
 10
128.691733631
 20
40.7384458482
 30
0.0
 10
128.6917366508
 20
40.7372392469
 30
0.0
 10
128.6917531945
 20
40.736733599
 30
0.0
  0
SPLINE
  5
2647
330
222
100
AcDbEntity
  8
0
  6
Continuous
 62
     9
100
AcDbSpline
210
0.0
220
0.0
230
1.0
 70
     8
 71
     3
 72
    14
 73
    10
 74
     0
 42
0.0000001
 43
0.0000000001
 40
0.0
 40
0.0
 40
0.0
 40
0.0
 40
0.4505103437
 40
0.622088097
 40
0.7581879437000002
 40
0.8593572877999999
 40
0.9269964118
 40
0.96627153
 40
1.0
 40
1.0
 40
1.0
 40
1.0
 10
128.6917531945
 20
40.736733599
 30
0.0
 10
128.6917598484
 20
40.736530225
 30
0.0
 10
128.6917722165
 20
40.7362495174
 30
0.0
 10
128.6918040058
 20
40.73590814929999
 30
0.0
 10
128.6918288109
 20
40.73572571869999
 30
0.0
 10
128.6918589563
 20
40.7355894475
 30
0.0
 10
128.6918882945
 20
40.73550351719999
 30
0.0
 10
128.6919335226
 20
40.73544574169999
 30
0.0
 10
128.6919714683
 20
40.7354597657
 30
0.0
 10
128.6919832382
 20
40.7354694378
 30
0.0
  0
SPLINE
  5
2648
330
222
100
AcDbEntity
  8
0
  6
Continuous
 62
     7
100
AcDbSpline
210
0.0
220
0.0
230
1.0
 70
     8
 71
     3
 72
    33
 73
    29
 74
     0
 42
0.0000001
 43
0.0000000001
 40
0.0
 40
0.0
 40
0.0
 40
0.0
 40
0.0002179582
 40
0.0003892185
 40
0.0006081365
 40
0.0009294823
 40
0.0019395752
 40
0.0034702289
 40
0.0055319259
 40
0.0081284859
 40
0.0112615663
 40
0.0149316078
 40
0.0191381871
 40
0.023880609
 40
0.0349694858
 40
0.0481902786
 40
0.0635305044
 40
0.0809753356
 40
0.1005092501
 40
0.1457648457
 40
0.199123021
 40
0.2603756065
 40
0.3292845571
 40
0.4055821656000001
 40
0.4889702375000001
 40
0.5791238689
 40
0.7782979766000001
 40
1.0
 40
1.0
 40
1.0
 40
1.0
 10
128.6684328502
 20
40.4248812403
 30
0.0
 10
128.6684169071
 20
40.4248654039
 30
0.0
 10
128.6683838503
 20
40.4248375775
 30
0.0
 10
128.668315119
 20
40.4248442376
 30
0.0
 10
128.6682650053
 20
40.4249034361
 30
0.0
 10
128.6681975136
 20
40.4250474291
 30
0.0
 10
128.668134091
 20
40.42533926109999
 30
0.0
 10
128.66807318
 20
40.4258086115
 30
0.0
 10
128.6680262094
 20
40.4264458097
 30
0.0
 10
128.667992173
 20
40.4272482061
 30
0.0
 10
128.6679723858
 20
40.42821726679999
 30
0.0
 10
128.6679668028
 20
40.42935236379999
 30
0.0
 10
128.6679756398
 20
40.4306534016
 30
0.0
 10
128.6680085573
 20
40.43271907989999
 30
0.0
 10
128.6680900337
 20
40.43571335489999
 30
0.0
 10
128.6682404835
 20
40.43979855989999
 30
0.0
 10
128.6684487387
 20
40.4445372625
 30
0.0
 10
128.6687146683
 20
40.44992485489999
 30
0.0
 10
128.6691690308
 20
40.4583911252
 30
0.0
 10
128.669886852
 20
40.4705511659
 30
0.0
 10
128.6709352151
 20
40.48700019059999
 30
0.0
 10
128.6722054227
 20
40.5058785833
 30
0.0
 10
128.6736927511
 20
40.527112698
 30
0.0
 10
128.6753917489
 20
40.5506197037
 30
0.0
 10
128.6772958959
 20
40.5763078933
 30
0.0
 10
128.680196547
 20
40.61462560239999
 30
0.0
 10
128.6842824339
 20
40.6671546101
 30
0.0
 10
128.6877377433
 20
40.7104095482
 30
0.0
 10
128.689576917
 20
40.7331931105
 30
0.0
  0
LINE
  5
2649
330
222
100
AcDbEntity
  8
0
  6
Continuous
 62
     7
100
AcDbLine
 10
128.689576917
 20
40.7331931105
 30
0.0
 11
128.6897501907
 21
40.7353389053
 31
0.0
  0
SPLINE
  5
264A
330
222
100
AcDbEntity
  8
0
  6
Continuous
 62
     7
100
AcDbSpline
210
0.0
220
0.0
230
1.0
 70
     8
 71
     3
 72
    33
 73
    29
 74
     0
 42
0.0000001
 43
0.0000000001
 40
0.0
 40
0.0
 40
0.0
 40
0.0
 40
0.0002179696
 40
0.0003892326
 40
0.000608143
 40
0.0009294835
 40
0.0019395781
 40
0.0034702415
 40
0.0055319423
 40
0.0081284858
 40
0.0112615198
 40
0.0149315323
 40
0.0191381047
 40
0.0238805274
 40
0.0349693714
 40
0.0481900753
 40
0.063530282
 40
0.0809750648
 40
0.1005088829
 40
0.1457643938
 40
0.199122445
 40
0.2603748853
 40
0.3292837675
 40
0.4055813101
 40
0.4889693226
 40
0.5791229946000001
 40
0.7782973344
 40
1.0
 40
1.0
 40
1.0
 40
1.0
 10
128.7879750198
 20
41.79458088519999
 30
0.0
 10
128.7879620612
 20
41.79459924469999
 30
0.0
 10
128.7879343267
 20
41.7946323767
 30
0.0
 10
128.7878654835
 20
41.7946377355
 30
0.0
 10
128.7878058712
 20
41.7945881179
 30
0.0
 10
128.7877144584
 20
41.79445800049999
 30
0.0
 10
128.7876014422
 20
41.7941815765
 30
0.0
 10
128.787460149
 20
41.79372988879999
 30
0.0
 10
128.7873035088
 20
41.7931104835
 30
0.0
 10
128.7871309906
 20
41.7923261485
 30
0.0
 10
128.786943634
 20
41.79137520989999
 30
0.0
 10
128.7867415057
 20
41.7902582893
 30
0.0
 10
128.786524833
 20
41.78897543949999
 30
0.0
 10
128.7861994192
 20
41.7869353653
 30
0.0
 10
128.7857609704
 20
41.7839723624
 30
0.0
 10
128.7852014699
 20
41.779923015
 30
0.0
 10
128.784585698
 20
41.7752200605
 30
0.0
 10
128.7839143202
 20
41.7698680591
 30
0.0
 10
128.7828952086
 20
41.7614513973
 30
0.0
 10
128.7814957048
 20
41.74935130749999
 30
0.0
 10
128.7796787646
 20
41.73296997269999
 30
0.0
 10
128.7776594753
 20
41.71415765159999
 30
0.0
 10
128.7754459424
 20
41.6929876884
 30
0.0
 10
128.7730471443
 20
41.66954260039999
 30
0.0
 10
128.7704725455
 20
41.64391383209999
 30
0.0
 10
128.7666915731
 20
41.60567427199999
 30
0.0
 10
128.7616160872
 20
41.55323337499999
 30
0.0
 10
128.7575261015
 20
41.5100352515
 30
0.0
 10
128.7553906692
 20
41.487278276
 30
0.0
  0
LINE
  5
264B
330
222
100
AcDbEntity
  8
0
  6
Continuous
 62
     7
100
AcDbLine
 10
128.7553906692
 20
41.487278276
 30
0.0
 11
128.7551899026
 21
41.4851381291
 31
0.0
  0
SPLINE
  5
264C
330
222
100
AcDbEntity
  8
0
  6
Continuous
 62
     9
100
AcDbSpline
210
0.0
220
0.0
230
1.0
 70
     8
 71
     3
 72
    30
 73
    26
 74
     0
 42
0.0000001
 43
0.0000000001
 40
0.0
 40
0.0
 40
0.0
 40
0.0
 40
0.0003886066
 40
0.0007931524
 40
0.001766697
 40
0.0033472291
 40
0.0055401629
 40
0.0083463808
 40
0.011765479
 40
0.0157965515
 40
0.0204384538
 40
0.0256891376
 40
0.0380003948
 40
0.0526956963
 40
0.0697397306
 40
0.0890960217
 40
0.1107154445
 40
0.1605122336
 40
0.2186493764
 40
0.2845407804
 40
0.3575444088
 40
0.4369314128
 40
0.6116716505
 40
0.8018606476
 40
1.0
 40
1.0
 40
1.0
 40
1.0
 10
128.7116624322
 20
40.92000937619999
 30
0.0
 10
128.7116512939
 20
40.9199874217
 30
0.0
 10
128.7116050114
 20
40.91992388309999
 30
0.0
 10
128.7115477306
 20
40.9200730782
 30
0.0
 10
128.711537086
 20
40.9202314811
 30
0.0
 10
128.7115116179
 20
40.9205468137
 30
0.0
 10
128.7115062797
 20
40.9209570561
 30
0.0
 10
128.7115059357
 20
40.9214929169
 30
0.0
 10
128.7115173391
 20
40.92214167419999
 30
0.0
 10
128.7115382182
 20
40.92290774489999
 30
0.0
 10
128.7115694878
 20
40.9237891645
 30
0.0
 10
128.7116279165
 20
40.9251946191
 30
0.0
 10
128.7117282355
 20
40.9272356624
 30
0.0
 10
128.7118829641
 20
40.93002200879999
 30
0.0
 10
128.7120777132
 20
40.93325307519999
 30
0.0
 10
128.7123120931999
 20
40.93692117049999
 30
0.0
 10
128.7126952816
 20
40.94265886099999
 30
0.0
 10
128.7132715793
 20
40.95084587199999
 30
0.0
 10
128.7140801988
 20
40.96182804309999
 30
0.0
 10
128.7150275776
 20
40.97427409789999
 30
0.0
 10
128.7161045218
 20
40.98806033909999
 30
0.0
 10
128.7177527538
 20
41.008718539
 30
0.0
 10
128.72005262
 20
41.03677202820001
 30
0.0
 10
128.723047171
 20
41.0723167
 30
0.0
 10
128.7251617294
 20
41.09682639219999
 30
0.0
 10
128.7262527184
 20
41.1093310787
 30
0.0
  0
LINE
  5
264D
330
222
100
AcDbEntity
  8
0
  6
Continuous
 62
     9
100
AcDbLine
 10
128.7262527184
 20
41.1093310787
 30
0.0
 11
128.726287843
 21
41.10973362030001
 31
0.0
  0
SPLINE
  5
264E
330
222
100
AcDbEntity
  8
0
  6
Continuous
 62
     9
100
AcDbSpline
210
0.0
220
0.0
230
1.0
 70
     8
 71
     3
 72
    25
 73
    21
 74
     0
 42
0.0000001
 43
0.0000000001
 40
0.0
 40
0.0
 40
0.0
 40
0.0
 40
0.0011658301
 40
0.0027181169
 40
0.0063353267
 40
0.0121072853
 40
0.0200466682
 40
0.0301545653
 40
0.0424286641
 40
0.0568646478
 40
0.0734513457
 40
0.0921737891
 40
0.1359648663
 40
0.1881149154
 40
0.2484783284
 40
0.3168587888
 40
0.3930525568
 40
0.5679661749
 40
0.7710956999
 40
1.0
 40
1.0
 40
1.0
 40
1.0
 10
128.7534289087
 20
41.27109522059999
 30
0.0
 10
128.7534225627
 20
41.2711160636
 30
0.0
 10
128.7533807531
 20
41.27118122299999
 30
0.0
 10
128.7533136913
 20
41.27101762689999
 30
0.0
 10
128.7532689555
 20
41.2708581746
 30
0.0
 10
128.753193632
 20
41.2705218471
 30
0.0
 10
128.7531154493
 20
41.2700926101
 30
0.0
 10
128.7530226199
 20
41.2695301248
 30
0.0
 10
128.7529204573
 20
41.2688508968
 30
0.0
 10
128.7528072973
 20
41.26804926739999
 30
0.0
 10
128.7526839236
 20
41.2671279588
 30
0.0
 10
128.752495671
 20
41.26566166639999
 30
0.0
 10
128.7522370875
 20
41.2635344448
 30
0.0
 10
128.7519012066
 20
41.2606326964
 30
0.0
 10
128.7515268316
 20
41.25727284599999
 30
0.0
 10
128.7511150789
 20
41.2534650559
 30
0.0
 10
128.7504886854
 20
41.2475272446
 30
0.0
 10
128.7496258631
 20
41.2390821698
 30
0.0
 10
128.7485064204
 20
41.2277945847
 30
0.0
 10
128.747728197
 20
41.2197580969
 30
0.0
 10
128.7473196543
 20
41.21549976719999
 30
0.0
  0
LINE
  5
264F
330
222
100
AcDbEntity
  8
0
  6
Continuous
 62
     9
100
AcDbLine
 10
128.7473196543
 20
41.21549976719999
 30
0.0
 11
128.7470956031
 21
41.2131604125
 31
0.0
  0
LINE
  5
2650
330
222
100
AcDbEntity
  8
0
  6
Continuous
 62
     9
100
AcDbLine
 10
128.7395568041
 20
41.1309297909
 30
0.0
 11
128.7376078118
 21
41.1087694317
 31
0.0
  0
SPLINE
  5
2651
330
222
100
AcDbEntity
  8
0
  6
Continuous
 62
     9
100
AcDbSpline
210
0.0
220
0.0
230
1.0
 70
     8
 71
     3
 72
    28
 73
    24
 74
     0
 42
0.0000001
 43
0.0000000001
 40
0.0
 40
0.0
 40
0.0
 40
0.0
 40
0.0004911111
 40
0.0010578241
 40
0.0020306667
 40
0.0034856414
 40
0.0054433782
 40
0.0079119312
 40
0.0108952172
 40
0.0143954233
 40
0.0229504106
 40
0.0335773948
 40
0.0462716564
 40
0.0610271487
 40
0.0966944228
 40
0.1405217782
 40
0.1924278981
 40
0.2522943859
 40
0.3199987205
 40
0.3954154206
 40
0.5687311967000001
 40
0.7708113953
 40
1.0
 40
1.0
 40
1.0
 40
1.0
 10
128.7573652705
 20
41.4846088155
 30
0.0
 10
128.7573554246
 20
41.4846202959
 30
0.0
 10
128.7573211031
 20
41.48464062969999
 30
0.0
 10
128.7572668571
 20
41.484593066
 30
0.0
 10
128.7572235451
 20
41.4845150521
 30
0.0
 10
128.7571708398
 20
41.4843888038
 30
0.0
 10
128.7571154938
 20
41.4842168917
 30
0.0
 10
128.7570547368
 20
41.4839966605
 30
0.0
 10
128.7569898991
 20
41.48372875469999
 30
0.0
 10
128.7568907889
 20
41.48327629749999
 30
0.0
 10
128.7567588562
 20
41.48259027609999
 30
0.0
 10
128.756592043
 20
41.4816228569
 30
0.0
 10
128.75640846
 20
41.48046467909999
 30
0.0
 10
128.756123066
 20
41.4785419721
 30
0.0
 10
128.755730175
 20
41.47566607899999
 30
0.0
 10
128.7552186757
 20
41.47165189459999
 30
0.0
 10
128.7546436804
 20
41.4668946369
 30
0.0
 10
128.7540064245
 20
41.4614043137
 30
0.0
 10
128.7533084564
 20
41.4551921901
 30
0.0
 10
128.7522488974
 20
41.4455049714
 30
0.0
 10
128.7507903901
 20
41.4316985342
 30
0.0
 10
128.7488958544
 20
41.4131763783
 30
0.0
 10
128.7475782796
 20
41.39996053539999
 30
0.0
 10
128.7468848509
 20
41.39293659389999
 30
0.0
  0
SPLINE
  5
2652
330
222
100
AcDbEntity
  8
0
  6
Continuous
 62
     7
100
AcDbSpline
210
0.0
220
0.0
230
1.0
 70
     8
 71
     3
 72
    32
 73
    28
 74
     0
 42
0.0000001
 43
0.0000000001
 40
0.0
 40
0.0
 40
0.0
 40
0.0
 40
0.2077543362
 40
0.3063421258
 40
0.4005223796000001
 40
0.4896697300000001
 40
0.5731921043
 40
0.6505348786000001
 40
0.7211846224
 40
0.7846724255
 40
0.8405770265999999
 40
0.8655678154
 40
0.888527698
 40
0.9094187609999998
 40
0.9282067954
 40
0.9448601052999999
 40
0.9593523176999999
 40
0.9716588526999998
 40
0.9817609672999999
 40
0.9859803701999998
 40
0.9896430071999999
 40
0.9927481092
 40
0.9952953844999999
 40
0.9972852273
 40
0.9987197968
 40
0.9996078183999999
 40
1.0
 40
1.0
 40
1.0
 40
1.0
 10
128.7192062055
 20
40.9347414995
 30
0.0
 10
128.7161644639
 20
40.9009408171
 30
0.0
 10
128.7116378845
 20
40.8511040576
 30
0.0
 10
128.7056239287
 20
40.785954548
 30
0.0
 10
128.7013426119
 20
40.7401022888
 30
0.0
 10
128.6972396978
 20
40.69670508389999
 30
0.0
 10
128.6933425193
 20
40.65605117639999
 30
0.0
 10
128.6896770939
 20
40.61841058199999
 30
0.0
 10
128.6862680062
 20
40.58403325919999
 30
0.0
 10
128.6831380925
 20
40.55314748489999
 30
0.0
 10
128.6806971695
 20
40.5296886781
 30
0.0
 10
128.6788945580999
 20
40.5128196489
 30
0.0
 10
128.6776759175
 20
40.5016403678
 30
0.0
 10
128.6765413719
 20
40.4914711906
 30
0.0
 10
128.6754929138
 20
40.48232903339999
 30
0.0
 10
128.6745323677
 20
40.474228979
 30
0.0
 10
128.6736617024
 20
40.4671845027
 30
0.0
 10
128.6728824992
 20
40.4612072165
 30
0.0
 10
128.6722803154
 20
40.4568990951
 30
0.0
 10
128.6718401926
 20
40.45399463909999
 30
0.0
 10
128.6715537528
 20
40.4522223875
 30
0.0
 10
128.6712923689
 20
40.4507246071
 30
0.0
 10
128.6710527254
 20
40.4494957096
 30
0.0
 10
128.6708457168
 20
40.44855175699999
 30
0.0
 10
128.6706484119
 20
40.4478524704
 30
0.0
 10
128.6705155772
 20
40.4474717572
 30
0.0
 10
128.6703700312
 20
40.4472508375
 30
0.0
 10
128.67030621
 20
40.44725640969999
 30
0.0
  0
LINE
  5
2653
330
222
100
AcDbEntity
  8
0
  6
Continuous
 62
     7
100
AcDbLine
 10
128.7457157371
 20
41.2963863791
 30
0.0
 11
128.7457519244
 21
41.29681538239999
 31
0.0
  0
LINE
  5
2654
330
222
100
AcDbEntity
  8
0
  6
Continuous
 62
     7
100
AcDbLine
 10
128.7457519244
 20
41.29681538239999
 30
0.0
 11
128.7459686533
 21
41.2993855007
 31
0.0
  0
LINE
  5
2655
330
222
100
AcDbEntity
  8
0
  6
Continuous
 62
     7
100
AcDbLine
 10
128.7459686533
 20
41.2993855007
 30
0.0
 11
128.7465379571
 21
41.3061430778
 31
0.0
  0
SPLINE
  5
2656
330
222
100
AcDbEntity
  8
0
  6
Continuous
 62
     7
100
AcDbSpline
210
0.0
220
0.0
230
1.0
 70
     8
 71
     3
 72
    10
 73
     6
 74
     0
 42
0.0000001
 43
0.0000000001
 40
0.0
 40
0.0
 40
0.0
 40
0.0
 40
0.5898769945000001
 40
0.8199198205
 40
1.0
 40
1.0
 40
1.0
 40
1.0
 10
128.7612584609
 20
41.4846636844
 30
0.0
 10
128.7650170494
 20
41.5313807629
 30
0.0
 10
128.770138897
 20
41.5963254493
 30
0.0
 10
128.7759584425
 20
41.67556604109999
 30
0.0
 10
128.7781826061
 20
41.708076274
 30
0.0
 10
128.7790854978
 20
41.72235583159999
 30
0.0
  0
LINE
  5
2657
330
222
100
AcDbEntity
  8
0
  6
Continuous
 62
     7
100
AcDbLine
 10
128.7131158179
 20
40.9228605889
 30
0.0
 11
128.7128444156
 21
40.9198524928
 31
0.0
  0
LINE
  5
2658
330
222
100
AcDbEntity
  8
0
  6
Continuous
 62
     7
100
AcDbLine
 10
128.7128444156
 20
40.9198524928
 30
0.0
 11
128.7122167631
 21
40.9129024528
 31
0.0
  0
SPLINE
  5
2659
330
222
100
AcDbEntity
  8
0
  6
Continuous
 62
     7
100
AcDbSpline
210
0.0
220
0.0
230
1.0
 70
     8
 71
     3
 72
    10
 73
     6
 74
     0
 42
0.0000001
 43
0.0000000001
 40
0.0
 40
0.0
 40
0.0
 40
0.0
 40
0.5898868849000002
 40
0.8199274832
 40
1.0
 40
1.0
 40
1.0
 40
1.0
 10
128.695807017
 20
40.7347298671
 30
0.0
 10
128.6914157545
 20
40.6880671647
 30
0.0
 10
128.685209524
 20
40.62321643489999
 30
0.0
 10
128.6772139249
 20
40.5441656728
 30
0.0
 10
128.6737726431
 20
40.5117624183
 30
0.0
 10
128.6721882182
 20
40.4975429384
 30
0.0
  0
SPLINE
  5
265A
330
222
100
AcDbEntity
  8
0
  6
Continuous
 62
     9
100
AcDbSpline
210
0.0
220
0.0
230
1.0
 70
    24
 71
     3
 72
     8
 73
     4
 74
     0
 42
0.0000001
 43
0.0000000001
 40
0.0
 40
0.0
 40
0.0
 40
0.0
 40
1.0
 40
1.0
 40
1.0
 40
1.0
 10
128.7563469686
 20
41.4868490089
 30
0.0
 10
128.7563462374
 20
41.4868762802
 30
0.0
 10
128.7563455062
 20
41.4869035514
 30
0.0
 10
128.756344775
 20
41.4869308227
 30
0.0
  0
SPLINE
  5
265B
330
222
100
AcDbEntity
  8
0
  6
Continuous
 62
     9
100
AcDbSpline
210
0.0
220
0.0
230
1.0
 70
     8
 71
     3
 72
    17
 73
    13
 74
     0
 42
0.0000001
 43
0.0000000001
 40
0.0
 40
0.0
 40
0.0
 40
0.0
 40
0.2115426261
 40
0.3637802669
 40
0.4179252488000001
 40
0.457757318
 40
0.4984364873
 40
0.5397460438000001
 40
0.5799808846
 40
0.6345403578000001
 40
0.7876175940000002
 40
1.0
 40
1.0
 40
1.0
 40
1.0
 10
128.756344775
 20
41.4869308227
 30
0.0
 10
128.7563390542
 20
41.4871316822
 30
0.0
 10
128.7563238993
 20
41.48747832869999
 30
0.0
 10
128.7562937968
 20
41.48787044219999
 30
0.0
 10
128.7562517177
 20
41.4881065812
 30
0.0
 10
128.7562274805
 20
41.4882205565
 30
0.0
 10
128.7561498129
 20
41.48836275509999
 30
0.0
 10
128.7560505651
 20
41.4882332499
 30
0.0
 10
128.7560064118
 20
41.48812442389999
 30
0.0
 10
128.7559241511
 20
41.4878972128
 30
0.0
 10
128.7558262207
 20
41.4875144676
 30
0.0
 10
128.7557511295
 20
41.4871740135
 30
0.0
 10
128.7557106192
 20
41.48697638409999
 30
0.0
  0
SPLINE
  5
265C
330
222
100
AcDbEntity
  8
0
  6
Continuous
 62
     9
100
AcDbSpline
210
0.0
220
0.0
230
1.0
 70
     8
 71
     3
 72
    18
 73
    14
 74
     0
 42
0.0000001
 43
0.0000000001
 40
0.0
 40
0.0
 40
0.0
 40
0.0
 40
0.2097341753
 40
0.2923743868
 40
0.360289646
 40
0.4136261832
 40
0.4526941169
 40
0.4783265524
 40
0.493719043
 40
0.5360975755
 40
0.6320929675000001
 40
0.7864316253000001
 40
1.0
 40
1.0
 40
1.0
 40
1.0
 10
128.689944256
 20
40.7333966147
 30
0.0
 10
128.6899500849
 20
40.7331972714
 30
0.0
 10
128.6899613554
 20
40.7329194305
 30
0.0
 10
128.689988336
 20
40.7325777824
 30
0.0
 10
128.6900109484
 20
40.7323853276
 30
0.0
 10
128.6900354605
 20
40.7322344086
 30
0.0
 10
128.6900663345
 20
40.7321268313
 30
0.0
 10
128.6900930352
 20
40.73205430729999
 30
0.0
 10
128.6901696613
 20
40.73200537429999
 30
0.0
 10
128.6902718577
 20
40.7321753066
 30
0.0
 10
128.6903480753
 20
40.732405681
 30
0.0
 10
128.690469799
 20
40.73285016159999
 30
0.0
 10
128.6905406283
 20
40.73318644469999
 30
0.0
 10
128.690581269
 20
40.7333854108
 30
0.0
  0
SPLINE
  5
265D
330
222
100
AcDbEntity
  8
0
  6
Continuous
 62
     9
100
AcDbSpline
210
0.0
220
0.0
230
1.0
 70
    24
 71
     3
 72
     8
 73
     4
 74
     0
 42
0.0000001
 43
0.0000000001
 40
0.0
 40
0.0
 40
0.0
 40
0.0
 40
1.0
 40
1.0
 40
1.0
 40
1.0
 10
128.690581269
 20
40.7333854108
 30
0.0
 10
128.6905871059
 20
40.73341424339999
 30
0.0
 10
128.6905929427
 20
40.733443076
 30
0.0
 10
128.6905987796
 20
40.7334719086
 30
0.0
  0
SPLINE
  5
265E
330
222
100
AcDbEntity
  8
0
  6
Continuous
 62
     7
100
AcDbSpline
210
0.0
220
0.0
230
1.0
 70
     8
 71
     3
 72
    32
 73
    28
 74
     0
 42
0.0000001
 43
0.0000000001
 40
0.0
 40
0.0
 40
0.0
 40
0.0
 40
0.207754775
 40
0.3063426452
 40
0.4005229100000001
 40
0.4896702117000001
 40
0.5731924889
 40
0.6505351479
 40
0.7211847746000001
 40
0.7846724681000001
 40
0.8405769735999999
 40
0.8655676937999999
 40
0.8885275673999998
 40
0.9094185740999998
 40
0.9282066068
 40
0.9448598936999999
 40
0.9593520951
 40
0.9716586573999999
 40
0.9817607645
 40
0.9859801976000001
 40
0.9896428669
 40
0.9927479781999998
 40
0.9952952593999999
 40
0.9972851242
 40
0.9987197459
 40
0.9996078029000001
 40
1.0
 40
1.0
 40
1.0
 40
1.0
 10
128.7496569708
 20
41.2836429565
 30
0.0
 10
128.7525165523
 20
41.31745895939999
 30
0.0
 10
128.7566916946
 20
41.36732551829999
 30
0.0
 10
128.7620545946
 20
41.43253068409999
 30
0.0
 10
128.7657810474
 20
41.4784304953
 30
0.0
 10
128.7692579123
 20
41.5218814828
 30
0.0
 10
128.7724621768
 20
41.5625950406
 30
0.0
 10
128.7753726907
 20
41.6003007428
 30
0.0
 10
128.7779703673
 20
41.63474816509999
 30
0.0
 10
128.7802381529
 20
41.6657085355
 30
0.0
 10
128.7818979316
 20
41.6892350213
 30
0.0
 10
128.7830448156
 20
41.70616092679999
 30
0.0
 10
128.7837812015
 20
41.71738205999999
 30
0.0
 10
128.7844254284
 20
41.7275938235
 30
0.0
 10
128.784976531
 20
41.7367791986
 30
0.0
 10
128.7854336916
 20
41.7449230245
 30
0.0
 10
128.785796515
 20
41.7520116864
 30
0.0
 10
128.7860645497
 20
41.7580334716
 30
0.0
 10
128.7862177729
 20
41.7623807014
 30
0.0
 10
128.7862874505
 20
41.7653174414
 30
0.0
 10
128.786312354
 20
41.7671124963
 30
0.0
 10
128.7863143858
 20
41.76863289079999
 30
0.0
 10
128.7862912512
 20
41.7698847046
 30
0.0
 10
128.7862508942
 20
41.7708502412
 30
0.0
 10
128.7861777176
 20
41.7715731388
 30
0.0
 10
128.7861128420999
 20
41.77197111729999
 30
0.0
 10
128.7860077733
 20
41.77221391429999
 30
0.0
 10
128.7859439508
 20
41.7722194866
 30
0.0
  0
LINE
  5
265F
330
222
100
AcDbEntity
  8
0
  6
Continuous
 62
     7
100
AcDbLine
 10
101.5400669489
 20
23.6090571598
 30
0.0
 11
101.537387267
 21
23.633030976
 31
0.0
  0
SPLINE
  5
2660
330
222
100
AcDbEntity
  8
0
  6
Continuous
 62
     7
100
AcDbSpline
210
0.0
220
0.0
230
1.0
 70
     8
 71
     3
 72
    22
 73
    18
 74
     0
 42
0.0000001
 43
0.0000000001
 40
0.0
 40
0.0
 40
0.0
 40
0.0
 40
0.0630560633
 40
0.1283086806
 40
0.1950001994
 40
0.2622618242
 40
0.3292582924
 40
0.3953574152
 40
0.4601552345
 40
0.5234696576
 40
0.5853002942000001
 40
0.6457920327000001
 40
0.7052082172000001
 40
0.7639054579000001
 40
0.8222982817
 40
0.8808263787999999
 40
1.0
 40
1.0
 40
1.0
 40
1.0
 10
101.4095468713
 20
24.6445681582
 30
0.0
 10
101.3714335874
 20
24.9158399218
 30
0.0
 10
101.2879334148
 20
25.4670088654
 30
0.0
 10
101.1461622696
 20
26.3022374859
 30
0.0
 10
100.990158692
 20
27.1534927217
 30
0.0
 10
100.8253975636
 20
28.0107998858
 30
0.0
 10
100.6575850406
 20
28.8648873996
 30
0.0
 10
100.4914878461
 20
29.7084033042
 30
0.0
 10
100.330836363
 20
30.5366873405
 30
0.0
 10
100.1782602339
 20
31.3476391619
 30
0.0
 10
100.0354731346
 20
32.1413759489
 30
0.0
 10
99.90339165399999
 20
32.91979636550001
 30
0.0
 10
99.78224176200001
 20
33.68621725300001
 30
0.0
 10
99.67162327730001
 20
34.4450159851
 30
0.0
 10
99.57063281540001
 20
35.2012631208
 30
0.0
 10
99.4463794534
 20
36.219398624
 30
0.0
 10
99.3645165777
 20
36.987089199
 30
0.0
 10
99.3129085706
 20
37.5022396843
 30
0.0
  0
SPLINE
  5
2661
330
222
100
AcDbEntity
  8
0
  6
Continuous
 62
     7
100
AcDbSpline
210
0.0
220
0.0
230
1.0
 70
     8
 71
     3
 72
    13
 73
     9
 74
     0
 42
0.0000001
 43
0.0000000001
 40
0.0
 40
0.0
 40
0.0
 40
0.0
 40
0.1250669557
 40
0.2501366982
 40
0.3752215803
 40
0.5003062900000001
 40
0.7501582881000001
 40
1.0
 40
1.0
 40
1.0
 40
1.0
 10
101.6525686482
 20
22.4608062216
 30
0.0
 10
101.6534893412
 20
22.4503644169
 30
0.0
 10
101.6553498922
 20
22.4294810623
 30
0.0
 10
101.6593433708
 20
22.3982725413
 30
0.0
 10
101.6654295017
 20
22.36738303800001
 30
0.0
 10
101.6769704759
 20
22.3270467189
 30
0.0
 10
101.6985112729
 20
22.2789320966
 30
0.0
 10
101.7231293362
 20
22.244645885
 30
0.0
 10
101.7369620182
 20
22.2289249917
 30
0.0
  0
LINE
  5
2662
330
222
100
AcDbEntity
  8
0
  6
Continuous
 62
     7
100
AcDbLine
 10
126.0750239861
 20
23.6090572207
 30
0.0
 11
126.0777035763
 21
23.633030218
 31
0.0
  0
SPLINE
  5
2663
330
222
100
AcDbEntity
  8
0
  6
Continuous
 62
     7
100
AcDbSpline
210
0.0
220
0.0
230
1.0
 70
     8
 71
     3
 72
    22
 73
    18
 74
     0
 42
0.0000001
 43
0.0000000001
 40
0.0
 40
0.0
 40
0.0
 40
0.0
 40
0.0630560633
 40
0.1283086806
 40
0.1950001994
 40
0.2622618242
 40
0.3292582924
 40
0.3953574152
 40
0.4601552345
 40
0.5234696576
 40
0.5853002942000001
 40
0.6457920327000001
 40
0.7052082172000001
 40
0.7639054579000001
 40
0.8222982817
 40
0.8808263787999999
 40
1.0
 40
1.0
 40
1.0
 40
1.0
 10
126.205544057
 20
24.6445681582
 30
0.0
 10
126.2436573409
 20
24.9158399218
 30
0.0
 10
126.3271575135
 20
25.4670088653
 30
0.0
 10
126.4689286587
 20
26.3022374859
 30
0.0
 10
126.6249322363
 20
27.1534927217
 30
0.0
 10
126.7896933647
 20
28.0107998857
 30
0.0
 10
126.9575058876
 20
28.8648873995
 30
0.0
 10
127.1236030822
 20
29.7084033042
 30
0.0
 10
127.2842545652
 20
30.5366873404
 30
0.0
 10
127.4368306944
 20
31.3476391618
 30
0.0
 10
127.5796177936
 20
32.1413759488
 30
0.0
 10
127.7116992742
 20
32.9197963654
 30
0.0
 10
127.8328491663
 20
33.6862172529
 30
0.0
 10
127.943467651
 20
34.4450159849
 30
0.0
 10
128.0444581129
 20
35.2012631206
 30
0.0
 10
128.1687114749
 20
36.2193986239
 30
0.0
 10
128.2505743506
 20
36.9870891988
 30
0.0
 10
128.3021823577
 20
37.5022396841
 30
0.0
  0
SPLINE
  5
2664
330
222
100
AcDbEntity
  8
0
  6
Continuous
 62
     7
100
AcDbSpline
210
0.0
220
0.0
230
1.0
 70
     8
 71
     3
 72
    13
 73
     9
 74
     0
 42
0.0000001
 43
0.0000000001
 40
0.0
 40
0.0
 40
0.0
 40
0.0
 40
0.1250669557
 40
0.2501366982
 40
0.3752215803
 40
0.5003062900000001
 40
0.7501582881000001
 40
1.0
 40
1.0
 40
1.0
 40
1.0
 10
125.96252228
 20
22.4608062216
 30
0.0
 10
125.9616015871
 20
22.4503644169
 30
0.0
 10
125.9597410361
 20
22.4294810623
 30
0.0
 10
125.9557475574
 20
22.3982725413
 30
0.0
 10
125.9496614266
 20
22.36738303800001
 30
0.0
 10
125.9381204524
 20
22.3270467189
 30
0.0
 10
125.9165796554
 20
22.2789320966
 30
0.0
 10
125.8919615921
 20
22.244645885
 30
0.0
 10
125.87812891
 20
22.2289249917
 30
0.0
  0
SPLINE
  5
2665
330
222
100
AcDbEntity
  8
0
  6
Continuous
 62
     7
100
AcDbSpline
210
0.0
220
0.0
230
1.0
 70
     8
 71
     3
 72
     8
 73
     4
 74
     0
 42
0.0000001
 43
0.0000000001
 40
0.0
 40
0.0
 40
0.0
 40
0.0
 40
1.0
 40
1.0
 40
1.0
 40
1.0
 10
125.6380840578
 20
22.1196671982
 30
0.0
 10
125.6216736669
 20
22.1189003589
 30
0.0
 10
125.6052339617
 20
22.1188668003
 30
0.0
 10
125.5888056639
 20
22.1188668003
 30
0.0
  0
SPLINE
  5
2666
330
222
100
AcDbEntity
  8
0
  6
Continuous
 62
     7
100
AcDbSpline
210
0.0
220
0.0
230
1.0
 70
     8
 71
     3
 72
     9
 73
     5
 74
     0
 42
0.0000001
 43
0.0000000001
 40
0.0
 40
0.0
 40
0.0
 40
0.0
 40
0.4888282978000001
 40
1.0
 40
1.0
 40
1.0
 40
1.0
 10
128.3021823578
 20
37.5022396851
 30
0.0
 10
128.3489752711
 20
37.9693259641
 30
0.0
 10
128.4392500835
 20
38.9253928394
 30
0.0
 10
128.5241277971
 20
39.8819395616
 30
0.0
 10
128.5671477856
 20
40.37093160699999
 30
0.0
  0
LINE
  5
2667
330
222
100
AcDbEntity
  8
0
  6
Continuous
 62
     7
100
AcDbLine
 10
128.5671477856
 20
40.37093160699999
 30
0.0
 11
128.5673816481
 21
40.37358987949999
 31
0.0
  0
LINE
  5
2668
330
222
100
AcDbEntity
  8
0
  6
Continuous
 62
     7
100
AcDbLine
 10
128.697923823
 20
41.86522178669999
 30
0.0
 11
128.7911413397
 21
42.9313668003
 31
0.0
  0
LINE
  5
2669
330
222
100
AcDbEntity
  8
0
  6
Continuous
 62
     7
100
AcDbLine
 10
99.25124174810001
 20
38.13288890699999
 30
0.0
 11
99.21478423209999
 21
38.518817134
 31
0.0
  0
LINE
  5
266A
330
222
100
AcDbEntity
  8
0
  6
Continuous
 62
     7
100
AcDbLine
 10
99.21478423209999
 20
38.518817134
 30
0.0
 11
99.1760974796
 21
38.93745721550001
 31
0.0
  0
LINE
  5
266B
330
222
100
AcDbEntity
  8
0
  6
Continuous
 62
     7
100
AcDbLine
 10
99.1760974796
 20
38.93745721550001
 30
0.0
 11
99.1397666115
 21
39.3377455763
 31
0.0
  0
LINE
  5
266C
330
222
100
AcDbEntity
  8
0
  6
Continuous
 62
     7
100
AcDbLine
 10
99.1397666115
 20
39.3377455763
 30
0.0
 11
99.1018131693
 21
39.7617424381
 31
0.0
  0
LINE
  5
266D
330
222
100
AcDbEntity
  8
0
  6
Continuous
 62
     7
100
AcDbLine
 10
99.1018131693
 20
39.7617424381
 30
0.0
 11
99.06544688610001
 21
40.1722534597
 31
0.0
  0
LINE
  5
266E
330
222
100
AcDbEntity
  8
0
  6
Continuous
 62
     7
100
AcDbLine
 10
99.06544688610001
 20
40.1722534597
 30
0.0
 11
99.02290442649999
 21
40.6560005878
 31
0.0
  0
LINE
  5
266F
330
222
100
AcDbEntity
  8
0
  6
Continuous
 62
     7
100
AcDbLine
 10
99.02290442649999
 20
40.6560005878
 30
0.0
 11
98.986464257
 21
41.07214395889999
 31
0.0
  0
LINE
  5
2670
330
222
100
AcDbEntity
  8
0
  6
Continuous
 62
     7
100
AcDbLine
 10
98.986464257
 20
41.07214395889999
 30
0.0
 11
98.92068392790001
 21
41.824972949
 31
0.0
  0
LINE
  5
2671
330
222
100
AcDbEntity
  8
0
  6
Continuous
 62
     7
100
AcDbLine
 10
98.92068392790001
 20
41.824972949
 30
0.0
 11
98.82394958849999
 21
42.9313668003
 31
0.0
  0
SPLINE
  5
2672
330
222
100
AcDbEntity
  8
0
  6
Continuous
 62
     9
100
AcDbSpline
210
0.0
220
0.0
230
1.0
 70
     8
 71
     3
 72
    41
 73
    37
 74
     0
 42
0.0000001
 43
0.0000000001
 40
0.0
 40
0.0
 40
0.0
 40
0.0
 40
0.0000236539
 40
0.0000618664
 40
0.000122067
 40
0.0002080778
 40
0.000322227
 40
0.000465625
 40
0.0006385151
 40
0.001073366
 40
0.0016314855
 40
0.0023208226
 40
0.0031459747
 40
0.0041109817
 40
0.0052205573
 40
0.006480821
 40
0.007898642
 40
0.0112344419
 40
0.0152924397
 40
0.0201523038
 40
0.025913569
 40
0.0326986396
 40
0.040678791
 40
0.0500573515
 40
0.0611280338
 40
0.0743021506
 40
0.0901916834
 40
0.1330558082
 40
0.1964809227
 40
0.2875560037
 40
0.4068483227000001
 40
0.5449107153
 40
0.6919142973000002
 40
0.8441588652
 40
0.9217459931999998
 40
1.0
 40
1.0
 40
1.0
 40
1.0
 10
125.9625261759
 20
22.460842709
 30
0.0
 10
125.9625332628
 20
22.4609382844
 30
0.0
 10
125.9621145153
 20
22.4608805121
 30
0.0
 10
125.9617298682
 20
22.460930402
 30
0.0
 10
125.960927694
 20
22.4609197032
 30
0.0
 10
125.9598974884
 20
22.4609318778
 30
0.0
 10
125.9584954918
 20
22.46093015
 30
0.0
 10
125.9567552435
 20
22.4609316681
 30
0.0
 10
125.9537101421
 20
22.4609312521
 30
0.0
 10
125.9489875956
 20
22.4609301087
 30
0.0
 10
125.9421709606
 20
22.4609322835
 30
0.0
 10
125.9337736319
 20
22.4609391127
 30
0.0
 10
125.9237274923
 20
22.4609503891
 30
0.0
 10
125.9119787762
 20
22.4609654961
 30
0.0
 10
125.8984671082
 20
22.4609830375
 30
0.0
 10
125.8831207997
 20
22.4610015932
 30
0.0
 10
125.8587545807
 20
22.461027877
 30
0.0
 10
125.8230528875
 20
22.4610596417
 30
0.0
 10
125.7734051955
 20
22.4610961249
 30
0.0
 10
125.7139303371
 20
22.461136612
 30
0.0
 10
125.643406299
 20
22.4611802812
 30
0.0
 10
125.5602399061
 20
22.4612227133
 30
0.0
 10
125.4624174524
 20
22.4612687201
 30
0.0
 10
125.347231146
 20
22.4613198547
 30
0.0
 10
125.2110006402
 20
22.4613660873
 30
0.0
 10
125.048389872
 20
22.4614209952
 30
0.0
 10
124.7569627972
 20
22.4614956882
 30
0.0
 10
124.2619356224
 20
22.4615766373
 30
0.0
 10
123.4622819538
 20
22.46158634
 30
0.0
 10
122.352967031
 20
22.4614130078
 30
0.0
 10
120.9412470616
 20
22.4610682919
 30
0.0
 10
119.3029236611
 20
22.4607255638
 30
0.0
 10
117.5310888447
 20
22.4604528152
 30
0.0
 10
116.0042793901
 20
22.460350709
 30
0.0
 10
114.7560200308
 20
22.4601980498
 30
0.0
 10
114.1246043087
 20
22.4602364168
 30
0.0
 10
113.8075454641
 20
22.4602356457
 30
0.0
  0
SPLINE
  5
2673
330
222
100
AcDbEntity
  8
0
  6
Continuous
 62
     9
100
AcDbSpline
210
0.0
220
0.0
230
1.0
 70
     8
 71
     3
 72
    41
 73
    37
 74
     0
 42
0.0000001
 43
0.0000000001
 40
0.0
 40
0.0
 40
0.0
 40
0.0
 40
0.0000236539
 40
0.0000618664
 40
0.000122067
 40
0.0002080777
 40
0.0003222269
 40
0.0004656249
 40
0.000638515
 40
0.0010733659
 40
0.0016314854
 40
0.0023208225
 40
0.0031459746
 40
0.0041109816
 40
0.0052205571
 40
0.0064808208
 40
0.0078986418
 40
0.0112344417
 40
0.0152924395
 40
0.0201523035
 40
0.0259135686
 40
0.0326986392
 40
0.0406787906
 40
0.050057351
 40
0.0611280332
 40
0.07430215
 40
0.0901916827
 40
0.1330558072
 40
0.1964809216
 40
0.2875560023
 40
0.4068483214
 40
0.5449107142000001
 40
0.6919142965000001
 40
0.8441588647999999
 40
0.9217459929999998
 40
1.0
 40
1.0
 40
1.0
 40
1.0
 10
101.6525647523
 20
22.460842709
 30
0.0
 10
101.6525576654
 20
22.4609382844
 30
0.0
 10
101.6529764128
 20
22.4608805121
 30
0.0
 10
101.6533610599
 20
22.460930402
 30
0.0
 10
101.654163234
 20
22.4609197032
 30
0.0
 10
101.6551934395
 20
22.4609318778
 30
0.0
 10
101.656595436
 20
22.46093015
 30
0.0
 10
101.6583356842
 20
22.4609316681
 30
0.0
 10
101.6613807854999
 20
22.4609312521
 30
0.0
 10
101.6661033317
 20
22.4609301087
 30
0.0
 10
101.6729199665
 20
22.4609322835
 30
0.0
 10
101.681317295
 20
22.4609391127
 30
0.0
 10
101.6913634344
 20
22.4609503891
 30
0.0
 10
101.7031121502
 20
22.4609654961
 30
0.0
 10
101.7166238181
 20
22.4609830375
 30
0.0
 10
101.7319701263
 20
22.4610015932
 30
0.0
 10
101.7563363451
 20
22.461027877
 30
0.0
 10
101.7920380378
 20
22.4610596417
 30
0.0
 10
101.8416857294
 20
22.4610961249
 30
0.0
 10
101.9011605873
 20
22.461136612
 30
0.0
 10
101.9716846249
 20
22.4611802812
 30
0.0
 10
102.0548510173
 20
22.4612227133
 30
0.0
 10
102.1526734704
 20
22.4612687201
 30
0.0
 10
102.2678597761
 20
22.4613198547
 30
0.0
 10
102.4040902812
 20
22.4613660873
 30
0.0
 10
102.5667010484
 20
22.4614209951
 30
0.0
 10
102.8581281218
 20
22.4614956883
 30
0.0
 10
103.3531552944
 20
22.4615766373
 30
0.0
 10
104.1528089604
 20
22.4615863401
 30
0.0
 10
105.2621238814
 20
22.4614130079
 30
0.0
 10
106.6738438509
 20
22.4610682919
 30
0.0
 10
108.3121672538
 20
22.4607255638
 30
0.0
 10
110.0840020743
 20
22.4604528153
 30
0.0
 10
111.6108115326
 20
22.4603507088
 30
0.0
 10
112.8590708951
 20
22.4601980502
 30
0.0
 10
113.4904866188
 20
22.4602364164
 30
0.0
 10
113.8075454641
 20
22.4602356457
 30
0.0
  0
ENDSEC
  0
SECTION
  2
OBJECTS
  0
DICTIONARY
  5
C
330
0
100
AcDbDictionary
281
     1
  3
ACAD_CIP_PREVIOUS_PRODUCT_INFO
350
273E
  3
ACAD_COLOR
350
26D2
  3
ACAD_DETAILVIEWSTYLE
350
26EB
  3
ACAD_GROUP
350
D
  3
ACAD_IMAGE_DICT
350
2699
  3
ACAD_IMAGE_VARS
350
269A
  3
ACAD_LAYOUT
350
1A
  3
ACAD_MATERIAL
350
26A0
  3
ACAD_MLEADERSTYLE
350
26E7
  3
ACAD_MLINESTYLE
350
17
  3
ACAD_PLOTSETTINGS
350
19
  3
ACAD_PLOTSTYLENAME
350
E
  3
ACAD_SCALELIST
350
26D5
  3
ACAD_SECTIONVIEWSTYLE
350
26E9
  3
ACAD_TABLESTYLE
350
26D3
  3
ACAD_VISUALSTYLE
350
26B9
  3
ACDB_RECOMPOSE_DATA
350
28D0
  3
AcDbVariableDictionary
350
2730
  3
DWGPROPS
350
28D1
  0
DICTIONARY
  5
26F1
330
8
100
AcDbDictionary
280
     1
281
     1
  0
DICTIONARY
  5
273F
330
10
100
AcDbDictionary
280
     1
281
     1
  3
ADSK_XREC_LAYER_RECONCILED
360
2740
  0
DICTIONARY
  5
2741
330
1FA
100
AcDbDictionary
280
     1
281
     1
  3
ADSK_XREC_LAYER_RECONCILED
360
2742
  0
DICTIONARY
  5
2743
330
1FB
100
AcDbDictionary
280
     1
281
     1
  3
ADSK_XREC_LAYER_RECONCILED
360
2744
  0
DICTIONARY
  5
2745
330
1FC
100
AcDbDictionary
280
     1
281
     1
  3
ADSK_XREC_LAYER_RECONCILED
360
2746
  0
DICTIONARY
  5
2747
330
1FD
100
AcDbDictionary
280
     1
281
     1
  3
ADSK_XREC_LAYER_RECONCILED
360
2748
  0
DICTIONARY
  5
2749
330
1FE
100
AcDbDictionary
280
     1
281
     1
  3
ADSK_XREC_LAYER_RECONCILED
360
274A
  0
DICTIONARY
  5
274B
330
1FF
100
AcDbDictionary
280
     1
281
     1
  3
ADSK_XREC_LAYER_RECONCILED
360
274C
  0
DICTIONARY
  5
274D
330
200
100
AcDbDictionary
280
     1
281
     1
  3
ADSK_XREC_LAYER_RECONCILED
360
274E
  0
DICTIONARY
  5
274F
330
201
100
AcDbDictionary
280
     1
281
     1
  3
ADSK_XREC_LAYER_RECONCILED
360
2750
  0
DICTIONARY
  5
2751
330
202
100
AcDbDictionary
280
     1
281
     1
  3
ADSK_XREC_LAYER_RECONCILED
360
2752
  0
DICTIONARY
  5
2753
330
203
100
AcDbDictionary
280
     1
281
     1
  3
ADSK_XREC_LAYER_RECONCILED
360
2754
  0
DICTIONARY
  5
2755
330
204
100
AcDbDictionary
280
     1
281
     1
  3
ADSK_XREC_LAYER_RECONCILED
360
2756
  0
DICTIONARY
  5
2757
330
205
100
AcDbDictionary
280
     1
281
     1
  3
ADSK_XREC_LAYER_RECONCILED
360
2758
  0
DICTIONARY
  5
2759
330
206
100
AcDbDictionary
280
     1
281
     1
  3
ADSK_XREC_LAYER_RECONCILED
360
275A
  0
DICTIONARY
  5
275B
330
207
100
AcDbDictionary
280
     1
281
     1
  3
ADSK_XREC_LAYER_RECONCILED
360
275C
  0
DICTIONARY
  5
275D
330
208
100
AcDbDictionary
280
     1
281
     1
  3
ADSK_XREC_LAYER_RECONCILED
360
275E
  0
DICTIONARY
  5
275F
330
209
100
AcDbDictionary
280
     1
281
     1
  3
ADSK_XREC_LAYER_RECONCILED
360
2760
  0
DICTIONARY
  5
2761
330
20A
100
AcDbDictionary
280
     1
281
     1
  3
ADSK_XREC_LAYER_RECONCILED
360
2762
  0
DICTIONARY
  5
2763
330
20B
100
AcDbDictionary
280
     1
281
     1
  3
ADSK_XREC_LAYER_RECONCILED
360
2764
  0
DICTIONARY
  5
2765
330
20C
100
AcDbDictionary
280
     1
281
     1
  3
ADSK_XREC_LAYER_RECONCILED
360
2766
  0
DICTIONARY
  5
2767
330
20D
100
AcDbDictionary
280
     1
281
     1
  3
ADSK_XREC_LAYER_RECONCILED
360
2768
  0
DICTIONARY
  5
2769
330
20E
100
AcDbDictionary
280
     1
281
     1
  3
ADSK_XREC_LAYER_RECONCILED
360
276A
  0
DICTIONARY
  5
276B
330
20F
100
AcDbDictionary
280
     1
281
     1
  3
ADSK_XREC_LAYER_RECONCILED
360
276C
  0
DICTIONARY
  5
276D
330
210
100
AcDbDictionary
280
     1
281
     1
  3
ADSK_XREC_LAYER_RECONCILED
360
276E
  0
DICTIONARY
  5
276F
330
211
100
AcDbDictionary
280
     1
281
     1
  3
ADSK_XREC_LAYER_RECONCILED
360
2770
  0
DICTIONARY
  5
2771
330
212
100
AcDbDictionary
280
     1
281
     1
  3
ADSK_XREC_LAYER_RECONCILED
360
2772
  0
DICTIONARY
  5
2773
330
213
100
AcDbDictionary
280
     1
281
     1
  3
ADSK_XREC_LAYER_RECONCILED
360
2774
  0
DICTIONARY
  5
2775
330
214
100
AcDbDictionary
280
     1
281
     1
  3
ADSK_XREC_LAYER_RECONCILED
360
2776
  0
DICTIONARY
  5
2777
330
215
100
AcDbDictionary
280
     1
281
     1
  3
ADSK_XREC_LAYER_RECONCILED
360
2778
  0
DICTIONARY
  5
2779
330
216
100
AcDbDictionary
280
     1
281
     1
  3
ADSK_XREC_LAYER_RECONCILED
360
277A
  0
DICTIONARY
  5
277B
330
217
100
AcDbDictionary
280
     1
281
     1
  3
ADSK_XREC_LAYER_RECONCILED
360
277C
  0
DICTIONARY
  5
277D
330
218
100
AcDbDictionary
280
     1
281
     1
  3
ADSK_XREC_LAYER_RECONCILED
360
277E
  0
DICTIONARY
  5
277F
330
219
100
AcDbDictionary
280
     1
281
     1
  3
ADSK_XREC_LAYER_RECONCILED
360
2780
  0
DICTIONARY
  5
2781
330
21A
100
AcDbDictionary
280
     1
281
     1
  3
ADSK_XREC_LAYER_RECONCILED
360
2782
  0
XRECORD
  5
273E
102
{ACAD_REACTORS
330
C
102
}
330
C
100
AcDbXrecord
280
     1
300
ACDLT
300
2018
300
ACDLT_F_S
  0
DICTIONARY
  5
26D2
102
{ACAD_REACTORS
330
C
102
}
330
C
100
AcDbDictionary
281
     1
  0
DICTIONARY
  5
26EB
102
{ACAD_REACTORS
330
C
102
}
330
C
100
AcDbDictionary
281
     1
  3
Imperial24
350
26EC
  0
DICTIONARY
  5
D
102
{ACAD_REACTORS
330
C
102
}
330
C
100
AcDbDictionary
281
     1
  0
DICTIONARY
  5
2699
330
C
100
AcDbDictionary
281
     1
  3
VIBE-5830-OVAL-specs-internes_img_1
350
269D
  0
RASTERVARIABLES
  5
269A
330
C
100
AcDbRasterVariables
 90
        0
 70
     0
 71
     1
 72
     5
  0
DICTIONARY
  5
1A
102
{ACAD_REACTORS
330
C
102
}
330
C
100
AcDbDictionary
281
     1
  3
Layout1
350
269C
  3
Model
350
269B
  0
DICTIONARY
  5
26A0
102
{ACAD_REACTORS
330
C
102
}
330
C
100
AcDbDictionary
281
     1
  3
ByBlock
350
26A9
  3
ByLayer
350
26A1
  3
Global
350
26B1
  0
DICTIONARY
  5
26E7
102
{ACAD_REACTORS
330
C
102
}
330
C
100
AcDbDictionary
281
     1
  3
Standard
350
26E8
  0
DICTIONARY
  5
17
102
{ACAD_REACTORS
330
C
102
}
330
C
100
AcDbDictionary
281
     1
  3
Standard
350
18
  0
DICTIONARY
  5
19
102
{ACAD_REACTORS
330
C
102
}
330
C
100
AcDbDictionary
281
     1
  0
ACDBDICTIONARYWDFLT
  5
E
102
{ACAD_REACTORS
330
C
102
}
330
C
100
AcDbDictionary
281
     1
  3
Normal
350
F
100
AcDbDictionaryWithDefault
340
F
  0
DICTIONARY
  5
26D5
102
{ACAD_REACTORS
330
C
102
}
330
C
100
AcDbDictionary
281
     1
  3
A0
350
26D6
  3
A1
350
26D7
  3
A2
350
26D8
  3
A3
350
26D9
  3
A4
350
26DA
  3
A5
350
26DB
  3
A6
350
26DC
  3
A7
350
26DD
  3
A8
350
26DE
  3
A9
350
26DF
  3
B0
350
26E0
  3
B1
350
26E1
  3
B2
350
26E2
  3
B3
350
26E3
  3
B4
350
26E4
  3
B5
350
26E5
  3
B6
350
26E6
  0
DICTIONARY
  5
26E9
102
{ACAD_REACTORS
330
C
102
}
330
C
100
AcDbDictionary
281
     1
  3
Imperial24
350
26EA
  0
DICTIONARY
  5
26D3
102
{ACAD_REACTORS
330
C
102
}
330
C
100
AcDbDictionary
281
     1
  3
Standard
350
26D4
  0
DICTIONARY
  5
26B9
102
{ACAD_REACTORS
330
C
102
}
330
C
100
AcDbDictionary
281
     1
  3
2dWireframe
350
26BF
  3
Basic
350
26BE
  3
Brighten
350
26C5
  3
ColorChange
350
26C9
  3
Conceptual
350
26C2
  3
Dim
350
26C4
  3
EdgeColorOff
350
26D1
  3
Facepattern
350
26C8
  3
Flat
350
26BA
  3
FlatWithEdges
350
26BB
  3
Gouraud
350
26BC
  3
GouraudWithEdges
350
26BD
  3
Hidden
350
26C1
  3
JitterOff
350
26CF
  3
Linepattern
350
26C7
  3
OverhangOff
350
26D0
  3
Realistic
350
26C3
  3
Shaded
350
26CE
  3
Shaded with edges
350
26CD
  3
Shades of Gray
350
26CA
  3
Sketchy
350
26CB
  3
Thicken
350
26C6
  3
Wireframe
350
26C0
  3
X-Ray
350
26CC
  0
XRECORD
  5
28D0
102
{ACAD_REACTORS
330
C
102
}
330
C
100
AcDbXrecord
280
     1
 90
        1
330
26D4
  0
DICTIONARY
  5
2730
102
{ACAD_REACTORS
330
C
102
}
330
C
100
AcDbDictionary
281
     1
  3
CANNOSCALE
350
2735
  3
CMLEADERSTYLE
350
2732
  3
CTABLESTYLE
350
2731
  3
CVIEWDETAILSTYLE
350
2733
  3
CVIEWSECTIONSTYLE
350
2734
  3
DIMASSOC
350
2738
  3
INDEXCTL
350
2737
  3
SORTENTS
350
2736
  3
XCLIPFRAME
350
28CE
  0
XRECORD
  5
28D1
102
{ACAD_REACTORS
330
C
102
}
330
C
100
AcDbXrecord
280
     1
  1
DWGPROPS COOKIE
  2

  3

  4

  6

  7

  8
guillaumes
  9

300
=
301
=
302
=
303
=
304
=
305
=
306
=
307
=
308
=
309
=
 40
0.0015740740740741
 41
2458436.413784723
 42
2458465.47900463
  1

 90
        0
  0
XRECORD
  5
2740
102
{ACAD_REACTORS
330
273F
102
}
330
273F
100
AcDbXrecord
280
     1
290
     1
  0
XRECORD
  5
2742
102
{ACAD_REACTORS
330
2741
102
}
330
2741
100
AcDbXrecord
280
     1
290
     1
  0
XRECORD
  5
2744
102
{ACAD_REACTORS
330
2743
102
}
330
2743
100
AcDbXrecord
280
     1
290
     1
  0
XRECORD
  5
2746
102
{ACAD_REACTORS
330
2745
102
}
330
2745
100
AcDbXrecord
280
     1
290
     1
  0
XRECORD
  5
2748
102
{ACAD_REACTORS
330
2747
102
}
330
2747
100
AcDbXrecord
280
     1
290
     1
  0
XRECORD
  5
274A
102
{ACAD_REACTORS
330
2749
102
}
330
2749
100
AcDbXrecord
280
     1
290
     1
  0
XRECORD
  5
274C
102
{ACAD_REACTORS
330
274B
102
}
330
274B
100
AcDbXrecord
280
     1
290
     1
  0
XRECORD
  5
274E
102
{ACAD_REACTORS
330
274D
102
}
330
274D
100
AcDbXrecord
280
     1
290
     1
  0
XRECORD
  5
2750
102
{ACAD_REACTORS
330
274F
102
}
330
274F
100
AcDbXrecord
280
     1
290
     1
  0
XRECORD
  5
2752
102
{ACAD_REACTORS
330
2751
102
}
330
2751
100
AcDbXrecord
280
     1
290
     1
  0
XRECORD
  5
2754
102
{ACAD_REACTORS
330
2753
102
}
330
2753
100
AcDbXrecord
280
     1
290
     1
  0
XRECORD
  5
2756
102
{ACAD_REACTORS
330
2755
102
}
330
2755
100
AcDbXrecord
280
     1
290
     1
  0
XRECORD
  5
2758
102
{ACAD_REACTORS
330
2757
102
}
330
2757
100
AcDbXrecord
280
     1
290
     1
  0
XRECORD
  5
275A
102
{ACAD_REACTORS
330
2759
102
}
330
2759
100
AcDbXrecord
280
     1
290
     1
  0
XRECORD
  5
275C
102
{ACAD_REACTORS
330
275B
102
}
330
275B
100
AcDbXrecord
280
     1
290
     1
  0
XRECORD
  5
275E
102
{ACAD_REACTORS
330
275D
102
}
330
275D
100
AcDbXrecord
280
     1
290
     1
  0
XRECORD
  5
2760
102
{ACAD_REACTORS
330
275F
102
}
330
275F
100
AcDbXrecord
280
     1
290
     1
  0
XRECORD
  5
2762
102
{ACAD_REACTORS
330
2761
102
}
330
2761
100
AcDbXrecord
280
     1
290
     1
  0
XRECORD
  5
2764
102
{ACAD_REACTORS
330
2763
102
}
330
2763
100
AcDbXrecord
280
     1
290
     1
  0
XRECORD
  5
2766
102
{ACAD_REACTORS
330
2765
102
}
330
2765
100
AcDbXrecord
280
     1
290
     1
  0
XRECORD
  5
2768
102
{ACAD_REACTORS
330
2767
102
}
330
2767
100
AcDbXrecord
280
     1
290
     1
  0
XRECORD
  5
276A
102
{ACAD_REACTORS
330
2769
102
}
330
2769
100
AcDbXrecord
280
     1
290
     1
  0
XRECORD
  5
276C
102
{ACAD_REACTORS
330
276B
102
}
330
276B
100
AcDbXrecord
280
     1
290
     1
  0
XRECORD
  5
276E
102
{ACAD_REACTORS
330
276D
102
}
330
276D
100
AcDbXrecord
280
     1
290
     1
  0
XRECORD
  5
2770
102
{ACAD_REACTORS
330
276F
102
}
330
276F
100
AcDbXrecord
280
     1
290
     1
  0
XRECORD
  5
2772
102
{ACAD_REACTORS
330
2771
102
}
330
2771
100
AcDbXrecord
280
     1
290
     1
  0
XRECORD
  5
2774
102
{ACAD_REACTORS
330
2773
102
}
330
2773
100
AcDbXrecord
280
     1
290
     1
  0
XRECORD
  5
2776
102
{ACAD_REACTORS
330
2775
102
}
330
2775
100
AcDbXrecord
280
     1
290
     1
  0
XRECORD
  5
2778
102
{ACAD_REACTORS
330
2777
102
}
330
2777
100
AcDbXrecord
280
     1
290
     1
  0
XRECORD
  5
277A
102
{ACAD_REACTORS
330
2779
102
}
330
2779
100
AcDbXrecord
280
     1
290
     1
  0
XRECORD
  5
277C
102
{ACAD_REACTORS
330
277B
102
}
330
277B
100
AcDbXrecord
280
     1
290
     1
  0
XRECORD
  5
277E
102
{ACAD_REACTORS
330
277D
102
}
330
277D
100
AcDbXrecord
280
     1
290
     1
  0
XRECORD
  5
2780
102
{ACAD_REACTORS
330
277F
102
}
330
277F
100
AcDbXrecord
280
     1
290
     1
  0
XRECORD
  5
2782
102
{ACAD_REACTORS
330
2781
102
}
330
2781
100
AcDbXrecord
280
     1
290
     1
  0
ACDBDETAILVIEWSTYLE
  5
26EC
102
{ACAD_XDICTIONARY
360
290C
102
}
102
{ACAD_REACTORS
330
26EB
102
}
330
26EB
100
AcDbModelDocViewStyle
 70
     0
  3
Imperial24
290
     0
100
AcDbDetailViewStyle
 70
     0
 71
     0
 90
        3
 71
     1
340
11
 40
0.24
340
0
 40
0.24
300

 40
0.36
280
     3
 71
     2
340
16
 90
       25
 71
     3
340
11
 40
0.24
 90
        1
 40
0.75
 90
        1
300
%<\AcVar ViewType \f "%tc1">% %<\AcVar ViewDetailId>%\PSCALE %<\AcVar ViewScale \f "%sn">%
 71
     4
340
16
 90
       25
340
16
 90
       25
280
     0
  0
IMAGEDEF
  5
269D
102
{ACAD_REACTORS
330
2699
102
}
330
2699
100
AcDbRasterImageDef
 90
        0
  1
VIBE-5830-OVAL-specs-internes_img_1.png
 10
6548.0
 20
5579.0
 11
0.0066666667
 21
0.0066666667
280
     1
281
     0
  0
LAYOUT
  5
269C
102
{ACAD_XDICTIONARY
360
28D4
102
}
102
{ACAD_REACTORS
330
1A
102
}
330
1A
100
AcDbPlotSettings
  1

  2
none_device
  4
ANSI_B_(17.00_x_11.00_Inches)
  6

 40
0.0
 41
0.0
 42
0.0
 43
0.0
 44
431.8
 45
279.4
 46
0.0
 47
0.0
 48
0.0
 49
0.0
140
0.0
141
0.0
142
1.0
143
1.0
 70
     0
 72
     0
 73
     0
 74
     0
  7

 75
     0
147
1.0
148
0.0
149
0.0
100
AcDbLayout
  1
Layout1
 70
     1
 71
     1
 10
0.0
 20
0.0
 11
12.0
 21
9.0
 12
0.0
 22
0.0
 32
0.0
 14
1.000000000000000E+20
 24
1.000000000000000E+20
 34
1.000000000000000E+20
 15
-1.000000000000000E+20
 25
-1.000000000000000E+20
 35
-1.000000000000000E+20
146
0.0
 13
0.0
 23
0.0
 33
0.0
 16
1.0
 26
0.0
 36
0.0
 17
0.0
 27
1.0
 37
0.0
 76
     0
330
223
  0
LAYOUT
  5
269B
102
{ACAD_XDICTIONARY
360
28D2
102
}
102
{ACAD_REACTORS
330
1A
102
}
330
1A
100
AcDbPlotSettings
  1

  2
none_device
  4
ANSI_B_(17.00_x_11.00_Inches)
  6

 40
0.0
 41
0.0
 42
0.0
 43
0.0
 44
431.8
 45
279.4
 46
0.0
 47
0.0
 48
0.0
 49
0.0
140
0.0
141
0.0
142
1.0
143
1.0
 70
  1024
 72
     0
 73
     0
 74
     0
  7

 75
     0
147
1.0
148
0.0
149
0.0
100
AcDbLayout
  1
Model
 70
     0
 71
     0
 10
0.0
 20
0.0
 11
17.0
 21
11.0
 12
0.0
 22
0.0
 32
0.0
 14
0.0
 24
0.0
 34
0.0
 15
0.0
 25
0.0
 35
0.0
146
0.0
 13
0.0
 23
0.0
 33
0.0
 16
1.0
 26
0.0
 36
0.0
 17
0.0
 27
1.0
 37
0.0
 76
     0
330
222
331
1F4
  0
MATERIAL
  5
26A9
102
{ACAD_XDICTIONARY
360
26AA
102
}
102
{ACAD_REACTORS
330
26A0
102
}
330
26A0
100
AcDbMaterial
  1
ByBlock
 72
     0
 43
0.0208333333333333
 43
0.0
 43
0.0
 43
0.0
 43
0.0
 43
0.0208333333333333
 43
0.0
 43
0.0
 43
0.0
 43
0.0
 43
1.0
 43
0.0
 43
0.0
 43
0.0
 43
0.0
 43
1.0
 77
     0
 47
0.0208333333333333
 47
0.0
 47
0.0
 47
0.0
 47
0.0
 47
0.0208333333333333
 47
0.0
 47
0.0
 47
0.0
 47
0.0
 47
1.0
 47
0.0
 47
0.0
 47
0.0
 47
0.0
 47
1.0
171
     0
 49
0.0208333333333333
 49
0.0
 49
0.0
 49
0.0
 49
0.0
 49
0.0208333333333333
 49
0.0
 49
0.0
 49
0.0
 49
0.0
 49
1.0
 49
0.0
 49
0.0
 49
0.0
 49
0.0
 49
1.0
175
     0
142
0.0208333333333333
142
0.0
142
0.0
142
0.0
142
0.0
142
0.0208333333333333
142
0.0
142
0.0
142
0.0
142
0.0
142
1.0
142
0.0
142
0.0
142
0.0
142
0.0
142
1.0
179
     0
144
0.0208333333333333
144
0.0
144
0.0
144
0.0
144
0.0
144
0.0208333333333333
144
0.0
144
0.0
144
0.0
144
0.0
144
1.0
144
0.0
144
0.0
144
0.0
144
0.0
144
1.0
147
0.0208333333333333
147
0.0
147
0.0
147
0.0
147
0.0
147
0.0208333333333333
147
0.0
147
0.0
147
0.0
147
0.0
147
1.0
147
0.0
147
0.0
147
0.0
147
0.0
147
1.0
  0
MATERIAL
  5
26A1
102
{ACAD_XDICTIONARY
360
26A2
102
}
102
{ACAD_REACTORS
330
26A0
102
}
330
26A0
100
AcDbMaterial
  1
ByLayer
 72
     0
 43
0.0208333333333333
 43
0.0
 43
0.0
 43
0.0
 43
0.0
 43
0.0208333333333333
 43
0.0
 43
0.0
 43
0.0
 43
0.0
 43
1.0
 43
0.0
 43
0.0
 43
0.0
 43
0.0
 43
1.0
 77
     0
 47
0.0208333333333333
 47
0.0
 47
0.0
 47
0.0
 47
0.0
 47
0.0208333333333333
 47
0.0
 47
0.0
 47
0.0
 47
0.0
 47
1.0
 47
0.0
 47
0.0
 47
0.0
 47
0.0
 47
1.0
171
     0
 49
0.0208333333333333
 49
0.0
 49
0.0
 49
0.0
 49
0.0
 49
0.0208333333333333
 49
0.0
 49
0.0
 49
0.0
 49
0.0
 49
1.0
 49
0.0
 49
0.0
 49
0.0
 49
0.0
 49
1.0
175
     0
142
0.0208333333333333
142
0.0
142
0.0
142
0.0
142
0.0
142
0.0208333333333333
142
0.0
142
0.0
142
0.0
142
0.0
142
1.0
142
0.0
142
0.0
142
0.0
142
0.0
142
1.0
179
     0
144
0.0208333333333333
144
0.0
144
0.0
144
0.0
144
0.0
144
0.0208333333333333
144
0.0
144
0.0
144
0.0
144
0.0
144
1.0
144
0.0
144
0.0
144
0.0
144
0.0
144
1.0
147
0.0208333333333333
147
0.0
147
0.0
147
0.0
147
0.0
147
0.0208333333333333
147
0.0
147
0.0
147
0.0
147
0.0
147
1.0
147
0.0
147
0.0
147
0.0
147
0.0
147
1.0
  0
MATERIAL
  5
26B1
102
{ACAD_XDICTIONARY
360
26B2
102
}
102
{ACAD_REACTORS
330
26A0
102
}
330
26A0
100
AcDbMaterial
  1
Global
 72
     0
 43
0.0208333333333333
 43
0.0
 43
0.0
 43
0.0
 43
0.0
 43
0.0208333333333333
 43
0.0
 43
0.0
 43
0.0
 43
0.0
 43
1.0
 43
0.0
 43
0.0
 43
0.0
 43
0.0
 43
1.0
 77
     0
 47
0.0208333333333333
 47
0.0
 47
0.0
 47
0.0
 47
0.0
 47
0.0208333333333333
 47
0.0
 47
0.0
 47
0.0
 47
0.0
 47
1.0
 47
0.0
 47
0.0
 47
0.0
 47
0.0
 47
1.0
171
     0
 49
0.0208333333333333
 49
0.0
 49
0.0
 49
0.0
 49
0.0
 49
0.0208333333333333
 49
0.0
 49
0.0
 49
0.0
 49
0.0
 49
1.0
 49
0.0
 49
0.0
 49
0.0
 49
0.0
 49
1.0
175
     0
142
0.0208333333333333
142
0.0
142
0.0
142
0.0
142
0.0
142
0.0208333333333333
142
0.0
142
0.0
142
0.0
142
0.0
142
1.0
142
0.0
142
0.0
142
0.0
142
0.0
142
1.0
179
     0
144
0.0208333333333333
144
0.0
144
0.0
144
0.0
144
0.0
144
0.0208333333333333
144
0.0
144
0.0
144
0.0
144
0.0
144
1.0
144
0.0
144
0.0
144
0.0
144
0.0
144
1.0
147
0.0208333333333333
147
0.0
147
0.0
147
0.0
147
0.0
147
0.0208333333333333
147
0.0
147
0.0
147
0.0
147
0.0
147
1.0
147
0.0
147
0.0
147
0.0
147
0.0
147
1.0
  0
MLEADERSTYLE
  5
26E8
102
{ACAD_REACTORS
330
26E7
102
}
330
26E7
100
AcDbMLeaderStyle
170
     2
171
     1
172
     0
 90
        2
 40
0.0
 41
0.0
173
     1
 91
-1056964608
340
14
 92
       -2
290
     1
 42
0.09
291
     1
 43
0.36
  3
Standard
 44
0.18
300

342
11
174
     1
178
     6
175
     1
176
     0
 93
-1056964608
 45
0.18
292
     0
297
     0
 46
0.18
 94
-1056964608
 47
1.0
 49
1.0
140
1.0
293
     1
141
0.0
294
     1
177
     0
142
1.0
295
     0
296
     0
143
0.125
1001
ACAD_MLEADERVER
1070
     2
  0
MLINESTYLE
  5
18
102
{ACAD_REACTORS
330
17
102
}
330
17
100
AcDbMlineStyle
  2
STANDARD
 70
     0
  3

 62
   256
 51
90.0
 52
90.0
 71
     2
 49
0.5
 62
   256
  6
BYLAYER
 49
-0.5
 62
   256
  6
BYLAYER
  0
ACDBPLACEHOLDER
  5
F
102
{ACAD_REACTORS
330
E
102
}
330
E
  0
SCALE
  5
26D6
102
{ACAD_REACTORS
330
26D5
102
}
330
26D5
100
AcDbScale
 70
     0
300
1:1
140
1.0
141
1.0
290
     1
  0
SCALE
  5
26D7
102
{ACAD_REACTORS
330
26D5
102
}
330
26D5
100
AcDbScale
 70
     0
300
1/128" = 1'-0"
140
0.0078125
141
12.0
290
     0
  0
SCALE
  5
26D8
102
{ACAD_REACTORS
330
26D5
102
}
330
26D5
100
AcDbScale
 70
     0
300
1/64" = 1'-0"
140
0.015625
141
12.0
290
     0
  0
SCALE
  5
26D9
102
{ACAD_REACTORS
330
26D5
102
}
330
26D5
100
AcDbScale
 70
     0
300
1/32" = 1'-0"
140
0.03125
141
12.0
290
     0
  0
SCALE
  5
26DA
102
{ACAD_REACTORS
330
26D5
102
}
330
26D5
100
AcDbScale
 70
     0
300
1/16" = 1'-0"
140
0.0625
141
12.0
290
     0
  0
SCALE
  5
26DB
102
{ACAD_REACTORS
330
26D5
102
}
330
26D5
100
AcDbScale
 70
     0
300
3/32" = 1'-0"
140
0.09375
141
12.0
290
     0
  0
SCALE
  5
26DC
102
{ACAD_REACTORS
330
26D5
102
}
330
26D5
100
AcDbScale
 70
     0
300
1/8" = 1'-0"
140
0.125
141
12.0
290
     0
  0
SCALE
  5
26DD
102
{ACAD_REACTORS
330
26D5
102
}
330
26D5
100
AcDbScale
 70
     0
300
3/16" = 1'-0"
140
0.1875
141
12.0
290
     0
  0
SCALE
  5
26DE
102
{ACAD_REACTORS
330
26D5
102
}
330
26D5
100
AcDbScale
 70
     0
300
1/4" = 1'-0"
140
0.25
141
12.0
290
     0
  0
SCALE
  5
26DF
102
{ACAD_REACTORS
330
26D5
102
}
330
26D5
100
AcDbScale
 70
     0
300
3/8" = 1'-0"
140
0.375
141
12.0
290
     0
  0
SCALE
  5
26E0
102
{ACAD_REACTORS
330
26D5
102
}
330
26D5
100
AcDbScale
 70
     0
300
1/2" = 1'-0"
140
0.5
141
12.0
290
     0
  0
SCALE
  5
26E1
102
{ACAD_REACTORS
330
26D5
102
}
330
26D5
100
AcDbScale
 70
     0
300
3/4" = 1'-0"
140
0.75
141
12.0
290
     0
  0
SCALE
  5
26E2
102
{ACAD_REACTORS
330
26D5
102
}
330
26D5
100
AcDbScale
 70
     0
300
1" = 1'-0"
140
1.0
141
12.0
290
     0
  0
SCALE
  5
26E3
102
{ACAD_REACTORS
330
26D5
102
}
330
26D5
100
AcDbScale
 70
     0
300
1-1/2" = 1'-0"
140
1.5
141
12.0
290
     0
  0
SCALE
  5
26E4
102
{ACAD_REACTORS
330
26D5
102
}
330
26D5
100
AcDbScale
 70
     0
300
3" = 1'-0"
140
3.0
141
12.0
290
     0
  0
SCALE
  5
26E5
102
{ACAD_REACTORS
330
26D5
102
}
330
26D5
100
AcDbScale
 70
     0
300
6" = 1'-0"
140
6.0
141
12.0
290
     0
  0
SCALE
  5
26E6
102
{ACAD_REACTORS
330
26D5
102
}
330
26D5
100
AcDbScale
 70
     0
300
1'-0" = 1'-0"
140
12.0
141
12.0
290
     0
  0
ACDBSECTIONVIEWSTYLE
  5
26EA
102
{ACAD_XDICTIONARY
360
290A
102
}
102
{ACAD_REACTORS
330
26E9
102
}
330
26E9
100
AcDbModelDocViewStyle
 70
     0
  3
Imperial24
290
     0
100
AcDbSectionViewStyle
 70
     0
 71
     0
 90
       78
 71
     1
340
11
 40
0.24
340
0
340
0
 40
0.24
300
I, O, Q, S, X, Z
 40
0.48
 90
        3
 40
0.18
 90
        1
 71
     2
340
16
 90
       25
340
16
 90
       50
 40
0.24
 40
0.0
 40
0.24
 71
     3
340
11
 40
0.24
 90
        1
 40
0.75
 90
        1
300
%<\AcVar ViewType \f "%tc1">% %<\AcVar ViewSectionStartId>%-%<\AcVar ViewSectionEndId>%\PSCALE %<\AcVar ViewScale \f "%sn">%
 71
     4
300
ANSI31
 40
1.0
 90
        0
290
     0
290
     0
 90
        6
 40
0.0
 40
1.570796326794896
 40
0.2617993877991494
 40
1.308996938995747
 40
-0.2617993877991494
 40
1.832595714594046
  0
TABLESTYLE
  5
26D4
102
{ACAD_XDICTIONARY
360
26EE
102
}
102
{ACAD_REACTORS
330
26D3
102
}
330
26D3
100
AcDbTableStyle
  3
Standard
 70
     0
 71
     0
 40
0.06
 41
0.06
280
     0
281
     0
  7
STANDARD
140
0.18
170
     2
 62
     0
 63
     7
283
     0
274
    -2
284
     1
 64
     0
275
    -2
285
     1
 65
     0
276
    -2
286
     1
 66
     0
277
    -2
287
     1
 67
     0
278
    -2
288
     1
 68
     0
279
    -2
289
     1
 69
     0
  7
STANDARD
140
0.25
170
     5
 62
     0
 63
     7
283
     0
274
    -2
284
     1
 64
     0
275
    -2
285
     1
 65
     0
276
    -2
286
     1
 66
     0
277
    -2
287
     1
 67
     0
278
    -2
288
     1
 68
     0
279
    -2
289
     1
 69
     0
  7
STANDARD
140
0.18
170
     5
 62
     0
 63
     7
283
     0
274
    -2
284
     1
 64
     0
275
    -2
285
     1
 65
     0
276
    -2
286
     1
 66
     0
277
    -2
287
     1
 67
     0
278
    -2
288
     1
 68
     0
279
    -2
289
     1
 69
     0
  0
VISUALSTYLE
  5
26BF
102
{ACAD_XDICTIONARY
360
28E3
102
}
102
{ACAD_REACTORS
330
26B9
102
}
330
26B9
100
AcDbVisualStyle
  2
2dWireframe
 70
     4
 71
     0
 72
     2
 73
     0
 90
        0
 40
-0.6
 41
-30.0
 62
     5
 63
     7
 74
     1
 91
        4
 64
     7
 65
   257
 75
     1
175
     1
 42
1.0
 92
        0
 66
   257
 43
1.0
 76
     1
 77
     6
 78
     2
 67
     7
 79
     5
170
     0
171
     0
290
     0
174
     0
 93
        1
 44
0.0
173
     0
291
     0
 45
0.0
1001
ACAD
1000
AcDbSavedByObjectVersion
1070
     0
  0
VISUALSTYLE
  5
26BE
102
{ACAD_XDICTIONARY
360
28E1
102
}
102
{ACAD_REACTORS
330
26B9
102
}
330
26B9
100
AcDbVisualStyle
  2
Basic
 70
     7
 71
     1
 72
     0
 73
     1
 90
        0
 40
-0.6
 41
-30.0
 62
     5
 63
     7
 74
     0
 91
        4
 64
     7
 65
   257
 75
     1
175
     1
 42
1.0
 92
        8
 66
     7
 43
1.0
 76
     1
 77
     6
 78
     2
 67
     7
 79
     5
170
     0
171
     0
290
     0
174
     0
 93
        1
 44
0.0
173
     0
291
     1
 45
0.0
1001
ACAD
1000
AcDbSavedByObjectVersion
1070
     0
  0
VISUALSTYLE
  5
26C5
102
{ACAD_XDICTIONARY
360
28EF
102
}
102
{ACAD_REACTORS
330
26B9
102
}
330
26B9
100
AcDbVisualStyle
  2
Brighten
 70
    12
 71
     2
 72
     2
 73
     0
 90
        0
 40
-0.6
 41
-30.0
 62
     5
 63
     7
 74
     1
 91
        4
 64
     7
 65
   257
 75
     1
175
     1
 42
1.0
 92
        8
 66
     7
 43
1.0
 76
     1
 77
     6
 78
     2
 67
     7
 79
     5
170
     0
171
     0
290
     0
174
     0
 93
        1
 44
50.0
173
     0
291
     1
 45
0.0
1001
ACAD
1000
AcDbSavedByObjectVersion
1070
     0
  0
VISUALSTYLE
  5
26C9
102
{ACAD_XDICTIONARY
360
28F7
102
}
102
{ACAD_REACTORS
330
26B9
102
}
330
26B9
100
AcDbVisualStyle
  2
ColorChange
 70
    16
 71
     2
 72
     2
 73
     3
 90
        0
 40
-0.6
 41
-30.0
 62
     5
 63
     8
 74
     1
 91
        4
 64
     7
 65
   257
 75
     1
175
     1
 42
1.0
 92
        8
 66
     8
 43
1.0
 76
     1
 77
     6
 78
     2
 67
     7
 79
     5
170
     0
171
     0
290
     0
174
     0
 93
        1
 44
0.0
173
     0
291
     1
 45
0.0
1001
ACAD
1000
AcDbSavedByObjectVersion
1070
     0
  0
VISUALSTYLE
  5
26C2
102
{ACAD_XDICTIONARY
360
28E9
102
}
102
{ACAD_REACTORS
330
26B9
102
}
330
26B9
100
AcDbVisualStyle
  2
Conceptual
 70
     9
 71
     3
 72
     2
 73
     0
 90
        0
 40
-0.6
 41
-30.0
 62
     5
 63
     7
 74
     2
 91
        2
 64
     7
 65
   257
 75
     1
175
     1
 42
179.0
 92
        8
 66
     7
 43
1.0
 76
     1
 77
     6
 78
     2
 67
     7
 79
     3
170
     0
171
     0
290
     0
174
     0
 93
        1
 44
0.0
173
     0
291
     0
 45
0.0
1001
ACAD
1000
AcDbSavedByObjectVersion
1070
     0
  0
VISUALSTYLE
  5
26C4
102
{ACAD_XDICTIONARY
360
28ED
102
}
102
{ACAD_REACTORS
330
26B9
102
}
330
26B9
100
AcDbVisualStyle
  2
Dim
 70
    11
 71
     2
 72
     2
 73
     0
 90
        0
 40
-0.6
 41
-30.0
 62
     5
 63
     7
 74
     1
 91
        4
 64
     7
 65
   257
 75
     1
175
     1
 42
1.0
 92
        8
 66
     7
 43
1.0
 76
     1
 77
     6
 78
     2
 67
     7
 79
     5
170
     0
171
     0
290
     0
174
     0
 93
        1
 44
-50.0
173
     0
291
     1
 45
0.0
1001
ACAD
1000
AcDbSavedByObjectVersion
1070
     0
  0
VISUALSTYLE
  5
26D1
102
{ACAD_XDICTIONARY
360
2907
102
}
102
{ACAD_REACTORS
330
26B9
102
}
330
26B9
100
AcDbVisualStyle
  2
EdgeColorOff
 70
    22
 71
     2
 72
     2
 73
     0
 90
        0
 40
-0.6
 41
-30.0
 62
     5
 63
     7
 74
     1
 91
        4
 64
     7
 65
   257
 75
     1
175
     1
 42
1.0
 92
        8
 66
     7
 43
1.0
 76
     1
 77
     6
 78
     2
 67
     7
 79
     5
170
     0
171
     0
290
     0
174
     0
 93
        1
 44
0.0
173
     0
291
     1
 45
0.0
1001
ACAD
1000
AcDbSavedByObjectVersion
1070
     0
  0
VISUALSTYLE
  5
26C8
102
{ACAD_XDICTIONARY
360
28F5
102
}
102
{ACAD_REACTORS
330
26B9
102
}
330
26B9
100
AcDbVisualStyle
  2
Facepattern
 70
    15
 71
     2
 72
     2
 73
     0
 90
        0
 40
-0.6
 41
-30.0
 62
     5
 63
     7
 74
     1
 91
        4
 64
     7
 65
   257
 75
     1
175
     1
 42
1.0
 92
        8
 66
     7
 43
1.0
 76
     1
 77
     6
 78
     2
 67
     7
 79
     5
170
     0
171
     0
290
     0
174
     0
 93
        1
 44
0.0
173
     0
291
     1
 45
0.0
1001
ACAD
1000
AcDbSavedByObjectVersion
1070
     0
  0
VISUALSTYLE
  5
26BA
102
{ACAD_XDICTIONARY
360
28D9
102
}
102
{ACAD_REACTORS
330
26B9
102
}
330
26B9
100
AcDbVisualStyle
  2
Flat
 70
     0
 71
     2
 72
     1
 73
     1
 90
        2
 40
-0.6
 41
30.0
 62
     5
 63
     7
 74
     0
 91
        0
 64
     7
 65
   257
 75
     1
175
     1
 42
1.0
 92
        8
 66
     7
 43
1.0
 76
     1
 77
     6
 78
     2
 67
     7
 79
     5
170
     0
171
     0
290
     0
174
     0
 93
       13
 44
0.0
173
     0
291
     1
 45
0.0
1001
ACAD
1000
AcDbSavedByObjectVersion
1070
     0
  0
VISUALSTYLE
  5
26BB
102
{ACAD_XDICTIONARY
360
28DB
102
}
102
{ACAD_REACTORS
330
26B9
102
}
330
26B9
100
AcDbVisualStyle
  2
FlatWithEdges
 70
     1
 71
     2
 72
     1
 73
     1
 90
        2
 40
-0.6
 41
30.0
 62
     5
 63
     7
 74
     1
 91
        0
 64
     7
 65
   257
 75
     1
175
     1
 42
1.0
 92
        0
 66
   257
 43
1.0
 76
     1
 77
     6
 78
     2
 67
     7
 79
     5
170
     0
171
     0
290
     0
174
     0
 93
       13
 44
0.0
173
     0
291
     1
 45
0.0
1001
ACAD
1000
AcDbSavedByObjectVersion
1070
     0
  0
VISUALSTYLE
  5
26BC
102
{ACAD_XDICTIONARY
360
28DD
102
}
102
{ACAD_REACTORS
330
26B9
102
}
330
26B9
100
AcDbVisualStyle
  2
Gouraud
 70
     2
 71
     2
 72
     2
 73
     1
 90
        2
 40
-0.6
 41
30.0
 62
     5
 63
     7
 74
     0
 91
        0
 64
     7
 65
   257
 75
     1
175
     1
 42
1.0
 92
        0
 66
     7
 43
1.0
 76
     1
 77
     6
 78
     2
 67
     7
 79
     5
170
     0
171
     0
290
     0
174
     0
 93
       13
 44
0.0
173
     0
291
     1
 45
0.0
1001
ACAD
1000
AcDbSavedByObjectVersion
1070
     0
  0
VISUALSTYLE
  5
26BD
102
{ACAD_XDICTIONARY
360
28DF
102
}
102
{ACAD_REACTORS
330
26B9
102
}
330
26B9
100
AcDbVisualStyle
  2
GouraudWithEdges
 70
     3
 71
     2
 72
     2
 73
     1
 90
        2
 40
-0.6
 41
30.0
 62
     5
 63
     7
 74
     1
 91
        0
 64
     7
 65
   257
 75
     1
175
     1
 42
1.0
 92
        0
 66
   257
 43
1.0
 76
     1
 77
     6
 78
     2
 67
     7
 79
     5
170
     0
171
     0
290
     0
174
     0
 93
       13
 44
0.0
173
     0
291
     1
 45
0.0
1001
ACAD
1000
AcDbSavedByObjectVersion
1070
     0
  0
VISUALSTYLE
  5
26C1
102
{ACAD_XDICTIONARY
360
28E7
102
}
102
{ACAD_REACTORS
330
26B9
102
}
330
26B9
100
AcDbVisualStyle
  2
Hidden
 70
     6
 71
     1
 72
     2
 73
     2
 90
        0
 40
-0.6
 41
-30.0
 62
     5
 63
     7
 74
     2
 91
        2
 64
     7
 65
   257
 75
     2
175
     1
 42
40.0
 92
        0
 66
   257
 43
1.0
 76
     1
 77
     6
 78
     2
 67
     7
 79
     3
170
     0
171
     0
290
     0
174
     0
 93
        1
 44
0.0
173
     0
291
     0
 45
0.0
1001
ACAD
1000
AcDbSavedByObjectVersion
1070
     0
  0
VISUALSTYLE
  5
26CF
102
{ACAD_XDICTIONARY
360
2903
102
}
102
{ACAD_REACTORS
330
26B9
102
}
330
26B9
100
AcDbVisualStyle
  2
JitterOff
 70
    20
 71
     2
 72
     2
 73
     0
 90
        0
 40
-0.6
 41
-30.0
 62
     5
 63
     7
 74
     1
 91
        4
 64
     7
 65
   257
 75
     1
175
     1
 42
1.0
 92
       10
 66
     7
 43
1.0
 76
     1
 77
     6
 78
     2
 67
     7
 79
     5
170
     0
171
     0
290
     0
174
     0
 93
        1
 44
0.0
173
     0
291
     1
 45
0.0
1001
ACAD
1000
AcDbSavedByObjectVersion
1070
     0
  0
VISUALSTYLE
  5
26C7
102
{ACAD_XDICTIONARY
360
28F3
102
}
102
{ACAD_REACTORS
330
26B9
102
}
330
26B9
100
AcDbVisualStyle
  2
Linepattern
 70
    14
 71
     2
 72
     2
 73
     0
 90
        0
 40
-0.6
 41
-30.0
 62
     5
 63
     7
 74
     1
 91
        4
 64
     7
 65
   257
 75
     7
175
     7
 42
1.0
 92
        8
 66
     7
 43
1.0
 76
     1
 77
     6
 78
     2
 67
     7
 79
     5
170
     0
171
     0
290
     0
174
     0
 93
        1
 44
0.0
173
     0
291
     1
 45
0.0
1001
ACAD
1000
AcDbSavedByObjectVersion
1070
     0
  0
VISUALSTYLE
  5
26D0
102
{ACAD_XDICTIONARY
360
2905
102
}
102
{ACAD_REACTORS
330
26B9
102
}
330
26B9
100
AcDbVisualStyle
  2
OverhangOff
 70
    21
 71
     2
 72
     2
 73
     0
 90
        0
 40
-0.6
 41
-30.0
 62
     5
 63
     7
 74
     1
 91
        4
 64
     7
 65
   257
 75
     1
175
     1
 42
1.0
 92
        9
 66
     7
 43
1.0
 76
     1
 77
     6
 78
     2
 67
     7
 79
     5
170
     0
171
     0
290
     0
174
     0
 93
        1
 44
0.0
173
     0
291
     1
 45
0.0
1001
ACAD
1000
AcDbSavedByObjectVersion
1070
     0
  0
VISUALSTYLE
  5
26C3
102
{ACAD_XDICTIONARY
360
28EB
102
}
102
{ACAD_REACTORS
330
26B9
102
}
330
26B9
100
AcDbVisualStyle
  2
Realistic
 70
     8
 71
     2
 72
     2
 73
     0
 90
        2
 40
-0.6
 41
30.0
 62
     5
 63
     7
 74
     0
 91
        0
 64
     7
 65
   257
 75
     1
175
     1
 42
1.0
 92
        8
 66
   257
 43
1.0
 76
     1
 77
     6
 78
     2
 67
     7
 79
     3
170
     0
171
     0
290
     0
174
     0
 93
       13
 44
0.0
173
     0
291
     0
 45
0.0
1001
ACAD
1000
AcDbSavedByObjectVersion
1070
     0
  0
VISUALSTYLE
  5
26CE
102
{ACAD_XDICTIONARY
360
2901
102
}
102
{ACAD_REACTORS
330
26B9
102
}
330
26B9
100
AcDbVisualStyle
  2
Shaded
 70
    27
 71
     2
 72
     2
 73
     1
 90
        2
 40
-0.6
 41
30.0
 62
     5
 63
     7
 74
     0
 91
        4
 64
     7
 65
   257
 75
     1
175
     1
 42
1.0
 92
        8
 66
   257
 43
1.0
 76
     1
 77
     6
 78
     2
 67
     8
 79
     3
170
     0
171
     0
290
     0
174
     0
 93
        5
 44
0.0
173
     0
291
     0
 45
0.0
1001
ACAD
1000
AcDbSavedByObjectVersion
1070
     0
  0
VISUALSTYLE
  5
26CD
102
{ACAD_XDICTIONARY
360
28FF
102
}
102
{ACAD_REACTORS
330
26B9
102
}
330
26B9
100
AcDbVisualStyle
  2
Shaded with edges
 70
    26
 71
     2
 72
     2
 73
     1
 90
        2
 40
-0.6
 41
30.0
 62
     5
 63
     7
 74
     1
 91
        2
 64
     7
 65
   257
 75
     2
175
     1
 42
1.0
 92
        8
 66
   257
 43
1.0
 76
     1
 77
     6
 78
     2
 67
     7
 79
     3
170
     0
171
     0
290
     0
174
     0
 93
        5
 44
0.0
173
     0
291
     0
 45
0.0
1001
ACAD
1000
AcDbSavedByObjectVersion
1070
     0
  0
VISUALSTYLE
  5
26CA
102
{ACAD_XDICTIONARY
360
28F9
102
}
102
{ACAD_REACTORS
330
26B9
102
}
330
26B9
100
AcDbVisualStyle
  2
Shades of Gray
 70
    23
 71
     2
 72
     2
 73
     3
 90
        0
 40
-0.6
 41
-30.0
 62
     5
 63
     7
 74
     2
 91
        2
 64
     7
 65
     7
 75
     1
175
     1
 42
40.0
 92
        8
 66
     7
 43
1.0
 76
     1
 77
     6
 78
     2
 67
     7
 79
     3
170
     0
171
     0
290
     0
174
     0
 93
        1
 44
0.0
173
     0
291
     0
 45
0.0
1001
ACAD
1000
AcDbSavedByObjectVersion
1070
     0
  0
VISUALSTYLE
  5
26CB
102
{ACAD_XDICTIONARY
360
28FB
102
}
102
{ACAD_REACTORS
330
26B9
102
}
330
26B9
100
AcDbVisualStyle
  2
Sketchy
 70
    24
 71
     1
 72
     2
 73
     2
 90
        0
 40
-0.6
 41
-30.0
 62
     5
 63
     7
 74
     2
 91
        2
 64
     7
 65
     7
 75
     1
175
     1
 42
40.0
 92
       11
 66
     7
 43
1.0
 76
     1
 77
     6
 78
     2
 67
     7
 79
     6
170
     0
171
     0
290
     0
174
     0
 93
        1
 44
0.0
173
     0
291
     0
 45
0.0
1001
ACAD
1000
AcDbSavedByObjectVersion
1070
     0
  0
VISUALSTYLE
  5
26C6
102
{ACAD_XDICTIONARY
360
28F1
102
}
102
{ACAD_REACTORS
330
26B9
102
}
330
26B9
100
AcDbVisualStyle
  2
Thicken
 70
    13
 71
     2
 72
     2
 73
     0
 90
        0
 40
-0.6
 41
-30.0
 62
     5
 63
     7
 74
     1
 91
        4
 64
     7
 65
   257
 75
     1
175
     1
 42
1.0
 92
       12
 66
     7
 43
1.0
 76
     1
 77
     6
 78
     2
 67
     7
 79
     5
170
     0
171
     0
290
     0
174
     0
 93
        1
 44
0.0
173
     0
291
     1
 45
0.0
1001
ACAD
1000
AcDbSavedByObjectVersion
1070
     0
  0
VISUALSTYLE
  5
26C0
102
{ACAD_XDICTIONARY
360
28E5
102
}
102
{ACAD_REACTORS
330
26B9
102
}
330
26B9
100
AcDbVisualStyle
  2
Wireframe
 70
     5
 71
     0
 72
     2
 73
     0
 90
        0
 40
-0.6
 41
-30.0
 62
     5
 63
     7
 74
     1
 91
        4
 64
     7
 65
   257
 75
     1
175
     1
 42
1.0
 92
        0
 66
   257
 43
1.0
 76
     1
 77
     6
 78
     2
 67
     7
 79
     3
170
     0
171
     0
290
     0
174
     0
 93
        1
 44
0.0
173
     0
291
     0
 45
0.0
1001
ACAD
1000
AcDbSavedByObjectVersion
1070
     0
  0
VISUALSTYLE
  5
26CC
102
{ACAD_XDICTIONARY
360
28FD
102
}
102
{ACAD_REACTORS
330
26B9
102
}
330
26B9
100
AcDbVisualStyle
  2
X-Ray
 70
    25
 71
     2
 72
     2
 73
     1
 90
        1
 40
0.5
 41
-30.0
 62
     5
 63
     7
 74
     1
 91
        0
 64
     7
 65
   257
 75
     1
175
     1
 42
1.0
 92
        8
 66
     7
 43
1.0
 76
     1
 77
     6
 78
     2
 67
     7
 79
     3
170
     0
171
     0
290
     0
174
     0
 93
       13
 44
0.0
173
     0
291
     0
 45
0.0
1001
ACAD
1000
AcDbSavedByObjectVersion
1070
     0
  0
DICTIONARYVAR
  5
2735
102
{ACAD_REACTORS
330
2730
102
}
330
2730
100
DictionaryVariables
280
     0
  1
1:1
  0
DICTIONARYVAR
  5
2732
102
{ACAD_REACTORS
330
2730
102
}
330
2730
100
DictionaryVariables
280
     0
  1
STANDARD
  0
DICTIONARYVAR
  5
2731
102
{ACAD_REACTORS
330
2730
102
}
330
2730
100
DictionaryVariables
280
     0
  1
STANDARD
  0
DICTIONARYVAR
  5
2733
102
{ACAD_REACTORS
330
2730
102
}
330
2730
100
DictionaryVariables
280
     0
  1
Imperial24
  0
DICTIONARYVAR
  5
2734
102
{ACAD_REACTORS
330
2730
102
}
330
2730
100
DictionaryVariables
280
     0
  1
Imperial24
  0
DICTIONARYVAR
  5
2738
102
{ACAD_REACTORS
330
2730
102
}
330
2730
100
DictionaryVariables
280
     0
  1
1
  0
DICTIONARYVAR
  5
2737
102
{ACAD_REACTORS
330
2730
102
}
330
2730
100
DictionaryVariables
280
     0
  1
0
  0
DICTIONARYVAR
  5
2736
102
{ACAD_REACTORS
330
2730
102
}
330
2730
100
DictionaryVariables
280
     0
  1
127
  0
DICTIONARYVAR
  5
28CE
102
{ACAD_REACTORS
330
2730
102
}
330
2730
100
DictionaryVariables
280
     0
  1
2
  0
DICTIONARY
  5
290C
330
26EC
100
AcDbDictionary
280
     1
281
     1
  3
ACAD_XREC_ROUNDTRIP
360
290D
  0
DICTIONARY
  5
28D4
330
269C
100
AcDbDictionary
280
     1
281
     1
  3
ACAD_XREC_ROUNDTRIP
360
28D5
  0
DICTIONARY
  5
28D2
330
269B
100
AcDbDictionary
280
     1
281
     1
  3
ACAD_XREC_ROUNDTRIP
360
28D3
  0
DICTIONARY
  5
26AA
330
26A9
100
AcDbDictionary
280
     1
281
     1
  3
ACAD_XREC_ROUNDTRIP
360
28D7
  3
BUMPTILE
360
26AC
  3
DIFFUSETILE
360
26AB
  3
OPACITYTILE
360
26AF
  3
REFLECTIONTILE
360
26AE
  3
REFRACTIONTILE
360
26B0
  3
SPECULARTILE
360
26AD
  0
DICTIONARY
  5
26A2
330
26A1
100
AcDbDictionary
280
     1
281
     1
  3
ACAD_XREC_ROUNDTRIP
360
28D6
  3
BUMPTILE
360
26A4
  3
DIFFUSETILE
360
26A3
  3
OPACITYTILE
360
26A7
  3
REFLECTIONTILE
360
26A6
  3
REFRACTIONTILE
360
26A8
  3
SPECULARTILE
360
26A5
  0
DICTIONARY
  5
26B2
330
26B1
100
AcDbDictionary
280
     1
281
     1
  3
ACAD_XREC_ROUNDTRIP
360
28D8
  3
BUMPTILE
360
26B4
  3
DIFFUSETILE
360
26B3
  3
OPACITYTILE
360
26B7
  3
REFLECTIONTILE
360
26B6
  3
REFRACTIONTILE
360
26B8
  3
SPECULARTILE
360
26B5
  0
DICTIONARY
  5
290A
330
26EA
100
AcDbDictionary
280
     1
281
     1
  3
ACAD_XREC_ROUNDTRIP
360
290B
  0
DICTIONARY
  5
26EE
330
26D4
100
AcDbDictionary
280
     1
281
     1
  3
ACAD_ROUNDTRIP_2008_TABLESTYLE_CELLSTYLEMAP
360
28CF
  3
ACAD_XREC_ROUNDTRIP
360
2909
  0
DICTIONARY
  5
28E3
330
26BF
100
AcDbDictionary
280
     1
281
     1
  3
ACAD_XREC_ROUNDTRIP
360
28E4
  0
DICTIONARY
  5
28E1
330
26BE
100
AcDbDictionary
280
     1
281
     1
  3
ACAD_XREC_ROUNDTRIP
360
28E2
  0
DICTIONARY
  5
28EF
330
26C5
100
AcDbDictionary
280
     1
281
     1
  3
ACAD_XREC_ROUNDTRIP
360
28F0
  0
DICTIONARY
  5
28F7
330
26C9
100
AcDbDictionary
280
     1
281
     1
  3
ACAD_XREC_ROUNDTRIP
360
28F8
  0
DICTIONARY
  5
28E9
330
26C2
100
AcDbDictionary
280
     1
281
     1
  3
ACAD_XREC_ROUNDTRIP
360
28EA
  0
DICTIONARY
  5
28ED
330
26C4
100
AcDbDictionary
280
     1
281
     1
  3
ACAD_XREC_ROUNDTRIP
360
28EE
  0
DICTIONARY
  5
2907
330
26D1
100
AcDbDictionary
280
     1
281
     1
  3
ACAD_XREC_ROUNDTRIP
360
2908
  0
DICTIONARY
  5
28F5
330
26C8
100
AcDbDictionary
280
     1
281
     1
  3
ACAD_XREC_ROUNDTRIP
360
28F6
  0
DICTIONARY
  5
28D9
330
26BA
100
AcDbDictionary
280
     1
281
     1
  3
ACAD_XREC_ROUNDTRIP
360
28DA
  0
DICTIONARY
  5
28DB
330
26BB
100
AcDbDictionary
280
     1
281
     1
  3
ACAD_XREC_ROUNDTRIP
360
28DC
  0
DICTIONARY
  5
28DD
330
26BC
100
AcDbDictionary
280
     1
281
     1
  3
ACAD_XREC_ROUNDTRIP
360
28DE
  0
DICTIONARY
  5
28DF
330
26BD
100
AcDbDictionary
280
     1
281
     1
  3
ACAD_XREC_ROUNDTRIP
360
28E0
  0
DICTIONARY
  5
28E7
330
26C1
100
AcDbDictionary
280
     1
281
     1
  3
ACAD_XREC_ROUNDTRIP
360
28E8
  0
DICTIONARY
  5
2903
330
26CF
100
AcDbDictionary
280
     1
281
     1
  3
ACAD_XREC_ROUNDTRIP
360
2904
  0
DICTIONARY
  5
28F3
330
26C7
100
AcDbDictionary
280
     1
281
     1
  3
ACAD_XREC_ROUNDTRIP
360
28F4
  0
DICTIONARY
  5
2905
330
26D0
100
AcDbDictionary
280
     1
281
     1
  3
ACAD_XREC_ROUNDTRIP
360
2906
  0
DICTIONARY
  5
28EB
330
26C3
100
AcDbDictionary
280
     1
281
     1
  3
ACAD_XREC_ROUNDTRIP
360
28EC
  0
DICTIONARY
  5
2901
330
26CE
100
AcDbDictionary
280
     1
281
     1
  3
ACAD_XREC_ROUNDTRIP
360
2902
  0
DICTIONARY
  5
28FF
330
26CD
100
AcDbDictionary
280
     1
281
     1
  3
ACAD_XREC_ROUNDTRIP
360
2900
  0
DICTIONARY
  5
28F9
330
26CA
100
AcDbDictionary
280
     1
281
     1
  3
ACAD_XREC_ROUNDTRIP
360
28FA
  0
DICTIONARY
  5
28FB
330
26CB
100
AcDbDictionary
280
     1
281
     1
  3
ACAD_XREC_ROUNDTRIP
360
28FC
  0
DICTIONARY
  5
28F1
330
26C6
100
AcDbDictionary
280
     1
281
     1
  3
ACAD_XREC_ROUNDTRIP
360
28F2
  0
DICTIONARY
  5
28E5
330
26C0
100
AcDbDictionary
280
     1
281
     1
  3
ACAD_XREC_ROUNDTRIP
360
28E6
  0
DICTIONARY
  5
28FD
330
26CC
100
AcDbDictionary
280
     1
281
     1
  3
ACAD_XREC_ROUNDTRIP
360
28FE
  0
XRECORD
  5
290D
102
{ACAD_REACTORS
330
290C
102
}
330
290C
100
AcDbXrecord
280
     1
102
DISPLAYNAME
  1
Imperial24
102
FLAGS
 90
        0
  0
XRECORD
  5
28D5
102
{ACAD_REACTORS
330
28D4
102
}
330
28D4
100
AcDbXrecord
280
     1
102
SHADEPLOT
 70
     0
102
SHADEPLOTRESLEVEL
 70
     2
102
SHADEPLOTCUSTOMDPI
 70
   300
  0
XRECORD
  5
28D3
102
{ACAD_REACTORS
330
28D2
102
}
330
28D2
100
AcDbXrecord
280
     1
102
SHADEPLOT
 70
     0
102
SHADEPLOTRESLEVEL
 70
     2
102
SHADEPLOTCUSTOMDPI
 70
   300
  0
XRECORD
  5
28D7
102
{ACAD_REACTORS
330
26AA
102
}
330
26AA
100
AcDbXrecord
280
     1
102
MATERIAL
148
0.0
149
0.0
149
0.0
 93
        0
 94
      127
282
     0
 72
     0
 77
     0
171
     0
175
     0
179
     0
273
     0
  0
XRECORD
  5
26AC
102
{ACAD_REACTORS
330
26AA
102
}
330
26AA
100
AcDbXrecord
280
     1
270
     1
271
     1
  0
XRECORD
  5
26AB
102
{ACAD_REACTORS
330
26AA
102
}
330
26AA
100
AcDbXrecord
280
     1
270
     1
271
     1
  0
XRECORD
  5
26AF
102
{ACAD_REACTORS
330
26AA
102
}
330
26AA
100
AcDbXrecord
280
     1
270
     1
271
     1
  0
XRECORD
  5
26AE
102
{ACAD_REACTORS
330
26AA
102
}
330
26AA
100
AcDbXrecord
280
     1
270
     1
271
     1
  0
XRECORD
  5
26B0
102
{ACAD_REACTORS
330
26AA
102
}
330
26AA
100
AcDbXrecord
280
     1
270
     1
271
     1
  0
XRECORD
  5
26AD
102
{ACAD_REACTORS
330
26AA
102
}
330
26AA
100
AcDbXrecord
280
     1
270
     1
271
     1
  0
XRECORD
  5
28D6
102
{ACAD_REACTORS
330
26A2
102
}
330
26A2
100
AcDbXrecord
280
     1
102
MATERIAL
148
0.0
149
0.0
149
0.0
 93
        0
 94
      127
282
     0
 72
     0
 77
     0
171
     0
175
     0
179
     0
273
     0
  0
XRECORD
  5
26A4
102
{ACAD_REACTORS
330
26A2
102
}
330
26A2
100
AcDbXrecord
280
     1
270
     1
271
     1
  0
XRECORD
  5
26A3
102
{ACAD_REACTORS
330
26A2
102
}
330
26A2
100
AcDbXrecord
280
     1
270
     1
271
     1
  0
XRECORD
  5
26A7
102
{ACAD_REACTORS
330
26A2
102
}
330
26A2
100
AcDbXrecord
280
     1
270
     1
271
     1
  0
XRECORD
  5
26A6
102
{ACAD_REACTORS
330
26A2
102
}
330
26A2
100
AcDbXrecord
280
     1
270
     1
271
     1
  0
XRECORD
  5
26A8
102
{ACAD_REACTORS
330
26A2
102
}
330
26A2
100
AcDbXrecord
280
     1
270
     1
271
     1
  0
XRECORD
  5
26A5
102
{ACAD_REACTORS
330
26A2
102
}
330
26A2
100
AcDbXrecord
280
     1
270
     1
271
     1
  0
XRECORD
  5
28D8
102
{ACAD_REACTORS
330
26B2
102
}
330
26B2
100
AcDbXrecord
280
     1
102
MATERIAL
148
0.0
149
0.0
149
0.0
 93
        0
 94
      127
282
     0
 72
     0
 77
     0
171
     0
175
     0
179
     0
273
     0
  0
XRECORD
  5
26B4
102
{ACAD_REACTORS
330
26B2
102
}
330
26B2
100
AcDbXrecord
280
     1
270
     1
271
     1
  0
XRECORD
  5
26B3
102
{ACAD_REACTORS
330
26B2
102
}
330
26B2
100
AcDbXrecord
280
     1
270
     1
271
     1
  0
XRECORD
  5
26B7
102
{ACAD_REACTORS
330
26B2
102
}
330
26B2
100
AcDbXrecord
280
     1
270
     1
271
     1
  0
XRECORD
  5
26B6
102
{ACAD_REACTORS
330
26B2
102
}
330
26B2
100
AcDbXrecord
280
     1
270
     1
271
     1
  0
XRECORD
  5
26B8
102
{ACAD_REACTORS
330
26B2
102
}
330
26B2
100
AcDbXrecord
280
     1
270
     1
271
     1
  0
XRECORD
  5
26B5
102
{ACAD_REACTORS
330
26B2
102
}
330
26B2
100
AcDbXrecord
280
     1
270
     1
271
     1
  0
XRECORD
  5
290B
102
{ACAD_REACTORS
330
290A
102
}
330
290A
100
AcDbXrecord
280
     1
102
DISPLAYNAME
  1
Imperial24
102
FLAGS
 90
        0
  0
CELLSTYLEMAP
  5
28CF
102
{ACAD_REACTORS
330
26EE
102
}
330
26EE
100
AcDbCellStyleMap
 90
        3
300
CELLSTYLE
  1
TABLEFORMAT_BEGIN
 90
        5
170
     1
 91
        0
 92
    32768
 62
   257
 93
        1
300
CONTENTFORMAT
  1
CONTENTFORMAT_BEGIN
 90
        0
 91
        0
 92
      512
 93
        0
300

 40
0.0
140
1.0
 94
        5
 62
     0
340
11
144
0.25
309
CONTENTFORMAT_END
171
     0
 94
        0
309
TABLEFORMAT_END
  1
CELLSTYLE_BEGIN
 90
        1
 91
        1
300
_TITLE
309
CELLSTYLE_END
300
CELLSTYLE
  1
TABLEFORMAT_BEGIN
 90
        5
170
     1
 91
        0
 92
        0
 62
   257
 93
        1
300
CONTENTFORMAT
  1
CONTENTFORMAT_BEGIN
 90
        0
 91
        0
 92
      512
 93
        0
300

 40
0.0
140
1.0
 94
        5
 62
     0
340
11
144
0.18
309
CONTENTFORMAT_END
171
     0
 94
        0
309
TABLEFORMAT_END
  1
CELLSTYLE_BEGIN
 90
        2
 91
        1
300
_HEADER
309
CELLSTYLE_END
300
CELLSTYLE
  1
TABLEFORMAT_BEGIN
 90
        5
170
     1
 91
        0
 92
        0
 62
   257
 93
        1
300
CONTENTFORMAT
  1
CONTENTFORMAT_BEGIN
 90
        0
 91
        0
 92
      512
 93
        0
300

 40
0.0
140
1.0
 94
        2
 62
     0
340
11
144
0.18
309
CONTENTFORMAT_END
171
     0
 94
        0
309
TABLEFORMAT_END
  1
CELLSTYLE_BEGIN
 90
        3
 91
        2
300
_DATA
309
CELLSTYLE_END
  0
XRECORD
  5
2909
102
{ACAD_REACTORS
330
26EE
102
}
330
26EE
100
AcDbXrecord
280
     1
102
ACAD_ROUNDTRIP_PRE2007_TABLESTYLE
 90
      512
 91
        0
  1

 92
      512
 93
        0
  2

 94
      512
 95
        0
  3

  0
XRECORD
  5
28E4
102
{ACAD_REACTORS
330
28E3
102
}
330
28E3
100
AcDbXrecord
280
     1
102
RTVSPost2010Prop28
280
     1
102
RTVSPost2010PropOp28
 70
     1
102
RTVSPost2010Prop29
280
     1
102
RTVSPost2010PropOp29
 70
     1
102
RTVSPost2010Prop30
280
     0
102
RTVSPost2010PropOp30
 70
     1
102
RTVSPost2010Prop31
280
     0
102
RTVSPost2010PropOp31
 70
     1
102
RTVSPost2010Prop32
280
     0
102
RTVSPost2010PropOp32
 70
     1
102
RTVSPost2010Prop33
280
     0
102
RTVSPost2010PropOp33
 70
     1
102
RTVSPost2010Prop34
280
     0
102
RTVSPost2010PropOp34
 70
     1
102
RTVSPost2010Prop35
280
     0
102
RTVSPost2010PropOp35
 70
     1
102
RTVSPost2010Prop36
280
     0
102
RTVSPost2010PropOp36
 70
     1
102
RTVSPost2010Prop37
 90
       50
102
RTVSPost2010PropOp37
 70
     1
102
RTVSPost2010Prop38
140
0.0
102
RTVSPost2010PropOp38
 70
     1
102
RTVSPost2010Prop39
140
1.0
102
RTVSPost2010PropOp39
 70
     1
102
RTVSPost2010Prop40
 90
        0
102
RTVSPost2010PropOp40
 70
     1
102
RTVSPost2010Prop41ColorIndex
 90
       18
102
RTVSPost2010Prop41ColorRGB
 90
        0
102
RTVSPost2010PropOp41
 70
     1
102
RTVSPost2010Prop42
 90
       50
102
RTVSPost2010PropOp42
 70
     1
102
RTVSPost2010Prop43
 90
        3
102
RTVSPost2010PropOp43
 70
     1
102
RTVSPost2010Prop44ColorIndex
 90
        5
102
RTVSPost2010Prop44ColorRGB
 90
      255
102
RTVSPost2010PropOp44
 70
     1
102
RTVSPost2010Prop45
280
     0
102
RTVSPost2010PropOp45
 70
     1
102
RTVSPost2010Prop46
 90
       50
102
RTVSPost2010PropOp46
 70
     1
102
RTVSPost2010Prop47
 90
       50
102
RTVSPost2010PropOp47
 70
     1
102
RTVSPost2010Prop48
 90
       50
102
RTVSPost2010PropOp48
 70
     1
102
RTVSPost2010Prop49
280
     0
102
RTVSPost2010PropOp49
 70
     1
102
RTVSPost2010Prop50
 90
       50
102
RTVSPost2010PropOp50
 70
     1
102
RTVSPost2010Prop51ColorIndex
 90
      256
102
RTVSPost2010Prop51ColorRGB
 90
-16777216
102
RTVSPost2010PropOp51
 70
     0
102
RTVSPost2010Prop52
140
1.0
102
RTVSPost2010PropOp52
 70
     0
102
RTVSPost2010Prop53
 90
        2
102
RTVSPost2010PropOp53
 70
     1
102
RTVSPost2010Prop54
  1
strokes_ogs.tif
102
RTVSPost2010PropOp54
 70
     1
102
RTVSPost2010Prop55
280
     0
102
RTVSPost2010PropOp55
 70
     1
102
RTVSPost2010Prop56
140
1.0
102
RTVSPost2010PropOp56
 70
     1
102
RTVSPost2010Prop57
140
1.0
102
RTVSPost2010PropOp57
 70
     1
102
RTVSPropertyOp0
 70
     1
102
RTVSPropertyOp1
 70
     1
102
RTVSPropertyOp2
 70
     1
102
RTVSPropertyOp3
 70
     1
102
RTVSPropertyOp4
 70
     1
102
RTVSPropertyOp5
 70
     1
102
RTVSPropertyOp6
 70
     1
102
RTVSPropertyOp7
 70
     1
102
RTVSPropertyOp8
 70
     1
102
RTVSPropertyOp9
 70
     1
102
RTVSPropertyOp10
 70
     1
102
RTVSPropertyOp11
 70
     1
102
RTVSPropertyOp12
 70
     1
102
RTVSPropertyOp13
 70
     1
102
RTVSPropertyOp14
 70
     1
102
RTVSPropertyOp15
 70
     1
102
RTVSPropertyOp16
 70
     1
102
RTVSPropertyOp17
 70
     1
102
RTVSPropertyOp18
 70
     1
102
RTVSPropertyOp19
 70
     1
102
RTVSPropertyOp20
 70
     1
102
RTVSPropertyOp21
 70
     1
102
RTVSPropertyOp22
 70
     1
102
RTVSPropertyOp23
 70
     1
102
RTVSPropertyOp24
 70
     1
102
RTVSPropertyOp25
 70
     1
102
RTVSPropertyOp26
 70
     1
102
RTVSPropertyOp27
 70
     1
102
RTVSPropertyOp28
 70
     1
102
RTVSPropertyOp29
 70
     1
102
RTVSPropertyOp30
 70
     1
102
RTVSPropertyOp31
 70
     1
102
RTVSPropertyOp32
 70
     1
102
RTVSPropertyOp33
 70
     1
102
RTVSPropertyOp34
 70
     1
102
RTVSPropertyOp35
 70
     1
102
RTVSPropertyOp36
 70
     1
102
RTVSPropertyOp37
 70
     1
102
RTVSPropertyOp38
 70
     1
102
RTVSPropertyOp39
 70
     1
102
RTVSPropertyOp40
 70
     1
102
RTVSPropertyOp41
 70
     1
102
RTVSPropertyOp42
 70
     1
102
RTVSPropertyOp43
 70
     1
102
RTVSPropertyOp44
 70
     1
102
RTVSPropertyOp45
 70
     1
102
RTVSPropertyOp46
 70
     1
102
RTVSPropertyOp47
 70
     1
102
RTVSPropertyOp48
 70
     1
102
RTVSPropertyOp49
 70
     1
102
RTVSPropertyOp50
 70
     1
102
RTVSPropertyOp51
 70
     0
102
RTVSPropertyOp52
 70
     0
102
RTVSPropertyOp53
 70
     1
102
RTVSPropertyOp54
 70
     1
102
RTVSPropertyOp55
 70
     1
102
RTVSPropertyOp56
 70
     1
102
RTVSPropertyOp57
 70
     1
102
RTVSPropertyOp58
 70
     1
102
RTVSPropertyOp59
 70
     1
102
RTVSPropertyOp60
 70
     1
102
RTVSPropertyOp61
 70
     1
102
RTVSPropertyOp62
 70
     1
  0
XRECORD
  5
28E2
102
{ACAD_REACTORS
330
28E1
102
}
330
28E1
100
AcDbXrecord
280
     1
102
RTVSPost2010Prop28
280
     0
102
RTVSPost2010PropOp28
 70
     1
102
RTVSPost2010Prop29
280
     1
102
RTVSPost2010PropOp29
 70
     1
102
RTVSPost2010Prop30
280
     1
102
RTVSPost2010PropOp30
 70
     1
102
RTVSPost2010Prop31
280
     0
102
RTVSPost2010PropOp31
 70
     1
102
RTVSPost2010Prop32
280
     0
102
RTVSPost2010PropOp32
 70
     1
102
RTVSPost2010Prop33
280
     0
102
RTVSPost2010PropOp33
 70
     1
102
RTVSPost2010Prop34
280
     0
102
RTVSPost2010PropOp34
 70
     1
102
RTVSPost2010Prop35
280
     0
102
RTVSPost2010PropOp35
 70
     1
102
RTVSPost2010Prop36
280
     0
102
RTVSPost2010PropOp36
 70
     1
102
RTVSPost2010Prop37
 90
       50
102
RTVSPost2010PropOp37
 70
     1
102
RTVSPost2010Prop38
140
0.0
102
RTVSPost2010PropOp38
 70
     1
102
RTVSPost2010Prop39
140
1.0
102
RTVSPost2010PropOp39
 70
     1
102
RTVSPost2010Prop40
 90
        0
102
RTVSPost2010PropOp40
 70
     1
102
RTVSPost2010Prop41ColorIndex
 90
       18
102
RTVSPost2010Prop41ColorRGB
 90
        0
102
RTVSPost2010PropOp41
 70
     1
102
RTVSPost2010Prop42
 90
       50
102
RTVSPost2010PropOp42
 70
     1
102
RTVSPost2010Prop43
 90
        3
102
RTVSPost2010PropOp43
 70
     1
102
RTVSPost2010Prop44ColorIndex
 90
        5
102
RTVSPost2010Prop44ColorRGB
 90
      255
102
RTVSPost2010PropOp44
 70
     1
102
RTVSPost2010Prop45
280
     0
102
RTVSPost2010PropOp45
 70
     1
102
RTVSPost2010Prop46
 90
       50
102
RTVSPost2010PropOp46
 70
     1
102
RTVSPost2010Prop47
 90
       50
102
RTVSPost2010PropOp47
 70
     1
102
RTVSPost2010Prop48
 90
       50
102
RTVSPost2010PropOp48
 70
     1
102
RTVSPost2010Prop49
280
     0
102
RTVSPost2010PropOp49
 70
     1
102
RTVSPost2010Prop50
 90
       50
102
RTVSPost2010PropOp50
 70
     1
102
RTVSPost2010Prop51ColorIndex
 90
      256
102
RTVSPost2010Prop51ColorRGB
 90
-16777216
102
RTVSPost2010PropOp51
 70
     0
102
RTVSPost2010Prop52
140
1.0
102
RTVSPost2010PropOp52
 70
     0
102
RTVSPost2010Prop53
 90
        2
102
RTVSPost2010PropOp53
 70
     1
102
RTVSPost2010Prop54
  1
strokes_ogs.tif
102
RTVSPost2010PropOp54
 70
     1
102
RTVSPost2010Prop55
280
     0
102
RTVSPost2010PropOp55
 70
     1
102
RTVSPost2010Prop56
140
1.0
102
RTVSPost2010PropOp56
 70
     1
102
RTVSPost2010Prop57
140
1.0
102
RTVSPost2010PropOp57
 70
     1
102
RTVSPropertyOp0
 70
     1
102
RTVSPropertyOp1
 70
     1
102
RTVSPropertyOp2
 70
     1
102
RTVSPropertyOp3
 70
     1
102
RTVSPropertyOp4
 70
     1
102
RTVSPropertyOp5
 70
     1
102
RTVSPropertyOp6
 70
     1
102
RTVSPropertyOp7
 70
     1
102
RTVSPropertyOp8
 70
     1
102
RTVSPropertyOp9
 70
     1
102
RTVSPropertyOp10
 70
     1
102
RTVSPropertyOp11
 70
     1
102
RTVSPropertyOp12
 70
     1
102
RTVSPropertyOp13
 70
     1
102
RTVSPropertyOp14
 70
     1
102
RTVSPropertyOp15
 70
     1
102
RTVSPropertyOp16
 70
     1
102
RTVSPropertyOp17
 70
     1
102
RTVSPropertyOp18
 70
     1
102
RTVSPropertyOp19
 70
     1
102
RTVSPropertyOp20
 70
     1
102
RTVSPropertyOp21
 70
     1
102
RTVSPropertyOp22
 70
     1
102
RTVSPropertyOp23
 70
     1
102
RTVSPropertyOp24
 70
     1
102
RTVSPropertyOp25
 70
     1
102
RTVSPropertyOp26
 70
     1
102
RTVSPropertyOp27
 70
     1
102
RTVSPropertyOp28
 70
     1
102
RTVSPropertyOp29
 70
     1
102
RTVSPropertyOp30
 70
     1
102
RTVSPropertyOp31
 70
     1
102
RTVSPropertyOp32
 70
     1
102
RTVSPropertyOp33
 70
     1
102
RTVSPropertyOp34
 70
     1
102
RTVSPropertyOp35
 70
     1
102
RTVSPropertyOp36
 70
     1
102
RTVSPropertyOp37
 70
     1
102
RTVSPropertyOp38
 70
     1
102
RTVSPropertyOp39
 70
     1
102
RTVSPropertyOp40
 70
     1
102
RTVSPropertyOp41
 70
     1
102
RTVSPropertyOp42
 70
     1
102
RTVSPropertyOp43
 70
     1
102
RTVSPropertyOp44
 70
     1
102
RTVSPropertyOp45
 70
     1
102
RTVSPropertyOp46
 70
     1
102
RTVSPropertyOp47
 70
     1
102
RTVSPropertyOp48
 70
     1
102
RTVSPropertyOp49
 70
     1
102
RTVSPropertyOp50
 70
     1
102
RTVSPropertyOp51
 70
     0
102
RTVSPropertyOp52
 70
     0
102
RTVSPropertyOp53
 70
     1
102
RTVSPropertyOp54
 70
     1
102
RTVSPropertyOp55
 70
     1
102
RTVSPropertyOp56
 70
     1
102
RTVSPropertyOp57
 70
     1
102
RTVSPropertyOp58
 70
     1
102
RTVSPropertyOp59
 70
     1
102
RTVSPropertyOp60
 70
     1
102
RTVSPropertyOp61
 70
     1
102
RTVSPropertyOp62
 70
     1
  0
XRECORD
  5
28F0
102
{ACAD_REACTORS
330
28EF
102
}
330
28EF
100
AcDbXrecord
280
     1
102
RTVSPost2010Prop28
280
     0
102
RTVSPost2010PropOp28
 70
     1
102
RTVSPost2010Prop29
280
     1
102
RTVSPost2010PropOp29
 70
     1
102
RTVSPost2010Prop30
280
     1
102
RTVSPost2010PropOp30
 70
     1
102
RTVSPost2010Prop31
280
     0
102
RTVSPost2010PropOp31
 70
     1
102
RTVSPost2010Prop32
280
     0
102
RTVSPost2010PropOp32
 70
     1
102
RTVSPost2010Prop33
280
     0
102
RTVSPost2010PropOp33
 70
     1
102
RTVSPost2010Prop34
280
     0
102
RTVSPost2010PropOp34
 70
     1
102
RTVSPost2010Prop35
280
     0
102
RTVSPost2010PropOp35
 70
     1
102
RTVSPost2010Prop36
280
     0
102
RTVSPost2010PropOp36
 70
     1
102
RTVSPost2010Prop37
 90
       50
102
RTVSPost2010PropOp37
 70
     1
102
RTVSPost2010Prop38
140
0.0
102
RTVSPost2010PropOp38
 70
     1
102
RTVSPost2010Prop39
140
1.0
102
RTVSPost2010PropOp39
 70
     1
102
RTVSPost2010Prop40
 90
        0
102
RTVSPost2010PropOp40
 70
     1
102
RTVSPost2010Prop41ColorIndex
 90
       18
102
RTVSPost2010Prop41ColorRGB
 90
        0
102
RTVSPost2010PropOp41
 70
     1
102
RTVSPost2010Prop42
 90
       50
102
RTVSPost2010PropOp42
 70
     1
102
RTVSPost2010Prop43
 90
        3
102
RTVSPost2010PropOp43
 70
     1
102
RTVSPost2010Prop44ColorIndex
 90
        5
102
RTVSPost2010Prop44ColorRGB
 90
      255
102
RTVSPost2010PropOp44
 70
     1
102
RTVSPost2010Prop45
280
     0
102
RTVSPost2010PropOp45
 70
     1
102
RTVSPost2010Prop46
 90
       50
102
RTVSPost2010PropOp46
 70
     1
102
RTVSPost2010Prop47
 90
       50
102
RTVSPost2010PropOp47
 70
     1
102
RTVSPost2010Prop48
 90
       50
102
RTVSPost2010PropOp48
 70
     1
102
RTVSPost2010Prop49
280
     0
102
RTVSPost2010PropOp49
 70
     1
102
RTVSPost2010Prop50
 90
       50
102
RTVSPost2010PropOp50
 70
     1
102
RTVSPost2010Prop51ColorIndex
 90
      256
102
RTVSPost2010Prop51ColorRGB
 90
-16777216
102
RTVSPost2010PropOp51
 70
     0
102
RTVSPost2010Prop52
140
1.0
102
RTVSPost2010PropOp52
 70
     0
102
RTVSPost2010Prop53
 90
        2
102
RTVSPost2010PropOp53
 70
     1
102
RTVSPost2010Prop54
  1
strokes_ogs.tif
102
RTVSPost2010PropOp54
 70
     1
102
RTVSPost2010Prop55
280
     0
102
RTVSPost2010PropOp55
 70
     1
102
RTVSPost2010Prop56
140
1.0
102
RTVSPost2010PropOp56
 70
     1
102
RTVSPost2010Prop57
140
1.0
102
RTVSPost2010PropOp57
 70
     1
102
RTVSPropertyOp0
 70
     1
102
RTVSPropertyOp1
 70
     1
102
RTVSPropertyOp2
 70
     1
102
RTVSPropertyOp3
 70
     1
102
RTVSPropertyOp4
 70
     1
102
RTVSPropertyOp5
 70
     1
102
RTVSPropertyOp6
 70
     1
102
RTVSPropertyOp7
 70
     1
102
RTVSPropertyOp8
 70
     1
102
RTVSPropertyOp9
 70
     1
102
RTVSPropertyOp10
 70
     1
102
RTVSPropertyOp11
 70
     1
102
RTVSPropertyOp12
 70
     1
102
RTVSPropertyOp13
 70
     1
102
RTVSPropertyOp14
 70
     1
102
RTVSPropertyOp15
 70
     1
102
RTVSPropertyOp16
 70
     1
102
RTVSPropertyOp17
 70
     1
102
RTVSPropertyOp18
 70
     1
102
RTVSPropertyOp19
 70
     1
102
RTVSPropertyOp20
 70
     1
102
RTVSPropertyOp21
 70
     1
102
RTVSPropertyOp22
 70
     1
102
RTVSPropertyOp23
 70
     1
102
RTVSPropertyOp24
 70
     1
102
RTVSPropertyOp25
 70
     1
102
RTVSPropertyOp26
 70
     1
102
RTVSPropertyOp27
 70
     1
102
RTVSPropertyOp28
 70
     1
102
RTVSPropertyOp29
 70
     1
102
RTVSPropertyOp30
 70
     1
102
RTVSPropertyOp31
 70
     1
102
RTVSPropertyOp32
 70
     1
102
RTVSPropertyOp33
 70
     1
102
RTVSPropertyOp34
 70
     1
102
RTVSPropertyOp35
 70
     1
102
RTVSPropertyOp36
 70
     1
102
RTVSPropertyOp37
 70
     1
102
RTVSPropertyOp38
 70
     1
102
RTVSPropertyOp39
 70
     1
102
RTVSPropertyOp40
 70
     1
102
RTVSPropertyOp41
 70
     1
102
RTVSPropertyOp42
 70
     1
102
RTVSPropertyOp43
 70
     1
102
RTVSPropertyOp44
 70
     1
102
RTVSPropertyOp45
 70
     1
102
RTVSPropertyOp46
 70
     1
102
RTVSPropertyOp47
 70
     1
102
RTVSPropertyOp48
 70
     1
102
RTVSPropertyOp49
 70
     1
102
RTVSPropertyOp50
 70
     1
102
RTVSPropertyOp51
 70
     0
102
RTVSPropertyOp52
 70
     0
102
RTVSPropertyOp53
 70
     1
102
RTVSPropertyOp54
 70
     1
102
RTVSPropertyOp55
 70
     1
102
RTVSPropertyOp56
 70
     1
102
RTVSPropertyOp57
 70
     1
102
RTVSPropertyOp58
 70
     1
102
RTVSPropertyOp59
 70
     1
102
RTVSPropertyOp60
 70
     1
102
RTVSPropertyOp61
 70
     1
102
RTVSPropertyOp62
 70
     1
  0
XRECORD
  5
28F8
102
{ACAD_REACTORS
330
28F7
102
}
330
28F7
100
AcDbXrecord
280
     1
102
RTVSPost2010Prop28
280
     0
102
RTVSPost2010PropOp28
 70
     1
102
RTVSPost2010Prop29
280
     1
102
RTVSPost2010PropOp29
 70
     1
102
RTVSPost2010Prop30
280
     1
102
RTVSPost2010PropOp30
 70
     1
102
RTVSPost2010Prop31
280
     0
102
RTVSPost2010PropOp31
 70
     1
102
RTVSPost2010Prop32
280
     0
102
RTVSPost2010PropOp32
 70
     1
102
RTVSPost2010Prop33
280
     0
102
RTVSPost2010PropOp33
 70
     1
102
RTVSPost2010Prop34
280
     0
102
RTVSPost2010PropOp34
 70
     1
102
RTVSPost2010Prop35
280
     0
102
RTVSPost2010PropOp35
 70
     1
102
RTVSPost2010Prop36
280
     0
102
RTVSPost2010PropOp36
 70
     1
102
RTVSPost2010Prop37
 90
       50
102
RTVSPost2010PropOp37
 70
     1
102
RTVSPost2010Prop38
140
0.0
102
RTVSPost2010PropOp38
 70
     1
102
RTVSPost2010Prop39
140
1.0
102
RTVSPost2010PropOp39
 70
     1
102
RTVSPost2010Prop40
 90
        0
102
RTVSPost2010PropOp40
 70
     1
102
RTVSPost2010Prop41ColorIndex
 90
       18
102
RTVSPost2010Prop41ColorRGB
 90
        0
102
RTVSPost2010PropOp41
 70
     1
102
RTVSPost2010Prop42
 90
       50
102
RTVSPost2010PropOp42
 70
     1
102
RTVSPost2010Prop43
 90
        3
102
RTVSPost2010PropOp43
 70
     1
102
RTVSPost2010Prop44ColorIndex
 90
        5
102
RTVSPost2010Prop44ColorRGB
 90
      255
102
RTVSPost2010PropOp44
 70
     1
102
RTVSPost2010Prop45
280
     0
102
RTVSPost2010PropOp45
 70
     1
102
RTVSPost2010Prop46
 90
       50
102
RTVSPost2010PropOp46
 70
     1
102
RTVSPost2010Prop47
 90
       50
102
RTVSPost2010PropOp47
 70
     1
102
RTVSPost2010Prop48
 90
       50
102
RTVSPost2010PropOp48
 70
     1
102
RTVSPost2010Prop49
280
     0
102
RTVSPost2010PropOp49
 70
     1
102
RTVSPost2010Prop50
 90
       50
102
RTVSPost2010PropOp50
 70
     1
102
RTVSPost2010Prop51ColorIndex
 90
      256
102
RTVSPost2010Prop51ColorRGB
 90
-16777216
102
RTVSPost2010PropOp51
 70
     0
102
RTVSPost2010Prop52
140
1.0
102
RTVSPost2010PropOp52
 70
     0
102
RTVSPost2010Prop53
 90
        2
102
RTVSPost2010PropOp53
 70
     1
102
RTVSPost2010Prop54
  1
strokes_ogs.tif
102
RTVSPost2010PropOp54
 70
     1
102
RTVSPost2010Prop55
280
     0
102
RTVSPost2010PropOp55
 70
     1
102
RTVSPost2010Prop56
140
1.0
102
RTVSPost2010PropOp56
 70
     1
102
RTVSPost2010Prop57
140
1.0
102
RTVSPost2010PropOp57
 70
     1
102
RTVSPropertyOp0
 70
     1
102
RTVSPropertyOp1
 70
     1
102
RTVSPropertyOp2
 70
     1
102
RTVSPropertyOp3
 70
     1
102
RTVSPropertyOp4
 70
     1
102
RTVSPropertyOp5
 70
     1
102
RTVSPropertyOp6
 70
     1
102
RTVSPropertyOp7
 70
     1
102
RTVSPropertyOp8
 70
     1
102
RTVSPropertyOp9
 70
     1
102
RTVSPropertyOp10
 70
     1
102
RTVSPropertyOp11
 70
     1
102
RTVSPropertyOp12
 70
     1
102
RTVSPropertyOp13
 70
     1
102
RTVSPropertyOp14
 70
     1
102
RTVSPropertyOp15
 70
     1
102
RTVSPropertyOp16
 70
     1
102
RTVSPropertyOp17
 70
     1
102
RTVSPropertyOp18
 70
     1
102
RTVSPropertyOp19
 70
     1
102
RTVSPropertyOp20
 70
     1
102
RTVSPropertyOp21
 70
     1
102
RTVSPropertyOp22
 70
     1
102
RTVSPropertyOp23
 70
     1
102
RTVSPropertyOp24
 70
     1
102
RTVSPropertyOp25
 70
     1
102
RTVSPropertyOp26
 70
     1
102
RTVSPropertyOp27
 70
     1
102
RTVSPropertyOp28
 70
     1
102
RTVSPropertyOp29
 70
     1
102
RTVSPropertyOp30
 70
     1
102
RTVSPropertyOp31
 70
     1
102
RTVSPropertyOp32
 70
     1
102
RTVSPropertyOp33
 70
     1
102
RTVSPropertyOp34
 70
     1
102
RTVSPropertyOp35
 70
     1
102
RTVSPropertyOp36
 70
     1
102
RTVSPropertyOp37
 70
     1
102
RTVSPropertyOp38
 70
     1
102
RTVSPropertyOp39
 70
     1
102
RTVSPropertyOp40
 70
     1
102
RTVSPropertyOp41
 70
     1
102
RTVSPropertyOp42
 70
     1
102
RTVSPropertyOp43
 70
     1
102
RTVSPropertyOp44
 70
     1
102
RTVSPropertyOp45
 70
     1
102
RTVSPropertyOp46
 70
     1
102
RTVSPropertyOp47
 70
     1
102
RTVSPropertyOp48
 70
     1
102
RTVSPropertyOp49
 70
     1
102
RTVSPropertyOp50
 70
     1
102
RTVSPropertyOp51
 70
     0
102
RTVSPropertyOp52
 70
     0
102
RTVSPropertyOp53
 70
     1
102
RTVSPropertyOp54
 70
     1
102
RTVSPropertyOp55
 70
     1
102
RTVSPropertyOp56
 70
     1
102
RTVSPropertyOp57
 70
     1
102
RTVSPropertyOp58
 70
     1
102
RTVSPropertyOp59
 70
     1
102
RTVSPropertyOp60
 70
     1
102
RTVSPropertyOp61
 70
     1
102
RTVSPropertyOp62
 70
     1
  0
XRECORD
  5
28EA
102
{ACAD_REACTORS
330
28E9
102
}
330
28E9
100
AcDbXrecord
280
     1
102
RTVSPost2010Prop28
280
     0
102
RTVSPost2010PropOp28
 70
     1
102
RTVSPost2010Prop29
280
     1
102
RTVSPost2010PropOp29
 70
     1
102
RTVSPost2010Prop30
280
     1
102
RTVSPost2010PropOp30
 70
     1
102
RTVSPost2010Prop31
280
     0
102
RTVSPost2010PropOp31
 70
     1
102
RTVSPost2010Prop32
280
     0
102
RTVSPost2010PropOp32
 70
     1
102
RTVSPost2010Prop33
280
     0
102
RTVSPost2010PropOp33
 70
     1
102
RTVSPost2010Prop34
280
     0
102
RTVSPost2010PropOp34
 70
     1
102
RTVSPost2010Prop35
280
     0
102
RTVSPost2010PropOp35
 70
     1
102
RTVSPost2010Prop36
280
     0
102
RTVSPost2010PropOp36
 70
     1
102
RTVSPost2010Prop37
 90
       50
102
RTVSPost2010PropOp37
 70
     1
102
RTVSPost2010Prop38
140
0.0
102
RTVSPost2010PropOp38
 70
     1
102
RTVSPost2010Prop39
140
1.0
102
RTVSPost2010PropOp39
 70
     1
102
RTVSPost2010Prop40
 90
        0
102
RTVSPost2010PropOp40
 70
     1
102
RTVSPost2010Prop41ColorIndex
 90
       18
102
RTVSPost2010Prop41ColorRGB
 90
        0
102
RTVSPost2010PropOp41
 70
     1
102
RTVSPost2010Prop42
 90
       50
102
RTVSPost2010PropOp42
 70
     1
102
RTVSPost2010Prop43
 90
        3
102
RTVSPost2010PropOp43
 70
     1
102
RTVSPost2010Prop44ColorIndex
 90
        5
102
RTVSPost2010Prop44ColorRGB
 90
      255
102
RTVSPost2010PropOp44
 70
     1
102
RTVSPost2010Prop45
280
     0
102
RTVSPost2010PropOp45
 70
     1
102
RTVSPost2010Prop46
 90
       50
102
RTVSPost2010PropOp46
 70
     1
102
RTVSPost2010Prop47
 90
       50
102
RTVSPost2010PropOp47
 70
     1
102
RTVSPost2010Prop48
 90
       50
102
RTVSPost2010PropOp48
 70
     1
102
RTVSPost2010Prop49
280
     0
102
RTVSPost2010PropOp49
 70
     1
102
RTVSPost2010Prop50
 90
       50
102
RTVSPost2010PropOp50
 70
     1
102
RTVSPost2010Prop51ColorIndex
 90
      256
102
RTVSPost2010Prop51ColorRGB
 90
-16777216
102
RTVSPost2010PropOp51
 70
     0
102
RTVSPost2010Prop52
140
1.0
102
RTVSPost2010PropOp52
 70
     0
102
RTVSPost2010Prop53
 90
        2
102
RTVSPost2010PropOp53
 70
     1
102
RTVSPost2010Prop54
  1
strokes_ogs.tif
102
RTVSPost2010PropOp54
 70
     1
102
RTVSPost2010Prop55
280
     0
102
RTVSPost2010PropOp55
 70
     1
102
RTVSPost2010Prop56
140
1.0
102
RTVSPost2010PropOp56
 70
     1
102
RTVSPost2010Prop57
140
1.0
102
RTVSPost2010PropOp57
 70
     1
102
RTVSPropertyOp0
 70
     1
102
RTVSPropertyOp1
 70
     1
102
RTVSPropertyOp2
 70
     1
102
RTVSPropertyOp3
 70
     1
102
RTVSPropertyOp4
 70
     1
102
RTVSPropertyOp5
 70
     1
102
RTVSPropertyOp6
 70
     1
102
RTVSPropertyOp7
 70
     1
102
RTVSPropertyOp8
 70
     1
102
RTVSPropertyOp9
 70
     1
102
RTVSPropertyOp10
 70
     1
102
RTVSPropertyOp11
 70
     1
102
RTVSPropertyOp12
 70
     1
102
RTVSPropertyOp13
 70
     1
102
RTVSPropertyOp14
 70
     1
102
RTVSPropertyOp15
 70
     1
102
RTVSPropertyOp16
 70
     1
102
RTVSPropertyOp17
 70
     1
102
RTVSPropertyOp18
 70
     1
102
RTVSPropertyOp19
 70
     1
102
RTVSPropertyOp20
 70
     1
102
RTVSPropertyOp21
 70
     1
102
RTVSPropertyOp22
 70
     1
102
RTVSPropertyOp23
 70
     1
102
RTVSPropertyOp24
 70
     1
102
RTVSPropertyOp25
 70
     1
102
RTVSPropertyOp26
 70
     1
102
RTVSPropertyOp27
 70
     1
102
RTVSPropertyOp28
 70
     1
102
RTVSPropertyOp29
 70
     1
102
RTVSPropertyOp30
 70
     1
102
RTVSPropertyOp31
 70
     1
102
RTVSPropertyOp32
 70
     1
102
RTVSPropertyOp33
 70
     1
102
RTVSPropertyOp34
 70
     1
102
RTVSPropertyOp35
 70
     1
102
RTVSPropertyOp36
 70
     1
102
RTVSPropertyOp37
 70
     1
102
RTVSPropertyOp38
 70
     1
102
RTVSPropertyOp39
 70
     1
102
RTVSPropertyOp40
 70
     1
102
RTVSPropertyOp41
 70
     1
102
RTVSPropertyOp42
 70
     1
102
RTVSPropertyOp43
 70
     1
102
RTVSPropertyOp44
 70
     1
102
RTVSPropertyOp45
 70
     1
102
RTVSPropertyOp46
 70
     1
102
RTVSPropertyOp47
 70
     1
102
RTVSPropertyOp48
 70
     1
102
RTVSPropertyOp49
 70
     1
102
RTVSPropertyOp50
 70
     1
102
RTVSPropertyOp51
 70
     0
102
RTVSPropertyOp52
 70
     0
102
RTVSPropertyOp53
 70
     1
102
RTVSPropertyOp54
 70
     1
102
RTVSPropertyOp55
 70
     1
102
RTVSPropertyOp56
 70
     1
102
RTVSPropertyOp57
 70
     1
102
RTVSPropertyOp58
 70
     1
102
RTVSPropertyOp59
 70
     1
102
RTVSPropertyOp60
 70
     1
102
RTVSPropertyOp61
 70
     1
102
RTVSPropertyOp62
 70
     1
  0
XRECORD
  5
28EE
102
{ACAD_REACTORS
330
28ED
102
}
330
28ED
100
AcDbXrecord
280
     1
102
RTVSPost2010Prop28
280
     0
102
RTVSPost2010PropOp28
 70
     1
102
RTVSPost2010Prop29
280
     1
102
RTVSPost2010PropOp29
 70
     1
102
RTVSPost2010Prop30
280
     1
102
RTVSPost2010PropOp30
 70
     1
102
RTVSPost2010Prop31
280
     0
102
RTVSPost2010PropOp31
 70
     1
102
RTVSPost2010Prop32
280
     0
102
RTVSPost2010PropOp32
 70
     1
102
RTVSPost2010Prop33
280
     0
102
RTVSPost2010PropOp33
 70
     1
102
RTVSPost2010Prop34
280
     0
102
RTVSPost2010PropOp34
 70
     1
102
RTVSPost2010Prop35
280
     0
102
RTVSPost2010PropOp35
 70
     1
102
RTVSPost2010Prop36
280
     0
102
RTVSPost2010PropOp36
 70
     1
102
RTVSPost2010Prop37
 90
       50
102
RTVSPost2010PropOp37
 70
     1
102
RTVSPost2010Prop38
140
0.0
102
RTVSPost2010PropOp38
 70
     1
102
RTVSPost2010Prop39
140
1.0
102
RTVSPost2010PropOp39
 70
     1
102
RTVSPost2010Prop40
 90
        0
102
RTVSPost2010PropOp40
 70
     1
102
RTVSPost2010Prop41ColorIndex
 90
       18
102
RTVSPost2010Prop41ColorRGB
 90
        0
102
RTVSPost2010PropOp41
 70
     1
102
RTVSPost2010Prop42
 90
       50
102
RTVSPost2010PropOp42
 70
     1
102
RTVSPost2010Prop43
 90
        3
102
RTVSPost2010PropOp43
 70
     1
102
RTVSPost2010Prop44ColorIndex
 90
        5
102
RTVSPost2010Prop44ColorRGB
 90
      255
102
RTVSPost2010PropOp44
 70
     1
102
RTVSPost2010Prop45
280
     0
102
RTVSPost2010PropOp45
 70
     1
102
RTVSPost2010Prop46
 90
       50
102
RTVSPost2010PropOp46
 70
     1
102
RTVSPost2010Prop47
 90
       50
102
RTVSPost2010PropOp47
 70
     1
102
RTVSPost2010Prop48
 90
       50
102
RTVSPost2010PropOp48
 70
     1
102
RTVSPost2010Prop49
280
     0
102
RTVSPost2010PropOp49
 70
     1
102
RTVSPost2010Prop50
 90
       50
102
RTVSPost2010PropOp50
 70
     1
102
RTVSPost2010Prop51ColorIndex
 90
      256
102
RTVSPost2010Prop51ColorRGB
 90
-16777216
102
RTVSPost2010PropOp51
 70
     0
102
RTVSPost2010Prop52
140
1.0
102
RTVSPost2010PropOp52
 70
     0
102
RTVSPost2010Prop53
 90
        2
102
RTVSPost2010PropOp53
 70
     1
102
RTVSPost2010Prop54
  1
strokes_ogs.tif
102
RTVSPost2010PropOp54
 70
     1
102
RTVSPost2010Prop55
280
     0
102
RTVSPost2010PropOp55
 70
     1
102
RTVSPost2010Prop56
140
1.0
102
RTVSPost2010PropOp56
 70
     1
102
RTVSPost2010Prop57
140
1.0
102
RTVSPost2010PropOp57
 70
     1
102
RTVSPropertyOp0
 70
     1
102
RTVSPropertyOp1
 70
     1
102
RTVSPropertyOp2
 70
     1
102
RTVSPropertyOp3
 70
     1
102
RTVSPropertyOp4
 70
     1
102
RTVSPropertyOp5
 70
     1
102
RTVSPropertyOp6
 70
     1
102
RTVSPropertyOp7
 70
     1
102
RTVSPropertyOp8
 70
     1
102
RTVSPropertyOp9
 70
     1
102
RTVSPropertyOp10
 70
     1
102
RTVSPropertyOp11
 70
     1
102
RTVSPropertyOp12
 70
     1
102
RTVSPropertyOp13
 70
     1
102
RTVSPropertyOp14
 70
     1
102
RTVSPropertyOp15
 70
     1
102
RTVSPropertyOp16
 70
     1
102
RTVSPropertyOp17
 70
     1
102
RTVSPropertyOp18
 70
     1
102
RTVSPropertyOp19
 70
     1
102
RTVSPropertyOp20
 70
     1
102
RTVSPropertyOp21
 70
     1
102
RTVSPropertyOp22
 70
     1
102
RTVSPropertyOp23
 70
     1
102
RTVSPropertyOp24
 70
     1
102
RTVSPropertyOp25
 70
     1
102
RTVSPropertyOp26
 70
     1
102
RTVSPropertyOp27
 70
     1
102
RTVSPropertyOp28
 70
     1
102
RTVSPropertyOp29
 70
     1
102
RTVSPropertyOp30
 70
     1
102
RTVSPropertyOp31
 70
     1
102
RTVSPropertyOp32
 70
     1
102
RTVSPropertyOp33
 70
     1
102
RTVSPropertyOp34
 70
     1
102
RTVSPropertyOp35
 70
     1
102
RTVSPropertyOp36
 70
     1
102
RTVSPropertyOp37
 70
     1
102
RTVSPropertyOp38
 70
     1
102
RTVSPropertyOp39
 70
     1
102
RTVSPropertyOp40
 70
     1
102
RTVSPropertyOp41
 70
     1
102
RTVSPropertyOp42
 70
     1
102
RTVSPropertyOp43
 70
     1
102
RTVSPropertyOp44
 70
     1
102
RTVSPropertyOp45
 70
     1
102
RTVSPropertyOp46
 70
     1
102
RTVSPropertyOp47
 70
     1
102
RTVSPropertyOp48
 70
     1
102
RTVSPropertyOp49
 70
     1
102
RTVSPropertyOp50
 70
     1
102
RTVSPropertyOp51
 70
     0
102
RTVSPropertyOp52
 70
     0
102
RTVSPropertyOp53
 70
     1
102
RTVSPropertyOp54
 70
     1
102
RTVSPropertyOp55
 70
     1
102
RTVSPropertyOp56
 70
     1
102
RTVSPropertyOp57
 70
     1
102
RTVSPropertyOp58
 70
     1
102
RTVSPropertyOp59
 70
     1
102
RTVSPropertyOp60
 70
     1
102
RTVSPropertyOp61
 70
     1
102
RTVSPropertyOp62
 70
     1
  0
XRECORD
  5
2908
102
{ACAD_REACTORS
330
2907
102
}
330
2907
100
AcDbXrecord
280
     1
102
RTVSPost2010Prop28
280
     0
102
RTVSPost2010PropOp28
 70
     1
102
RTVSPost2010Prop29
280
     1
102
RTVSPost2010PropOp29
 70
     1
102
RTVSPost2010Prop30
280
     1
102
RTVSPost2010PropOp30
 70
     1
102
RTVSPost2010Prop31
280
     0
102
RTVSPost2010PropOp31
 70
     1
102
RTVSPost2010Prop32
280
     0
102
RTVSPost2010PropOp32
 70
     1
102
RTVSPost2010Prop33
280
     0
102
RTVSPost2010PropOp33
 70
     1
102
RTVSPost2010Prop34
280
     0
102
RTVSPost2010PropOp34
 70
     1
102
RTVSPost2010Prop35
280
     0
102
RTVSPost2010PropOp35
 70
     1
102
RTVSPost2010Prop36
280
     0
102
RTVSPost2010PropOp36
 70
     1
102
RTVSPost2010Prop37
 90
       50
102
RTVSPost2010PropOp37
 70
     0
102
RTVSPost2010Prop38
140
0.0
102
RTVSPost2010PropOp38
 70
     0
102
RTVSPost2010Prop39
140
1.0
102
RTVSPost2010PropOp39
 70
     0
102
RTVSPost2010Prop40
 90
        0
102
RTVSPost2010PropOp40
 70
     0
102
RTVSPost2010Prop41ColorIndex
 90
       18
102
RTVSPost2010Prop41ColorRGB
 90
        0
102
RTVSPost2010PropOp41
 70
     0
102
RTVSPost2010Prop42
 90
       50
102
RTVSPost2010PropOp42
 70
     0
102
RTVSPost2010Prop43
 90
        3
102
RTVSPost2010PropOp43
 70
     0
102
RTVSPost2010Prop44ColorIndex
 90
        5
102
RTVSPost2010Prop44ColorRGB
 90
      255
102
RTVSPost2010PropOp44
 70
     0
102
RTVSPost2010Prop45
280
     0
102
RTVSPost2010PropOp45
 70
     1
102
RTVSPost2010Prop46
 90
       50
102
RTVSPost2010PropOp46
 70
     0
102
RTVSPost2010Prop47
 90
       50
102
RTVSPost2010PropOp47
 70
     0
102
RTVSPost2010Prop48
 90
       50
102
RTVSPost2010PropOp48
 70
     0
102
RTVSPost2010Prop49
280
     0
102
RTVSPost2010PropOp49
 70
     1
102
RTVSPost2010Prop50
 90
       50
102
RTVSPost2010PropOp50
 70
     0
102
RTVSPost2010Prop51ColorIndex
 90
      256
102
RTVSPost2010Prop51ColorRGB
 90
-16777216
102
RTVSPost2010PropOp51
 70
     0
102
RTVSPost2010Prop52
140
1.0
102
RTVSPost2010PropOp52
 70
     0
102
RTVSPost2010Prop53
 90
        2
102
RTVSPost2010PropOp53
 70
     0
102
RTVSPost2010Prop54
  1
strokes_ogs.tif
102
RTVSPost2010PropOp54
 70
     0
102
RTVSPost2010Prop55
280
     0
102
RTVSPost2010PropOp55
 70
     1
102
RTVSPost2010Prop56
140
1.0
102
RTVSPost2010PropOp56
 70
     0
102
RTVSPost2010Prop57
140
1.0
102
RTVSPost2010PropOp57
 70
     0
102
RTVSPropertyOp0
 70
     0
102
RTVSPropertyOp1
 70
     0
102
RTVSPropertyOp2
 70
     0
102
RTVSPropertyOp3
 70
     0
102
RTVSPropertyOp4
 70
     0
102
RTVSPropertyOp5
 70
     0
102
RTVSPropertyOp6
 70
     0
102
RTVSPropertyOp7
 70
     0
102
RTVSPropertyOp8
 70
     0
102
RTVSPropertyOp9
 70
     0
102
RTVSPropertyOp10
 70
     0
102
RTVSPropertyOp11
 70
     0
102
RTVSPropertyOp12
 70
     0
102
RTVSPropertyOp13
 70
     0
102
RTVSPropertyOp14
 70
     2
102
RTVSPropertyOp15
 70
     0
102
RTVSPropertyOp16
 70
     0
102
RTVSPropertyOp17
 70
     0
102
RTVSPropertyOp18
 70
     0
102
RTVSPropertyOp19
 70
     0
102
RTVSPropertyOp20
 70
     0
102
RTVSPropertyOp21
 70
     0
102
RTVSPropertyOp22
 70
     0
102
RTVSPropertyOp23
 70
     0
102
RTVSPropertyOp24
 70
     0
102
RTVSPropertyOp25
 70
     0
102
RTVSPropertyOp26
 70
     0
102
RTVSPropertyOp27
 70
     0
102
RTVSPropertyOp28
 70
     1
102
RTVSPropertyOp29
 70
     1
102
RTVSPropertyOp30
 70
     1
102
RTVSPropertyOp31
 70
     1
102
RTVSPropertyOp32
 70
     1
102
RTVSPropertyOp33
 70
     1
102
RTVSPropertyOp34
 70
     1
102
RTVSPropertyOp35
 70
     1
102
RTVSPropertyOp36
 70
     1
102
RTVSPropertyOp37
 70
     0
102
RTVSPropertyOp38
 70
     0
102
RTVSPropertyOp39
 70
     0
102
RTVSPropertyOp40
 70
     0
102
RTVSPropertyOp41
 70
     0
102
RTVSPropertyOp42
 70
     0
102
RTVSPropertyOp43
 70
     0
102
RTVSPropertyOp44
 70
     0
102
RTVSPropertyOp45
 70
     1
102
RTVSPropertyOp46
 70
     0
102
RTVSPropertyOp47
 70
     0
102
RTVSPropertyOp48
 70
     0
102
RTVSPropertyOp49
 70
     1
102
RTVSPropertyOp50
 70
     0
102
RTVSPropertyOp51
 70
     0
102
RTVSPropertyOp52
 70
     0
102
RTVSPropertyOp53
 70
     0
102
RTVSPropertyOp54
 70
     0
102
RTVSPropertyOp55
 70
     1
102
RTVSPropertyOp56
 70
     0
102
RTVSPropertyOp57
 70
     0
102
RTVSPropertyOp58
 70
     0
102
RTVSPropertyOp59
 70
     0
102
RTVSPropertyOp60
 70
     0
102
RTVSPropertyOp61
 70
     0
102
RTVSPropertyOp62
 70
     0
  0
XRECORD
  5
28F6
102
{ACAD_REACTORS
330
28F5
102
}
330
28F5
100
AcDbXrecord
280
     1
102
RTVSPost2010Prop28
280
     0
102
RTVSPost2010PropOp28
 70
     1
102
RTVSPost2010Prop29
280
     1
102
RTVSPost2010PropOp29
 70
     1
102
RTVSPost2010Prop30
280
     1
102
RTVSPost2010PropOp30
 70
     1
102
RTVSPost2010Prop31
280
     0
102
RTVSPost2010PropOp31
 70
     1
102
RTVSPost2010Prop32
280
     0
102
RTVSPost2010PropOp32
 70
     1
102
RTVSPost2010Prop33
280
     0
102
RTVSPost2010PropOp33
 70
     1
102
RTVSPost2010Prop34
280
     0
102
RTVSPost2010PropOp34
 70
     1
102
RTVSPost2010Prop35
280
     0
102
RTVSPost2010PropOp35
 70
     1
102
RTVSPost2010Prop36
280
     0
102
RTVSPost2010PropOp36
 70
     1
102
RTVSPost2010Prop37
 90
       50
102
RTVSPost2010PropOp37
 70
     1
102
RTVSPost2010Prop38
140
0.0
102
RTVSPost2010PropOp38
 70
     1
102
RTVSPost2010Prop39
140
1.0
102
RTVSPost2010PropOp39
 70
     1
102
RTVSPost2010Prop40
 90
        0
102
RTVSPost2010PropOp40
 70
     1
102
RTVSPost2010Prop41ColorIndex
 90
       18
102
RTVSPost2010Prop41ColorRGB
 90
        0
102
RTVSPost2010PropOp41
 70
     1
102
RTVSPost2010Prop42
 90
       50
102
RTVSPost2010PropOp42
 70
     1
102
RTVSPost2010Prop43
 90
        3
102
RTVSPost2010PropOp43
 70
     1
102
RTVSPost2010Prop44ColorIndex
 90
        5
102
RTVSPost2010Prop44ColorRGB
 90
      255
102
RTVSPost2010PropOp44
 70
     1
102
RTVSPost2010Prop45
280
     0
102
RTVSPost2010PropOp45
 70
     1
102
RTVSPost2010Prop46
 90
       50
102
RTVSPost2010PropOp46
 70
     1
102
RTVSPost2010Prop47
 90
       50
102
RTVSPost2010PropOp47
 70
     1
102
RTVSPost2010Prop48
 90
       50
102
RTVSPost2010PropOp48
 70
     1
102
RTVSPost2010Prop49
280
     0
102
RTVSPost2010PropOp49
 70
     1
102
RTVSPost2010Prop50
 90
       50
102
RTVSPost2010PropOp50
 70
     1
102
RTVSPost2010Prop51ColorIndex
 90
      256
102
RTVSPost2010Prop51ColorRGB
 90
-16777216
102
RTVSPost2010PropOp51
 70
     0
102
RTVSPost2010Prop52
140
1.0
102
RTVSPost2010PropOp52
 70
     0
102
RTVSPost2010Prop53
 90
        2
102
RTVSPost2010PropOp53
 70
     1
102
RTVSPost2010Prop54
  1
strokes_ogs.tif
102
RTVSPost2010PropOp54
 70
     1
102
RTVSPost2010Prop55
280
     0
102
RTVSPost2010PropOp55
 70
     1
102
RTVSPost2010Prop56
140
1.0
102
RTVSPost2010PropOp56
 70
     1
102
RTVSPost2010Prop57
140
1.0
102
RTVSPost2010PropOp57
 70
     1
102
RTVSPropertyOp0
 70
     1
102
RTVSPropertyOp1
 70
     1
102
RTVSPropertyOp2
 70
     1
102
RTVSPropertyOp3
 70
     1
102
RTVSPropertyOp4
 70
     1
102
RTVSPropertyOp5
 70
     1
102
RTVSPropertyOp6
 70
     1
102
RTVSPropertyOp7
 70
     1
102
RTVSPropertyOp8
 70
     1
102
RTVSPropertyOp9
 70
     1
102
RTVSPropertyOp10
 70
     1
102
RTVSPropertyOp11
 70
     1
102
RTVSPropertyOp12
 70
     1
102
RTVSPropertyOp13
 70
     1
102
RTVSPropertyOp14
 70
     1
102
RTVSPropertyOp15
 70
     1
102
RTVSPropertyOp16
 70
     1
102
RTVSPropertyOp17
 70
     1
102
RTVSPropertyOp18
 70
     1
102
RTVSPropertyOp19
 70
     1
102
RTVSPropertyOp20
 70
     1
102
RTVSPropertyOp21
 70
     1
102
RTVSPropertyOp22
 70
     1
102
RTVSPropertyOp23
 70
     1
102
RTVSPropertyOp24
 70
     1
102
RTVSPropertyOp25
 70
     1
102
RTVSPropertyOp26
 70
     1
102
RTVSPropertyOp27
 70
     1
102
RTVSPropertyOp28
 70
     1
102
RTVSPropertyOp29
 70
     1
102
RTVSPropertyOp30
 70
     1
102
RTVSPropertyOp31
 70
     1
102
RTVSPropertyOp32
 70
     1
102
RTVSPropertyOp33
 70
     1
102
RTVSPropertyOp34
 70
     1
102
RTVSPropertyOp35
 70
     1
102
RTVSPropertyOp36
 70
     1
102
RTVSPropertyOp37
 70
     1
102
RTVSPropertyOp38
 70
     1
102
RTVSPropertyOp39
 70
     1
102
RTVSPropertyOp40
 70
     1
102
RTVSPropertyOp41
 70
     1
102
RTVSPropertyOp42
 70
     1
102
RTVSPropertyOp43
 70
     1
102
RTVSPropertyOp44
 70
     1
102
RTVSPropertyOp45
 70
     1
102
RTVSPropertyOp46
 70
     1
102
RTVSPropertyOp47
 70
     1
102
RTVSPropertyOp48
 70
     1
102
RTVSPropertyOp49
 70
     1
102
RTVSPropertyOp50
 70
     1
102
RTVSPropertyOp51
 70
     0
102
RTVSPropertyOp52
 70
     0
102
RTVSPropertyOp53
 70
     1
102
RTVSPropertyOp54
 70
     1
102
RTVSPropertyOp55
 70
     1
102
RTVSPropertyOp56
 70
     1
102
RTVSPropertyOp57
 70
     1
102
RTVSPropertyOp58
 70
     1
102
RTVSPropertyOp59
 70
     1
102
RTVSPropertyOp60
 70
     1
102
RTVSPropertyOp61
 70
     1
102
RTVSPropertyOp62
 70
     1
  0
XRECORD
  5
28DA
102
{ACAD_REACTORS
330
28D9
102
}
330
28D9
100
AcDbXrecord
280
     1
102
RTVSPost2010Prop28
280
     0
102
RTVSPost2010PropOp28
 70
     1
102
RTVSPost2010Prop29
280
     1
102
RTVSPost2010PropOp29
 70
     1
102
RTVSPost2010Prop30
280
     1
102
RTVSPost2010PropOp30
 70
     1
102
RTVSPost2010Prop31
280
     0
102
RTVSPost2010PropOp31
 70
     1
102
RTVSPost2010Prop32
280
     0
102
RTVSPost2010PropOp32
 70
     1
102
RTVSPost2010Prop33
280
     0
102
RTVSPost2010PropOp33
 70
     1
102
RTVSPost2010Prop34
280
     0
102
RTVSPost2010PropOp34
 70
     1
102
RTVSPost2010Prop35
280
     0
102
RTVSPost2010PropOp35
 70
     1
102
RTVSPost2010Prop36
280
     0
102
RTVSPost2010PropOp36
 70
     1
102
RTVSPost2010Prop37
 90
       50
102
RTVSPost2010PropOp37
 70
     1
102
RTVSPost2010Prop38
140
0.0
102
RTVSPost2010PropOp38
 70
     1
102
RTVSPost2010Prop39
140
1.0
102
RTVSPost2010PropOp39
 70
     1
102
RTVSPost2010Prop40
 90
        0
102
RTVSPost2010PropOp40
 70
     1
102
RTVSPost2010Prop41ColorIndex
 90
       18
102
RTVSPost2010Prop41ColorRGB
 90
        0
102
RTVSPost2010PropOp41
 70
     1
102
RTVSPost2010Prop42
 90
       50
102
RTVSPost2010PropOp42
 70
     1
102
RTVSPost2010Prop43
 90
        3
102
RTVSPost2010PropOp43
 70
     1
102
RTVSPost2010Prop44ColorIndex
 90
        5
102
RTVSPost2010Prop44ColorRGB
 90
      255
102
RTVSPost2010PropOp44
 70
     1
102
RTVSPost2010Prop45
280
     0
102
RTVSPost2010PropOp45
 70
     1
102
RTVSPost2010Prop46
 90
       50
102
RTVSPost2010PropOp46
 70
     1
102
RTVSPost2010Prop47
 90
       50
102
RTVSPost2010PropOp47
 70
     1
102
RTVSPost2010Prop48
 90
       50
102
RTVSPost2010PropOp48
 70
     1
102
RTVSPost2010Prop49
280
     0
102
RTVSPost2010PropOp49
 70
     1
102
RTVSPost2010Prop50
 90
       50
102
RTVSPost2010PropOp50
 70
     1
102
RTVSPost2010Prop51ColorIndex
 90
      256
102
RTVSPost2010Prop51ColorRGB
 90
-16777216
102
RTVSPost2010PropOp51
 70
     0
102
RTVSPost2010Prop52
140
1.0
102
RTVSPost2010PropOp52
 70
     0
102
RTVSPost2010Prop53
 90
        2
102
RTVSPost2010PropOp53
 70
     1
102
RTVSPost2010Prop54
  1
strokes_ogs.tif
102
RTVSPost2010PropOp54
 70
     1
102
RTVSPost2010Prop55
280
     0
102
RTVSPost2010PropOp55
 70
     1
102
RTVSPost2010Prop56
140
1.0
102
RTVSPost2010PropOp56
 70
     1
102
RTVSPost2010Prop57
140
1.0
102
RTVSPost2010PropOp57
 70
     1
102
RTVSPropertyOp0
 70
     1
102
RTVSPropertyOp1
 70
     1
102
RTVSPropertyOp2
 70
     1
102
RTVSPropertyOp3
 70
     1
102
RTVSPropertyOp4
 70
     1
102
RTVSPropertyOp5
 70
     1
102
RTVSPropertyOp6
 70
     1
102
RTVSPropertyOp7
 70
     1
102
RTVSPropertyOp8
 70
     1
102
RTVSPropertyOp9
 70
     1
102
RTVSPropertyOp10
 70
     1
102
RTVSPropertyOp11
 70
     1
102
RTVSPropertyOp12
 70
     1
102
RTVSPropertyOp13
 70
     1
102
RTVSPropertyOp14
 70
     1
102
RTVSPropertyOp15
 70
     1
102
RTVSPropertyOp16
 70
     1
102
RTVSPropertyOp17
 70
     1
102
RTVSPropertyOp18
 70
     1
102
RTVSPropertyOp19
 70
     1
102
RTVSPropertyOp20
 70
     1
102
RTVSPropertyOp21
 70
     1
102
RTVSPropertyOp22
 70
     1
102
RTVSPropertyOp23
 70
     1
102
RTVSPropertyOp24
 70
     1
102
RTVSPropertyOp25
 70
     1
102
RTVSPropertyOp26
 70
     1
102
RTVSPropertyOp27
 70
     1
102
RTVSPropertyOp28
 70
     1
102
RTVSPropertyOp29
 70
     1
102
RTVSPropertyOp30
 70
     1
102
RTVSPropertyOp31
 70
     1
102
RTVSPropertyOp32
 70
     1
102
RTVSPropertyOp33
 70
     1
102
RTVSPropertyOp34
 70
     1
102
RTVSPropertyOp35
 70
     1
102
RTVSPropertyOp36
 70
     1
102
RTVSPropertyOp37
 70
     1
102
RTVSPropertyOp38
 70
     1
102
RTVSPropertyOp39
 70
     1
102
RTVSPropertyOp40
 70
     1
102
RTVSPropertyOp41
 70
     1
102
RTVSPropertyOp42
 70
     1
102
RTVSPropertyOp43
 70
     1
102
RTVSPropertyOp44
 70
     1
102
RTVSPropertyOp45
 70
     1
102
RTVSPropertyOp46
 70
     1
102
RTVSPropertyOp47
 70
     1
102
RTVSPropertyOp48
 70
     1
102
RTVSPropertyOp49
 70
     1
102
RTVSPropertyOp50
 70
     1
102
RTVSPropertyOp51
 70
     0
102
RTVSPropertyOp52
 70
     0
102
RTVSPropertyOp53
 70
     1
102
RTVSPropertyOp54
 70
     1
102
RTVSPropertyOp55
 70
     1
102
RTVSPropertyOp56
 70
     1
102
RTVSPropertyOp57
 70
     1
102
RTVSPropertyOp58
 70
     1
102
RTVSPropertyOp59
 70
     1
102
RTVSPropertyOp60
 70
     1
102
RTVSPropertyOp61
 70
     1
102
RTVSPropertyOp62
 70
     1
  0
XRECORD
  5
28DC
102
{ACAD_REACTORS
330
28DB
102
}
330
28DB
100
AcDbXrecord
280
     1
102
RTVSPost2010Prop28
280
     0
102
RTVSPost2010PropOp28
 70
     1
102
RTVSPost2010Prop29
280
     1
102
RTVSPost2010PropOp29
 70
     1
102
RTVSPost2010Prop30
280
     1
102
RTVSPost2010PropOp30
 70
     1
102
RTVSPost2010Prop31
280
     0
102
RTVSPost2010PropOp31
 70
     1
102
RTVSPost2010Prop32
280
     0
102
RTVSPost2010PropOp32
 70
     1
102
RTVSPost2010Prop33
280
     0
102
RTVSPost2010PropOp33
 70
     1
102
RTVSPost2010Prop34
280
     0
102
RTVSPost2010PropOp34
 70
     1
102
RTVSPost2010Prop35
280
     0
102
RTVSPost2010PropOp35
 70
     1
102
RTVSPost2010Prop36
280
     0
102
RTVSPost2010PropOp36
 70
     1
102
RTVSPost2010Prop37
 90
       50
102
RTVSPost2010PropOp37
 70
     1
102
RTVSPost2010Prop38
140
0.0
102
RTVSPost2010PropOp38
 70
     1
102
RTVSPost2010Prop39
140
1.0
102
RTVSPost2010PropOp39
 70
     1
102
RTVSPost2010Prop40
 90
        0
102
RTVSPost2010PropOp40
 70
     1
102
RTVSPost2010Prop41ColorIndex
 90
       18
102
RTVSPost2010Prop41ColorRGB
 90
        0
102
RTVSPost2010PropOp41
 70
     1
102
RTVSPost2010Prop42
 90
       50
102
RTVSPost2010PropOp42
 70
     1
102
RTVSPost2010Prop43
 90
        3
102
RTVSPost2010PropOp43
 70
     1
102
RTVSPost2010Prop44ColorIndex
 90
        5
102
RTVSPost2010Prop44ColorRGB
 90
      255
102
RTVSPost2010PropOp44
 70
     1
102
RTVSPost2010Prop45
280
     0
102
RTVSPost2010PropOp45
 70
     1
102
RTVSPost2010Prop46
 90
       50
102
RTVSPost2010PropOp46
 70
     1
102
RTVSPost2010Prop47
 90
       50
102
RTVSPost2010PropOp47
 70
     1
102
RTVSPost2010Prop48
 90
       50
102
RTVSPost2010PropOp48
 70
     1
102
RTVSPost2010Prop49
280
     0
102
RTVSPost2010PropOp49
 70
     1
102
RTVSPost2010Prop50
 90
       50
102
RTVSPost2010PropOp50
 70
     1
102
RTVSPost2010Prop51ColorIndex
 90
      256
102
RTVSPost2010Prop51ColorRGB
 90
-16777216
102
RTVSPost2010PropOp51
 70
     0
102
RTVSPost2010Prop52
140
1.0
102
RTVSPost2010PropOp52
 70
     0
102
RTVSPost2010Prop53
 90
        2
102
RTVSPost2010PropOp53
 70
     1
102
RTVSPost2010Prop54
  1
strokes_ogs.tif
102
RTVSPost2010PropOp54
 70
     1
102
RTVSPost2010Prop55
280
     0
102
RTVSPost2010PropOp55
 70
     1
102
RTVSPost2010Prop56
140
1.0
102
RTVSPost2010PropOp56
 70
     1
102
RTVSPost2010Prop57
140
1.0
102
RTVSPost2010PropOp57
 70
     1
102
RTVSPropertyOp0
 70
     1
102
RTVSPropertyOp1
 70
     1
102
RTVSPropertyOp2
 70
     1
102
RTVSPropertyOp3
 70
     1
102
RTVSPropertyOp4
 70
     1
102
RTVSPropertyOp5
 70
     1
102
RTVSPropertyOp6
 70
     1
102
RTVSPropertyOp7
 70
     1
102
RTVSPropertyOp8
 70
     1
102
RTVSPropertyOp9
 70
     1
102
RTVSPropertyOp10
 70
     1
102
RTVSPropertyOp11
 70
     1
102
RTVSPropertyOp12
 70
     1
102
RTVSPropertyOp13
 70
     1
102
RTVSPropertyOp14
 70
     1
102
RTVSPropertyOp15
 70
     1
102
RTVSPropertyOp16
 70
     1
102
RTVSPropertyOp17
 70
     1
102
RTVSPropertyOp18
 70
     1
102
RTVSPropertyOp19
 70
     1
102
RTVSPropertyOp20
 70
     1
102
RTVSPropertyOp21
 70
     1
102
RTVSPropertyOp22
 70
     1
102
RTVSPropertyOp23
 70
     1
102
RTVSPropertyOp24
 70
     1
102
RTVSPropertyOp25
 70
     1
102
RTVSPropertyOp26
 70
     1
102
RTVSPropertyOp27
 70
     1
102
RTVSPropertyOp28
 70
     1
102
RTVSPropertyOp29
 70
     1
102
RTVSPropertyOp30
 70
     1
102
RTVSPropertyOp31
 70
     1
102
RTVSPropertyOp32
 70
     1
102
RTVSPropertyOp33
 70
     1
102
RTVSPropertyOp34
 70
     1
102
RTVSPropertyOp35
 70
     1
102
RTVSPropertyOp36
 70
     1
102
RTVSPropertyOp37
 70
     1
102
RTVSPropertyOp38
 70
     1
102
RTVSPropertyOp39
 70
     1
102
RTVSPropertyOp40
 70
     1
102
RTVSPropertyOp41
 70
     1
102
RTVSPropertyOp42
 70
     1
102
RTVSPropertyOp43
 70
     1
102
RTVSPropertyOp44
 70
     1
102
RTVSPropertyOp45
 70
     1
102
RTVSPropertyOp46
 70
     1
102
RTVSPropertyOp47
 70
     1
102
RTVSPropertyOp48
 70
     1
102
RTVSPropertyOp49
 70
     1
102
RTVSPropertyOp50
 70
     1
102
RTVSPropertyOp51
 70
     0
102
RTVSPropertyOp52
 70
     0
102
RTVSPropertyOp53
 70
     1
102
RTVSPropertyOp54
 70
     1
102
RTVSPropertyOp55
 70
     1
102
RTVSPropertyOp56
 70
     1
102
RTVSPropertyOp57
 70
     1
102
RTVSPropertyOp58
 70
     1
102
RTVSPropertyOp59
 70
     1
102
RTVSPropertyOp60
 70
     1
102
RTVSPropertyOp61
 70
     1
102
RTVSPropertyOp62
 70
     1
  0
XRECORD
  5
28DE
102
{ACAD_REACTORS
330
28DD
102
}
330
28DD
100
AcDbXrecord
280
     1
102
RTVSPost2010Prop28
280
     0
102
RTVSPost2010PropOp28
 70
     1
102
RTVSPost2010Prop29
280
     1
102
RTVSPost2010PropOp29
 70
     1
102
RTVSPost2010Prop30
280
     1
102
RTVSPost2010PropOp30
 70
     1
102
RTVSPost2010Prop31
280
     0
102
RTVSPost2010PropOp31
 70
     1
102
RTVSPost2010Prop32
280
     0
102
RTVSPost2010PropOp32
 70
     1
102
RTVSPost2010Prop33
280
     0
102
RTVSPost2010PropOp33
 70
     1
102
RTVSPost2010Prop34
280
     0
102
RTVSPost2010PropOp34
 70
     1
102
RTVSPost2010Prop35
280
     0
102
RTVSPost2010PropOp35
 70
     1
102
RTVSPost2010Prop36
280
     0
102
RTVSPost2010PropOp36
 70
     1
102
RTVSPost2010Prop37
 90
       50
102
RTVSPost2010PropOp37
 70
     1
102
RTVSPost2010Prop38
140
0.0
102
RTVSPost2010PropOp38
 70
     1
102
RTVSPost2010Prop39
140
1.0
102
RTVSPost2010PropOp39
 70
     1
102
RTVSPost2010Prop40
 90
        0
102
RTVSPost2010PropOp40
 70
     1
102
RTVSPost2010Prop41ColorIndex
 90
       18
102
RTVSPost2010Prop41ColorRGB
 90
        0
102
RTVSPost2010PropOp41
 70
     1
102
RTVSPost2010Prop42
 90
       50
102
RTVSPost2010PropOp42
 70
     1
102
RTVSPost2010Prop43
 90
        3
102
RTVSPost2010PropOp43
 70
     1
102
RTVSPost2010Prop44ColorIndex
 90
        5
102
RTVSPost2010Prop44ColorRGB
 90
      255
102
RTVSPost2010PropOp44
 70
     1
102
RTVSPost2010Prop45
280
     0
102
RTVSPost2010PropOp45
 70
     1
102
RTVSPost2010Prop46
 90
       50
102
RTVSPost2010PropOp46
 70
     1
102
RTVSPost2010Prop47
 90
       50
102
RTVSPost2010PropOp47
 70
     1
102
RTVSPost2010Prop48
 90
       50
102
RTVSPost2010PropOp48
 70
     1
102
RTVSPost2010Prop49
280
     0
102
RTVSPost2010PropOp49
 70
     1
102
RTVSPost2010Prop50
 90
       50
102
RTVSPost2010PropOp50
 70
     1
102
RTVSPost2010Prop51ColorIndex
 90
      256
102
RTVSPost2010Prop51ColorRGB
 90
-16777216
102
RTVSPost2010PropOp51
 70
     0
102
RTVSPost2010Prop52
140
1.0
102
RTVSPost2010PropOp52
 70
     0
102
RTVSPost2010Prop53
 90
        2
102
RTVSPost2010PropOp53
 70
     1
102
RTVSPost2010Prop54
  1
strokes_ogs.tif
102
RTVSPost2010PropOp54
 70
     1
102
RTVSPost2010Prop55
280
     0
102
RTVSPost2010PropOp55
 70
     1
102
RTVSPost2010Prop56
140
1.0
102
RTVSPost2010PropOp56
 70
     1
102
RTVSPost2010Prop57
140
1.0
102
RTVSPost2010PropOp57
 70
     1
102
RTVSPropertyOp0
 70
     1
102
RTVSPropertyOp1
 70
     1
102
RTVSPropertyOp2
 70
     1
102
RTVSPropertyOp3
 70
     1
102
RTVSPropertyOp4
 70
     1
102
RTVSPropertyOp5
 70
     1
102
RTVSPropertyOp6
 70
     1
102
RTVSPropertyOp7
 70
     1
102
RTVSPropertyOp8
 70
     1
102
RTVSPropertyOp9
 70
     1
102
RTVSPropertyOp10
 70
     1
102
RTVSPropertyOp11
 70
     1
102
RTVSPropertyOp12
 70
     1
102
RTVSPropertyOp13
 70
     1
102
RTVSPropertyOp14
 70
     1
102
RTVSPropertyOp15
 70
     1
102
RTVSPropertyOp16
 70
     1
102
RTVSPropertyOp17
 70
     1
102
RTVSPropertyOp18
 70
     1
102
RTVSPropertyOp19
 70
     1
102
RTVSPropertyOp20
 70
     1
102
RTVSPropertyOp21
 70
     1
102
RTVSPropertyOp22
 70
     1
102
RTVSPropertyOp23
 70
     1
102
RTVSPropertyOp24
 70
     1
102
RTVSPropertyOp25
 70
     1
102
RTVSPropertyOp26
 70
     1
102
RTVSPropertyOp27
 70
     1
102
RTVSPropertyOp28
 70
     1
102
RTVSPropertyOp29
 70
     1
102
RTVSPropertyOp30
 70
     1
102
RTVSPropertyOp31
 70
     1
102
RTVSPropertyOp32
 70
     1
102
RTVSPropertyOp33
 70
     1
102
RTVSPropertyOp34
 70
     1
102
RTVSPropertyOp35
 70
     1
102
RTVSPropertyOp36
 70
     1
102
RTVSPropertyOp37
 70
     1
102
RTVSPropertyOp38
 70
     1
102
RTVSPropertyOp39
 70
     1
102
RTVSPropertyOp40
 70
     1
102
RTVSPropertyOp41
 70
     1
102
RTVSPropertyOp42
 70
     1
102
RTVSPropertyOp43
 70
     1
102
RTVSPropertyOp44
 70
     1
102
RTVSPropertyOp45
 70
     1
102
RTVSPropertyOp46
 70
     1
102
RTVSPropertyOp47
 70
     1
102
RTVSPropertyOp48
 70
     1
102
RTVSPropertyOp49
 70
     1
102
RTVSPropertyOp50
 70
     1
102
RTVSPropertyOp51
 70
     0
102
RTVSPropertyOp52
 70
     0
102
RTVSPropertyOp53
 70
     1
102
RTVSPropertyOp54
 70
     1
102
RTVSPropertyOp55
 70
     1
102
RTVSPropertyOp56
 70
     1
102
RTVSPropertyOp57
 70
     1
102
RTVSPropertyOp58
 70
     1
102
RTVSPropertyOp59
 70
     1
102
RTVSPropertyOp60
 70
     1
102
RTVSPropertyOp61
 70
     1
102
RTVSPropertyOp62
 70
     1
  0
XRECORD
  5
28E0
102
{ACAD_REACTORS
330
28DF
102
}
330
28DF
100
AcDbXrecord
280
     1
102
RTVSPost2010Prop28
280
     0
102
RTVSPost2010PropOp28
 70
     1
102
RTVSPost2010Prop29
280
     1
102
RTVSPost2010PropOp29
 70
     1
102
RTVSPost2010Prop30
280
     1
102
RTVSPost2010PropOp30
 70
     1
102
RTVSPost2010Prop31
280
     0
102
RTVSPost2010PropOp31
 70
     1
102
RTVSPost2010Prop32
280
     0
102
RTVSPost2010PropOp32
 70
     1
102
RTVSPost2010Prop33
280
     0
102
RTVSPost2010PropOp33
 70
     1
102
RTVSPost2010Prop34
280
     0
102
RTVSPost2010PropOp34
 70
     1
102
RTVSPost2010Prop35
280
     0
102
RTVSPost2010PropOp35
 70
     1
102
RTVSPost2010Prop36
280
     0
102
RTVSPost2010PropOp36
 70
     1
102
RTVSPost2010Prop37
 90
       50
102
RTVSPost2010PropOp37
 70
     1
102
RTVSPost2010Prop38
140
0.0
102
RTVSPost2010PropOp38
 70
     1
102
RTVSPost2010Prop39
140
1.0
102
RTVSPost2010PropOp39
 70
     1
102
RTVSPost2010Prop40
 90
        0
102
RTVSPost2010PropOp40
 70
     1
102
RTVSPost2010Prop41ColorIndex
 90
       18
102
RTVSPost2010Prop41ColorRGB
 90
        0
102
RTVSPost2010PropOp41
 70
     1
102
RTVSPost2010Prop42
 90
       50
102
RTVSPost2010PropOp42
 70
     1
102
RTVSPost2010Prop43
 90
        3
102
RTVSPost2010PropOp43
 70
     1
102
RTVSPost2010Prop44ColorIndex
 90
        5
102
RTVSPost2010Prop44ColorRGB
 90
      255
102
RTVSPost2010PropOp44
 70
     1
102
RTVSPost2010Prop45
280
     0
102
RTVSPost2010PropOp45
 70
     1
102
RTVSPost2010Prop46
 90
       50
102
RTVSPost2010PropOp46
 70
     1
102
RTVSPost2010Prop47
 90
       50
102
RTVSPost2010PropOp47
 70
     1
102
RTVSPost2010Prop48
 90
       50
102
RTVSPost2010PropOp48
 70
     1
102
RTVSPost2010Prop49
280
     0
102
RTVSPost2010PropOp49
 70
     1
102
RTVSPost2010Prop50
 90
       50
102
RTVSPost2010PropOp50
 70
     1
102
RTVSPost2010Prop51ColorIndex
 90
      256
102
RTVSPost2010Prop51ColorRGB
 90
-16777216
102
RTVSPost2010PropOp51
 70
     0
102
RTVSPost2010Prop52
140
1.0
102
RTVSPost2010PropOp52
 70
     0
102
RTVSPost2010Prop53
 90
        2
102
RTVSPost2010PropOp53
 70
     1
102
RTVSPost2010Prop54
  1
strokes_ogs.tif
102
RTVSPost2010PropOp54
 70
     1
102
RTVSPost2010Prop55
280
     0
102
RTVSPost2010PropOp55
 70
     1
102
RTVSPost2010Prop56
140
1.0
102
RTVSPost2010PropOp56
 70
     1
102
RTVSPost2010Prop57
140
1.0
102
RTVSPost2010PropOp57
 70
     1
102
RTVSPropertyOp0
 70
     1
102
RTVSPropertyOp1
 70
     1
102
RTVSPropertyOp2
 70
     1
102
RTVSPropertyOp3
 70
     1
102
RTVSPropertyOp4
 70
     1
102
RTVSPropertyOp5
 70
     1
102
RTVSPropertyOp6
 70
     1
102
RTVSPropertyOp7
 70
     1
102
RTVSPropertyOp8
 70
     1
102
RTVSPropertyOp9
 70
     1
102
RTVSPropertyOp10
 70
     1
102
RTVSPropertyOp11
 70
     1
102
RTVSPropertyOp12
 70
     1
102
RTVSPropertyOp13
 70
     1
102
RTVSPropertyOp14
 70
     1
102
RTVSPropertyOp15
 70
     1
102
RTVSPropertyOp16
 70
     1
102
RTVSPropertyOp17
 70
     1
102
RTVSPropertyOp18
 70
     1
102
RTVSPropertyOp19
 70
     1
102
RTVSPropertyOp20
 70
     1
102
RTVSPropertyOp21
 70
     1
102
RTVSPropertyOp22
 70
     1
102
RTVSPropertyOp23
 70
     1
102
RTVSPropertyOp24
 70
     1
102
RTVSPropertyOp25
 70
     1
102
RTVSPropertyOp26
 70
     1
102
RTVSPropertyOp27
 70
     1
102
RTVSPropertyOp28
 70
     1
102
RTVSPropertyOp29
 70
     1
102
RTVSPropertyOp30
 70
     1
102
RTVSPropertyOp31
 70
     1
102
RTVSPropertyOp32
 70
     1
102
RTVSPropertyOp33
 70
     1
102
RTVSPropertyOp34
 70
     1
102
RTVSPropertyOp35
 70
     1
102
RTVSPropertyOp36
 70
     1
102
RTVSPropertyOp37
 70
     1
102
RTVSPropertyOp38
 70
     1
102
RTVSPropertyOp39
 70
     1
102
RTVSPropertyOp40
 70
     1
102
RTVSPropertyOp41
 70
     1
102
RTVSPropertyOp42
 70
     1
102
RTVSPropertyOp43
 70
     1
102
RTVSPropertyOp44
 70
     1
102
RTVSPropertyOp45
 70
     1
102
RTVSPropertyOp46
 70
     1
102
RTVSPropertyOp47
 70
     1
102
RTVSPropertyOp48
 70
     1
102
RTVSPropertyOp49
 70
     1
102
RTVSPropertyOp50
 70
     1
102
RTVSPropertyOp51
 70
     0
102
RTVSPropertyOp52
 70
     0
102
RTVSPropertyOp53
 70
     1
102
RTVSPropertyOp54
 70
     1
102
RTVSPropertyOp55
 70
     1
102
RTVSPropertyOp56
 70
     1
102
RTVSPropertyOp57
 70
     1
102
RTVSPropertyOp58
 70
     1
102
RTVSPropertyOp59
 70
     1
102
RTVSPropertyOp60
 70
     1
102
RTVSPropertyOp61
 70
     1
102
RTVSPropertyOp62
 70
     1
  0
XRECORD
  5
28E8
102
{ACAD_REACTORS
330
28E7
102
}
330
28E7
100
AcDbXrecord
280
     1
102
RTVSPost2010Prop28
280
     0
102
RTVSPost2010PropOp28
 70
     1
102
RTVSPost2010Prop29
280
     1
102
RTVSPost2010PropOp29
 70
     1
102
RTVSPost2010Prop30
280
     1
102
RTVSPost2010PropOp30
 70
     1
102
RTVSPost2010Prop31
280
     0
102
RTVSPost2010PropOp31
 70
     1
102
RTVSPost2010Prop32
280
     0
102
RTVSPost2010PropOp32
 70
     1
102
RTVSPost2010Prop33
280
     0
102
RTVSPost2010PropOp33
 70
     1
102
RTVSPost2010Prop34
280
     0
102
RTVSPost2010PropOp34
 70
     1
102
RTVSPost2010Prop35
280
     0
102
RTVSPost2010PropOp35
 70
     1
102
RTVSPost2010Prop36
280
     0
102
RTVSPost2010PropOp36
 70
     1
102
RTVSPost2010Prop37
 90
       50
102
RTVSPost2010PropOp37
 70
     1
102
RTVSPost2010Prop38
140
0.0
102
RTVSPost2010PropOp38
 70
     1
102
RTVSPost2010Prop39
140
1.0
102
RTVSPost2010PropOp39
 70
     1
102
RTVSPost2010Prop40
 90
        0
102
RTVSPost2010PropOp40
 70
     1
102
RTVSPost2010Prop41ColorIndex
 90
       18
102
RTVSPost2010Prop41ColorRGB
 90
        0
102
RTVSPost2010PropOp41
 70
     1
102
RTVSPost2010Prop42
 90
       50
102
RTVSPost2010PropOp42
 70
     1
102
RTVSPost2010Prop43
 90
        3
102
RTVSPost2010PropOp43
 70
     1
102
RTVSPost2010Prop44ColorIndex
 90
        5
102
RTVSPost2010Prop44ColorRGB
 90
      255
102
RTVSPost2010PropOp44
 70
     1
102
RTVSPost2010Prop45
280
     0
102
RTVSPost2010PropOp45
 70
     1
102
RTVSPost2010Prop46
 90
       50
102
RTVSPost2010PropOp46
 70
     1
102
RTVSPost2010Prop47
 90
       50
102
RTVSPost2010PropOp47
 70
     1
102
RTVSPost2010Prop48
 90
       50
102
RTVSPost2010PropOp48
 70
     1
102
RTVSPost2010Prop49
280
     0
102
RTVSPost2010PropOp49
 70
     1
102
RTVSPost2010Prop50
 90
       50
102
RTVSPost2010PropOp50
 70
     1
102
RTVSPost2010Prop51ColorIndex
 90
      256
102
RTVSPost2010Prop51ColorRGB
 90
-16777216
102
RTVSPost2010PropOp51
 70
     0
102
RTVSPost2010Prop52
140
1.0
102
RTVSPost2010PropOp52
 70
     0
102
RTVSPost2010Prop53
 90
        2
102
RTVSPost2010PropOp53
 70
     1
102
RTVSPost2010Prop54
  1
strokes_ogs.tif
102
RTVSPost2010PropOp54
 70
     1
102
RTVSPost2010Prop55
280
     0
102
RTVSPost2010PropOp55
 70
     1
102
RTVSPost2010Prop56
140
1.0
102
RTVSPost2010PropOp56
 70
     1
102
RTVSPost2010Prop57
140
1.0
102
RTVSPost2010PropOp57
 70
     1
102
RTVSPropertyOp0
 70
     1
102
RTVSPropertyOp1
 70
     1
102
RTVSPropertyOp2
 70
     1
102
RTVSPropertyOp3
 70
     1
102
RTVSPropertyOp4
 70
     1
102
RTVSPropertyOp5
 70
     1
102
RTVSPropertyOp6
 70
     1
102
RTVSPropertyOp7
 70
     1
102
RTVSPropertyOp8
 70
     1
102
RTVSPropertyOp9
 70
     1
102
RTVSPropertyOp10
 70
     1
102
RTVSPropertyOp11
 70
     1
102
RTVSPropertyOp12
 70
     1
102
RTVSPropertyOp13
 70
     1
102
RTVSPropertyOp14
 70
     1
102
RTVSPropertyOp15
 70
     1
102
RTVSPropertyOp16
 70
     1
102
RTVSPropertyOp17
 70
     1
102
RTVSPropertyOp18
 70
     1
102
RTVSPropertyOp19
 70
     1
102
RTVSPropertyOp20
 70
     1
102
RTVSPropertyOp21
 70
     1
102
RTVSPropertyOp22
 70
     1
102
RTVSPropertyOp23
 70
     1
102
RTVSPropertyOp24
 70
     1
102
RTVSPropertyOp25
 70
     1
102
RTVSPropertyOp26
 70
     1
102
RTVSPropertyOp27
 70
     1
102
RTVSPropertyOp28
 70
     1
102
RTVSPropertyOp29
 70
     1
102
RTVSPropertyOp30
 70
     1
102
RTVSPropertyOp31
 70
     1
102
RTVSPropertyOp32
 70
     1
102
RTVSPropertyOp33
 70
     1
102
RTVSPropertyOp34
 70
     1
102
RTVSPropertyOp35
 70
     1
102
RTVSPropertyOp36
 70
     1
102
RTVSPropertyOp37
 70
     1
102
RTVSPropertyOp38
 70
     1
102
RTVSPropertyOp39
 70
     1
102
RTVSPropertyOp40
 70
     1
102
RTVSPropertyOp41
 70
     1
102
RTVSPropertyOp42
 70
     1
102
RTVSPropertyOp43
 70
     1
102
RTVSPropertyOp44
 70
     1
102
RTVSPropertyOp45
 70
     1
102
RTVSPropertyOp46
 70
     1
102
RTVSPropertyOp47
 70
     1
102
RTVSPropertyOp48
 70
     1
102
RTVSPropertyOp49
 70
     1
102
RTVSPropertyOp50
 70
     1
102
RTVSPropertyOp51
 70
     0
102
RTVSPropertyOp52
 70
     0
102
RTVSPropertyOp53
 70
     1
102
RTVSPropertyOp54
 70
     1
102
RTVSPropertyOp55
 70
     1
102
RTVSPropertyOp56
 70
     1
102
RTVSPropertyOp57
 70
     1
102
RTVSPropertyOp58
 70
     1
102
RTVSPropertyOp59
 70
     1
102
RTVSPropertyOp60
 70
     1
102
RTVSPropertyOp61
 70
     1
102
RTVSPropertyOp62
 70
     1
  0
XRECORD
  5
2904
102
{ACAD_REACTORS
330
2903
102
}
330
2903
100
AcDbXrecord
280
     1
102
RTVSPost2010Prop28
280
     0
102
RTVSPost2010PropOp28
 70
     1
102
RTVSPost2010Prop29
280
     1
102
RTVSPost2010PropOp29
 70
     1
102
RTVSPost2010Prop30
280
     1
102
RTVSPost2010PropOp30
 70
     1
102
RTVSPost2010Prop31
280
     0
102
RTVSPost2010PropOp31
 70
     1
102
RTVSPost2010Prop32
280
     0
102
RTVSPost2010PropOp32
 70
     1
102
RTVSPost2010Prop33
280
     0
102
RTVSPost2010PropOp33
 70
     1
102
RTVSPost2010Prop34
280
     0
102
RTVSPost2010PropOp34
 70
     1
102
RTVSPost2010Prop35
280
     0
102
RTVSPost2010PropOp35
 70
     1
102
RTVSPost2010Prop36
280
     0
102
RTVSPost2010PropOp36
 70
     1
102
RTVSPost2010Prop37
 90
       50
102
RTVSPost2010PropOp37
 70
     0
102
RTVSPost2010Prop38
140
0.0
102
RTVSPost2010PropOp38
 70
     0
102
RTVSPost2010Prop39
140
1.0
102
RTVSPost2010PropOp39
 70
     0
102
RTVSPost2010Prop40
 90
        0
102
RTVSPost2010PropOp40
 70
     0
102
RTVSPost2010Prop41ColorIndex
 90
       18
102
RTVSPost2010Prop41ColorRGB
 90
        0
102
RTVSPost2010PropOp41
 70
     0
102
RTVSPost2010Prop42
 90
       50
102
RTVSPost2010PropOp42
 70
     0
102
RTVSPost2010Prop43
 90
        3
102
RTVSPost2010PropOp43
 70
     0
102
RTVSPost2010Prop44ColorIndex
 90
        5
102
RTVSPost2010Prop44ColorRGB
 90
      255
102
RTVSPost2010PropOp44
 70
     0
102
RTVSPost2010Prop45
280
     0
102
RTVSPost2010PropOp45
 70
     1
102
RTVSPost2010Prop46
 90
       50
102
RTVSPost2010PropOp46
 70
     0
102
RTVSPost2010Prop47
 90
       50
102
RTVSPost2010PropOp47
 70
     0
102
RTVSPost2010Prop48
 90
       50
102
RTVSPost2010PropOp48
 70
     0
102
RTVSPost2010Prop49
280
     0
102
RTVSPost2010PropOp49
 70
     1
102
RTVSPost2010Prop50
 90
       50
102
RTVSPost2010PropOp50
 70
     0
102
RTVSPost2010Prop51ColorIndex
 90
      256
102
RTVSPost2010Prop51ColorRGB
 90
-16777216
102
RTVSPost2010PropOp51
 70
     0
102
RTVSPost2010Prop52
140
1.0
102
RTVSPost2010PropOp52
 70
     0
102
RTVSPost2010Prop53
 90
        2
102
RTVSPost2010PropOp53
 70
     0
102
RTVSPost2010Prop54
  1
strokes_ogs.tif
102
RTVSPost2010PropOp54
 70
     0
102
RTVSPost2010Prop55
280
     0
102
RTVSPost2010PropOp55
 70
     1
102
RTVSPost2010Prop56
140
1.0
102
RTVSPost2010PropOp56
 70
     0
102
RTVSPost2010Prop57
140
1.0
102
RTVSPost2010PropOp57
 70
     0
102
RTVSPropertyOp0
 70
     0
102
RTVSPropertyOp1
 70
     0
102
RTVSPropertyOp2
 70
     0
102
RTVSPropertyOp3
 70
     0
102
RTVSPropertyOp4
 70
     0
102
RTVSPropertyOp5
 70
     0
102
RTVSPropertyOp6
 70
     0
102
RTVSPropertyOp7
 70
     0
102
RTVSPropertyOp8
 70
     0
102
RTVSPropertyOp9
 70
     0
102
RTVSPropertyOp10
 70
     0
102
RTVSPropertyOp11
 70
     0
102
RTVSPropertyOp12
 70
     0
102
RTVSPropertyOp13
 70
     0
102
RTVSPropertyOp14
 70
     2
102
RTVSPropertyOp15
 70
     0
102
RTVSPropertyOp16
 70
     0
102
RTVSPropertyOp17
 70
     0
102
RTVSPropertyOp18
 70
     0
102
RTVSPropertyOp19
 70
     0
102
RTVSPropertyOp20
 70
     0
102
RTVSPropertyOp21
 70
     0
102
RTVSPropertyOp22
 70
     0
102
RTVSPropertyOp23
 70
     0
102
RTVSPropertyOp24
 70
     0
102
RTVSPropertyOp25
 70
     0
102
RTVSPropertyOp26
 70
     0
102
RTVSPropertyOp27
 70
     0
102
RTVSPropertyOp28
 70
     1
102
RTVSPropertyOp29
 70
     1
102
RTVSPropertyOp30
 70
     1
102
RTVSPropertyOp31
 70
     1
102
RTVSPropertyOp32
 70
     1
102
RTVSPropertyOp33
 70
     1
102
RTVSPropertyOp34
 70
     1
102
RTVSPropertyOp35
 70
     1
102
RTVSPropertyOp36
 70
     1
102
RTVSPropertyOp37
 70
     0
102
RTVSPropertyOp38
 70
     0
102
RTVSPropertyOp39
 70
     0
102
RTVSPropertyOp40
 70
     0
102
RTVSPropertyOp41
 70
     0
102
RTVSPropertyOp42
 70
     0
102
RTVSPropertyOp43
 70
     0
102
RTVSPropertyOp44
 70
     0
102
RTVSPropertyOp45
 70
     1
102
RTVSPropertyOp46
 70
     0
102
RTVSPropertyOp47
 70
     0
102
RTVSPropertyOp48
 70
     0
102
RTVSPropertyOp49
 70
     1
102
RTVSPropertyOp50
 70
     0
102
RTVSPropertyOp51
 70
     0
102
RTVSPropertyOp52
 70
     0
102
RTVSPropertyOp53
 70
     0
102
RTVSPropertyOp54
 70
     0
102
RTVSPropertyOp55
 70
     1
102
RTVSPropertyOp56
 70
     0
102
RTVSPropertyOp57
 70
     0
102
RTVSPropertyOp58
 70
     0
102
RTVSPropertyOp59
 70
     0
102
RTVSPropertyOp60
 70
     0
102
RTVSPropertyOp61
 70
     0
102
RTVSPropertyOp62
 70
     0
  0
XRECORD
  5
28F4
102
{ACAD_REACTORS
330
28F3
102
}
330
28F3
100
AcDbXrecord
280
     1
102
RTVSPost2010Prop28
280
     0
102
RTVSPost2010PropOp28
 70
     1
102
RTVSPost2010Prop29
280
     1
102
RTVSPost2010PropOp29
 70
     1
102
RTVSPost2010Prop30
280
     1
102
RTVSPost2010PropOp30
 70
     1
102
RTVSPost2010Prop31
280
     0
102
RTVSPost2010PropOp31
 70
     1
102
RTVSPost2010Prop32
280
     0
102
RTVSPost2010PropOp32
 70
     1
102
RTVSPost2010Prop33
280
     0
102
RTVSPost2010PropOp33
 70
     1
102
RTVSPost2010Prop34
280
     0
102
RTVSPost2010PropOp34
 70
     1
102
RTVSPost2010Prop35
280
     0
102
RTVSPost2010PropOp35
 70
     1
102
RTVSPost2010Prop36
280
     0
102
RTVSPost2010PropOp36
 70
     1
102
RTVSPost2010Prop37
 90
       50
102
RTVSPost2010PropOp37
 70
     1
102
RTVSPost2010Prop38
140
0.0
102
RTVSPost2010PropOp38
 70
     1
102
RTVSPost2010Prop39
140
1.0
102
RTVSPost2010PropOp39
 70
     1
102
RTVSPost2010Prop40
 90
        0
102
RTVSPost2010PropOp40
 70
     1
102
RTVSPost2010Prop41ColorIndex
 90
       18
102
RTVSPost2010Prop41ColorRGB
 90
        0
102
RTVSPost2010PropOp41
 70
     1
102
RTVSPost2010Prop42
 90
       50
102
RTVSPost2010PropOp42
 70
     1
102
RTVSPost2010Prop43
 90
        3
102
RTVSPost2010PropOp43
 70
     1
102
RTVSPost2010Prop44ColorIndex
 90
        5
102
RTVSPost2010Prop44ColorRGB
 90
      255
102
RTVSPost2010PropOp44
 70
     1
102
RTVSPost2010Prop45
280
     0
102
RTVSPost2010PropOp45
 70
     1
102
RTVSPost2010Prop46
 90
       50
102
RTVSPost2010PropOp46
 70
     1
102
RTVSPost2010Prop47
 90
       50
102
RTVSPost2010PropOp47
 70
     1
102
RTVSPost2010Prop48
 90
       50
102
RTVSPost2010PropOp48
 70
     1
102
RTVSPost2010Prop49
280
     0
102
RTVSPost2010PropOp49
 70
     1
102
RTVSPost2010Prop50
 90
       50
102
RTVSPost2010PropOp50
 70
     1
102
RTVSPost2010Prop51ColorIndex
 90
      256
102
RTVSPost2010Prop51ColorRGB
 90
-16777216
102
RTVSPost2010PropOp51
 70
     0
102
RTVSPost2010Prop52
140
1.0
102
RTVSPost2010PropOp52
 70
     0
102
RTVSPost2010Prop53
 90
        2
102
RTVSPost2010PropOp53
 70
     1
102
RTVSPost2010Prop54
  1
strokes_ogs.tif
102
RTVSPost2010PropOp54
 70
     1
102
RTVSPost2010Prop55
280
     0
102
RTVSPost2010PropOp55
 70
     1
102
RTVSPost2010Prop56
140
1.0
102
RTVSPost2010PropOp56
 70
     1
102
RTVSPost2010Prop57
140
1.0
102
RTVSPost2010PropOp57
 70
     1
102
RTVSPropertyOp0
 70
     1
102
RTVSPropertyOp1
 70
     1
102
RTVSPropertyOp2
 70
     1
102
RTVSPropertyOp3
 70
     1
102
RTVSPropertyOp4
 70
     1
102
RTVSPropertyOp5
 70
     1
102
RTVSPropertyOp6
 70
     1
102
RTVSPropertyOp7
 70
     1
102
RTVSPropertyOp8
 70
     1
102
RTVSPropertyOp9
 70
     1
102
RTVSPropertyOp10
 70
     1
102
RTVSPropertyOp11
 70
     1
102
RTVSPropertyOp12
 70
     1
102
RTVSPropertyOp13
 70
     1
102
RTVSPropertyOp14
 70
     1
102
RTVSPropertyOp15
 70
     1
102
RTVSPropertyOp16
 70
     1
102
RTVSPropertyOp17
 70
     1
102
RTVSPropertyOp18
 70
     1
102
RTVSPropertyOp19
 70
     1
102
RTVSPropertyOp20
 70
     1
102
RTVSPropertyOp21
 70
     1
102
RTVSPropertyOp22
 70
     1
102
RTVSPropertyOp23
 70
     1
102
RTVSPropertyOp24
 70
     1
102
RTVSPropertyOp25
 70
     1
102
RTVSPropertyOp26
 70
     1
102
RTVSPropertyOp27
 70
     1
102
RTVSPropertyOp28
 70
     1
102
RTVSPropertyOp29
 70
     1
102
RTVSPropertyOp30
 70
     1
102
RTVSPropertyOp31
 70
     1
102
RTVSPropertyOp32
 70
     1
102
RTVSPropertyOp33
 70
     1
102
RTVSPropertyOp34
 70
     1
102
RTVSPropertyOp35
 70
     1
102
RTVSPropertyOp36
 70
     1
102
RTVSPropertyOp37
 70
     1
102
RTVSPropertyOp38
 70
     1
102
RTVSPropertyOp39
 70
     1
102
RTVSPropertyOp40
 70
     1
102
RTVSPropertyOp41
 70
     1
102
RTVSPropertyOp42
 70
     1
102
RTVSPropertyOp43
 70
     1
102
RTVSPropertyOp44
 70
     1
102
RTVSPropertyOp45
 70
     1
102
RTVSPropertyOp46
 70
     1
102
RTVSPropertyOp47
 70
     1
102
RTVSPropertyOp48
 70
     1
102
RTVSPropertyOp49
 70
     1
102
RTVSPropertyOp50
 70
     1
102
RTVSPropertyOp51
 70
     0
102
RTVSPropertyOp52
 70
     0
102
RTVSPropertyOp53
 70
     1
102
RTVSPropertyOp54
 70
     1
102
RTVSPropertyOp55
 70
     1
102
RTVSPropertyOp56
 70
     1
102
RTVSPropertyOp57
 70
     1
102
RTVSPropertyOp58
 70
     1
102
RTVSPropertyOp59
 70
     1
102
RTVSPropertyOp60
 70
     1
102
RTVSPropertyOp61
 70
     1
102
RTVSPropertyOp62
 70
     1
  0
XRECORD
  5
2906
102
{ACAD_REACTORS
330
2905
102
}
330
2905
100
AcDbXrecord
280
     1
102
RTVSPost2010Prop28
280
     0
102
RTVSPost2010PropOp28
 70
     1
102
RTVSPost2010Prop29
280
     1
102
RTVSPost2010PropOp29
 70
     1
102
RTVSPost2010Prop30
280
     1
102
RTVSPost2010PropOp30
 70
     1
102
RTVSPost2010Prop31
280
     0
102
RTVSPost2010PropOp31
 70
     1
102
RTVSPost2010Prop32
280
     0
102
RTVSPost2010PropOp32
 70
     1
102
RTVSPost2010Prop33
280
     0
102
RTVSPost2010PropOp33
 70
     1
102
RTVSPost2010Prop34
280
     0
102
RTVSPost2010PropOp34
 70
     1
102
RTVSPost2010Prop35
280
     0
102
RTVSPost2010PropOp35
 70
     1
102
RTVSPost2010Prop36
280
     0
102
RTVSPost2010PropOp36
 70
     1
102
RTVSPost2010Prop37
 90
       50
102
RTVSPost2010PropOp37
 70
     0
102
RTVSPost2010Prop38
140
0.0
102
RTVSPost2010PropOp38
 70
     0
102
RTVSPost2010Prop39
140
1.0
102
RTVSPost2010PropOp39
 70
     0
102
RTVSPost2010Prop40
 90
        0
102
RTVSPost2010PropOp40
 70
     0
102
RTVSPost2010Prop41ColorIndex
 90
       18
102
RTVSPost2010Prop41ColorRGB
 90
        0
102
RTVSPost2010PropOp41
 70
     0
102
RTVSPost2010Prop42
 90
       50
102
RTVSPost2010PropOp42
 70
     0
102
RTVSPost2010Prop43
 90
        3
102
RTVSPost2010PropOp43
 70
     0
102
RTVSPost2010Prop44ColorIndex
 90
        5
102
RTVSPost2010Prop44ColorRGB
 90
      255
102
RTVSPost2010PropOp44
 70
     0
102
RTVSPost2010Prop45
280
     0
102
RTVSPost2010PropOp45
 70
     1
102
RTVSPost2010Prop46
 90
       50
102
RTVSPost2010PropOp46
 70
     0
102
RTVSPost2010Prop47
 90
       50
102
RTVSPost2010PropOp47
 70
     0
102
RTVSPost2010Prop48
 90
       50
102
RTVSPost2010PropOp48
 70
     0
102
RTVSPost2010Prop49
280
     0
102
RTVSPost2010PropOp49
 70
     1
102
RTVSPost2010Prop50
 90
       50
102
RTVSPost2010PropOp50
 70
     0
102
RTVSPost2010Prop51ColorIndex
 90
      256
102
RTVSPost2010Prop51ColorRGB
 90
-16777216
102
RTVSPost2010PropOp51
 70
     0
102
RTVSPost2010Prop52
140
1.0
102
RTVSPost2010PropOp52
 70
     0
102
RTVSPost2010Prop53
 90
        2
102
RTVSPost2010PropOp53
 70
     0
102
RTVSPost2010Prop54
  1
strokes_ogs.tif
102
RTVSPost2010PropOp54
 70
     0
102
RTVSPost2010Prop55
280
     0
102
RTVSPost2010PropOp55
 70
     1
102
RTVSPost2010Prop56
140
1.0
102
RTVSPost2010PropOp56
 70
     0
102
RTVSPost2010Prop57
140
1.0
102
RTVSPost2010PropOp57
 70
     0
102
RTVSPropertyOp0
 70
     0
102
RTVSPropertyOp1
 70
     0
102
RTVSPropertyOp2
 70
     0
102
RTVSPropertyOp3
 70
     0
102
RTVSPropertyOp4
 70
     0
102
RTVSPropertyOp5
 70
     0
102
RTVSPropertyOp6
 70
     0
102
RTVSPropertyOp7
 70
     0
102
RTVSPropertyOp8
 70
     0
102
RTVSPropertyOp9
 70
     0
102
RTVSPropertyOp10
 70
     0
102
RTVSPropertyOp11
 70
     0
102
RTVSPropertyOp12
 70
     0
102
RTVSPropertyOp13
 70
     0
102
RTVSPropertyOp14
 70
     2
102
RTVSPropertyOp15
 70
     0
102
RTVSPropertyOp16
 70
     0
102
RTVSPropertyOp17
 70
     0
102
RTVSPropertyOp18
 70
     0
102
RTVSPropertyOp19
 70
     0
102
RTVSPropertyOp20
 70
     0
102
RTVSPropertyOp21
 70
     0
102
RTVSPropertyOp22
 70
     0
102
RTVSPropertyOp23
 70
     0
102
RTVSPropertyOp24
 70
     0
102
RTVSPropertyOp25
 70
     0
102
RTVSPropertyOp26
 70
     0
102
RTVSPropertyOp27
 70
     0
102
RTVSPropertyOp28
 70
     1
102
RTVSPropertyOp29
 70
     1
102
RTVSPropertyOp30
 70
     1
102
RTVSPropertyOp31
 70
     1
102
RTVSPropertyOp32
 70
     1
102
RTVSPropertyOp33
 70
     1
102
RTVSPropertyOp34
 70
     1
102
RTVSPropertyOp35
 70
     1
102
RTVSPropertyOp36
 70
     1
102
RTVSPropertyOp37
 70
     0
102
RTVSPropertyOp38
 70
     0
102
RTVSPropertyOp39
 70
     0
102
RTVSPropertyOp40
 70
     0
102
RTVSPropertyOp41
 70
     0
102
RTVSPropertyOp42
 70
     0
102
RTVSPropertyOp43
 70
     0
102
RTVSPropertyOp44
 70
     0
102
RTVSPropertyOp45
 70
     1
102
RTVSPropertyOp46
 70
     0
102
RTVSPropertyOp47
 70
     0
102
RTVSPropertyOp48
 70
     0
102
RTVSPropertyOp49
 70
     1
102
RTVSPropertyOp50
 70
     0
102
RTVSPropertyOp51
 70
     0
102
RTVSPropertyOp52
 70
     0
102
RTVSPropertyOp53
 70
     0
102
RTVSPropertyOp54
 70
     0
102
RTVSPropertyOp55
 70
     1
102
RTVSPropertyOp56
 70
     0
102
RTVSPropertyOp57
 70
     0
102
RTVSPropertyOp58
 70
     0
102
RTVSPropertyOp59
 70
     0
102
RTVSPropertyOp60
 70
     0
102
RTVSPropertyOp61
 70
     0
102
RTVSPropertyOp62
 70
     0
  0
XRECORD
  5
28EC
102
{ACAD_REACTORS
330
28EB
102
}
330
28EB
100
AcDbXrecord
280
     1
102
RTVSPost2010Prop28
280
     0
102
RTVSPost2010PropOp28
 70
     1
102
RTVSPost2010Prop29
280
     1
102
RTVSPost2010PropOp29
 70
     1
102
RTVSPost2010Prop30
280
     1
102
RTVSPost2010PropOp30
 70
     1
102
RTVSPost2010Prop31
280
     0
102
RTVSPost2010PropOp31
 70
     1
102
RTVSPost2010Prop32
280
     0
102
RTVSPost2010PropOp32
 70
     1
102
RTVSPost2010Prop33
280
     0
102
RTVSPost2010PropOp33
 70
     1
102
RTVSPost2010Prop34
280
     0
102
RTVSPost2010PropOp34
 70
     1
102
RTVSPost2010Prop35
280
     0
102
RTVSPost2010PropOp35
 70
     1
102
RTVSPost2010Prop36
280
     0
102
RTVSPost2010PropOp36
 70
     1
102
RTVSPost2010Prop37
 90
       50
102
RTVSPost2010PropOp37
 70
     1
102
RTVSPost2010Prop38
140
0.0
102
RTVSPost2010PropOp38
 70
     1
102
RTVSPost2010Prop39
140
1.0
102
RTVSPost2010PropOp39
 70
     1
102
RTVSPost2010Prop40
 90
        0
102
RTVSPost2010PropOp40
 70
     1
102
RTVSPost2010Prop41ColorIndex
 90
       18
102
RTVSPost2010Prop41ColorRGB
 90
        0
102
RTVSPost2010PropOp41
 70
     1
102
RTVSPost2010Prop42
 90
       50
102
RTVSPost2010PropOp42
 70
     1
102
RTVSPost2010Prop43
 90
        3
102
RTVSPost2010PropOp43
 70
     1
102
RTVSPost2010Prop44ColorIndex
 90
        5
102
RTVSPost2010Prop44ColorRGB
 90
      255
102
RTVSPost2010PropOp44
 70
     1
102
RTVSPost2010Prop45
280
     0
102
RTVSPost2010PropOp45
 70
     1
102
RTVSPost2010Prop46
 90
       50
102
RTVSPost2010PropOp46
 70
     1
102
RTVSPost2010Prop47
 90
       50
102
RTVSPost2010PropOp47
 70
     1
102
RTVSPost2010Prop48
 90
       50
102
RTVSPost2010PropOp48
 70
     1
102
RTVSPost2010Prop49
280
     0
102
RTVSPost2010PropOp49
 70
     1
102
RTVSPost2010Prop50
 90
       50
102
RTVSPost2010PropOp50
 70
     1
102
RTVSPost2010Prop51ColorIndex
 90
      256
102
RTVSPost2010Prop51ColorRGB
 90
-16777216
102
RTVSPost2010PropOp51
 70
     0
102
RTVSPost2010Prop52
140
1.0
102
RTVSPost2010PropOp52
 70
     0
102
RTVSPost2010Prop53
 90
        2
102
RTVSPost2010PropOp53
 70
     1
102
RTVSPost2010Prop54
  1
strokes_ogs.tif
102
RTVSPost2010PropOp54
 70
     1
102
RTVSPost2010Prop55
280
     0
102
RTVSPost2010PropOp55
 70
     1
102
RTVSPost2010Prop56
140
1.0
102
RTVSPost2010PropOp56
 70
     1
102
RTVSPost2010Prop57
140
1.0
102
RTVSPost2010PropOp57
 70
     1
102
RTVSPropertyOp0
 70
     1
102
RTVSPropertyOp1
 70
     1
102
RTVSPropertyOp2
 70
     1
102
RTVSPropertyOp3
 70
     1
102
RTVSPropertyOp4
 70
     1
102
RTVSPropertyOp5
 70
     1
102
RTVSPropertyOp6
 70
     1
102
RTVSPropertyOp7
 70
     1
102
RTVSPropertyOp8
 70
     1
102
RTVSPropertyOp9
 70
     1
102
RTVSPropertyOp10
 70
     1
102
RTVSPropertyOp11
 70
     1
102
RTVSPropertyOp12
 70
     1
102
RTVSPropertyOp13
 70
     1
102
RTVSPropertyOp14
 70
     1
102
RTVSPropertyOp15
 70
     1
102
RTVSPropertyOp16
 70
     1
102
RTVSPropertyOp17
 70
     1
102
RTVSPropertyOp18
 70
     1
102
RTVSPropertyOp19
 70
     1
102
RTVSPropertyOp20
 70
     1
102
RTVSPropertyOp21
 70
     1
102
RTVSPropertyOp22
 70
     1
102
RTVSPropertyOp23
 70
     1
102
RTVSPropertyOp24
 70
     1
102
RTVSPropertyOp25
 70
     1
102
RTVSPropertyOp26
 70
     1
102
RTVSPropertyOp27
 70
     1
102
RTVSPropertyOp28
 70
     1
102
RTVSPropertyOp29
 70
     1
102
RTVSPropertyOp30
 70
     1
102
RTVSPropertyOp31
 70
     1
102
RTVSPropertyOp32
 70
     1
102
RTVSPropertyOp33
 70
     1
102
RTVSPropertyOp34
 70
     1
102
RTVSPropertyOp35
 70
     1
102
RTVSPropertyOp36
 70
     1
102
RTVSPropertyOp37
 70
     1
102
RTVSPropertyOp38
 70
     1
102
RTVSPropertyOp39
 70
     1
102
RTVSPropertyOp40
 70
     1
102
RTVSPropertyOp41
 70
     1
102
RTVSPropertyOp42
 70
     1
102
RTVSPropertyOp43
 70
     1
102
RTVSPropertyOp44
 70
     1
102
RTVSPropertyOp45
 70
     1
102
RTVSPropertyOp46
 70
     1
102
RTVSPropertyOp47
 70
     1
102
RTVSPropertyOp48
 70
     1
102
RTVSPropertyOp49
 70
     1
102
RTVSPropertyOp50
 70
     1
102
RTVSPropertyOp51
 70
     0
102
RTVSPropertyOp52
 70
     0
102
RTVSPropertyOp53
 70
     1
102
RTVSPropertyOp54
 70
     1
102
RTVSPropertyOp55
 70
     1
102
RTVSPropertyOp56
 70
     1
102
RTVSPropertyOp57
 70
     1
102
RTVSPropertyOp58
 70
     1
102
RTVSPropertyOp59
 70
     1
102
RTVSPropertyOp60
 70
     1
102
RTVSPropertyOp61
 70
     1
102
RTVSPropertyOp62
 70
     1
  0
XRECORD
  5
2902
102
{ACAD_REACTORS
330
2901
102
}
330
2901
100
AcDbXrecord
280
     1
102
RTVSPost2010Prop28
280
     0
102
RTVSPost2010PropOp28
 70
     1
102
RTVSPost2010Prop29
280
     1
102
RTVSPost2010PropOp29
 70
     1
102
RTVSPost2010Prop30
280
     1
102
RTVSPost2010PropOp30
 70
     1
102
RTVSPost2010Prop31
280
     0
102
RTVSPost2010PropOp31
 70
     1
102
RTVSPost2010Prop32
280
     0
102
RTVSPost2010PropOp32
 70
     1
102
RTVSPost2010Prop33
280
     0
102
RTVSPost2010PropOp33
 70
     1
102
RTVSPost2010Prop34
280
     0
102
RTVSPost2010PropOp34
 70
     1
102
RTVSPost2010Prop35
280
     0
102
RTVSPost2010PropOp35
 70
     1
102
RTVSPost2010Prop36
280
     0
102
RTVSPost2010PropOp36
 70
     1
102
RTVSPost2010Prop37
 90
       50
102
RTVSPost2010PropOp37
 70
     1
102
RTVSPost2010Prop38
140
0.0
102
RTVSPost2010PropOp38
 70
     1
102
RTVSPost2010Prop39
140
1.0
102
RTVSPost2010PropOp39
 70
     1
102
RTVSPost2010Prop40
 90
        0
102
RTVSPost2010PropOp40
 70
     1
102
RTVSPost2010Prop41ColorIndex
 90
       18
102
RTVSPost2010Prop41ColorRGB
 90
        0
102
RTVSPost2010PropOp41
 70
     1
102
RTVSPost2010Prop42
 90
       50
102
RTVSPost2010PropOp42
 70
     1
102
RTVSPost2010Prop43
 90
        3
102
RTVSPost2010PropOp43
 70
     1
102
RTVSPost2010Prop44ColorIndex
 90
        5
102
RTVSPost2010Prop44ColorRGB
 90
      255
102
RTVSPost2010PropOp44
 70
     1
102
RTVSPost2010Prop45
280
     0
102
RTVSPost2010PropOp45
 70
     1
102
RTVSPost2010Prop46
 90
       50
102
RTVSPost2010PropOp46
 70
     1
102
RTVSPost2010Prop47
 90
       50
102
RTVSPost2010PropOp47
 70
     1
102
RTVSPost2010Prop48
 90
       50
102
RTVSPost2010PropOp48
 70
     1
102
RTVSPost2010Prop49
280
     0
102
RTVSPost2010PropOp49
 70
     1
102
RTVSPost2010Prop50
 90
       50
102
RTVSPost2010PropOp50
 70
     1
102
RTVSPost2010Prop51ColorIndex
 90
      256
102
RTVSPost2010Prop51ColorRGB
 90
-16777216
102
RTVSPost2010PropOp51
 70
     0
102
RTVSPost2010Prop52
140
1.0
102
RTVSPost2010PropOp52
 70
     0
102
RTVSPost2010Prop53
 90
        2
102
RTVSPost2010PropOp53
 70
     1
102
RTVSPost2010Prop54
  1
strokes_ogs.tif
102
RTVSPost2010PropOp54
 70
     1
102
RTVSPost2010Prop55
280
     0
102
RTVSPost2010PropOp55
 70
     1
102
RTVSPost2010Prop56
140
1.0
102
RTVSPost2010PropOp56
 70
     1
102
RTVSPost2010Prop57
140
1.0
102
RTVSPost2010PropOp57
 70
     1
102
RTVSPropertyOp0
 70
     1
102
RTVSPropertyOp1
 70
     1
102
RTVSPropertyOp2
 70
     1
102
RTVSPropertyOp3
 70
     1
102
RTVSPropertyOp4
 70
     1
102
RTVSPropertyOp5
 70
     1
102
RTVSPropertyOp6
 70
     1
102
RTVSPropertyOp7
 70
     1
102
RTVSPropertyOp8
 70
     1
102
RTVSPropertyOp9
 70
     1
102
RTVSPropertyOp10
 70
     1
102
RTVSPropertyOp11
 70
     1
102
RTVSPropertyOp12
 70
     1
102
RTVSPropertyOp13
 70
     1
102
RTVSPropertyOp14
 70
     1
102
RTVSPropertyOp15
 70
     1
102
RTVSPropertyOp16
 70
     1
102
RTVSPropertyOp17
 70
     1
102
RTVSPropertyOp18
 70
     1
102
RTVSPropertyOp19
 70
     1
102
RTVSPropertyOp20
 70
     1
102
RTVSPropertyOp21
 70
     1
102
RTVSPropertyOp22
 70
     1
102
RTVSPropertyOp23
 70
     1
102
RTVSPropertyOp24
 70
     1
102
RTVSPropertyOp25
 70
     1
102
RTVSPropertyOp26
 70
     1
102
RTVSPropertyOp27
 70
     1
102
RTVSPropertyOp28
 70
     1
102
RTVSPropertyOp29
 70
     1
102
RTVSPropertyOp30
 70
     1
102
RTVSPropertyOp31
 70
     1
102
RTVSPropertyOp32
 70
     1
102
RTVSPropertyOp33
 70
     1
102
RTVSPropertyOp34
 70
     1
102
RTVSPropertyOp35
 70
     1
102
RTVSPropertyOp36
 70
     1
102
RTVSPropertyOp37
 70
     1
102
RTVSPropertyOp38
 70
     1
102
RTVSPropertyOp39
 70
     1
102
RTVSPropertyOp40
 70
     1
102
RTVSPropertyOp41
 70
     1
102
RTVSPropertyOp42
 70
     1
102
RTVSPropertyOp43
 70
     1
102
RTVSPropertyOp44
 70
     1
102
RTVSPropertyOp45
 70
     1
102
RTVSPropertyOp46
 70
     1
102
RTVSPropertyOp47
 70
     1
102
RTVSPropertyOp48
 70
     1
102
RTVSPropertyOp49
 70
     1
102
RTVSPropertyOp50
 70
     1
102
RTVSPropertyOp51
 70
     0
102
RTVSPropertyOp52
 70
     0
102
RTVSPropertyOp53
 70
     1
102
RTVSPropertyOp54
 70
     1
102
RTVSPropertyOp55
 70
     1
102
RTVSPropertyOp56
 70
     1
102
RTVSPropertyOp57
 70
     1
102
RTVSPropertyOp58
 70
     1
102
RTVSPropertyOp59
 70
     1
102
RTVSPropertyOp60
 70
     1
102
RTVSPropertyOp61
 70
     1
102
RTVSPropertyOp62
 70
     1
  0
XRECORD
  5
2900
102
{ACAD_REACTORS
330
28FF
102
}
330
28FF
100
AcDbXrecord
280
     1
102
RTVSPost2010Prop28
280
     0
102
RTVSPost2010PropOp28
 70
     1
102
RTVSPost2010Prop29
280
     1
102
RTVSPost2010PropOp29
 70
     1
102
RTVSPost2010Prop30
280
     1
102
RTVSPost2010PropOp30
 70
     1
102
RTVSPost2010Prop31
280
     0
102
RTVSPost2010PropOp31
 70
     1
102
RTVSPost2010Prop32
280
     0
102
RTVSPost2010PropOp32
 70
     1
102
RTVSPost2010Prop33
280
     0
102
RTVSPost2010PropOp33
 70
     1
102
RTVSPost2010Prop34
280
     0
102
RTVSPost2010PropOp34
 70
     1
102
RTVSPost2010Prop35
280
     0
102
RTVSPost2010PropOp35
 70
     1
102
RTVSPost2010Prop36
280
     0
102
RTVSPost2010PropOp36
 70
     1
102
RTVSPost2010Prop37
 90
       50
102
RTVSPost2010PropOp37
 70
     1
102
RTVSPost2010Prop38
140
0.0
102
RTVSPost2010PropOp38
 70
     1
102
RTVSPost2010Prop39
140
1.0
102
RTVSPost2010PropOp39
 70
     1
102
RTVSPost2010Prop40
 90
        0
102
RTVSPost2010PropOp40
 70
     1
102
RTVSPost2010Prop41ColorIndex
 90
       18
102
RTVSPost2010Prop41ColorRGB
 90
        0
102
RTVSPost2010PropOp41
 70
     1
102
RTVSPost2010Prop42
 90
       50
102
RTVSPost2010PropOp42
 70
     1
102
RTVSPost2010Prop43
 90
        3
102
RTVSPost2010PropOp43
 70
     1
102
RTVSPost2010Prop44ColorIndex
 90
        5
102
RTVSPost2010Prop44ColorRGB
 90
      255
102
RTVSPost2010PropOp44
 70
     1
102
RTVSPost2010Prop45
280
     0
102
RTVSPost2010PropOp45
 70
     1
102
RTVSPost2010Prop46
 90
       50
102
RTVSPost2010PropOp46
 70
     1
102
RTVSPost2010Prop47
 90
       50
102
RTVSPost2010PropOp47
 70
     1
102
RTVSPost2010Prop48
 90
       50
102
RTVSPost2010PropOp48
 70
     1
102
RTVSPost2010Prop49
280
     0
102
RTVSPost2010PropOp49
 70
     1
102
RTVSPost2010Prop50
 90
       50
102
RTVSPost2010PropOp50
 70
     1
102
RTVSPost2010Prop51ColorIndex
 90
      256
102
RTVSPost2010Prop51ColorRGB
 90
-16777216
102
RTVSPost2010PropOp51
 70
     0
102
RTVSPost2010Prop52
140
1.0
102
RTVSPost2010PropOp52
 70
     0
102
RTVSPost2010Prop53
 90
        2
102
RTVSPost2010PropOp53
 70
     1
102
RTVSPost2010Prop54
  1
strokes_ogs.tif
102
RTVSPost2010PropOp54
 70
     1
102
RTVSPost2010Prop55
280
     0
102
RTVSPost2010PropOp55
 70
     1
102
RTVSPost2010Prop56
140
1.0
102
RTVSPost2010PropOp56
 70
     1
102
RTVSPost2010Prop57
140
1.0
102
RTVSPost2010PropOp57
 70
     1
102
RTVSPropertyOp0
 70
     1
102
RTVSPropertyOp1
 70
     1
102
RTVSPropertyOp2
 70
     1
102
RTVSPropertyOp3
 70
     1
102
RTVSPropertyOp4
 70
     1
102
RTVSPropertyOp5
 70
     1
102
RTVSPropertyOp6
 70
     1
102
RTVSPropertyOp7
 70
     1
102
RTVSPropertyOp8
 70
     1
102
RTVSPropertyOp9
 70
     1
102
RTVSPropertyOp10
 70
     1
102
RTVSPropertyOp11
 70
     1
102
RTVSPropertyOp12
 70
     1
102
RTVSPropertyOp13
 70
     1
102
RTVSPropertyOp14
 70
     1
102
RTVSPropertyOp15
 70
     1
102
RTVSPropertyOp16
 70
     1
102
RTVSPropertyOp17
 70
     1
102
RTVSPropertyOp18
 70
     1
102
RTVSPropertyOp19
 70
     1
102
RTVSPropertyOp20
 70
     1
102
RTVSPropertyOp21
 70
     1
102
RTVSPropertyOp22
 70
     1
102
RTVSPropertyOp23
 70
     1
102
RTVSPropertyOp24
 70
     1
102
RTVSPropertyOp25
 70
     1
102
RTVSPropertyOp26
 70
     1
102
RTVSPropertyOp27
 70
     1
102
RTVSPropertyOp28
 70
     1
102
RTVSPropertyOp29
 70
     1
102
RTVSPropertyOp30
 70
     1
102
RTVSPropertyOp31
 70
     1
102
RTVSPropertyOp32
 70
     1
102
RTVSPropertyOp33
 70
     1
102
RTVSPropertyOp34
 70
     1
102
RTVSPropertyOp35
 70
     1
102
RTVSPropertyOp36
 70
     1
102
RTVSPropertyOp37
 70
     1
102
RTVSPropertyOp38
 70
     1
102
RTVSPropertyOp39
 70
     1
102
RTVSPropertyOp40
 70
     1
102
RTVSPropertyOp41
 70
     1
102
RTVSPropertyOp42
 70
     1
102
RTVSPropertyOp43
 70
     1
102
RTVSPropertyOp44
 70
     1
102
RTVSPropertyOp45
 70
     1
102
RTVSPropertyOp46
 70
     1
102
RTVSPropertyOp47
 70
     1
102
RTVSPropertyOp48
 70
     1
102
RTVSPropertyOp49
 70
     1
102
RTVSPropertyOp50
 70
     1
102
RTVSPropertyOp51
 70
     0
102
RTVSPropertyOp52
 70
     0
102
RTVSPropertyOp53
 70
     1
102
RTVSPropertyOp54
 70
     1
102
RTVSPropertyOp55
 70
     1
102
RTVSPropertyOp56
 70
     1
102
RTVSPropertyOp57
 70
     1
102
RTVSPropertyOp58
 70
     1
102
RTVSPropertyOp59
 70
     1
102
RTVSPropertyOp60
 70
     1
102
RTVSPropertyOp61
 70
     1
102
RTVSPropertyOp62
 70
     1
  0
XRECORD
  5
28FA
102
{ACAD_REACTORS
330
28F9
102
}
330
28F9
100
AcDbXrecord
280
     1
102
RTVSPost2010Prop28
280
     0
102
RTVSPost2010PropOp28
 70
     1
102
RTVSPost2010Prop29
280
     1
102
RTVSPost2010PropOp29
 70
     1
102
RTVSPost2010Prop30
280
     1
102
RTVSPost2010PropOp30
 70
     1
102
RTVSPost2010Prop31
280
     0
102
RTVSPost2010PropOp31
 70
     1
102
RTVSPost2010Prop32
280
     0
102
RTVSPost2010PropOp32
 70
     1
102
RTVSPost2010Prop33
280
     0
102
RTVSPost2010PropOp33
 70
     1
102
RTVSPost2010Prop34
280
     0
102
RTVSPost2010PropOp34
 70
     1
102
RTVSPost2010Prop35
280
     0
102
RTVSPost2010PropOp35
 70
     1
102
RTVSPost2010Prop36
280
     0
102
RTVSPost2010PropOp36
 70
     1
102
RTVSPost2010Prop37
 90
       50
102
RTVSPost2010PropOp37
 70
     1
102
RTVSPost2010Prop38
140
0.0
102
RTVSPost2010PropOp38
 70
     1
102
RTVSPost2010Prop39
140
1.0
102
RTVSPost2010PropOp39
 70
     1
102
RTVSPost2010Prop40
 90
        0
102
RTVSPost2010PropOp40
 70
     1
102
RTVSPost2010Prop41ColorIndex
 90
       18
102
RTVSPost2010Prop41ColorRGB
 90
        0
102
RTVSPost2010PropOp41
 70
     1
102
RTVSPost2010Prop42
 90
       50
102
RTVSPost2010PropOp42
 70
     1
102
RTVSPost2010Prop43
 90
        3
102
RTVSPost2010PropOp43
 70
     1
102
RTVSPost2010Prop44ColorIndex
 90
        5
102
RTVSPost2010Prop44ColorRGB
 90
      255
102
RTVSPost2010PropOp44
 70
     1
102
RTVSPost2010Prop45
280
     0
102
RTVSPost2010PropOp45
 70
     1
102
RTVSPost2010Prop46
 90
       50
102
RTVSPost2010PropOp46
 70
     1
102
RTVSPost2010Prop47
 90
       50
102
RTVSPost2010PropOp47
 70
     1
102
RTVSPost2010Prop48
 90
       50
102
RTVSPost2010PropOp48
 70
     1
102
RTVSPost2010Prop49
280
     0
102
RTVSPost2010PropOp49
 70
     1
102
RTVSPost2010Prop50
 90
       50
102
RTVSPost2010PropOp50
 70
     1
102
RTVSPost2010Prop51ColorIndex
 90
      256
102
RTVSPost2010Prop51ColorRGB
 90
-16777216
102
RTVSPost2010PropOp51
 70
     0
102
RTVSPost2010Prop52
140
1.0
102
RTVSPost2010PropOp52
 70
     0
102
RTVSPost2010Prop53
 90
        2
102
RTVSPost2010PropOp53
 70
     1
102
RTVSPost2010Prop54
  1
strokes_ogs.tif
102
RTVSPost2010PropOp54
 70
     1
102
RTVSPost2010Prop55
280
     0
102
RTVSPost2010PropOp55
 70
     1
102
RTVSPost2010Prop56
140
1.0
102
RTVSPost2010PropOp56
 70
     1
102
RTVSPost2010Prop57
140
1.0
102
RTVSPost2010PropOp57
 70
     1
102
RTVSPropertyOp0
 70
     1
102
RTVSPropertyOp1
 70
     1
102
RTVSPropertyOp2
 70
     1
102
RTVSPropertyOp3
 70
     1
102
RTVSPropertyOp4
 70
     1
102
RTVSPropertyOp5
 70
     1
102
RTVSPropertyOp6
 70
     1
102
RTVSPropertyOp7
 70
     1
102
RTVSPropertyOp8
 70
     1
102
RTVSPropertyOp9
 70
     1
102
RTVSPropertyOp10
 70
     1
102
RTVSPropertyOp11
 70
     1
102
RTVSPropertyOp12
 70
     1
102
RTVSPropertyOp13
 70
     1
102
RTVSPropertyOp14
 70
     1
102
RTVSPropertyOp15
 70
     1
102
RTVSPropertyOp16
 70
     1
102
RTVSPropertyOp17
 70
     1
102
RTVSPropertyOp18
 70
     1
102
RTVSPropertyOp19
 70
     1
102
RTVSPropertyOp20
 70
     1
102
RTVSPropertyOp21
 70
     1
102
RTVSPropertyOp22
 70
     1
102
RTVSPropertyOp23
 70
     1
102
RTVSPropertyOp24
 70
     1
102
RTVSPropertyOp25
 70
     1
102
RTVSPropertyOp26
 70
     1
102
RTVSPropertyOp27
 70
     1
102
RTVSPropertyOp28
 70
     1
102
RTVSPropertyOp29
 70
     1
102
RTVSPropertyOp30
 70
     1
102
RTVSPropertyOp31
 70
     1
102
RTVSPropertyOp32
 70
     1
102
RTVSPropertyOp33
 70
     1
102
RTVSPropertyOp34
 70
     1
102
RTVSPropertyOp35
 70
     1
102
RTVSPropertyOp36
 70
     1
102
RTVSPropertyOp37
 70
     1
102
RTVSPropertyOp38
 70
     1
102
RTVSPropertyOp39
 70
     1
102
RTVSPropertyOp40
 70
     1
102
RTVSPropertyOp41
 70
     1
102
RTVSPropertyOp42
 70
     1
102
RTVSPropertyOp43
 70
     1
102
RTVSPropertyOp44
 70
     1
102
RTVSPropertyOp45
 70
     1
102
RTVSPropertyOp46
 70
     1
102
RTVSPropertyOp47
 70
     1
102
RTVSPropertyOp48
 70
     1
102
RTVSPropertyOp49
 70
     1
102
RTVSPropertyOp50
 70
     1
102
RTVSPropertyOp51
 70
     0
102
RTVSPropertyOp52
 70
     0
102
RTVSPropertyOp53
 70
     1
102
RTVSPropertyOp54
 70
     1
102
RTVSPropertyOp55
 70
     1
102
RTVSPropertyOp56
 70
     1
102
RTVSPropertyOp57
 70
     1
102
RTVSPropertyOp58
 70
     1
102
RTVSPropertyOp59
 70
     1
102
RTVSPropertyOp60
 70
     1
102
RTVSPropertyOp61
 70
     1
102
RTVSPropertyOp62
 70
     1
  0
XRECORD
  5
28FC
102
{ACAD_REACTORS
330
28FB
102
}
330
28FB
100
AcDbXrecord
280
     1
102
RTVSPost2010Prop28
280
     0
102
RTVSPost2010PropOp28
 70
     1
102
RTVSPost2010Prop29
280
     1
102
RTVSPost2010PropOp29
 70
     1
102
RTVSPost2010Prop30
280
     1
102
RTVSPost2010PropOp30
 70
     1
102
RTVSPost2010Prop31
280
     0
102
RTVSPost2010PropOp31
 70
     1
102
RTVSPost2010Prop32
280
     0
102
RTVSPost2010PropOp32
 70
     1
102
RTVSPost2010Prop33
280
     0
102
RTVSPost2010PropOp33
 70
     1
102
RTVSPost2010Prop34
280
     0
102
RTVSPost2010PropOp34
 70
     1
102
RTVSPost2010Prop35
280
     0
102
RTVSPost2010PropOp35
 70
     1
102
RTVSPost2010Prop36
280
     0
102
RTVSPost2010PropOp36
 70
     1
102
RTVSPost2010Prop37
 90
       50
102
RTVSPost2010PropOp37
 70
     1
102
RTVSPost2010Prop38
140
0.0
102
RTVSPost2010PropOp38
 70
     1
102
RTVSPost2010Prop39
140
1.0
102
RTVSPost2010PropOp39
 70
     1
102
RTVSPost2010Prop40
 90
        0
102
RTVSPost2010PropOp40
 70
     1
102
RTVSPost2010Prop41ColorIndex
 90
       18
102
RTVSPost2010Prop41ColorRGB
 90
        0
102
RTVSPost2010PropOp41
 70
     1
102
RTVSPost2010Prop42
 90
       50
102
RTVSPost2010PropOp42
 70
     1
102
RTVSPost2010Prop43
 90
        3
102
RTVSPost2010PropOp43
 70
     1
102
RTVSPost2010Prop44ColorIndex
 90
        5
102
RTVSPost2010Prop44ColorRGB
 90
      255
102
RTVSPost2010PropOp44
 70
     1
102
RTVSPost2010Prop45
280
     0
102
RTVSPost2010PropOp45
 70
     1
102
RTVSPost2010Prop46
 90
       50
102
RTVSPost2010PropOp46
 70
     1
102
RTVSPost2010Prop47
 90
       50
102
RTVSPost2010PropOp47
 70
     1
102
RTVSPost2010Prop48
 90
       50
102
RTVSPost2010PropOp48
 70
     1
102
RTVSPost2010Prop49
280
     0
102
RTVSPost2010PropOp49
 70
     1
102
RTVSPost2010Prop50
 90
       50
102
RTVSPost2010PropOp50
 70
     1
102
RTVSPost2010Prop51ColorIndex
 90
      256
102
RTVSPost2010Prop51ColorRGB
 90
-16777216
102
RTVSPost2010PropOp51
 70
     0
102
RTVSPost2010Prop52
140
1.0
102
RTVSPost2010PropOp52
 70
     0
102
RTVSPost2010Prop53
 90
        2
102
RTVSPost2010PropOp53
 70
     1
102
RTVSPost2010Prop54
  1
strokes_ogs.tif
102
RTVSPost2010PropOp54
 70
     1
102
RTVSPost2010Prop55
280
     0
102
RTVSPost2010PropOp55
 70
     1
102
RTVSPost2010Prop56
140
1.0
102
RTVSPost2010PropOp56
 70
     1
102
RTVSPost2010Prop57
140
1.0
102
RTVSPost2010PropOp57
 70
     1
102
RTVSPropertyOp0
 70
     1
102
RTVSPropertyOp1
 70
     1
102
RTVSPropertyOp2
 70
     1
102
RTVSPropertyOp3
 70
     1
102
RTVSPropertyOp4
 70
     1
102
RTVSPropertyOp5
 70
     1
102
RTVSPropertyOp6
 70
     1
102
RTVSPropertyOp7
 70
     1
102
RTVSPropertyOp8
 70
     1
102
RTVSPropertyOp9
 70
     1
102
RTVSPropertyOp10
 70
     1
102
RTVSPropertyOp11
 70
     1
102
RTVSPropertyOp12
 70
     1
102
RTVSPropertyOp13
 70
     1
102
RTVSPropertyOp14
 70
     1
102
RTVSPropertyOp15
 70
     1
102
RTVSPropertyOp16
 70
     1
102
RTVSPropertyOp17
 70
     1
102
RTVSPropertyOp18
 70
     1
102
RTVSPropertyOp19
 70
     1
102
RTVSPropertyOp20
 70
     1
102
RTVSPropertyOp21
 70
     1
102
RTVSPropertyOp22
 70
     1
102
RTVSPropertyOp23
 70
     1
102
RTVSPropertyOp24
 70
     1
102
RTVSPropertyOp25
 70
     1
102
RTVSPropertyOp26
 70
     1
102
RTVSPropertyOp27
 70
     1
102
RTVSPropertyOp28
 70
     1
102
RTVSPropertyOp29
 70
     1
102
RTVSPropertyOp30
 70
     1
102
RTVSPropertyOp31
 70
     1
102
RTVSPropertyOp32
 70
     1
102
RTVSPropertyOp33
 70
     1
102
RTVSPropertyOp34
 70
     1
102
RTVSPropertyOp35
 70
     1
102
RTVSPropertyOp36
 70
     1
102
RTVSPropertyOp37
 70
     1
102
RTVSPropertyOp38
 70
     1
102
RTVSPropertyOp39
 70
     1
102
RTVSPropertyOp40
 70
     1
102
RTVSPropertyOp41
 70
     1
102
RTVSPropertyOp42
 70
     1
102
RTVSPropertyOp43
 70
     1
102
RTVSPropertyOp44
 70
     1
102
RTVSPropertyOp45
 70
     1
102
RTVSPropertyOp46
 70
     1
102
RTVSPropertyOp47
 70
     1
102
RTVSPropertyOp48
 70
     1
102
RTVSPropertyOp49
 70
     1
102
RTVSPropertyOp50
 70
     1
102
RTVSPropertyOp51
 70
     0
102
RTVSPropertyOp52
 70
     0
102
RTVSPropertyOp53
 70
     1
102
RTVSPropertyOp54
 70
     1
102
RTVSPropertyOp55
 70
     1
102
RTVSPropertyOp56
 70
     1
102
RTVSPropertyOp57
 70
     1
102
RTVSPropertyOp58
 70
     1
102
RTVSPropertyOp59
 70
     1
102
RTVSPropertyOp60
 70
     1
102
RTVSPropertyOp61
 70
     1
102
RTVSPropertyOp62
 70
     1
  0
XRECORD
  5
28F2
102
{ACAD_REACTORS
330
28F1
102
}
330
28F1
100
AcDbXrecord
280
     1
102
RTVSPost2010Prop28
280
     0
102
RTVSPost2010PropOp28
 70
     1
102
RTVSPost2010Prop29
280
     1
102
RTVSPost2010PropOp29
 70
     1
102
RTVSPost2010Prop30
280
     1
102
RTVSPost2010PropOp30
 70
     1
102
RTVSPost2010Prop31
280
     0
102
RTVSPost2010PropOp31
 70
     1
102
RTVSPost2010Prop32
280
     0
102
RTVSPost2010PropOp32
 70
     1
102
RTVSPost2010Prop33
280
     0
102
RTVSPost2010PropOp33
 70
     1
102
RTVSPost2010Prop34
280
     0
102
RTVSPost2010PropOp34
 70
     1
102
RTVSPost2010Prop35
280
     0
102
RTVSPost2010PropOp35
 70
     1
102
RTVSPost2010Prop36
280
     0
102
RTVSPost2010PropOp36
 70
     1
102
RTVSPost2010Prop37
 90
       50
102
RTVSPost2010PropOp37
 70
     1
102
RTVSPost2010Prop38
140
0.0
102
RTVSPost2010PropOp38
 70
     1
102
RTVSPost2010Prop39
140
1.0
102
RTVSPost2010PropOp39
 70
     1
102
RTVSPost2010Prop40
 90
        0
102
RTVSPost2010PropOp40
 70
     1
102
RTVSPost2010Prop41ColorIndex
 90
       18
102
RTVSPost2010Prop41ColorRGB
 90
        0
102
RTVSPost2010PropOp41
 70
     1
102
RTVSPost2010Prop42
 90
       50
102
RTVSPost2010PropOp42
 70
     1
102
RTVSPost2010Prop43
 90
        3
102
RTVSPost2010PropOp43
 70
     1
102
RTVSPost2010Prop44ColorIndex
 90
        5
102
RTVSPost2010Prop44ColorRGB
 90
      255
102
RTVSPost2010PropOp44
 70
     1
102
RTVSPost2010Prop45
280
     0
102
RTVSPost2010PropOp45
 70
     1
102
RTVSPost2010Prop46
 90
       50
102
RTVSPost2010PropOp46
 70
     1
102
RTVSPost2010Prop47
 90
       50
102
RTVSPost2010PropOp47
 70
     1
102
RTVSPost2010Prop48
 90
       50
102
RTVSPost2010PropOp48
 70
     1
102
RTVSPost2010Prop49
280
     0
102
RTVSPost2010PropOp49
 70
     1
102
RTVSPost2010Prop50
 90
       50
102
RTVSPost2010PropOp50
 70
     1
102
RTVSPost2010Prop51ColorIndex
 90
      256
102
RTVSPost2010Prop51ColorRGB
 90
-16777216
102
RTVSPost2010PropOp51
 70
     0
102
RTVSPost2010Prop52
140
1.0
102
RTVSPost2010PropOp52
 70
     0
102
RTVSPost2010Prop53
 90
        2
102
RTVSPost2010PropOp53
 70
     1
102
RTVSPost2010Prop54
  1
strokes_ogs.tif
102
RTVSPost2010PropOp54
 70
     1
102
RTVSPost2010Prop55
280
     0
102
RTVSPost2010PropOp55
 70
     1
102
RTVSPost2010Prop56
140
1.0
102
RTVSPost2010PropOp56
 70
     1
102
RTVSPost2010Prop57
140
1.0
102
RTVSPost2010PropOp57
 70
     1
102
RTVSPropertyOp0
 70
     1
102
RTVSPropertyOp1
 70
     1
102
RTVSPropertyOp2
 70
     1
102
RTVSPropertyOp3
 70
     1
102
RTVSPropertyOp4
 70
     1
102
RTVSPropertyOp5
 70
     1
102
RTVSPropertyOp6
 70
     1
102
RTVSPropertyOp7
 70
     1
102
RTVSPropertyOp8
 70
     1
102
RTVSPropertyOp9
 70
     1
102
RTVSPropertyOp10
 70
     1
102
RTVSPropertyOp11
 70
     1
102
RTVSPropertyOp12
 70
     1
102
RTVSPropertyOp13
 70
     1
102
RTVSPropertyOp14
 70
     1
102
RTVSPropertyOp15
 70
     1
102
RTVSPropertyOp16
 70
     1
102
RTVSPropertyOp17
 70
     1
102
RTVSPropertyOp18
 70
     1
102
RTVSPropertyOp19
 70
     1
102
RTVSPropertyOp20
 70
     1
102
RTVSPropertyOp21
 70
     1
102
RTVSPropertyOp22
 70
     1
102
RTVSPropertyOp23
 70
     1
102
RTVSPropertyOp24
 70
     1
102
RTVSPropertyOp25
 70
     1
102
RTVSPropertyOp26
 70
     1
102
RTVSPropertyOp27
 70
     1
102
RTVSPropertyOp28
 70
     1
102
RTVSPropertyOp29
 70
     1
102
RTVSPropertyOp30
 70
     1
102
RTVSPropertyOp31
 70
     1
102
RTVSPropertyOp32
 70
     1
102
RTVSPropertyOp33
 70
     1
102
RTVSPropertyOp34
 70
     1
102
RTVSPropertyOp35
 70
     1
102
RTVSPropertyOp36
 70
     1
102
RTVSPropertyOp37
 70
     1
102
RTVSPropertyOp38
 70
     1
102
RTVSPropertyOp39
 70
     1
102
RTVSPropertyOp40
 70
     1
102
RTVSPropertyOp41
 70
     1
102
RTVSPropertyOp42
 70
     1
102
RTVSPropertyOp43
 70
     1
102
RTVSPropertyOp44
 70
     1
102
RTVSPropertyOp45
 70
     1
102
RTVSPropertyOp46
 70
     1
102
RTVSPropertyOp47
 70
     1
102
RTVSPropertyOp48
 70
     1
102
RTVSPropertyOp49
 70
     1
102
RTVSPropertyOp50
 70
     1
102
RTVSPropertyOp51
 70
     0
102
RTVSPropertyOp52
 70
     0
102
RTVSPropertyOp53
 70
     1
102
RTVSPropertyOp54
 70
     1
102
RTVSPropertyOp55
 70
     1
102
RTVSPropertyOp56
 70
     1
102
RTVSPropertyOp57
 70
     1
102
RTVSPropertyOp58
 70
     1
102
RTVSPropertyOp59
 70
     1
102
RTVSPropertyOp60
 70
     1
102
RTVSPropertyOp61
 70
     1
102
RTVSPropertyOp62
 70
     1
  0
XRECORD
  5
28E6
102
{ACAD_REACTORS
330
28E5
102
}
330
28E5
100
AcDbXrecord
280
     1
102
RTVSPost2010Prop28
280
     0
102
RTVSPost2010PropOp28
 70
     1
102
RTVSPost2010Prop29
280
     1
102
RTVSPost2010PropOp29
 70
     1
102
RTVSPost2010Prop30
280
     1
102
RTVSPost2010PropOp30
 70
     1
102
RTVSPost2010Prop31
280
     0
102
RTVSPost2010PropOp31
 70
     1
102
RTVSPost2010Prop32
280
     0
102
RTVSPost2010PropOp32
 70
     1
102
RTVSPost2010Prop33
280
     0
102
RTVSPost2010PropOp33
 70
     1
102
RTVSPost2010Prop34
280
     0
102
RTVSPost2010PropOp34
 70
     1
102
RTVSPost2010Prop35
280
     0
102
RTVSPost2010PropOp35
 70
     1
102
RTVSPost2010Prop36
280
     0
102
RTVSPost2010PropOp36
 70
     1
102
RTVSPost2010Prop37
 90
       50
102
RTVSPost2010PropOp37
 70
     1
102
RTVSPost2010Prop38
140
0.0
102
RTVSPost2010PropOp38
 70
     1
102
RTVSPost2010Prop39
140
1.0
102
RTVSPost2010PropOp39
 70
     1
102
RTVSPost2010Prop40
 90
        0
102
RTVSPost2010PropOp40
 70
     1
102
RTVSPost2010Prop41ColorIndex
 90
       18
102
RTVSPost2010Prop41ColorRGB
 90
        0
102
RTVSPost2010PropOp41
 70
     1
102
RTVSPost2010Prop42
 90
       50
102
RTVSPost2010PropOp42
 70
     1
102
RTVSPost2010Prop43
 90
        3
102
RTVSPost2010PropOp43
 70
     1
102
RTVSPost2010Prop44ColorIndex
 90
        5
102
RTVSPost2010Prop44ColorRGB
 90
      255
102
RTVSPost2010PropOp44
 70
     1
102
RTVSPost2010Prop45
280
     0
102
RTVSPost2010PropOp45
 70
     1
102
RTVSPost2010Prop46
 90
       50
102
RTVSPost2010PropOp46
 70
     1
102
RTVSPost2010Prop47
 90
       50
102
RTVSPost2010PropOp47
 70
     1
102
RTVSPost2010Prop48
 90
       50
102
RTVSPost2010PropOp48
 70
     1
102
RTVSPost2010Prop49
280
     0
102
RTVSPost2010PropOp49
 70
     1
102
RTVSPost2010Prop50
 90
       50
102
RTVSPost2010PropOp50
 70
     1
102
RTVSPost2010Prop51ColorIndex
 90
      256
102
RTVSPost2010Prop51ColorRGB
 90
-16777216
102
RTVSPost2010PropOp51
 70
     0
102
RTVSPost2010Prop52
140
1.0
102
RTVSPost2010PropOp52
 70
     0
102
RTVSPost2010Prop53
 90
        2
102
RTVSPost2010PropOp53
 70
     1
102
RTVSPost2010Prop54
  1
strokes_ogs.tif
102
RTVSPost2010PropOp54
 70
     1
102
RTVSPost2010Prop55
280
     0
102
RTVSPost2010PropOp55
 70
     1
102
RTVSPost2010Prop56
140
1.0
102
RTVSPost2010PropOp56
 70
     1
102
RTVSPost2010Prop57
140
1.0
102
RTVSPost2010PropOp57
 70
     1
102
RTVSPropertyOp0
 70
     1
102
RTVSPropertyOp1
 70
     1
102
RTVSPropertyOp2
 70
     1
102
RTVSPropertyOp3
 70
     1
102
RTVSPropertyOp4
 70
     1
102
RTVSPropertyOp5
 70
     1
102
RTVSPropertyOp6
 70
     1
102
RTVSPropertyOp7
 70
     1
102
RTVSPropertyOp8
 70
     1
102
RTVSPropertyOp9
 70
     1
102
RTVSPropertyOp10
 70
     1
102
RTVSPropertyOp11
 70
     1
102
RTVSPropertyOp12
 70
     1
102
RTVSPropertyOp13
 70
     1
102
RTVSPropertyOp14
 70
     1
102
RTVSPropertyOp15
 70
     1
102
RTVSPropertyOp16
 70
     1
102
RTVSPropertyOp17
 70
     1
102
RTVSPropertyOp18
 70
     1
102
RTVSPropertyOp19
 70
     1
102
RTVSPropertyOp20
 70
     1
102
RTVSPropertyOp21
 70
     1
102
RTVSPropertyOp22
 70
     1
102
RTVSPropertyOp23
 70
     1
102
RTVSPropertyOp24
 70
     1
102
RTVSPropertyOp25
 70
     1
102
RTVSPropertyOp26
 70
     1
102
RTVSPropertyOp27
 70
     1
102
RTVSPropertyOp28
 70
     1
102
RTVSPropertyOp29
 70
     1
102
RTVSPropertyOp30
 70
     1
102
RTVSPropertyOp31
 70
     1
102
RTVSPropertyOp32
 70
     1
102
RTVSPropertyOp33
 70
     1
102
RTVSPropertyOp34
 70
     1
102
RTVSPropertyOp35
 70
     1
102
RTVSPropertyOp36
 70
     1
102
RTVSPropertyOp37
 70
     1
102
RTVSPropertyOp38
 70
     1
102
RTVSPropertyOp39
 70
     1
102
RTVSPropertyOp40
 70
     1
102
RTVSPropertyOp41
 70
     1
102
RTVSPropertyOp42
 70
     1
102
RTVSPropertyOp43
 70
     1
102
RTVSPropertyOp44
 70
     1
102
RTVSPropertyOp45
 70
     1
102
RTVSPropertyOp46
 70
     1
102
RTVSPropertyOp47
 70
     1
102
RTVSPropertyOp48
 70
     1
102
RTVSPropertyOp49
 70
     1
102
RTVSPropertyOp50
 70
     1
102
RTVSPropertyOp51
 70
     0
102
RTVSPropertyOp52
 70
     0
102
RTVSPropertyOp53
 70
     1
102
RTVSPropertyOp54
 70
     1
102
RTVSPropertyOp55
 70
     1
102
RTVSPropertyOp56
 70
     1
102
RTVSPropertyOp57
 70
     1
102
RTVSPropertyOp58
 70
     1
102
RTVSPropertyOp59
 70
     1
102
RTVSPropertyOp60
 70
     1
102
RTVSPropertyOp61
 70
     1
102
RTVSPropertyOp62
 70
     1
  0
XRECORD
  5
28FE
102
{ACAD_REACTORS
330
28FD
102
}
330
28FD
100
AcDbXrecord
280
     1
102
RTVSPost2010Prop28
280
     0
102
RTVSPost2010PropOp28
 70
     1
102
RTVSPost2010Prop29
280
     1
102
RTVSPost2010PropOp29
 70
     1
102
RTVSPost2010Prop30
280
     1
102
RTVSPost2010PropOp30
 70
     1
102
RTVSPost2010Prop31
280
     0
102
RTVSPost2010PropOp31
 70
     1
102
RTVSPost2010Prop32
280
     0
102
RTVSPost2010PropOp32
 70
     1
102
RTVSPost2010Prop33
280
     0
102
RTVSPost2010PropOp33
 70
     1
102
RTVSPost2010Prop34
280
     0
102
RTVSPost2010PropOp34
 70
     1
102
RTVSPost2010Prop35
280
     0
102
RTVSPost2010PropOp35
 70
     1
102
RTVSPost2010Prop36
280
     0
102
RTVSPost2010PropOp36
 70
     1
102
RTVSPost2010Prop37
 90
       50
102
RTVSPost2010PropOp37
 70
     1
102
RTVSPost2010Prop38
140
0.0
102
RTVSPost2010PropOp38
 70
     1
102
RTVSPost2010Prop39
140
1.0
102
RTVSPost2010PropOp39
 70
     1
102
RTVSPost2010Prop40
 90
        0
102
RTVSPost2010PropOp40
 70
     1
102
RTVSPost2010Prop41ColorIndex
 90
       18
102
RTVSPost2010Prop41ColorRGB
 90
        0
102
RTVSPost2010PropOp41
 70
     1
102
RTVSPost2010Prop42
 90
       50
102
RTVSPost2010PropOp42
 70
     1
102
RTVSPost2010Prop43
 90
        3
102
RTVSPost2010PropOp43
 70
     1
102
RTVSPost2010Prop44ColorIndex
 90
        5
102
RTVSPost2010Prop44ColorRGB
 90
      255
102
RTVSPost2010PropOp44
 70
     1
102
RTVSPost2010Prop45
280
     0
102
RTVSPost2010PropOp45
 70
     1
102
RTVSPost2010Prop46
 90
       50
102
RTVSPost2010PropOp46
 70
     1
102
RTVSPost2010Prop47
 90
       50
102
RTVSPost2010PropOp47
 70
     1
102
RTVSPost2010Prop48
 90
       50
102
RTVSPost2010PropOp48
 70
     1
102
RTVSPost2010Prop49
280
     0
102
RTVSPost2010PropOp49
 70
     1
102
RTVSPost2010Prop50
 90
       50
102
RTVSPost2010PropOp50
 70
     1
102
RTVSPost2010Prop51ColorIndex
 90
      256
102
RTVSPost2010Prop51ColorRGB
 90
-16777216
102
RTVSPost2010PropOp51
 70
     0
102
RTVSPost2010Prop52
140
1.0
102
RTVSPost2010PropOp52
 70
     0
102
RTVSPost2010Prop53
 90
        2
102
RTVSPost2010PropOp53
 70
     1
102
RTVSPost2010Prop54
  1
strokes_ogs.tif
102
RTVSPost2010PropOp54
 70
     1
102
RTVSPost2010Prop55
280
     0
102
RTVSPost2010PropOp55
 70
     1
102
RTVSPost2010Prop56
140
1.0
102
RTVSPost2010PropOp56
 70
     1
102
RTVSPost2010Prop57
140
1.0
102
RTVSPost2010PropOp57
 70
     1
102
RTVSPropertyOp0
 70
     1
102
RTVSPropertyOp1
 70
     1
102
RTVSPropertyOp2
 70
     1
102
RTVSPropertyOp3
 70
     1
102
RTVSPropertyOp4
 70
     1
102
RTVSPropertyOp5
 70
     1
102
RTVSPropertyOp6
 70
     1
102
RTVSPropertyOp7
 70
     1
102
RTVSPropertyOp8
 70
     1
102
RTVSPropertyOp9
 70
     1
102
RTVSPropertyOp10
 70
     1
102
RTVSPropertyOp11
 70
     1
102
RTVSPropertyOp12
 70
     1
102
RTVSPropertyOp13
 70
     1
102
RTVSPropertyOp14
 70
     1
102
RTVSPropertyOp15
 70
     1
102
RTVSPropertyOp16
 70
     1
102
RTVSPropertyOp17
 70
     1
102
RTVSPropertyOp18
 70
     1
102
RTVSPropertyOp19
 70
     1
102
RTVSPropertyOp20
 70
     1
102
RTVSPropertyOp21
 70
     1
102
RTVSPropertyOp22
 70
     1
102
RTVSPropertyOp23
 70
     1
102
RTVSPropertyOp24
 70
     1
102
RTVSPropertyOp25
 70
     1
102
RTVSPropertyOp26
 70
     1
102
RTVSPropertyOp27
 70
     1
102
RTVSPropertyOp28
 70
     1
102
RTVSPropertyOp29
 70
     1
102
RTVSPropertyOp30
 70
     1
102
RTVSPropertyOp31
 70
     1
102
RTVSPropertyOp32
 70
     1
102
RTVSPropertyOp33
 70
     1
102
RTVSPropertyOp34
 70
     1
102
RTVSPropertyOp35
 70
     1
102
RTVSPropertyOp36
 70
     1
102
RTVSPropertyOp37
 70
     1
102
RTVSPropertyOp38
 70
     1
102
RTVSPropertyOp39
 70
     1
102
RTVSPropertyOp40
 70
     1
102
RTVSPropertyOp41
 70
     1
102
RTVSPropertyOp42
 70
     1
102
RTVSPropertyOp43
 70
     1
102
RTVSPropertyOp44
 70
     1
102
RTVSPropertyOp45
 70
     1
102
RTVSPropertyOp46
 70
     1
102
RTVSPropertyOp47
 70
     1
102
RTVSPropertyOp48
 70
     1
102
RTVSPropertyOp49
 70
     1
102
RTVSPropertyOp50
 70
     1
102
RTVSPropertyOp51
 70
     0
102
RTVSPropertyOp52
 70
     0
102
RTVSPropertyOp53
 70
     1
102
RTVSPropertyOp54
 70
     1
102
RTVSPropertyOp55
 70
     1
102
RTVSPropertyOp56
 70
     1
102
RTVSPropertyOp57
 70
     1
102
RTVSPropertyOp58
 70
     1
102
RTVSPropertyOp59
 70
     1
102
RTVSPropertyOp60
 70
     1
102
RTVSPropertyOp61
 70
     1
102
RTVSPropertyOp62
 70
     1
  0
ENDSEC
  0
EOF
