  0
SECTION
  2
HEADER
  9
$ACADVER
  1
AC1015
  9
$ACADMAINTVER
 70
    20
  9
$DWGCODEPAGE
  3
ANSI_1252
  9
$INSBASE
 10
0.0
 20
0.0
 30
0.0
  9
$EXTMIN
 10
23.2366540950797
 20
22.1163739968452
 30
-0.0015258207003583
  9
$EXTMAX
 10
83.25130239133512
 20
43.12630227012073
 30
0.0000000349246037
  9
$LIMMIN
 10
0.0
 20
0.0
  9
$LIMMAX
 10
181.3333333333
 20
117.3333333333
  9
$ORTHOMODE
 70
     0
  9
$REGENMODE
 70
     1
  9
$FILLMODE
 70
     1
  9
$QTEXTMODE
 70
     0
  9
$MIRRTEXT
 70
     0
  9
$LTSCALE
 40
9.973333333300001
  9
$ATTMODE
 70
     1
  9
$TEXTSIZE
 40
0.2
  9
$TRACEWID
 40
0.05
  9
$TEXTSTYLE
  7
STANDARD
  9
$CLAYER
  8
0
  9
$CELTYPE
  6
BYLAYER
  9
$CECOLOR
 62
   256
  9
$CELTSCALE
 40
1.0
  9
$DISPSILH
 70
     0
  9
$DIMSCALE
 40
1.0
  9
$DIMASZ
 40
2.0
  9
$DIMEXO
 40
0.0625
  9
$DIMDLI
 40
6.890666666699999
  9
$DIMRND
 40
0.0
  9
$DIMDLE
 40
0.0
  9
$DIMEXE
 40
0.125
  9
$DIMTP
 40
0.001
  9
$DIMTM
 40
0.001
  9
$DIMTXT
 40
1.333333333299999
  9
$DIMCEN
 40
1.631999999999999
  9
$DIMTSZ
 40
0.0
  9
$DIMTOL
 70
     1
  9
$DIMLIM
 70
     0
  9
$DIMTIH
 70
     1
  9
$DIMTOH
 70
     1
  9
$DIMSE1
 70
     0
  9
$DIMSE2
 70
     0
  9
$DIMTAD
 70
     0
  9
$DIMZIN
 70
     0
  9
$DIMBLK
  1
_FILLED
  9
$DIMASO
 70
     1
  9
$DIMSHO
 70
     1
  9
$DIMPOST
  1

  9
$DIMAPOST
  1

  9
$DIMALT
 70
     1
  9
$DIMALTD
 70
     2
  9
$DIMALTF
 40
25.4
  9
$DIMLFAC
 40
1.0
  9
$DIMTOFL
 70
     0
  9
$DIMTVP
 40
0.0
  9
$DIMTIX
 70
     0
  9
$DIMSOXD
 70
     0
  9
$DIMSAH
 70
     0
  9
$DIMBLK1
  1

  9
$DIMBLK2
  1

  9
$DIMSTYLE
  2
STANDARD
  9
$DIMCLRD
 70
     0
  9
$DIMCLRE
 70
     0
  9
$DIMCLRT
 70
     0
  9
$DIMTFAC
 40
1.0
  9
$DIMGAP
 40
0.09
  9
$DIMJUST
 70
     0
  9
$DIMSD1
 70
     0
  9
$DIMSD2
 70
     0
  9
$DIMTOLJ
 70
     1
  9
$DIMTZIN
 70
     0
  9
$DIMALTZ
 70
     0
  9
$DIMALTTZ
 70
     0
  9
$DIMUPT
 70
     0
  9
$DIMDEC
 70
     4
  9
$DIMTDEC
 70
     4
  9
$DIMALTU
 70
     2
  9
$DIMALTTD
 70
     2
  9
$DIMTXSTY
  7
STANDARD
  9
$DIMAUNIT
 70
     0
  9
$DIMADEC
 70
     0
  9
$DIMALTRND
 40
0.0
  9
$DIMAZIN
 70
     0
  9
$DIMDSEP
 70
    46
  9
$DIMATFIT
 70
     3
  9
$DIMFRAC
 70
     0
  9
$DIMLDRBLK
  1

  9
$DIMLUNIT
 70
     2
  9
$DIMLWD
 70
    -2
  9
$DIMLWE
 70
    -2
  9
$DIMTMOVE
 70
     0
  9
$LUNITS
 70
     2
  9
$LUPREC
 70
     4
  9
$SKETCHINC
 40
0.1
  9
$FILLETRAD
 40
0.0
  9
$AUNITS
 70
     0
  9
$AUPREC
 70
     0
  9
$MENU
  1
.
  9
$ELEVATION
 40
0.0
  9
$PELEVATION
 40
0.0
  9
$THICKNESS
 40
0.0
  9
$LIMCHECK
 70
     0
  9
$CHAMFERA
 40
0.0
  9
$CHAMFERB
 40
0.0
  9
$CHAMFERC
 40
0.0
  9
$CHAMFERD
 40
0.0
  9
$SKPOLY
 70
     0
  9
$TDCREATE
 40
2458459.541111111
  9
$TDUCREATE
 40
2458459.749444445
  9
$TDUPDATE
 40
2458465.481238426
  9
$TDUUPDATE
 40
2458465.689571759
  9
$TDINDWG
 40
0.0011921296
  9
$TDUSRTIMER
 40
0.0011921296
  9
$USRTIMER
 70
     1
  9
$ANGBASE
 50
0.0
  9
$ANGDIR
 70
     0
  9
$PDMODE
 70
     3
  9
$PDSIZE
 40
0.03125
  9
$PLINEWID
 40
0.0
  9
$SPLFRAME
 70
     0
  9
$SPLINETYPE
 70
     6
  9
$SPLINESEGS
 70
     8
  9
$HANDSEED
  5
1811
  9
$SURFTAB1
 70
     6
  9
$SURFTAB2
 70
     6
  9
$SURFTYPE
 70
     6
  9
$SURFU
 70
     6
  9
$SURFV
 70
     6
  9
$UCSBASE
  2

  9
$UCSNAME
  2

  9
$UCSORG
 10
0.0
 20
0.0
 30
0.0
  9
$UCSXDIR
 10
1.0
 20
0.0
 30
0.0
  9
$UCSYDIR
 10
0.0
 20
1.0
 30
0.0
  9
$UCSORTHOREF
  2

  9
$UCSORTHOVIEW
 70
     0
  9
$UCSORGTOP
 10
0.0
 20
0.0
 30
0.0
  9
$UCSORGBOTTOM
 10
0.0
 20
0.0
 30
0.0
  9
$UCSORGLEFT
 10
0.0
 20
0.0
 30
0.0
  9
$UCSORGRIGHT
 10
0.0
 20
0.0
 30
0.0
  9
$UCSORGFRONT
 10
0.0
 20
0.0
 30
0.0
  9
$UCSORGBACK
 10
0.0
 20
0.0
 30
0.0
  9
$PUCSBASE
  2

  9
$PUCSNAME
  2

  9
$PUCSORG
 10
0.0
 20
0.0
 30
0.0
  9
$PUCSXDIR
 10
1.0
 20
0.0
 30
0.0
  9
$PUCSYDIR
 10
0.0
 20
1.0
 30
0.0
  9
$PUCSORTHOREF
  2

  9
$PUCSORTHOVIEW
 70
     0
  9
$PUCSORGTOP
 10
0.0
 20
0.0
 30
0.0
  9
$PUCSORGBOTTOM
 10
0.0
 20
0.0
 30
0.0
  9
$PUCSORGLEFT
 10
0.0
 20
0.0
 30
0.0
  9
$PUCSORGRIGHT
 10
0.0
 20
0.0
 30
0.0
  9
$PUCSORGFRONT
 10
0.0
 20
0.0
 30
0.0
  9
$PUCSORGBACK
 10
0.0
 20
0.0
 30
0.0
  9
$USERI1
 70
     0
  9
$USERI2
 70
     0
  9
$USERI3
 70
     0
  9
$USERI4
 70
     0
  9
$USERI5
 70
     0
  9
$USERR1
 40
0.0
  9
$USERR2
 40
0.0
  9
$USERR3
 40
0.0
  9
$USERR4
 40
0.0
  9
$USERR5
 40
0.0
  9
$WORLDVIEW
 70
     1
  9
$SHADEDGE
 70
     3
  9
$SHADEDIF
 70
    70
  9
$TILEMODE
 70
     1
  9
$MAXACTVP
 70
    64
  9
$PINSBASE
 10
0.0
 20
0.0
 30
0.0
  9
$PLIMCHECK
 70
     0
  9
$PEXTMIN
 10
1.000000000000000E+20
 20
1.000000000000000E+20
 30
1.000000000000000E+20
  9
$PEXTMAX
 10
-1.000000000000000E+20
 20
-1.000000000000000E+20
 30
-1.000000000000000E+20
  9
$PLIMMIN
 10
0.0
 20
0.0
  9
$PLIMMAX
 10
12.0
 20
9.0
  9
$UNITMODE
 70
     0
  9
$VISRETAIN
 70
     1
  9
$PLINEGEN
 70
     0
  9
$PSLTSCALE
 70
     1
  9
$TREEDEPTH
 70
  3020
  9
$CMLSTYLE
  2
Standard
  9
$CMLJUST
 70
     0
  9
$CMLSCALE
 40
1.0
  9
$PROXYGRAPHICS
 70
     1
  9
$MEASUREMENT
 70
     0
  9
$CELWEIGHT
370
    -1
  9
$ENDCAPS
280
     0
  9
$JOINSTYLE
280
     0
  9
$LWDISPLAY
290
     0
  9
$INSUNITS
 70
     1
  9
$HYPERLINKBASE
  1

  9
$STYLESHEET
  1

  9
$XEDIT
290
     1
  9
$CEPSNTYPE
380
     0
  9
$PSTYLEMODE
290
     1
  9
$FINGERPRINTGUID
  2
{D6BB9D53-DBB1-C14A-92AE-1614914DEB64}
  9
$VERSIONGUID
  2
{0F893D28-7A47-214B-9EEA-AAD6117EF9DF}
  9
$EXTNAMES
290
     1
  9
$PSVPSCALE
 40
0.0
  9
$OLESTARTUP
290
     0
  0
ENDSEC
  0
SECTION
  2
CLASSES
  0
CLASS
  1
ACDBDICTIONARYWDFLT
  2
AcDbDictionaryWithDefault
  3
ObjectDBX Classes
 90
        0
280
     0
281
     0
  0
CLASS
  1
ACDBPLACEHOLDER
  2
AcDbPlaceHolder
  3
ObjectDBX Classes
 90
        0
280
     0
281
     0
  0
CLASS
  1
LAYOUT
  2
AcDbLayout
  3
ObjectDBX Classes
 90
        0
280
     0
281
     0
  0
CLASS
  1
RASTERVARIABLES
  2
AcDbRasterVariables
  3
ISM
 90
        0
280
     0
281
     0
  0
CLASS
  1
IMAGEDEF
  2
AcDbRasterImageDef
  3
ISM
 90
        0
280
     0
281
     0
  0
CLASS
  1
IMAGEDEF_REACTOR
  2
AcDbRasterImageDefReactor
  3
ISM
 90
    32769
280
     0
281
     0
  0
CLASS
  1
IMAGE
  2
AcDbRasterImage
  3
ISM
 90
    34943
280
     0
281
     1
  0
CLASS
  1
MATERIAL
  2
AcDbMaterial
  3
ObjectDBX Classes
 90
     1153
280
     0
281
     0
  0
CLASS
  1
VISUALSTYLE
  2
AcDbVisualStyle
  3
ObjectDBX Classes
 90
     4095
280
     0
281
     0
  0
CLASS
  1
TABLESTYLE
  2
AcDbTableStyle
  3
ObjectDBX Classes
 90
     4095
280
     0
281
     0
  0
CLASS
  1
SCALE
  2
AcDbScale
  3
ObjectDBX Classes
 90
     1153
280
     0
281
     0
  0
CLASS
  1
MLEADERSTYLE
  2
AcDbMLeaderStyle
  3
ACDB_MLEADERSTYLE_CLASS
 90
     4095
280
     0
281
     0
  0
CLASS
  1
ACDBSECTIONVIEWSTYLE
  2
AcDbSectionViewStyle
  3
ObjectDBX Classes
 90
     1025
280
     0
281
     0
  0
CLASS
  1
ACDBDETAILVIEWSTYLE
  2
AcDbDetailViewStyle
  3
ObjectDBX Classes
 90
     1025
280
     0
281
     0
  0
CLASS
  1
CELLSTYLEMAP
  2
AcDbCellStyleMap
  3
ObjectDBX Classes
 90
     1152
280
     0
281
     0
  0
CLASS
  1
DICTIONARYVAR
  2
AcDbDictionaryVar
  3
ObjectDBX Classes
 90
        0
280
     0
281
     0
  0
CLASS
  1
EXACXREFPANELOBJECT
  2
ExAcXREFPanelObject
  3
EXAC_ESW
 90
     1025
280
     0
281
     0
  0
CLASS
  1
NPOCOLLECTION
  2
AcDbImpNonPersistentObjectsCollection
  3
ObjectDBX Classes
 90
     1153
280
     0
281
     0
  0
ENDSEC
  0
SECTION
  2
TABLES
  0
TABLE
  2
VPORT
  5
8
102
{ACAD_XDICTIONARY
360
16B7
102
}
330
0
100
AcDbSymbolTable
 70
     1
  0
VPORT
  5
1F4
330
8
100
AcDbSymbolTableRecord
100
AcDbViewportTableRecord
  2
*ACTIVE
 70
     0
 10
0.0
 20
0.0
 11
1.0
 21
1.0
 12
53.2439782432074
 22
32.62133813348297
 13
0.0
 23
0.0
 14
1.0
 24
1.0
 15
0.0
 25
0.0
 16
0.0
 26
0.0
 36
1.0
 17
0.0
 27
0.0
 37
0.0
 40
30.022618972382
 41
2.005224660397074
 42
50.0
 43
0.0
 44
0.0
 50
0.0
 51
0.0
 71
     0
 72
   100
 73
     1
 74
     1
 75
     0
 76
     0
 77
     0
 78
     0
281
     0
 65
     1
110
0.0
120
0.0
130
0.0
111
1.0
121
0.0
131
0.0
112
0.0
122
1.0
132
0.0
 79
     0
146
0.0
1001
ACAD_NAV_VCDISPLAY
1070
     3
  0
ENDTAB
  0
TABLE
  2
LTYPE
  5
5
330
0
100
AcDbSymbolTable
 70
     6
  0
LTYPE
  5
14
330
5
100
AcDbSymbolTableRecord
100
AcDbLinetypeTableRecord
  2
BYBLOCK
 70
     0
  3

 72
    65
 73
     0
 40
0.0
  0
LTYPE
  5
15
330
5
100
AcDbSymbolTableRecord
100
AcDbLinetypeTableRecord
  2
BYLAYER
 70
     0
  3

 72
    65
 73
     0
 40
0.0
  0
LTYPE
  5
16
330
5
100
AcDbSymbolTableRecord
100
AcDbLinetypeTableRecord
  2
CONTINUOUS
 70
     0
  3
Solid line
 72
    65
 73
     0
 40
0.0
  0
LTYPE
  5
1F5
330
5
100
AcDbSymbolTableRecord
100
AcDbLinetypeTableRecord
  2
CENTER
 70
     0
  3
____ _ ____ _ ____ _ ____ _ ____ _ ____ _ ____
 72
    65
 73
     4
 40
0.6
 49
0.375
 74
     0
 49
-0.075
 74
     0
 49
0.075
 74
     0
 49
-0.075
 74
     0
  0
LTYPE
  5
1F6
330
5
100
AcDbSymbolTableRecord
100
AcDbLinetypeTableRecord
  2
HIDDEN
 70
     0
  3
- - - - - - - - - - - - - - - - - - - -
 72
    65
 73
     2
 40
0.2
 49
0.1
 74
     0
 49
-0.1
 74
     0
  0
LTYPE
  5
1F7
330
5
100
AcDbSymbolTableRecord
100
AcDbLinetypeTableRecord
  2
PHANTOM
 70
     0
  3
_____ _ _ _____ _ _ _____ _ _ _____
 72
    65
 73
     6
 40
0.8
 49
0.45
 74
     0
 49
-0.05
 74
     0
 49
0.1
 74
     0
 49
-0.05
 74
     0
 49
0.1
 74
     0
 49
-0.05
 74
     0
  0
LTYPE
  5
1F8
330
5
100
AcDbSymbolTableRecord
100
AcDbLinetypeTableRecord
  2
DOT
 70
     0
  3
. . . . . . . . . . . . . . . . . . . .
 72
    65
 73
     2
 40
0.2
 49
0.1
 74
     0
 49
-0.1
 74
     0
  0
LTYPE
  5
1F9
330
5
100
AcDbSymbolTableRecord
100
AcDbLinetypeTableRecord
  2
DASHED
 70
     0
  3
- - - - - - - - - - - - - - - - - - - -
 72
    65
 73
     2
 40
0.2
 49
0.1
 74
     0
 49
-0.1
 74
     0
  0
ENDTAB
  0
TABLE
  2
LAYER
  5
2
330
0
100
AcDbSymbolTable
 70
    33
  0
LAYER
  5
10
102
{ACAD_XDICTIONARY
360
1707
102
}
330
2
100
AcDbSymbolTableRecord
100
AcDbLayerTableRecord
  2
0
 70
     0
 62
     7
  6
CONTINUOUS
370
    -3
390
F
  0
LAYER
  5
1FA
102
{ACAD_XDICTIONARY
360
1709
102
}
330
2
100
AcDbSymbolTableRecord
100
AcDbLayerTableRecord
  2
DEFAULT_1
 70
     0
 62
     7
  6
CENTER
370
    -3
390
F
  0
LAYER
  5
1FB
102
{ACAD_XDICTIONARY
360
170B
102
}
330
2
100
AcDbSymbolTableRecord
100
AcDbLayerTableRecord
  2
DEFAULT_2
 70
     0
 62
     8
  6
HIDDEN
370
    -3
390
F
  0
LAYER
  5
1FC
102
{ACAD_XDICTIONARY
360
170D
102
}
330
2
100
AcDbSymbolTableRecord
100
AcDbLayerTableRecord
  2
DEFAULT_3
 70
     0
 62
     7
  6
PHANTOM
370
    -3
390
F
  0
LAYER
  5
1FD
102
{ACAD_XDICTIONARY
360
170F
102
}
330
2
100
AcDbSymbolTableRecord
100
AcDbLayerTableRecord
  2
0_DEFAULT
 70
     0
 62
     7
  6
CONTINUOUS
370
    -3
390
F
  0
LAYER
  5
1FE
102
{ACAD_XDICTIONARY
360
1711
102
}
330
2
100
AcDbSymbolTableRecord
100
AcDbLayerTableRecord
  2
1_CURVES
 70
     0
 62
     7
  6
CONTINUOUS
370
    -3
390
F
  0
LAYER
  5
1FF
102
{ACAD_XDICTIONARY
360
1713
102
}
330
2
100
AcDbSymbolTableRecord
100
AcDbLayerTableRecord
  2
1_CURVES_CHROMO_INV
 70
     0
 62
     7
  6
CONTINUOUS
370
    -3
390
F
  0
LAYER
  5
200
102
{ACAD_XDICTIONARY
360
1715
102
}
330
2
100
AcDbSymbolTableRecord
100
AcDbLayerTableRecord
  2
1_CURVES_DOT
 70
     0
 62
     7
  6
CONTINUOUS
370
    -3
390
F
  0
LAYER
  5
201
102
{ACAD_XDICTIONARY
360
1717
102
}
330
2
100
AcDbSymbolTableRecord
100
AcDbLayerTableRecord
  2
1_CURVES_JETS
 70
     0
 62
     7
  6
CONTINUOUS
370
    -3
390
F
  0
LAYER
  5
202
102
{ACAD_XDICTIONARY
360
1719
102
}
330
2
100
AcDbSymbolTableRecord
100
AcDbLayerTableRecord
  2
1_CURVES_SPEC_FRONT
 70
     0
 62
     7
  6
CONTINUOUS
370
    -3
390
F
  0
LAYER
  5
203
102
{ACAD_XDICTIONARY
360
171B
102
}
330
2
100
AcDbSymbolTableRecord
100
AcDbLayerTableRecord
  2
1_CURVES_SPEC_RIGHT
 70
     0
 62
     7
  6
CONTINUOUS
370
    -3
390
F
  0
LAYER
  5
204
102
{ACAD_XDICTIONARY
360
171D
102
}
330
2
100
AcDbSymbolTableRecord
100
AcDbLayerTableRecord
  2
2_PLANES
 70
     0
 62
     7
  6
CONTINUOUS
370
    -3
390
F
  0
LAYER
  5
205
102
{ACAD_XDICTIONARY
360
171F
102
}
330
2
100
AcDbSymbolTableRecord
100
AcDbLayerTableRecord
  2
2_PLANES_CHROMO_INV
 70
     0
 62
     7
  6
CONTINUOUS
370
    -3
390
F
  0
LAYER
  5
206
102
{ACAD_XDICTIONARY
360
1721
102
}
330
2
100
AcDbSymbolTableRecord
100
AcDbLayerTableRecord
  2
2_PLANES_JETS
 70
     0
 62
     7
  6
CONTINUOUS
370
    -3
390
F
  0
LAYER
  5
207
102
{ACAD_XDICTIONARY
360
1723
102
}
330
2
100
AcDbSymbolTableRecord
100
AcDbLayerTableRecord
  2
3_POINTS
 70
     0
 62
     7
  6
CONTINUOUS
370
    -3
390
F
  0
LAYER
  5
208
102
{ACAD_XDICTIONARY
360
1725
102
}
330
2
100
AcDbSymbolTableRecord
100
AcDbLayerTableRecord
  2
3_POINTS_JETS
 70
     0
 62
     7
  6
CONTINUOUS
370
    -3
390
F
  0
LAYER
  5
209
102
{ACAD_XDICTIONARY
360
1727
102
}
330
2
100
AcDbSymbolTableRecord
100
AcDbLayerTableRecord
  2
3_POINTS_SPEC
 70
     0
 62
     7
  6
CONTINUOUS
370
    -3
390
F
  0
LAYER
  5
20A
102
{ACAD_XDICTIONARY
360
1729
102
}
330
2
100
AcDbSymbolTableRecord
100
AcDbLayerTableRecord
  2
4_CSYS
 70
     0
 62
     7
  6
CONTINUOUS
370
    -3
390
F
  0
LAYER
  5
20B
102
{ACAD_XDICTIONARY
360
172B
102
}
330
2
100
AcDbSymbolTableRecord
100
AcDbLayerTableRecord
  2
5_AXIS
 70
     0
 62
     7
  6
CONTINUOUS
370
    -3
390
F
  0
LAYER
  5
20C
102
{ACAD_XDICTIONARY
360
172D
102
}
330
2
100
AcDbSymbolTableRecord
100
AcDbLayerTableRecord
  2
5_AXIS_CHROMO_INV
 70
     0
 62
     7
  6
CONTINUOUS
370
    -3
390
F
  0
LAYER
  5
20D
102
{ACAD_XDICTIONARY
360
172F
102
}
330
2
100
AcDbSymbolTableRecord
100
AcDbLayerTableRecord
  2
5_AXIS_JETS
 70
     0
 62
     7
  6
CONTINUOUS
370
    -3
390
F
  0
LAYER
  5
20E
102
{ACAD_XDICTIONARY
360
1731
102
}
330
2
100
AcDbSymbolTableRecord
100
AcDbLayerTableRecord
  2
6_SURFACES
 70
     0
 62
     7
  6
CONTINUOUS
370
    -3
390
F
  0
LAYER
  5
20F
102
{ACAD_XDICTIONARY
360
1733
102
}
330
2
100
AcDbSymbolTableRecord
100
AcDbLayerTableRecord
  2
6_SURFACES_CHROMO_INV
 70
     0
 62
     7
  6
CONTINUOUS
370
    -3
390
F
  0
LAYER
  5
210
102
{ACAD_XDICTIONARY
360
1735
102
}
330
2
100
AcDbSymbolTableRecord
100
AcDbLayerTableRecord
  2
6_SURFACES_JUPE
 70
     0
 62
     7
  6
CONTINUOUS
370
    -3
390
F
  0
LAYER
  5
211
102
{ACAD_XDICTIONARY
360
1737
102
}
330
2
100
AcDbSymbolTableRecord
100
AcDbLayerTableRecord
  2
6_SURFACES_OFFSET_FIBRE_ACRYLIQ
 70
     0
 62
     7
  6
CONTINUOUS
370
    -3
390
F
  0
LAYER
  5
212
102
{ACAD_XDICTIONARY
360
1739
102
}
330
2
100
AcDbSymbolTableRecord
100
AcDbLayerTableRecord
  2
6_SURFACES_TOOLING
 70
     0
 62
     7
  6
CONTINUOUS
370
    -3
390
F
  0
LAYER
  5
213
102
{ACAD_XDICTIONARY
360
173B
102
}
330
2
100
AcDbSymbolTableRecord
100
AcDbLayerTableRecord
  2
6_SURFACES_TOOLING_BRIDE
 70
     0
 62
     7
  6
CONTINUOUS
370
    -3
390
F
  0
LAYER
  5
214
102
{ACAD_XDICTIONARY
360
173D
102
}
330
2
100
AcDbSymbolTableRecord
100
AcDbLayerTableRecord
  2
6_SURFACES_TOOLING_DROP-IN
 70
     0
 62
     7
  6
CONTINUOUS
370
    -3
390
F
  0
LAYER
  5
215
102
{ACAD_XDICTIONARY
360
173F
102
}
330
2
100
AcDbSymbolTableRecord
100
AcDbLayerTableRecord
  2
6_SURFACES_TOOLING_FS_INT
 70
     0
 62
     7
  6
CONTINUOUS
370
    -3
390
F
  0
LAYER
  5
216
102
{ACAD_XDICTIONARY
360
1741
102
}
330
2
100
AcDbSymbolTableRecord
100
AcDbLayerTableRecord
  2
7_NOTES
 70
     0
 62
     7
  6
CONTINUOUS
370
    -3
390
F
  0
LAYER
  5
217
102
{ACAD_XDICTIONARY
360
1743
102
}
330
2
100
AcDbSymbolTableRecord
100
AcDbLayerTableRecord
  2
8_SOLID
 70
     0
 62
     7
  6
CONTINUOUS
370
    -3
390
F
  0
LAYER
  5
218
102
{ACAD_XDICTIONARY
360
1745
102
}
330
2
100
AcDbSymbolTableRecord
100
AcDbLayerTableRecord
  2
DEGAGEMENT_SERIGRAPHIE
 70
     0
 62
     7
  6
CONTINUOUS
370
    -3
390
F
  0
LAYER
  5
219
102
{ACAD_XDICTIONARY
360
1747
102
}
330
2
100
AcDbSymbolTableRecord
100
AcDbLayerTableRecord
  2
XSEC_DATUMS
 70
     0
 62
     7
  6
CONTINUOUS
370
    -3
390
F
  0
ENDTAB
  0
TABLE
  2
STYLE
  5
3
330
0
100
AcDbSymbolTable
 70
     7
  0
STYLE
  5
11
330
3
100
AcDbSymbolTableRecord
100
AcDbTextStyleTableRecord
  2
STANDARD
 70
     0
 40
0.0
 41
1.0
 50
0.0
 71
     0
 42
0.2
  3
trium.ttf
  4

  0
STYLE
  5
21A
330
3
100
AcDbSymbolTableRecord
100
AcDbTextStyleTableRecord
  2
TEXTSTYLE_1
 70
     0
 40
0.0
 41
0.8
 50
0.0
 71
     0
 42
0.2
  3
gdt
  4

  0
STYLE
  5
21B
330
3
100
AcDbSymbolTableRecord
100
AcDbTextStyleTableRecord
  2
TEXTSTYLE_2
 70
     0
 40
0.0
 41
1.0
 50
0.0
 71
     0
 42
0.2
  3
trium.ttf
  4

  0
STYLE
  5
21C
330
3
100
AcDbSymbolTableRecord
100
AcDbTextStyleTableRecord
  2
TEXTSTYLE_3
 70
     0
 40
0.0
 41
1.0
 50
0.0
 71
     0
 42
0.2
  3
txt
  4

  0
STYLE
  5
21D
330
3
100
AcDbSymbolTableRecord
100
AcDbTextStyleTableRecord
  2
TEXTSTYLE_4
 70
     0
 40
0.0
 41
1.0
 50
0.0
 71
     0
 42
0.2
  3
txt
  4

  0
STYLE
  5
21E
330
3
100
AcDbSymbolTableRecord
100
AcDbTextStyleTableRecord
  2
TEXTSTYLE_5
 70
     0
 40
0.0
 41
1.0
 50
0.0
 71
     0
 42
0.2
  3
trium.ttf
  4

  0
STYLE
  5
21F
330
3
100
AcDbSymbolTableRecord
100
AcDbTextStyleTableRecord
  2
TEXTSTYLE_6
 70
     0
 40
0.0
 41
0.8
 50
0.0
 71
     0
 42
0.2
  3
txt
  4

  0
ENDTAB
  0
TABLE
  2
VIEW
  5
6
330
0
100
AcDbSymbolTable
 70
     0
  0
ENDTAB
  0
TABLE
  2
UCS
  5
7
330
0
100
AcDbSymbolTable
 70
     0
  0
ENDTAB
  0
TABLE
  2
APPID
  5
9
330
0
100
AcDbSymbolTable
 70
     3
  0
APPID
  5
220
330
9
100
AcDbSymbolTableRecord
100
AcDbRegAppTableRecord
  2
ACAD
 70
     0
  0
APPID
  5
16F1
330
9
100
AcDbSymbolTableRecord
100
AcDbRegAppTableRecord
  2
ACAD_MLEADERVER
 70
     0
  0
APPID
  5
1749
330
9
100
AcDbSymbolTableRecord
100
AcDbRegAppTableRecord
  2
ACAD_NAV_VCDISPLAY
 70
     0
  0
ENDTAB
  0
TABLE
  2
DIMSTYLE
  5
A
330
0
100
AcDbSymbolTable
 70
     8
100
AcDbDimStyleTable
 71
     0
  0
DIMSTYLE
105
23F
330
A
100
AcDbSymbolTableRecord
100
AcDbDimStyleTableRecord
  2
STANDARD
 70
     0
 41
2.0
 44
0.125
 47
0.001
 48
0.001
 71
     1
 78
     4
 79
     1
140
1.333333333299999
170
     1
179
     3
271
     3
272
     3
284
     4
340
11
341
223
342
223
343
223
344
223
  0
DIMSTYLE
105
240
330
A
100
AcDbSymbolTableRecord
100
AcDbDimStyleTableRecord
  2
DIMSTYLE_1
 70
     0
 41
2.0
 44
0.125
 47
0.00001
 48
0.00001
 78
     4
 79
     1
140
1.333333333299999
147
0.0625
170
     1
171
    -2
179
     3
271
     3
272
     8
274
     0
284
     4
340
11
341
223
342
223
343
223
344
223
  0
DIMSTYLE
105
241
330
A
100
AcDbSymbolTableRecord
100
AcDbDimStyleTableRecord
  2
DIMSTYLE_2
 70
     0
 41
2.0
 44
0.125
 47
0.001
 48
0.001
 78
     4
 79
     1
140
1.333333333299999
147
0.0625
170
     1
171
     0
179
     3
271
     3
272
     8
274
     0
284
     4
340
11
341
223
342
223
343
223
344
223
  0
DIMSTYLE
105
242
330
A
100
AcDbSymbolTableRecord
100
AcDbDimStyleTableRecord
  2
DIMSTYLE_3
 70
     0
 41
2.0
 44
0.125
 47
0.00001
 48
0.00001
 78
     4
 79
     1
140
1.333333333299999
147
0.0625
170
     1
171
     0
179
     3
271
     3
272
     8
274
     0
284
     4
340
11
341
223
342
223
343
223
344
223
  0
DIMSTYLE
105
243
330
A
100
AcDbSymbolTableRecord
100
AcDbDimStyleTableRecord
  2
DIMSTYLE_4
 70
     0
 41
2.0
 44
0.125
 47
0.03125
 48
0.03125
 78
     4
 79
     1
140
1.333333333299999
147
0.0625
170
     1
171
     1
179
     3
271
     5
272
    32
274
    -1
284
     4
340
11
341
223
342
223
343
223
344
223
  0
DIMSTYLE
105
244
330
A
100
AcDbSymbolTableRecord
100
AcDbDimStyleTableRecord
  2
DIMSTYLE_5
 70
     0
 41
2.0
 44
0.125
 47
0.001
 48
0.001
 78
     4
 79
     1
140
1.333333333299999
147
0.0625
170
     1
171
     1
179
     3
271
     5
272
    32
274
     1
284
     4
340
11
341
223
342
223
343
223
344
223
  0
DIMSTYLE
105
245
330
A
100
AcDbSymbolTableRecord
100
AcDbDimStyleTableRecord
  2
DIMSTYLE_6
 70
     0
 41
2.0
 44
0.125
 47
0.001
 48
0.001
 78
     4
 79
     1
140
1.333333333299999
147
0.0625
170
     1
171
     0
179
     3
272
    16
274
     0
284
     4
340
11
341
223
342
223
343
223
344
223
  0
DIMSTYLE
105
246
330
A
100
AcDbSymbolTableRecord
100
AcDbDimStyleTableRecord
  2
DIMSTYLE_7
 70
     0
 41
2.0
 44
0.125
 47
0.5
 48
0.5
 78
     4
 79
     1
140
1.333333333299999
147
0.0625
179
     3
271
     5
272
    32
284
     4
340
11
341
223
342
223
343
223
344
223
  0
ENDTAB
  0
TABLE
  2
BLOCK_RECORD
  5
1
330
0
100
AcDbSymbolTable
 70
    28
  0
BLOCK_RECORD
  5
221
330
1
100
AcDbSymbolTableRecord
100
AcDbBlockTableRecord
  2
*Model_Space
340
1661
  0
BLOCK_RECORD
  5
222
330
1
100
AcDbSymbolTableRecord
100
AcDbBlockTableRecord
  2
*Paper_Space
340
1662
  0
BLOCK_RECORD
  5
223
330
1
100
AcDbSymbolTableRecord
100
AcDbBlockTableRecord
  2
_FILLED
340
0
102
{BLKREFS
102
}
  0
BLOCK_RECORD
  5
23C
330
1
100
AcDbSymbolTableRecord
100
AcDbBlockTableRecord
  2
L03-MOTEUR-CONTROLE-LED_BL2
340
0
  0
BLOCK_RECORD
  5
23D
330
1
100
AcDbSymbolTableRecord
100
AcDbBlockTableRecord
  2
L03-USAGE_INTERNE_SEULEM_BL1
340
0
  0
BLOCK_RECORD
  5
23E
330
1
100
AcDbSymbolTableRecord
100
AcDbBlockTableRecord
  2
L03-NOTE_SPECS_BAINS_BL0
340
0
  0
ENDTAB
  0
ENDSEC
  0
SECTION
  2
BLOCKS
  0
BLOCK
  5
20
330
221
100
AcDbEntity
  8
0
100
AcDbBlockBegin
  2
*Model_Space
 70
     0
 10
0.0
 20
0.0
 30
0.0
  3
*Model_Space
  1

  0
ENDBLK
  5
21
330
221
100
AcDbEntity
  8
0
100
AcDbBlockEnd
  0
BLOCK
  5
1C
330
222
100
AcDbEntity
 67
     1
  8
0
100
AcDbBlockBegin
  2
*Paper_Space
 70
     0
 10
0.0
 20
0.0
 30
0.0
  3
*Paper_Space
  1

  0
ENDBLK
  5
1D
330
222
100
AcDbEntity
 67
     1
  8
0
100
AcDbBlockEnd
  0
BLOCK
  5
316
330
223
100
AcDbEntity
  8
0
100
AcDbBlockBegin
  2
_FILLED
 70
     0
 10
0.0
 20
0.0
 30
0.0
  3
_FILLED
  1

  0
SOLID
  5
317
330
223
100
AcDbEntity
  8
0
  6
ByBlock
 62
     0
100
AcDbTrace
 10
0.0
 20
0.0
 30
0.0
 11
-1.0
 21
0.1666666667
 31
0.0
 12
-1.0
 22
-0.1666666667
 32
0.0
 13
-1.0
 23
-0.1666666667
 33
0.0
  0
ENDBLK
  5
318
330
223
100
AcDbEntity
  8
0
  6
ByBlock
 62
     0
100
AcDbBlockEnd
  0
BLOCK
  5
247
330
23C
100
AcDbEntity
  8
0
  6
Continuous
 62
     2
100
AcDbBlockBegin
  2
L03-MOTEUR-CONTROLE-LED_BL2
 70
     0
 10
77.0647414119
 20
79.0262363156
 30
0.0
  3
L03-MOTEUR-CONTROLE-LED_BL2
  1

  0
TEXT
  5
248
330
23C
100
AcDbEntity
  8
0
  6
Continuous
 62
     2
100
AcDbText
 10
75.73140755979999
 20
78.35956938959999
 30
0.0
 40
1.333333852099999
  1
DC
 41
1.166666666622919
 72
     5
 11
78.3980752639
 21
78.35956938959999
 31
0.0
100
AcDbText
  0
ELLIPSE
  5
249
330
23C
100
AcDbEntity
  8
0
  6
Continuous
 62
     7
100
AcDbEllipse
 10
77.0647414119
 20
79.0262363156
 30
0.0
 11
-1.942887567899999
 21
0.0
 31
0.0
210
0.0
220
0.0
230
1.0
 40
0.6606458385
 41
0.0
 42
6.283185307179586
  0
ENDBLK
  5
24A
330
23C
100
AcDbEntity
  8
0
  6
ByBlock
 62
     0
100
AcDbBlockEnd
  0
BLOCK
  5
24B
330
23D
100
AcDbEntity
  8
0
  6
Continuous
 62
     2
100
AcDbBlockBegin
  2
L03-USAGE_INTERNE_SEULEM_BL1
 70
     0
 10
123.6235336287
 20
58.741987455
 30
0.0
  3
L03-USAGE_INTERNE_SEULEM_BL1
  1

  0
TEXT
  5
24C
330
23D
100
AcDbEntity
  8
0
  6
Continuous
 62
     7
100
AcDbText
 10
117.3094733269
 20
60.9870214408
 30
0.0
 40
1.1626666667
  1
INTERNAL USE 
 50
10.00000000017667
 41
0.8985215053571577
  7
TEXTSTYLE_2
 72
     5
 11
129.4592289477
 21
63.1293511658
 31
0.0
100
AcDbText
  0
TEXT
  5
24D
330
23D
100
AcDbEntity
  8
0
  6
Continuous
 62
     7
100
AcDbText
 10
116.565789123
 20
58.98550026310001
 30
0.0
 40
1.1626666667
  1
DOCUMENT ONLY
 50
10.00000000013619
 41
0.9764779873892367
  7
TEXTSTYLE_2
 72
     5
 11
130.6747723516
 21
61.4732946767
 31
0.0
100
AcDbText
  0
TEXT
  5
24E
330
23D
100
AcDbEntity
  8
0
  6
Continuous
 62
     7
100
AcDbText
 10
122.6876565019
 20
58.7965190584
 30
0.0
 40
1.1626666667
  1
 
 50
9.999999992915462
 41
0.4543859648938215
  7
TEXTSTYLE_2
 72
     5
 11
123.1583800181
 21
58.8795203147
 31
0.0
100
AcDbText
  0
TEXT
  5
24F
330
23D
100
AcDbEntity
  8
0
  6
Continuous
 62
     7
100
AcDbText
 10
113.9058688032
 20
54.5599778063
 30
0.0
 40
1.1626666667
  1
DOCUMENT POUR USAGE
 50
10.0000000000181
 41
0.9550156294105908
  7
TEXTSTYLE_2
 72
     5
 11
134.2657210667
 21
58.1499690836
 31
0.0
100
AcDbText
  0
TEXT
  5
250
330
23D
100
AcDbEntity
  8
0
  6
Continuous
 62
     7
100
AcDbText
 10
114.3349682492
 20
52.5432293459
 30
0.0
 40
1.1626666667
  1
A L'INTERNE SEULEMENT
 50
10.00000000005668
 41
0.9468599033535422
  7
TEXTSTYLE_2
 72
     5
 11
134.5209496644
 21
56.10256250149999
 31
0.0
100
AcDbText
  0
LINE
  5
251
330
23D
100
AcDbEntity
  8
0
  6
Continuous
 62
     1
100
AcDbLine
 10
137.4800853521
 20
54.39845383699999
 30
0.0
 11
137.4868442847
 21
54.4052127697
 31
0.0
  0
LINE
  5
252
330
23D
100
AcDbEntity
  8
0
  6
Continuous
 62
     1
100
AcDbLine
 10
136.7475157856
 20
54.2692820572
 30
0.0
 11
137.3963972308
 21
54.9181635024
 31
0.0
  0
LINE
  5
253
330
23D
100
AcDbEntity
  8
0
  6
Continuous
 62
     1
100
AcDbLine
 10
136.0149462192
 20
54.14011027739999
 30
0.0
 11
137.3059501768
 21
55.431114235
 31
0.0
  0
LINE
  5
254
330
23D
100
AcDbEntity
  8
0
  6
Continuous
 62
     1
100
AcDbLine
 10
135.2823766528
 20
54.0109384976
 30
0.0
 11
137.2155031229
 21
55.9440649677
 31
0.0
  0
LINE
  5
255
330
23D
100
AcDbEntity
  8
0
  6
Continuous
 62
     1
100
AcDbLine
 10
134.5498070864
 20
53.8817667178
 30
0.0
 11
137.1250560689
 21
56.45701570039999
 31
0.0
  0
LINE
  5
256
330
23D
100
AcDbEntity
  8
0
  6
Continuous
 62
     1
100
AcDbLine
 10
133.81723752
 20
53.752594938
 30
0.0
 11
135.3582413347
 21
55.29359875279999
 31
0.0
  0
LINE
  5
257
330
23D
100
AcDbEntity
  8
0
  6
Continuous
 62
     1
100
AcDbLine
 10
135.9555865275
 20
55.8909439455
 30
0.0
 11
137.034609015
 21
56.969966433
 31
0.0
  0
LINE
  5
258
330
23D
100
AcDbEntity
  8
0
  6
Continuous
 62
     1
100
AcDbLine
 10
133.0846679535
 20
53.6234231582
 30
0.0
 11
134.6256717683
 21
55.164426973
 31
0.0
  0
LINE
  5
259
330
23D
100
AcDbEntity
  8
0
  6
Continuous
 62
     1
100
AcDbLine
 10
135.8651394735
 20
56.4038946782
 30
0.0
 11
136.944161961
 21
57.48291716569999
 31
0.0
  0
LINE
  5
25A
330
23D
100
AcDbEntity
  8
0
  6
Continuous
 62
     1
100
AcDbLine
 10
132.3520983871
 20
53.4942513784
 30
0.0
 11
133.8931022019
 21
55.0352551932
 31
0.0
  0
LINE
  5
25B
330
23D
100
AcDbEntity
  8
0
  6
Continuous
 62
     1
100
AcDbLine
 10
135.7746924196
 20
56.9168454109
 30
0.0
 11
136.8537149071
 21
57.9958678984
 31
0.0
  0
LINE
  5
25C
330
23D
100
AcDbEntity
  8
0
  6
Continuous
 62
     1
100
AcDbLine
 10
131.6195288207
 20
53.3650795986
 30
0.0
 11
133.1605326355
 21
54.9060834134
 31
0.0
  0
LINE
  5
25D
330
23D
100
AcDbEntity
  8
0
  6
Continuous
 62
     1
100
AcDbLine
 10
135.6842453656
 20
57.42979614350001
 30
0.0
 11
136.7632678532
 21
58.508818631
 31
0.0
  0
LINE
  5
25E
330
23D
100
AcDbEntity
  8
0
  6
Continuous
 62
     1
100
AcDbLine
 10
130.8869592543
 20
53.2359078188
 30
0.0
 11
132.4279630691
 21
54.77691163359999
 31
0.0
  0
LINE
  5
25F
330
23D
100
AcDbEntity
  8
0
  6
Continuous
 62
     1
100
AcDbLine
 10
135.5937983117
 20
57.94274687619999
 30
0.0
 11
136.6728207992
 21
59.0217693637
 31
0.0
  0
LINE
  5
260
330
23D
100
AcDbEntity
  8
0
  6
Continuous
 62
     1
100
AcDbLine
 10
130.1543896879
 20
53.10673603899999
 30
0.0
 11
131.6953935027
 21
54.6477398538
 31
0.0
  0
LINE
  5
261
330
23D
100
AcDbEntity
  8
0
  6
Continuous
 62
     1
100
AcDbLine
 10
135.5033512577
 20
58.45569760890001
 30
0.0
 11
136.5823737453
 21
59.5347200964
 31
0.0
  0
LINE
  5
262
330
23D
100
AcDbEntity
  8
0
  6
Continuous
 62
     1
100
AcDbLine
 10
129.4218201215
 20
52.9775642592
 30
0.0
 11
130.9628239362
 21
54.51856807399999
 31
0.0
  0
LINE
  5
263
330
23D
100
AcDbEntity
  8
0
  6
Continuous
 62
     1
100
AcDbLine
 10
135.4129042038
 20
58.96864834149999
 30
0.0
 11
136.4919266913
 21
60.04767082909999
 31
0.0
  0
LINE
  5
264
330
23D
100
AcDbEntity
  8
0
  6
Continuous
 62
     1
100
AcDbLine
 10
128.689250555
 20
52.84839247939999
 30
0.0
 11
130.2302543698
 21
54.3893962942
 31
0.0
  0
LINE
  5
265
330
23D
100
AcDbEntity
  8
0
  6
Continuous
 62
     1
100
AcDbLine
 10
135.3224571499
 20
59.4815990742
 30
0.0
 11
136.4014796374
 21
60.5606215617
 31
0.0
  0
LINE
  5
266
330
23D
100
AcDbEntity
  8
0
  6
Continuous
 62
     1
100
AcDbLine
 10
127.9566809886
 20
52.7192206996
 30
0.0
 11
129.4976848034
 21
54.26022451439999
 31
0.0
  0
LINE
  5
267
330
23D
100
AcDbEntity
  8
0
  6
Continuous
 62
     1
100
AcDbLine
 10
135.2320100959
 20
59.9945498069
 30
0.0
 11
136.3110325834
 21
61.07357229439999
 31
0.0
  0
LINE
  5
268
330
23D
100
AcDbEntity
  8
0
  6
Continuous
 62
     1
100
AcDbLine
 10
127.2241114222
 20
52.5900489198
 30
0.0
 11
128.765115237
 21
54.1310527346
 31
0.0
  0
LINE
  5
269
330
23D
100
AcDbEntity
  8
0
  6
Continuous
 62
     1
100
AcDbLine
 10
134.9291304961
 20
60.2950679937
 30
0.0
 11
136.2205855295
 21
61.5865230271
 31
0.0
  0
LINE
  5
26A
330
23D
100
AcDbEntity
  8
0
  6
Continuous
 62
     1
100
AcDbLine
 10
126.4915418558
 20
52.46087714
 30
0.0
 11
128.0325456706
 21
54.0018809547
 31
0.0
  0
LINE
  5
26B
330
23D
100
AcDbEntity
  8
0
  6
Continuous
 62
     1
100
AcDbLine
 10
134.1965609297
 20
60.1658962139
 30
0.0
 11
136.1301384755
 21
62.0994737597
 31
0.0
  0
LINE
  5
26C
330
23D
100
AcDbEntity
  8
0
  6
Continuous
 62
     1
100
AcDbLine
 10
125.7589722894
 20
52.33170536020001
 30
0.0
 11
127.2999761041
 21
53.87270917489999
 31
0.0
  0
LINE
  5
26D
330
23D
100
AcDbEntity
  8
0
  6
Continuous
 62
     1
100
AcDbLine
 10
133.4639913633
 20
60.03672443399999
 30
0.0
 11
134.4913336615
 21
61.0640667323
 31
0.0
  0
LINE
  5
26E
330
23D
100
AcDbEntity
  8
0
  6
Continuous
 62
     1
100
AcDbLine
 10
134.9606689341
 20
61.53340200489999
 30
0.0
 11
136.0396914216
 21
62.6124244924
 31
0.0
  0
LINE
  5
26F
330
23D
100
AcDbEntity
  8
0
  6
Continuous
 62
     1
100
AcDbLine
 10
125.026402723
 20
52.2025335804
 30
0.0
 11
126.5674065377
 21
53.7435373951
 31
0.0
  0
LINE
  5
270
330
23D
100
AcDbEntity
  8
0
  6
Continuous
 62
     1
100
AcDbLine
 10
132.7314217968
 20
59.9075526542
 30
0.0
 11
133.7587638855
 21
60.9348947429
 31
0.0
  0
LINE
  5
271
330
23D
100
AcDbEntity
  8
0
  6
Continuous
 62
     1
100
AcDbLine
 10
134.8702218801
 20
62.0463527375
 30
0.0
 11
135.9492443677
 21
63.1253752251
 31
0.0
  0
LINE
  5
272
330
23D
100
AcDbEntity
  8
0
  6
Continuous
 62
     1
100
AcDbLine
 10
124.2938331565
 20
52.0733618006
 30
0.0
 11
125.8348369713
 21
53.61436561529999
 31
0.0
  0
LINE
  5
273
330
23D
100
AcDbEntity
  8
0
  6
Continuous
 62
     1
100
AcDbLine
 10
131.9988522304
 20
59.77838087439999
 30
0.0
 11
133.0261941095
 21
60.8057227535
 31
0.0
  0
LINE
  5
274
330
23D
100
AcDbEntity
  8
0
  6
Continuous
 62
     1
100
AcDbLine
 10
134.7797748262
 20
62.55930347020001
 30
0.0
 11
135.8587973137
 21
63.6383259577
 31
0.0
  0
LINE
  5
275
330
23D
100
AcDbEntity
  8
0
  6
Continuous
 62
     1
100
AcDbLine
 10
123.5612635901
 20
51.9441900207
 30
0.0
 11
125.1022674049
 21
53.4851938355
 31
0.0
  0
LINE
  5
276
330
23D
100
AcDbEntity
  8
0
  6
Continuous
 62
     1
100
AcDbLine
 10
131.266282664
 20
59.6492090946
 30
0.0
 11
132.2936243334
 21
60.6765507641
 31
0.0
  0
LINE
  5
277
330
23D
100
AcDbEntity
  8
0
  6
Continuous
 62
     1
100
AcDbLine
 10
134.6893277723
 20
63.07225420289999
 30
0.0
 11
135.7683502598
 21
64.1512766904
 31
0.0
  0
LINE
  5
278
330
23D
100
AcDbEntity
  8
0
  6
Continuous
 62
     1
100
AcDbLine
 10
122.8286940237
 20
51.8150182409
 30
0.0
 11
124.3696978385
 21
53.35602205569999
 31
0.0
  0
LINE
  5
279
330
23D
100
AcDbEntity
  8
0
  6
Continuous
 62
     1
100
AcDbLine
 10
130.5337130976
 20
59.52003731479999
 30
0.0
 11
131.5610545574
 21
60.5473787746
 31
0.0
  0
LINE
  5
27A
330
23D
100
AcDbEntity
  8
0
  6
Continuous
 62
     1
100
AcDbLine
 10
134.5988807183
 20
63.5852049356
 30
0.0
 11
135.6779032058
 21
64.6642274231
 31
0.0
  0
LINE
  5
27B
330
23D
100
AcDbEntity
  8
0
  6
Continuous
 62
     1
100
AcDbLine
 10
122.0961244573
 20
51.6858464611
 30
0.0
 11
123.6371282721
 21
53.2268502759
 31
0.0
  0
LINE
  5
27C
330
23D
100
AcDbEntity
  8
0
  6
Continuous
 62
     1
100
AcDbLine
 10
129.8011435312
 20
59.39086553500001
 30
0.0
 11
130.8284847814
 21
60.4182067852
 31
0.0
  0
LINE
  5
27D
330
23D
100
AcDbEntity
  8
0
  6
Continuous
 62
     1
100
AcDbLine
 10
134.5084336644
 20
64.09815566819999
 30
0.0
 11
135.5874561519
 21
65.17717815569999
 31
0.0
  0
LINE
  5
27E
330
23D
100
AcDbEntity
  8
0
  6
Continuous
 62
     1
100
AcDbLine
 10
121.3635548909
 20
51.5566746813
 30
0.0
 11
122.9045587056
 21
53.0976784961
 31
0.0
  0
LINE
  5
27F
330
23D
100
AcDbEntity
  8
0
  6
Continuous
 62
     1
100
AcDbLine
 10
129.0685739647
 20
59.2616937552
 30
0.0
 11
130.0959150053
 21
60.2890347958
 31
0.0
  0
LINE
  5
280
330
23D
100
AcDbEntity
  8
0
  6
Continuous
 62
     1
100
AcDbLine
 10
134.4179866104
 20
64.6111064009
 30
0.0
 11
135.4970090979
 21
65.69012888839999
 31
0.0
  0
LINE
  5
281
330
23D
100
AcDbEntity
  8
0
  6
Continuous
 62
     1
100
AcDbLine
 10
120.6309853244
 20
51.4275029015
 30
0.0
 11
122.1719891392
 21
52.9685067163
 31
0.0
  0
LINE
  5
282
330
23D
100
AcDbEntity
  8
0
  6
Continuous
 62
     1
100
AcDbLine
 10
128.3360043983
 20
59.1325219754
 30
0.0
 11
129.3633452293
 21
60.1598628064
 31
0.0
  0
LINE
  5
283
330
23D
100
AcDbEntity
  8
0
  6
Continuous
 62
     1
100
AcDbLine
 10
134.3275395565
 20
65.12405713359999
 30
0.0
 11
135.406562044
 21
66.2030796211
 31
0.0
  0
LINE
  5
284
330
23D
100
AcDbEntity
  8
0
  6
Continuous
 62
     1
100
AcDbLine
 10
119.898415758
 20
51.2983311217
 30
0.0
 11
121.4394195728
 21
52.8393349365
 31
0.0
  0
LINE
  5
285
330
23D
100
AcDbEntity
  8
0
  6
Continuous
 62
     1
100
AcDbLine
 10
127.6034348319
 20
59.0033501956
 30
0.0
 11
128.6307754533
 21
60.030690817
 31
0.0
  0
LINE
  5
286
330
23D
100
AcDbEntity
  8
0
  6
Continuous
 62
     1
100
AcDbLine
 10
134.2370925025
 20
65.6370078662
 30
0.0
 11
135.3161149901
 21
66.71603035369999
 31
0.0
  0
LINE
  5
287
330
23D
100
AcDbEntity
  8
0
  6
Continuous
 62
     1
100
AcDbLine
 10
119.1658461916
 20
51.1691593419
 30
0.0
 11
120.7068500064
 21
52.71016315669999
 31
0.0
  0
LINE
  5
288
330
23D
100
AcDbEntity
  8
0
  6
Continuous
 62
     1
100
AcDbLine
 10
126.8708652655
 20
58.87417841579999
 30
0.0
 11
127.8982056773
 21
59.9015188276
 31
0.0
  0
LINE
  5
289
330
23D
100
AcDbEntity
  8
0
  6
Continuous
 62
     1
100
AcDbLine
 10
134.0622164011
 20
66.0655295514
 30
0.0
 11
135.2256679361
 21
67.22898108639999
 31
0.0
  0
LINE
  5
28A
330
23D
100
AcDbEntity
  8
0
  6
Continuous
 62
     1
100
AcDbLine
 10
118.4332766252
 20
51.0399875621
 30
0.0
 11
119.97428044
 21
52.58099137689999
 31
0.0
  0
LINE
  5
28B
330
23D
100
AcDbEntity
  8
0
  6
Continuous
 62
     1
100
AcDbLine
 10
126.1382956991
 20
58.74500663600001
 30
0.0
 11
127.1656359012
 21
59.7723468381
 31
0.0
  0
LINE
  5
28C
330
23D
100
AcDbEntity
  8
0
  6
Continuous
 62
     1
100
AcDbLine
 10
133.3296468347
 20
65.9363577716
 30
0.0
 11
134.8706506495
 21
67.47736158640001
 31
0.0
  0
LINE
  5
28D
330
23D
100
AcDbEntity
  8
0
  6
Continuous
 62
     1
100
AcDbLine
 10
117.7007070588
 20
50.91081578229999
 30
0.0
 11
119.2417108736
 21
52.4518195971
 31
0.0
  0
LINE
  5
28E
330
23D
100
AcDbEntity
  8
0
  6
Continuous
 62
     1
100
AcDbLine
 10
125.4057261327
 20
58.61583485619999
 30
0.0
 11
126.4330661252
 21
59.6431748487
 31
0.0
  0
LINE
  5
28F
330
23D
100
AcDbEntity
  8
0
  6
Continuous
 62
     1
100
AcDbLine
 10
132.5970772683
 20
65.80718599179999
 30
0.0
 11
134.1380810831
 21
67.3481898066
 31
0.0
  0
LINE
  5
290
330
23D
100
AcDbEntity
  8
0
  6
Continuous
 62
     1
100
AcDbLine
 10
116.9681374924
 20
50.7816440025
 30
0.0
 11
118.5091413071
 21
52.32264781729999
 31
0.0
  0
LINE
  5
291
330
23D
100
AcDbEntity
  8
0
  6
Continuous
 62
     1
100
AcDbLine
 10
124.6731565662
 20
58.48666307640001
 30
0.0
 11
125.7004963492
 21
59.5140028593
 31
0.0
  0
LINE
  5
292
330
23D
100
AcDbEntity
  8
0
  6
Continuous
 62
     1
100
AcDbLine
 10
131.8645077019
 20
65.67801421199999
 30
0.0
 11
133.4055115166
 21
67.2190180268
 31
0.0
  0
LINE
  5
293
330
23D
100
AcDbEntity
  8
0
  6
Continuous
 62
     1
100
AcDbLine
 10
116.2355679259
 20
50.6524722227
 30
0.0
 11
117.7765717407
 21
52.1934760375
 31
0.0
  0
LINE
  5
294
330
23D
100
AcDbEntity
  8
0
  6
Continuous
 62
     1
100
AcDbLine
 10
123.9405869998
 20
58.35749129659999
 30
0.0
 11
124.9679265731
 21
59.3848308699
 31
0.0
  0
LINE
  5
295
330
23D
100
AcDbEntity
  8
0
  6
Continuous
 62
     1
100
AcDbLine
 10
131.1319381354
 20
65.5488424322
 30
0.0
 11
132.6729419502
 21
67.089846247
 31
0.0
  0
LINE
  5
296
330
23D
100
AcDbEntity
  8
0
  6
Continuous
 62
     1
100
AcDbLine
 10
115.5029983595
 20
50.5233004429
 30
0.0
 11
117.0440021743
 21
52.0643042577
 31
0.0
  0
LINE
  5
297
330
23D
100
AcDbEntity
  8
0
  6
Continuous
 62
     1
100
AcDbLine
 10
123.2080174334
 20
58.22831951680001
 30
0.0
 11
124.2353567971
 21
59.2556588805
 31
0.0
  0
LINE
  5
298
330
23D
100
AcDbEntity
  8
0
  6
Continuous
 62
     1
100
AcDbLine
 10
130.399368569
 20
65.4196706524
 30
0.0
 11
131.9403723838
 21
66.9606744672
 31
0.0
  0
LINE
  5
299
330
23D
100
AcDbEntity
  8
0
  6
Continuous
 62
     1
100
AcDbLine
 10
114.7704287931
 20
50.39412866310001
 30
0.0
 11
116.3114326079
 21
51.9351324779
 31
0.0
  0
LINE
  5
29A
330
23D
100
AcDbEntity
  8
0
  6
Continuous
 62
     1
100
AcDbLine
 10
122.475447867
 20
58.099147737
 30
0.0
 11
123.5027870211
 21
59.1264868911
 31
0.0
  0
LINE
  5
29B
330
23D
100
AcDbEntity
  8
0
  6
Continuous
 62
     1
100
AcDbLine
 10
129.6667990026
 20
65.2904988726
 30
0.0
 11
131.2078028174
 21
66.8315026874
 31
0.0
  0
LINE
  5
29C
330
23D
100
AcDbEntity
  8
0
  6
Continuous
 62
     1
100
AcDbLine
 10
114.0378592267
 20
50.2649568833
 30
0.0
 11
115.5788630415
 21
51.8059606981
 31
0.0
  0
LINE
  5
29D
330
23D
100
AcDbEntity
  8
0
  6
Continuous
 62
     1
100
AcDbLine
 10
121.7428783006
 20
57.9699759572
 30
0.0
 11
122.7702172451
 21
58.9973149017
 31
0.0
  0
LINE
  5
29E
330
23D
100
AcDbEntity
  8
0
  6
Continuous
 62
     1
100
AcDbLine
 10
128.9342294362
 20
65.16132709279999
 30
0.0
 11
130.475233251
 21
66.7023309076
 31
0.0
  0
LINE
  5
29F
330
23D
100
AcDbEntity
  8
0
  6
Continuous
 62
     1
100
AcDbLine
 10
113.3052896603
 20
50.13578510350001
 30
0.0
 11
114.846293475
 21
51.67678891819999
 31
0.0
  0
LINE
  5
2A0
330
23D
100
AcDbEntity
  8
0
  6
Continuous
 62
     1
100
AcDbLine
 10
121.0103087342
 20
57.8408041774
 30
0.0
 11
122.037647469
 21
58.8681429122
 31
0.0
  0
LINE
  5
2A1
330
23D
100
AcDbEntity
  8
0
  6
Continuous
 62
     1
100
AcDbLine
 10
128.2016598698
 20
65.032155313
 30
0.0
 11
129.7426636846
 21
66.57315912779999
 31
0.0
  0
LINE
  5
2A2
330
23D
100
AcDbEntity
  8
0
  6
Continuous
 62
     1
100
AcDbLine
 10
112.5727200938
 20
50.0066133237
 30
0.0
 11
114.1137239086
 21
51.5476171384
 31
0.0
  0
LINE
  5
2A3
330
23D
100
AcDbEntity
  8
0
  6
Continuous
 62
     1
100
AcDbLine
 10
120.2777391677
 20
57.71163239759999
 30
0.0
 11
121.305077693
 21
58.7389709228
 31
0.0
  0
LINE
  5
2A4
330
23D
100
AcDbEntity
  8
0
  6
Continuous
 62
     1
100
AcDbLine
 10
127.4690903034
 20
64.9029835332
 30
0.0
 11
129.0100941181
 21
66.44398734800001
 31
0.0
  0
LINE
  5
2A5
330
23D
100
AcDbEntity
  8
0
  6
Continuous
 62
     1
100
AcDbLine
 10
112.0213993213
 20
50.05869033779999
 30
0.0
 11
113.3811543422
 21
51.41844535859999
 31
0.0
  0
LINE
  5
2A6
330
23D
100
AcDbEntity
  8
0
  6
Continuous
 62
     1
100
AcDbLine
 10
119.5451696013
 20
57.58246061770001
 30
0.0
 11
120.572507917
 21
58.6097989334
 31
0.0
  0
LINE
  5
2A7
330
23D
100
AcDbEntity
  8
0
  6
Continuous
 62
     1
100
AcDbLine
 10
126.7365207369
 20
64.77381175339999
 30
0.0
 11
128.2775245517
 21
66.3148155681
 31
0.0
  0
LINE
  5
2A8
330
23D
100
AcDbEntity
  8
0
  6
Continuous
 62
     1
100
AcDbLine
 10
111.9309522674
 20
50.5716410704
 30
0.0
 11
113.0099747549
 21
51.65066355789999
 31
0.0
  0
LINE
  5
2A9
330
23D
100
AcDbEntity
  8
0
  6
Continuous
 62
     1
100
AcDbLine
 10
118.8126000349
 20
57.4532888379
 30
0.0
 11
119.8399381409
 21
58.48062694399999
 31
0.0
  0
LINE
  5
2AA
330
23D
100
AcDbEntity
  8
0
  6
Continuous
 62
     1
100
AcDbLine
 10
126.0039511705
 20
64.64463997359999
 30
0.0
 11
127.5449549853
 21
66.1856437883
 31
0.0
  0
LINE
  5
2AB
330
23D
100
AcDbEntity
  8
0
  6
Continuous
 62
     1
100
AcDbLine
 10
111.8405052134
 20
51.0845918031
 30
0.0
 11
112.919527701
 21
52.1636142906
 31
0.0
  0
LINE
  5
2AC
330
23D
100
AcDbEntity
  8
0
  6
Continuous
 62
     1
100
AcDbLine
 10
118.0800304685
 20
57.32411705810001
 30
0.0
 11
119.1073683649
 21
58.3514549546
 31
0.0
  0
LINE
  5
2AD
330
23D
100
AcDbEntity
  8
0
  6
Continuous
 62
     1
100
AcDbLine
 10
125.2713816041
 20
64.5154681938
 30
0.0
 11
126.8123854189
 21
66.0564720085
 31
0.0
  0
LINE
  5
2AE
330
23D
100
AcDbEntity
  8
0
  6
Continuous
 62
     1
100
AcDbLine
 10
111.7500581595
 20
51.5975425358
 30
0.0
 11
112.829080647
 21
52.6765650233
 31
0.0
  0
LINE
  5
2AF
330
23D
100
AcDbEntity
  8
0
  6
Continuous
 62
     1
100
AcDbLine
 10
117.3474609021
 20
57.1949452783
 30
0.0
 11
118.3747985889
 21
58.2222829652
 31
0.0
  0
LINE
  5
2B0
330
23D
100
AcDbEntity
  8
0
  6
Continuous
 62
     1
100
AcDbLine
 10
124.5388120377
 20
64.386296414
 30
0.0
 11
126.0798158525
 21
65.9273002287
 31
0.0
  0
LINE
  5
2B1
330
23D
100
AcDbEntity
  8
0
  6
Continuous
 62
     1
100
AcDbLine
 10
111.6596111056
 20
52.1104932684
 30
0.0
 11
112.7386335931
 21
53.189515756
 31
0.0
  0
LINE
  5
2B2
330
23D
100
AcDbEntity
  8
0
  6
Continuous
 62
     1
100
AcDbLine
 10
116.6148913356
 20
57.0657734985
 30
0.0
 11
117.6422288129
 21
58.0931109757
 31
0.0
  0
LINE
  5
2B3
330
23D
100
AcDbEntity
  8
0
  6
Continuous
 62
     1
100
AcDbLine
 10
123.8062424713
 20
64.2571246342
 30
0.0
 11
125.347246286
 21
65.7981284489
 31
0.0
  0
LINE
  5
2B4
330
23D
100
AcDbEntity
  8
0
  6
Continuous
 62
     1
100
AcDbLine
 10
111.5691640516
 20
52.62344400109999
 30
0.0
 11
112.6481865391
 21
53.7024664886
 31
0.0
  0
LINE
  5
2B5
330
23D
100
AcDbEntity
  8
0
  6
Continuous
 62
     1
100
AcDbLine
 10
115.8823217692
 20
56.9366017187
 30
0.0
 11
116.9096590368
 21
57.9639389863
 31
0.0
  0
LINE
  5
2B6
330
23D
100
AcDbEntity
  8
0
  6
Continuous
 62
     1
100
AcDbLine
 10
123.0736729049
 20
64.1279528543
 30
0.0
 11
124.6146767196
 21
65.66895666909999
 31
0.0
  0
LINE
  5
2B7
330
23D
100
AcDbEntity
  8
0
  6
Continuous
 62
     1
100
AcDbLine
 10
111.4787169977
 20
53.1363947338
 30
0.0
 11
112.5577394852
 21
54.2154172213
 31
0.0
  0
LINE
  5
2B8
330
23D
100
AcDbEntity
  8
0
  6
Continuous
 62
     1
100
AcDbLine
 10
115.1497522028
 20
56.8074299389
 30
0.0
 11
116.1770892608
 21
57.83476699689999
 31
0.0
  0
LINE
  5
2B9
330
23D
100
AcDbEntity
  8
0
  6
Continuous
 62
     1
100
AcDbLine
 10
122.3411033384
 20
63.9987810745
 30
0.0
 11
123.8821071532
 21
65.53978488930001
 31
0.0
  0
LINE
  5
2BA
330
23D
100
AcDbEntity
  8
0
  6
Continuous
 62
     1
100
AcDbLine
 10
111.3882699437
 20
53.6493454664
 30
0.0
 11
112.4672924312
 21
54.728367954
 31
0.0
  0
LINE
  5
2BB
330
23D
100
AcDbEntity
  8
0
  6
Continuous
 62
     1
100
AcDbLine
 10
114.4171826364
 20
56.67825815909999
 30
0.0
 11
115.4445194848
 21
57.7055950075
 31
0.0
  0
LINE
  5
2BC
330
23D
100
AcDbEntity
  8
0
  6
Continuous
 62
     1
100
AcDbLine
 10
121.608533772
 20
63.8696092947
 30
0.0
 11
123.1495375868
 21
65.4106131095
 31
0.0
  0
LINE
  5
2BD
330
23D
100
AcDbEntity
  8
0
  6
Continuous
 62
     1
100
AcDbLine
 10
111.2978228898
 20
54.1622961991
 30
0.0
 11
112.3768453773
 21
55.24131868659999
 31
0.0
  0
LINE
  5
2BE
330
23D
100
AcDbEntity
  8
0
  6
Continuous
 62
     1
100
AcDbLine
 10
113.68461307
 20
56.5490863793
 30
0.0
 11
114.7119497087
 21
57.5764230181
 31
0.0
  0
LINE
  5
2BF
330
23D
100
AcDbEntity
  8
0
  6
Continuous
 62
     1
100
AcDbLine
 10
120.8759642056
 20
63.74043751489999
 30
0.0
 11
122.4169680204
 21
65.2814413297
 31
0.0
  0
LINE
  5
2C0
330
23D
100
AcDbEntity
  8
0
  6
Continuous
 62
     1
100
AcDbLine
 10
111.2073758358
 20
54.6752469318
 30
0.0
 11
112.2863983234
 21
55.7542694193
 31
0.0
  0
LINE
  5
2C1
330
23D
100
AcDbEntity
  8
0
  6
Continuous
 62
     1
100
AcDbLine
 10
112.9520435036
 20
56.41991459949999
 30
0.0
 11
113.9793799327
 21
57.4472510287
 31
0.0
  0
LINE
  5
2C2
330
23D
100
AcDbEntity
  8
0
  6
Continuous
 62
     1
100
AcDbLine
 10
120.1433946392
 20
63.6112657351
 30
0.0
 11
121.684398454
 21
65.1522695499
 31
0.0
  0
LINE
  5
2C3
330
23D
100
AcDbEntity
  8
0
  6
Continuous
 62
     1
100
AcDbLine
 10
111.1169287819
 20
55.1881976644
 30
0.0
 11
112.1959512694
 21
56.267220152
 31
0.0
  0
LINE
  5
2C4
330
23D
100
AcDbEntity
  8
0
  6
Continuous
 62
     1
100
AcDbLine
 10
112.2194739371
 20
56.2907428197
 30
0.0
 11
113.2468101567
 21
57.3180790392
 31
0.0
  0
LINE
  5
2C5
330
23D
100
AcDbEntity
  8
0
  6
Continuous
 62
     1
100
AcDbLine
 10
119.4108250728
 20
63.48209395529999
 30
0.0
 11
120.9518288875
 21
65.02309777010001
 31
0.0
  0
LINE
  5
2C6
330
23D
100
AcDbEntity
  8
0
  6
Continuous
 62
     1
100
AcDbLine
 10
111.0264817279
 20
55.7011483971
 30
0.0
 11
112.5142403807
 21
57.18890704979999
 31
0.0
  0
LINE
  5
2C7
330
23D
100
AcDbEntity
  8
0
  6
Continuous
 62
     1
100
AcDbLine
 10
118.6782555063
 20
63.35292217550001
 30
0.0
 11
120.2192593211
 21
64.89392599029999
 31
0.0
  0
LINE
  5
2C8
330
23D
100
AcDbEntity
  8
0
  6
Continuous
 62
     1
100
AcDbLine
 10
110.936034674
 20
56.21409912979999
 30
0.0
 11
112.0150571615
 21
57.2931216173
 31
0.0
  0
LINE
  5
2C9
330
23D
100
AcDbEntity
  8
0
  6
Continuous
 62
     1
100
AcDbLine
 10
117.9456859399
 20
63.22375039569999
 30
0.0
 11
119.4866897547
 21
64.7647542105
 31
0.0
  0
LINE
  5
2CA
330
23D
100
AcDbEntity
  8
0
  6
Continuous
 62
     1
100
AcDbLine
 10
110.8455876201
 20
56.7270498625
 30
0.0
 11
111.9246101076
 21
57.80607235
 31
0.0
  0
LINE
  5
2CB
330
23D
100
AcDbEntity
  8
0
  6
Continuous
 62
     1
100
AcDbLine
 10
117.2131163735
 20
63.09457861590001
 30
0.0
 11
118.7541201883
 21
64.6355824307
 31
0.0
  0
LINE
  5
2CC
330
23D
100
AcDbEntity
  8
0
  6
Continuous
 62
     1
100
AcDbLine
 10
110.7551405661
 20
57.2400005951
 30
0.0
 11
111.8341630536
 21
58.3190230826
 31
0.0
  0
LINE
  5
2CD
330
23D
100
AcDbEntity
  8
0
  6
Continuous
 62
     1
100
AcDbLine
 10
116.4805468071
 20
62.96540683609999
 30
0.0
 11
118.0215506219
 21
64.50641065090001
 31
0.0
  0
LINE
  5
2CE
330
23D
100
AcDbEntity
  8
0
  6
Continuous
 62
     1
100
AcDbLine
 10
110.6646935122
 20
57.7529513278
 30
0.0
 11
111.7437159997
 21
58.83197381529999
 31
0.0
  0
LINE
  5
2CF
330
23D
100
AcDbEntity
  8
0
  6
Continuous
 62
     1
100
AcDbLine
 10
115.7479772407
 20
62.8362350563
 30
0.0
 11
117.2889810555
 21
64.37723887109999
 31
0.0
  0
LINE
  5
2D0
330
23D
100
AcDbEntity
  8
0
  6
Continuous
 62
     1
100
AcDbLine
 10
110.5742464582
 20
58.2659020605
 30
0.0
 11
111.6532689457
 21
59.344924548
 31
0.0
  0
LINE
  5
2D1
330
23D
100
AcDbEntity
  8
0
  6
Continuous
 62
     1
100
AcDbLine
 10
115.0154076743
 20
62.7070632765
 30
0.0
 11
116.556411489
 21
64.2480670913
 31
0.0
  0
LINE
  5
2D2
330
23D
100
AcDbEntity
  8
0
  6
Continuous
 62
     1
100
AcDbLine
 10
110.4837994043
 20
58.7788527931
 30
0.0
 11
111.5628218918
 21
59.85787528060001
 31
0.0
  0
LINE
  5
2D3
330
23D
100
AcDbEntity
  8
0
  6
Continuous
 62
     1
100
AcDbLine
 10
114.2828381078
 20
62.57789149669999
 30
0.0
 11
115.8238419226
 21
64.11889531149999
 31
0.0
  0
LINE
  5
2D4
330
23D
100
AcDbEntity
  8
0
  6
Continuous
 62
     1
100
AcDbLine
 10
110.3933523503
 20
59.2918035258
 30
0.0
 11
111.4723748379
 21
60.37082601329999
 31
0.0
  0
LINE
  5
2D5
330
23D
100
AcDbEntity
  8
0
  6
Continuous
 62
     1
100
AcDbLine
 10
113.5502685414
 20
62.44871971689999
 30
0.0
 11
115.0912723562
 21
63.9897235317
 31
0.0
  0
LINE
  5
2D6
330
23D
100
AcDbEntity
  8
0
  6
Continuous
 62
     1
100
AcDbLine
 10
110.3029052964
 20
59.8047542585
 30
0.0
 11
111.3819277839
 21
60.883776746
 31
0.0
  0
LINE
  5
2D7
330
23D
100
AcDbEntity
  8
0
  6
Continuous
 62
     1
100
AcDbLine
 10
112.817698975
 20
62.31954793709999
 30
0.0
 11
114.3587027898
 21
63.8605517518
 31
0.0
  0
LINE
  5
2D8
330
23D
100
AcDbEntity
  8
0
  6
Continuous
 62
     1
100
AcDbLine
 10
110.2124582425
 20
60.31770499109999
 30
0.0
 11
111.29148073
 21
61.3967274787
 31
0.0
  0
LINE
  5
2D9
330
23D
100
AcDbEntity
  8
0
  6
Continuous
 62
     1
100
AcDbLine
 10
112.0851294086
 20
62.19037615729999
 30
0.0
 11
113.6261332234
 21
63.731379972
 31
0.0
  0
LINE
  5
2DA
330
23D
100
AcDbEntity
  8
0
  6
Continuous
 62
     1
100
AcDbLine
 10
110.1220111885
 20
60.8306557238
 30
0.0
 11
111.201033676
 21
61.9096782113
 31
0.0
  0
LINE
  5
2DB
330
23D
100
AcDbEntity
  8
0
  6
Continuous
 62
     1
100
AcDbLine
 10
111.3525598422
 20
62.0612043775
 30
0.0
 11
112.8935636569
 21
63.6022081922
 31
0.0
  0
LINE
  5
2DC
330
23D
100
AcDbEntity
  8
0
  6
Continuous
 62
     1
100
AcDbLine
 10
110.0315641346
 20
61.3436064565
 30
0.0
 11
112.1609940905
 21
63.47303641239999
 31
0.0
  0
LINE
  5
2DD
330
23D
100
AcDbEntity
  8
0
  6
Continuous
 62
     1
100
AcDbLine
 10
109.9411170806
 20
61.8565571891
 30
0.0
 11
111.4284245241
 21
63.3438646326
 31
0.0
  0
LINE
  5
2DE
330
23D
100
AcDbEntity
  8
0
  6
Continuous
 62
     1
100
AcDbLine
 10
109.8506700267
 20
62.3695079218
 30
0.0
 11
110.6958549577
 21
63.2146928528
 31
0.0
  0
LINE
  5
2DF
330
23D
100
AcDbEntity
  8
0
  6
Continuous
 62
     1
100
AcDbLine
 10
109.7602229727
 20
62.8824586545
 30
0.0
 11
109.9632853913
 21
63.085521073
 31
0.0
  0
ENDBLK
  5
2E0
330
23D
100
AcDbEntity
  8
0
  6
ByBlock
 62
     0
100
AcDbBlockEnd
  0
BLOCK
  5
2E1
330
23E
100
AcDbEntity
  8
0
  6
Continuous
 62
     2
100
AcDbBlockBegin
  2
L03-NOTE_SPECS_BAINS_BL0
 70
     0
 10
160.6665744185
 20
55.3333957601
 30
0.0
  3
L03-NOTE_SPECS_BAINS_BL0
  1

  0
TEXT
  5
2E2
330
23E
100
AcDbEntity
  8
0
  6
Continuous
 62
     2
100
AcDbText
 10
144.4187893423
 20
63.1068291512
 30
0.0
 40
0.5
  1
Infomations Techniques/Technical Infomations
 41
0.8282282282286493
 72
     5
 11
159.0113819349
 21
63.1068291512
 31
0.0
100
AcDbText
  0
TEXT
  5
2E3
330
23E
100
AcDbEntity
  8
0
  6
Continuous
 62
     2
100
AcDbText
 10
144.6665744185
 20
61.6667290935
 30
0.0
 40
0.6666666667
  1
NOMBRE DE JETS:     
 41
0.7951282050848596
 72
     5
 11
154.5110188629
 21
61.6667290935
 31
0.0
100
AcDbText
  0
TEXT
  5
2E4
330
23E
100
AcDbEntity
  8
0
  6
Continuous
 62
     2
100
AcDbText
 10
154.5110188629
 20
61.6667290935
 30
0.0
 40
0.6666666667
  1
35
 41
0.9470588235541194
 72
     5
 11
155.5332410852
 21
61.6667290935
 31
0.0
100
AcDbText
  0
TEXT
  5
2E5
330
23E
100
AcDbEntity
  8
0
  6
Continuous
 62
     2
100
AcDbText
 10
144.6665744185
 20
60.6667290935
 30
0.0
 40
0.6666666667
  1
 
 41
0.4543859649325198
 72
     5
 11
144.9406484926
 21
60.6667290935
 31
0.0
100
AcDbText
  0
TEXT
  5
2E6
330
23E
100
AcDbEntity
  8
0
  6
Continuous
 62
     2
100
AcDbText
 10
144.6665744185
 20
59.6667290935
 30
0.0
 40
0.6666666667
  1
NIVEAU D'EAU              GALLONS(US)        LITRES        GALLONS(UK)
 41
0.7326737696243262
 72
     5
 11
175.2295373815
 21
59.6667290935
 31
0.0
100
AcDbText
  0
TEXT
  5
2E7
330
23E
100
AcDbEntity
  8
0
  6
Continuous
 62
     2
100
AcDbText
 10
144.6665744185
 20
58.6667290935
 30
0.0
 40
0.6666666667
  1
PLEIN
 41
1.076090014011386
 72
     5
 11
147.3653398506
 21
58.6667290935
 31
0.0
100
AcDbText
  0
TEXT
  5
2E8
330
23E
100
AcDbEntity
  8
0
  6
Continuous
 62
     2
100
AcDbText
 10
144.6665744185
 20
57.6667290935
 30
0.0
 40
0.6666666667
  1
HAUT T.PLEIN
 41
0.9533333332923344
 72
     5
 11
151.0221299741
 21
57.6667290935
 31
0.0
100
AcDbText
  0
TEXT
  5
2E9
330
23E
100
AcDbEntity
  8
0
  6
Continuous
 62
     2
100
AcDbText
 10
144.6665744185
 20
56.6667290935
 30
0.0
 40
0.6666666667
  1
MILIEU T.PLEIN
 41
0.9753472221684196
 72
     5
 11
151.6023768876
 21
56.6667290935
 31
0.0
100
AcDbText
  0
TEXT
  5
2EA
330
23E
100
AcDbEntity
  8
0
  6
Continuous
 62
     2
100
AcDbText
 10
144.6665744185
 20
55.6667290935
 30
0.0
 40
0.6666666667
  1
BAS T.PLEIN
 41
0.945267489669402
 72
     5
 11
150.3381793568
 21
55.6667290935
 31
0.0
100
AcDbText
  0
TEXT
  5
2EB
330
23E
100
AcDbEntity
  8
0
  6
Continuous
 62
     2
100
AcDbText
 10
144.6665744185
 20
54.6667290935
 30
0.0
 40
0.6666666667
  1
3" EN BAS T.PLEIN
 41
0.8791712504189138
 72
     5
 11
153.123364542
 21
54.6667290935
 31
0.0
100
AcDbText
  0
TEXT
  5
2EC
330
23E
100
AcDbEntity
  8
0
  6
Continuous
 62
     2
100
AcDbText
 10
144.6665744185
 20
53.6667290935
 30
0.0
 40
0.6666666667
  1
 
 41
0.4543859649325198
 72
     5
 11
144.9406484926
 21
53.6667290935
 31
0.0
100
AcDbText
  0
TEXT
  5
2ED
330
23E
100
AcDbEntity
  8
0
  6
Continuous
 62
     2
100
AcDbText
 10
144.4664129129
 20
53.1199421686
 30
0.0
 40
0.5
  1
Legende/Legend
 41
0.8786122090482196
 72
     5
 11
149.7590055055
 21
53.1199421686
 31
0.0
100
AcDbText
  0
TEXT
  5
2EE
330
23E
100
AcDbEntity
  8
0
  6
Continuous
 62
     2
100
AcDbText
 10
150.995247857
 20
51.6086771909
 30
0.0
 40
0.6666666667
  1
ZONE DE ROBINETTERIE
 41
0.9557651991088162
 72
     5
 11
162.2520379804
 21
51.6086771909
 31
0.0
100
AcDbText
  0
TEXT
  5
2EF
330
23E
100
AcDbEntity
  8
0
  6
Continuous
 62
     2
100
AcDbText
 10
145.91552329
 20
50.1134326765
 30
0.0
 40
0.6666666667
  1
L   :  SYSTEME LED       DC   :  DOUBLE DOSSIER CHAUFFANT
 41
0.795242424203509
 72
     5
 11
173.6858936604
 21
50.1134326765
 31
0.0
100
AcDbText
  0
TEXT
  5
2F0
330
23E
100
AcDbEntity
  8
0
  6
Continuous
 62
     2
100
AcDbText
 10
145.91552329
 20
48.7800993432
 30
0.0
 40
0.6666666667
  1
C   :  CONTROLE
 41
0.8195121950846322
 72
     5
 11
153.3821899567
 21
48.7800993432
 31
0.0
100
AcDbText
  0
TEXT
  5
2F1
330
23E
100
AcDbEntity
  8
0
  6
Continuous
 62
     2
100
AcDbText
 10
145.91552329
 20
47.4467660099
 30
0.0
 40
0.6666666667
  1
T   :  MOTEUR
 41
0.7954116058934268
 72
     5
 11
152.152560327
 21
47.4467660099
 31
0.0
100
AcDbText
  0
TEXT
  5
2F2
330
23E
100
AcDbEntity
  8
0
  6
Continuous
 62
     2
100
AcDbText
 10
157.4992711178
 20
58.6667290935
 30
0.0
 40
0.6666666667
  1
67
 41
0.9470588234614572
 72
     5
 11
158.52149334
 21
58.6667290935
 31
0.0
100
AcDbText
  0
TEXT
  5
2F3
330
23E
100
AcDbEntity
  8
0
  6
Continuous
 62
     2
100
AcDbText
 10
157.4992711178
 20
57.6667290935
 30
0.0
 40
0.6666666667
  1
54
 41
0.9199999999339873
 72
     5
 11
158.52149334
 21
57.6667290935
 31
0.0
100
AcDbText
  0
TEXT
  5
2F4
330
23E
100
AcDbEntity
  8
0
  6
Continuous
 62
     2
100
AcDbText
 10
157.4992711178
 20
56.6667290935
 30
0.0
 40
0.6666666667
  1
53
 41
0.9470588234614575
 72
     5
 11
158.52149334
 21
56.6667290935
 31
0.0
100
AcDbText
  0
TEXT
  5
2F5
330
23E
100
AcDbEntity
  8
0
  6
Continuous
 62
     2
100
AcDbText
 10
157.4992711178
 20
55.6667290935
 30
0.0
 40
0.6666666667
  1
52
 41
0.9470588234614575
 72
     5
 11
158.52149334
 21
55.6667290935
 31
0.0
100
AcDbText
  0
TEXT
  5
2F6
330
23E
100
AcDbEntity
  8
0
  6
Continuous
 62
     2
100
AcDbText
 10
157.4992711178
 20
54.6667290935
 30
0.0
 40
0.6666666667
  1
40
 41
0.9470588234614575
 72
     5
 11
158.52149334
 21
54.6667290935
 31
0.0
100
AcDbText
  0
TEXT
  5
2F7
330
23E
100
AcDbEntity
  8
0
  6
Continuous
 62
     2
100
AcDbText
 10
164.4194770615
 20
58.68380849560001
 30
0.0
 40
0.6666666667
  1
253
 41
0.8944444443802735
 72
     5
 11
165.9528103948
 21
58.68380849560001
 31
0.0
100
AcDbText
  0
TEXT
  5
2F8
330
23E
100
AcDbEntity
  8
0
  6
Continuous
 62
     2
100
AcDbText
 10
164.4194770615
 20
57.6838084956
 30
0.0
 40
0.6666666667
  1
206
 41
0.9113207546515996
 72
     5
 11
165.9528103948
 21
57.6838084956
 31
0.0
100
AcDbText
  0
TEXT
  5
2F9
330
23E
100
AcDbEntity
  8
0
  6
Continuous
 62
     2
100
AcDbText
 10
164.4194770615
 20
56.6838084956
 30
0.0
 40
0.6666666667
  1
202
 41
0.8944444443802732
 72
     5
 11
165.9528103948
 21
56.6838084956
 31
0.0
100
AcDbText
  0
TEXT
  5
2FA
330
23E
100
AcDbEntity
  8
0
  6
Continuous
 62
     2
100
AcDbText
 10
164.4194770615
 20
55.6838084956
 30
0.0
 40
0.6666666667
  1
199
 41
0.985714285643567
 72
     5
 11
165.9528103948
 21
55.6838084956
 31
0.0
100
AcDbText
  0
TEXT
  5
2FB
330
23E
100
AcDbEntity
  8
0
  6
Continuous
 62
     2
100
AcDbText
 10
164.4194770615
 20
54.6838084956
 30
0.0
 40
0.6666666667
  1
150
 41
0.9659999999306958
 72
     5
 11
165.9528103948
 21
54.6838084956
 31
0.0
100
AcDbText
  0
TEXT
  5
2FC
330
23E
100
AcDbEntity
  8
0
  6
Continuous
 62
     2
100
AcDbText
 10
171.364115999
 20
58.6667290935
 30
0.0
 40
0.6666666667
  1
56
 41
0.9757575756875622
 72
     5
 11
172.3863382212
 21
58.6667290935
 31
0.0
100
AcDbText
  0
TEXT
  5
2FD
330
23E
100
AcDbEntity
  8
0
  6
Continuous
 62
     2
100
AcDbText
 10
171.364115999
 20
57.6667290935
 30
0.0
 40
0.6666666667
  1
45
 41
0.9470588234614575
 72
     5
 11
172.3863382212
 21
57.6667290935
 31
0.0
100
AcDbText
  0
TEXT
  5
2FE
330
23E
100
AcDbEntity
  8
0
  6
Continuous
 62
     2
100
AcDbText
 10
171.364115999
 20
56.6667290935
 30
0.0
 40
0.6666666667
  1
44
 41
0.9199999999339873
 72
     5
 11
172.3863382212
 21
56.6667290935
 31
0.0
100
AcDbText
  0
TEXT
  5
2FF
330
23E
100
AcDbEntity
  8
0
  6
Continuous
 62
     2
100
AcDbText
 10
171.364115999
 20
55.6667290935
 30
0.0
 40
0.6666666667
  1
44
 41
0.9199999999339873
 72
     5
 11
172.3863382212
 21
55.6667290935
 31
0.0
100
AcDbText
  0
TEXT
  5
300
330
23E
100
AcDbEntity
  8
0
  6
Continuous
 62
     2
100
AcDbText
 10
171.364115999
 20
54.6667290935
 30
0.0
 40
0.6666666667
  1
33
 41
0.9470588234614574
 72
     5
 11
172.3863382212
 21
54.6667290935
 31
0.0
100
AcDbText
  0
LINE
  5
301
330
23E
100
AcDbEntity
  8
0
  6
Continuous
 62
     7
100
AcDbLine
 10
143.9999077518
 20
64.00006242679999
 30
0.0
 11
143.9999077518
 21
46.6667290935
 31
0.0
  0
LINE
  5
302
330
23E
100
AcDbEntity
  8
0
  6
Continuous
 62
     7
100
AcDbLine
 10
143.9999077518
 20
64.00006242679999
 30
0.0
 11
177.3332410852
 21
64.00006242679999
 31
0.0
  0
LINE
  5
303
330
23E
100
AcDbEntity
  8
0
  6
Continuous
 62
     7
100
AcDbLine
 10
177.3332410852
 20
64.00006242679999
 30
0.0
 11
177.3332410852
 21
46.6667290935
 31
0.0
  0
LINE
  5
304
330
23E
100
AcDbEntity
  8
0
  6
Continuous
 62
     7
100
AcDbLine
 10
143.9999077518
 20
46.6667290935
 30
0.0
 11
177.3332410852
 21
46.6667290935
 31
0.0
  0
LINE
  5
305
330
23E
100
AcDbEntity
  8
0
  6
Continuous
 62
     7
100
AcDbLine
 10
145.3332410852
 20
54.00006242679999
 30
0.0
 11
175.9999077518
 21
54.00006242679999
 31
0.0
  0
LINE
  5
306
330
23E
100
AcDbEntity
  8
0
  6
Continuous
 62
     7
100
AcDbLine
 10
145.3332410852
 20
61.0000624268
 30
0.0
 11
175.9999077518
 21
61.0000624268
 31
0.0
  0
LINE
  5
307
330
23E
100
AcDbEntity
  8
0
  6
Continuous
 62
     7
100
AcDbLine
 10
144.8088143111
 20
52.3782269312
 30
0.0
 11
144.4397935688
 21
52.0092061888
 31
0.0
  0
LINE
  5
308
330
23E
100
AcDbEntity
  8
0
  6
Continuous
 62
     7
100
AcDbLine
 10
145.4754809778
 20
52.3782269312
 30
0.0
 11
144.6774651873
 21
51.58021114069999
 31
0.0
  0
LINE
  5
309
330
23E
100
AcDbEntity
  8
0
  6
Continuous
 62
     7
100
AcDbLine
 10
146.1421476444
 20
52.3782269312
 30
0.0
 11
145.344131854
 21
51.58021114069999
 31
0.0
  0
LINE
  5
30A
330
23E
100
AcDbEntity
  8
0
  6
Continuous
 62
     7
100
AcDbLine
 10
146.8088143111
 20
52.3782269312
 30
0.0
 11
146.0107985207
 21
51.58021114069999
 31
0.0
  0
LINE
  5
30B
330
23E
100
AcDbEntity
  8
0
  6
Continuous
 62
     7
100
AcDbLine
 10
147.4754809778
 20
52.3782269312
 30
0.0
 11
146.6774651873
 21
51.58021114069999
 31
0.0
  0
LINE
  5
30C
330
23E
100
AcDbEntity
  8
0
  6
Continuous
 62
     7
100
AcDbLine
 10
148.1421476444
 20
52.3782269312
 30
0.0
 11
147.344131854
 21
51.58021114069999
 31
0.0
  0
LINE
  5
30D
330
23E
100
AcDbEntity
  8
0
  6
Continuous
 62
     7
100
AcDbLine
 10
148.8088143111
 20
52.3782269312
 30
0.0
 11
148.0107985207
 21
51.58021114069999
 31
0.0
  0
LINE
  5
30E
330
23E
100
AcDbEntity
  8
0
  6
Continuous
 62
     7
100
AcDbLine
 10
149.4754809778
 20
52.3782269312
 30
0.0
 11
148.6774651873
 21
51.58021114069999
 31
0.0
  0
LINE
  5
30F
330
23E
100
AcDbEntity
  8
0
  6
Continuous
 62
     7
100
AcDbLine
 10
150.1421476444
 20
52.3782269312
 30
0.0
 11
149.344131854
 21
51.58021114069999
 31
0.0
  0
LINE
  5
310
330
23E
100
AcDbEntity
  8
0
  6
Continuous
 62
     7
100
AcDbLine
 10
150.5856350786
 20
52.15504769859999
 30
0.0
 11
150.0107985207
 21
51.58021114069999
 31
0.0
  0
ELLIPSE
  5
311
330
23E
100
AcDbEntity
  8
0
  6
Continuous
 62
     7
100
AcDbEllipse
 10
146.145310234
 20
50.4310101337
 30
0.0
 11
1.0473539356
 21
0.0
 31
0.0
210
0.0
220
0.0
230
1.0
 40
0.4938647983
 41
0.0
 42
6.283185307179586
  0
ELLIPSE
  5
312
330
23E
100
AcDbEntity
  8
0
  6
Continuous
 62
     7
100
AcDbEllipse
 10
146.145310234
 20
49.0976768004
 30
0.0
 11
1.0473539356
 21
0.0
 31
0.0
210
0.0
220
0.0
230
1.0
 40
0.4938647983
 41
0.0
 42
6.283185307179586
  0
ELLIPSE
  5
313
330
23E
100
AcDbEntity
  8
0
  6
Continuous
 62
     7
100
AcDbEllipse
 10
146.145310234
 20
47.7643434671
 30
0.0
 11
1.0473539356
 21
0.0
 31
0.0
210
0.0
220
0.0
230
1.0
 40
0.4938647983
 41
0.0
 42
6.283185307179586
  0
ELLIPSE
  5
314
330
23E
100
AcDbEntity
  8
0
  6
Continuous
 62
     7
100
AcDbEllipse
 10
157.1639458151
 20
50.4505314908
 30
0.0
 11
1.0473539356
 21
0.0
 31
0.0
210
0.0
220
0.0
230
1.0
 40
0.4938647983
 41
0.0
 42
6.283185307179586
  0
ENDBLK
  5
315
330
23E
100
AcDbEntity
  8
0
  6
ByBlock
 62
     0
100
AcDbBlockEnd
  0
ENDSEC
  0
SECTION
  2
ENTITIES
  0
LINE
  5
495
330
221
100
AcDbEntity
  8
DEFAULT_2
  6
HIDDEN
 62
     8
100
AcDbLine
 10
51.4341441322
 20
26.0481846441
 30
0.0
 11
51.7903987562
 21
25.6919300201
 31
0.0
  0
LINE
  5
530
330
221
100
AcDbEntity
  8
DEFAULT_2
  6
HIDDEN
 62
     8
100
AcDbLine
 10
51.9671754515
 20
25.6187067154
 30
0.0
 11
54.5100686703
 21
25.6187067154
 31
0.0
  0
LINE
  5
617
330
221
100
AcDbEntity
  8
DEFAULT_2
  6
HIDDEN
 62
     8
100
AcDbLine
 10
23.2386220609
 20
43.1187067154
 30
0.0
 11
23.6136221162
 21
43.1187067154
 31
0.0
  0
LINE
  5
618
330
221
100
AcDbEntity
  8
DEFAULT_2
  6
HIDDEN
 62
     8
100
AcDbLine
 10
82.86362209219999
 20
43.1187067154
 30
0.0
 11
83.2386220609
 21
43.1187067154
 31
0.0
  0
LINE
  5
6DE
330
221
100
AcDbEntity
  8
DEFAULT_2
  6
HIDDEN
 62
     8
100
AcDbLine
 10
54.68684536560001
 20
25.6919300201
 30
0.0
 11
55.0431000371
 21
26.0481846916
 31
0.0
  0
LINE
  5
14F6
330
221
100
AcDbEntity
  8
0
  6
Continuous
 62
     7
100
AcDbLine
 10
23.2516596488
 20
43.04476688829999
 30
0.0
 11
23.2884393299
 21
42.83617895159999
 31
0.0
  0
LINE
  5
14F7
330
221
100
AcDbEntity
  8
0
  6
Continuous
 62
     7
100
AcDbLine
 10
29.6539656817
 20
22.1187067235
 30
0.0
 11
76.82327843999999
 21
22.1187067235
 31
0.0
  0
LINE
  5
14F9
330
221
100
AcDbEntity
  8
DEFAULT_2
  6
HIDDEN
 62
     8
100
AcDbLine
 10
54.80112205930001
 20
40.22383125050001
 30
0.0
 11
51.67612205930001
 21
40.22383125050001
 31
0.0
  0
LINE
  5
14FA
330
221
100
AcDbEntity
  8
DEFAULT_2
  6
HIDDEN
 62
     8
100
AcDbLine
 10
51.92612205999999
 20
40.3591946557
 30
0.0
 11
54.55112205999999
 21
40.3591946557
 31
0.0
  0
LINE
  5
14FB
330
221
100
AcDbEntity
  8
DEFAULT_1
  6
CENTER
 62
     7
100
AcDbLine
 10
56.3052887275
 20
40.6191620765
 30
0.0
 11
50.1719553942
 21
40.6191620765
 31
0.0
  0
LINE
  5
14FC
330
221
100
AcDbEntity
  8
DEFAULT_2
  6
HIDDEN
 62
     8
100
AcDbLine
 10
51.9261220618
 20
40.8791294974
 30
0.0
 11
54.5511220618
 21
40.8791294974
 31
0.0
  0
LINE
  5
14FD
330
221
100
AcDbEntity
  8
DEFAULT_2
  6
HIDDEN
 62
     8
100
AcDbLine
 10
51.6761220619
 20
41.0379157796
 30
0.0
 11
54.8011220619
 21
41.0379157796
 31
0.0
  0
LINE
  5
14FE
330
221
100
AcDbEntity
  8
0
  6
Continuous
 62
     7
100
AcDbLine
 10
83.21658118829999
 20
42.9937067235
 30
0.0
 11
23.2606629335
 21
42.9937067235
 31
0.0
  0
LINE
  5
14FF
330
221
100
AcDbEntity
  8
0
  6
Continuous
 62
     9
100
AcDbLine
 10
23.2516596488
 20
43.04476688829999
 30
0.0
 11
83.225584473
 21
43.04476688829999
 31
0.0
  0
LINE
  5
1500
330
221
100
AcDbEntity
  8
0
  6
Continuous
 62
     7
100
AcDbLine
 10
83.1635415845
 20
43.1187067235
 30
0.0
 11
23.3137025372
 21
43.1187067235
 31
0.0
  0
LINE
  5
1501
330
221
100
AcDbEntity
  8
0
  6
Continuous
 62
     7
100
AcDbLine
 10
83.225584473
 20
43.04476688829999
 30
0.0
 11
83.18880479189999
 21
42.83617895159999
 31
0.0
  0
ARC
  5
156E
330
221
100
AcDbEntity
  8
DEFAULT_2
  6
HIDDEN
 62
     8
100
AcDbCircle
 10
51.9671754515
 20
25.8687067154
 30
0.0
 40
0.25
100
AcDbArc
 50
225.0
 51
270.0
  0
ARC
  5
156F
330
221
100
AcDbEntity
  8
DEFAULT_2
  6
HIDDEN
 62
     8
100
AcDbCircle
 10
54.5100686703
 20
25.8687067154
 30
0.0
 40
0.25
100
AcDbArc
 50
270.0
 51
315.0
  0
ARC
  5
1574
330
221
100
AcDbEntity
  8
0
  6
Continuous
 62
     7
100
AcDbCircle
 10
29.7323833818
 20
22.1817067235
 30
0.0
 40
0.0630000008
100
AcDbArc
 50
270.0005022893
 51
281.3103318133
  0
ARC
  5
1575
330
221
100
AcDbEntity
  8
0
  6
Continuous
 62
     7
100
AcDbCircle
 10
76.74486073999999
 20
22.1817067235
 30
0.0
 40
0.0630000008
100
AcDbArc
 50
258.6896681867
 51
269.9994977108
  0
ARC
  5
1576
330
221
100
AcDbEntity
  8
0
  6
Continuous
 62
     7
100
AcDbCircle
 10
83.1635415845
 20
43.0557067235
 30
0.0
 40
0.063
100
AcDbArc
 50
350.0
 51
90.0
  0
SPLINE
  5
159A
330
221
100
AcDbEntity
  8
DEFAULT_2
  6
HIDDEN
 62
     8
100
AcDbSpline
210
0.0
220
0.0
230
1.0
 70
     8
 71
     3
 72
    57
 73
    53
 74
     0
 42
0.0000001
 43
0.0000000001
 40
0.0
 40
0.0
 40
0.0
 40
0.0
 40
0.02
 40
0.04
 40
0.06
 40
0.08
 40
0.1
 40
0.12
 40
0.14
 40
0.16
 40
0.18
 40
0.2
 40
0.22
 40
0.24
 40
0.26
 40
0.28
 40
0.3
 40
0.32
 40
0.34
 40
0.36
 40
0.38
 40
0.4
 40
0.4200000000000001
 40
0.4400000000000001
 40
0.4600000000000001
 40
0.48
 40
0.5
 40
0.5200000000000001
 40
0.5400000000000001
 40
0.5600000000000001
 40
0.58
 40
0.6
 40
0.6200000000000001
 40
0.6400000000000001
 40
0.6600000000000001
 40
0.6800000000000001
 40
0.7
 40
0.72
 40
0.7400000000000001
 40
0.76
 40
0.7800000000000001
 40
0.8
 40
0.8199999999999999
 40
0.84
 40
0.8599999999999999
 40
0.88
 40
0.9
 40
0.9200000000000001
 40
0.9399999999999998
 40
0.9599999999999999
 40
0.98
 40
1.0
 40
1.0
 40
1.0
 40
1.0
 10
23.6136221162
 20
43.1187067154
 30
0.0
 10
23.7248708034
 20
43.1187067154
 30
0.0
 10
23.9350936818
 20
43.11859969229999
 30
0.0
 10
24.2106994975
 20
43.11265222270001
 30
0.0
 10
24.4553364532
 20
43.09841463409999
 30
0.0
 10
24.6742207393
 20
43.0750583976
 30
0.0
 10
24.8722647821
 20
43.04264473899999
 30
0.0
 10
25.0552578674
 20
43.00111832899999
 30
0.0
 10
25.2286712972
 20
42.9498053431
 30
0.0
 10
25.3964258325
 20
42.88767878239999
 30
0.0
 10
25.5620099176
 20
42.8130056526
 30
0.0
 10
25.7250213887
 20
42.7254682017
 30
0.0
 10
25.8885280298
 20
42.62291594709999
 30
0.0
 10
26.0568240756
 20
42.5011715775
 30
0.0
 10
26.2331053324
 20
42.3554009338
 30
0.0
 10
26.4202134635
 20
42.1797784071
 30
0.0
 10
26.6164699296
 20
41.9717625907
 30
0.0
 10
26.8080739805
 20
41.74515196369999
 30
0.0
 10
26.9891219192
 20
41.5105591103
 30
0.0
 10
27.1642660693
 20
41.2654146748
 30
0.0
 10
27.3377934216
 20
41.00560307489999
 30
0.0
 10
27.5175420371
 20
40.7196933334
 30
0.0
 10
27.7103826519
 20
40.3946638978
 30
0.0
 10
27.9123854283
 20
40.0348731441
 30
0.0
 10
28.1193963149
 20
39.64733460570001
 30
0.0
 10
28.3273003805
 20
39.2405770822
 30
0.0
 10
28.5312557391
 20
38.82601285710001
 30
0.0
 10
28.7369426297
 20
38.3939616844
 30
0.0
 10
28.9530512655
 20
37.9262862849
 30
0.0
 10
29.1776521785
 20
37.4266854492
 30
0.0
 10
29.4059356746
 20
36.906323355
 30
0.0
 10
29.6391733074
 20
36.3632224755
 30
0.0
 10
29.8813970963
 20
35.7884377051
 30
0.0
 10
30.1322338105
 20
35.18310002070001
 30
0.0
 10
30.3902842172
 20
34.55109008199999
 30
0.0
 10
30.6546183837
 20
33.8953834906
 30
0.0
 10
30.9240830447
 20
33.2196466892
 30
0.0
 10
31.1886432799
 20
32.5501530531
 30
0.0
 10
31.43914344780001
 20
31.9116003696
 30
0.0
 10
31.6646681483
 20
31.3335868832
 30
0.0
 10
31.86057524280001
 20
30.82951528
 30
0.0
 10
32.0322468185
 20
30.3865065919
 30
0.0
 10
32.1830007616
 20
29.9966295304
 30
0.0
 10
32.3165411496
 20
29.6507213154
 30
0.0
 10
32.43655448760001
 20
29.33947200590001
 30
0.0
 10
32.5466546786
 20
29.0536449117
 30
0.0
 10
32.6495911256
 20
28.7861889475
 30
0.0
 10
32.7480479867
 20
28.5301943756
 30
0.0
 10
32.8450348408
 20
28.2778852113
 30
0.0
 10
32.94178828230001
 20
28.0260856436
 30
0.0
 10
33.0383526282
 20
27.7747034969
 30
0.0
 10
33.1029566739
 20
27.6064753752
 30
0.0
 10
33.1352863291
 20
27.5222788769
 30
0.0
  0
SPLINE
  5
159B
330
221
100
AcDbEntity
  8
DEFAULT_2
  6
HIDDEN
 62
     8
100
AcDbSpline
210
0.0
220
0.0
230
1.0
 70
     8
 71
     3
 72
    79
 73
    75
 74
     0
 42
0.0000001
 43
0.0000000001
 40
0.0
 40
0.0
 40
0.0
 40
0.0
 40
0.0166666667
 40
0.0333333333
 40
0.05
 40
0.0666666667
 40
0.0833333333
 40
0.0916666667
 40
0.1
 40
0.1083333333
 40
0.1125
 40
0.1166666667
 40
0.1208333333
 40
0.125
 40
0.1333333333
 40
0.1416666667
 40
0.15
 40
0.1666666667
 40
0.1833333333
 40
0.2
 40
0.2166666667
 40
0.2333333333
 40
0.25
 40
0.2666666667
 40
0.2833333333
 40
0.3
 40
0.3166666667
 40
0.3333333333
 40
0.35
 40
0.3666666667
 40
0.3833333333
 40
0.4
 40
0.4166666667000001
 40
0.4333333333
 40
0.45
 40
0.4666666667000001
 40
0.4833333333
 40
0.5
 40
0.5166666667000001
 40
0.5333333333
 40
0.55
 40
0.5666666667
 40
0.5833333333000001
 40
0.6
 40
0.6166666667000001
 40
0.6333333333
 40
0.65
 40
0.6666666667
 40
0.6833333333000001
 40
0.7
 40
0.7166666667000001
 40
0.7333333333
 40
0.75
 40
0.7666666667000001
 40
0.7833333333
 40
0.8
 40
0.8166666666999999
 40
0.8333333333
 40
0.85
 40
0.8583333332999998
 40
0.8666666667000001
 40
0.875
 40
0.8791666666999999
 40
0.8833333332999998
 40
0.8875
 40
0.8916666667000001
 40
0.9
 40
0.9083333333
 40
0.9166666666999999
 40
0.9333333333
 40
0.95
 40
0.9666666666999999
 40
0.9833333332999998
 40
1.0
 40
1.0
 40
1.0
 40
1.0
 10
34.49662393340001
 20
26.5604776692
 30
0.0
 10
34.8700183163
 20
26.5507712762
 30
0.0
 10
35.5880624992
 20
26.5321931412
 30
0.0
 10
36.5653412535
 20
26.5071561859
 30
0.0
 10
37.4834922501
 20
26.4838880733
 30
0.0
 10
38.3679347509
 20
26.4617524639
 30
0.0
 10
39.1006566862
 20
26.4436799773
 30
0.0
 10
39.6980811873
 20
26.4291433088
 30
0.0
 10
40.1479236757
 20
26.418307759
 30
0.0
 10
40.5341103698
 20
26.4091108915
 30
0.0
 10
40.84320869469999
 20
26.4018217522
 30
0.0
 10
41.0697141183
 20
26.3965164575
 30
0.0
 10
41.2934038902
 20
26.3913137339
 30
0.0
 10
41.5909265332
 20
26.3844446015
 30
0.0
 10
41.9480657013
 20
26.3762966429
 30
0.0
 10
42.3352970365
 20
26.36760067
 30
0.0
 10
42.8199601485
 20
26.3568903496
 30
0.0
 10
43.35582561129999
 20
26.3453443327
 30
0.0
 10
43.94608317289999
 20
26.3330474121
 30
0.0
 10
44.48652578899999
 20
26.3221942023
 30
0.0
 10
44.97775928369999
 20
26.3127008194
 30
0.0
 10
45.4327722932
 20
26.3042551059
 30
0.0
 10
45.86151510989999
 20
26.2966304307
 30
0.0
 10
46.2740154509
 20
26.2896233157
 30
0.0
 10
46.67557536319999
 20
26.2831321398
 30
0.0
 10
47.07196118149999
 20
26.2770598342
 30
0.0
 10
47.4689924109
 20
26.2713207254
 30
0.0
 10
47.8742017474
 20
26.2658210627
 30
0.0
 10
48.29553356109999
 20
26.2604859201
 30
0.0
 10
48.73875374409999
 20
26.2552925913
 30
0.0
 10
49.2086043239
 20
26.2502517917
 30
0.0
 10
49.7070736895
 20
26.245435585
 30
0.0
 10
50.2338559739
 20
26.240958339
 30
0.0
 10
50.78653805640001
 20
26.2369687016
 30
0.0
 10
51.3630075664
 20
26.2336192037
 30
0.0
 10
51.9596402963
 20
26.2310754034
 30
0.0
 10
52.57684306609999
 20
26.229456782
 30
0.0
 10
53.2253273937
 20
26.22888215530001
 30
0.0
 10
53.8750107173
 20
26.2294127779
 30
0.0
 10
54.49332974739999
 20
26.230992207
 30
0.0
 10
55.090637651
 20
26.233500583
 30
0.0
 10
55.6679817019
 20
26.2368204764
 30
0.0
 10
56.2216172825
 20
26.2407874666
 30
0.0
 10
56.7494683277
 20
26.2452476547
 30
0.0
 10
57.24906086779999
 20
26.2500522966
 30
0.0
 10
57.7199861526
 20
26.2550853386
 30
0.0
 10
58.1640417188
 20
26.2602711541
 30
0.0
 10
58.5860686219
 20
26.2655986016
 30
0.0
 10
58.99173819609999
 20
26.2710897254
 30
0.0
 10
59.3889723446
 20
26.2768176838
 30
0.0
 10
59.7853032616
 20
26.2828751696
 30
0.0
 10
60.1865760755
 20
26.2893478589
 30
0.0
 10
60.5985461697
 20
26.2963320518
 30
0.0
 10
61.026477639
 20
26.3039282541
 30
0.0
 10
61.48026802989999
 20
26.31233694820001
 30
0.0
 10
61.96993461489999
 20
26.3217851462
 30
0.0
 10
62.5082368705
 20
26.3325790439
 30
0.0
 10
63.0967552255
 20
26.34482214030001
 30
0.0
 10
63.630153206
 20
26.3562997673
 30
0.0
 10
64.1120214431
 20
26.3669345539
 30
0.0
 10
64.4970862821
 20
26.3755708104
 30
0.0
 10
64.8526250014
 20
26.3836723155
 30
0.0
 10
65.14892912589999
 20
26.390505263
 30
0.0
 10
65.3718130141
 20
26.3956832874
 30
0.0
 10
65.5976689461
 20
26.4009674802
 30
0.0
 10
65.9060423132
 20
26.4082317567
 30
0.0
 10
66.2914868044
 20
26.4174018405
 30
0.0
 10
66.73992018379999
 20
26.4281936115
 30
0.0
 10
67.33613478089999
 20
26.4426887602
 30
0.0
 10
68.06894064899999
 20
26.4607497249
 30
0.0
 10
68.9589869135
 20
26.4830104916
 30
0.0
 10
69.8863827182
 20
26.5065008288
 30
0.0
 10
70.8757201542
 20
26.5318396919
 30
0.0
 10
71.6025525604
 20
26.5506446312
 30
0.0
 10
71.98062222770001
 20
26.5604735115
 30
0.0
  0
SPLINE
  5
159C
330
221
100
AcDbEntity
  8
DEFAULT_2
  6
HIDDEN
 62
     8
100
AcDbSpline
210
0.0
220
0.0
230
1.0
 70
     8
 71
     3
 72
    26
 73
    22
 74
     0
 42
0.0000001
 43
0.0000000001
 40
0.0
 40
0.0
 40
0.0
 40
0.0
 40
0.0526315789
 40
0.1052631579
 40
0.1578947368
 40
0.2105263158
 40
0.2631578947
 40
0.3157894737
 40
0.3684210526
 40
0.4210526316
 40
0.4736842105
 40
0.5263157895
 40
0.5789473684000001
 40
0.6315789474
 40
0.6842105262999999
 40
0.7368421053000001
 40
0.7894736842
 40
0.8421052631999998
 40
0.8947368421
 40
0.9473684211
 40
1.0
 40
1.0
 40
1.0
 40
1.0
 10
33.1352863291
 20
27.5222788769
 30
0.0
 10
33.1464555841
 20
27.4931906559
 30
0.0
 10
33.168875768
 20
27.4349607387
 30
0.0
 10
33.206502783
 20
27.3482156339
 30
0.0
 10
33.2500671964
 20
27.2647792017
 30
0.0
 10
33.30010129780001
 20
27.1856086802
 30
0.0
 10
33.3558792144
 20
27.1109035463
 30
0.0
 10
33.4168900516
 20
27.0406986958
 30
0.0
 10
33.4825589406
 20
26.9745647285
 30
0.0
 10
33.552205955
 20
26.9124086913
 30
0.0
 10
33.6256098602
 20
26.854172061
 30
0.0
 10
33.7020570279
 20
26.8001237813
 30
0.0
 10
33.781386256
 20
26.7503633822
 30
0.0
 10
33.8633021973
 20
26.7053635812
 30
0.0
 10
33.9478008484
 20
26.6653810283
 30
0.0
 10
34.0346027132
 20
26.63117417900001
 30
0.0
 10
34.123880846
 20
26.6034458082
 30
0.0
 10
34.2153883556
 20
26.582674202
 30
0.0
 10
34.3086820142
 20
26.5694619146
 30
0.0
 10
34.4030565118
 20
26.5629688622
 30
0.0
 10
34.4654618187
 20
26.5612877289
 30
0.0
 10
34.49662393340001
 20
26.5604776692
 30
0.0
  0
SPLINE
  5
159D
330
221
100
AcDbEntity
  8
DEFAULT_2
  6
HIDDEN
 62
     8
100
AcDbSpline
210
0.0
220
0.0
230
1.0
 70
     8
 71
     3
 72
    26
 73
    22
 74
     0
 42
0.0000001
 43
0.0000000001
 40
0.0
 40
0.0
 40
0.0
 40
0.0
 40
0.0526315789
 40
0.1052631579
 40
0.1578947368
 40
0.2105263158
 40
0.2631578947
 40
0.3157894737
 40
0.3684210526
 40
0.4210526316
 40
0.4736842105
 40
0.5263157895
 40
0.5789473684000001
 40
0.6315789474
 40
0.6842105262999999
 40
0.7368421053000001
 40
0.7894736842
 40
0.8421052631999998
 40
0.8947368421
 40
0.9473684211
 40
1.0
 40
1.0
 40
1.0
 40
1.0
 10
71.98062222770001
 20
26.5604735115
 30
0.0
 10
72.01178317989999
 20
26.5612836195
 30
0.0
 10
72.0741856672
 20
26.5629648521
 30
0.0
 10
72.16855340229999
 20
26.5694573756
 30
0.0
 10
72.2618410342
 20
26.5826678672
 30
0.0
 10
72.3533454884
 20
26.6034374094
 30
0.0
 10
72.44262447130001
 20
26.6311645793
 30
0.0
 10
72.52942808810001
 20
26.6653709115
 30
0.0
 10
72.6139276041
 20
26.7053528577
 30
0.0
 10
72.69584279899999
 20
26.7503512786
 30
0.0
 10
72.7751696565
 20
26.8001090435
 30
0.0
 10
72.85161408509999
 20
26.8541539949
 30
0.0
 10
72.92501604819999
 20
26.9123872279
 30
0.0
 10
72.99466350989999
 20
26.9745414495
 30
0.0
 10
73.0603343992
 20
27.04067502
 30
0.0
 10
73.1213458938
 20
27.1108778305
 30
0.0
 10
73.1771249198
 20
27.1855806683
 30
0.0
 10
73.22716337580001
 20
27.2647538604
 30
0.0
 10
73.2707335061
 20
27.3481975105
 30
0.0
 10
73.3083650844
 20
27.4349520473
 30
0.0
 10
73.3307866082
 20
27.4931855349
 30
0.0
 10
73.34195671989999
 20
27.5222759872
 30
0.0
  0
SPLINE
  5
159E
330
221
100
AcDbEntity
  8
DEFAULT_2
  6
HIDDEN
 62
     8
100
AcDbSpline
210
0.0
220
0.0
230
1.0
 70
     8
 71
     3
 72
    57
 73
    53
 74
     0
 42
0.0000001
 43
0.0000000001
 40
0.0
 40
0.0
 40
0.0
 40
0.0
 40
0.02
 40
0.04
 40
0.06
 40
0.08
 40
0.1
 40
0.12
 40
0.14
 40
0.16
 40
0.18
 40
0.2
 40
0.22
 40
0.24
 40
0.26
 40
0.28
 40
0.3
 40
0.32
 40
0.34
 40
0.36
 40
0.38
 40
0.4
 40
0.4200000000000001
 40
0.4400000000000001
 40
0.4600000000000001
 40
0.48
 40
0.5
 40
0.5200000000000001
 40
0.5400000000000001
 40
0.5600000000000001
 40
0.58
 40
0.6
 40
0.6200000000000001
 40
0.6400000000000001
 40
0.6600000000000001
 40
0.6800000000000001
 40
0.7
 40
0.72
 40
0.7400000000000001
 40
0.76
 40
0.7800000000000001
 40
0.8
 40
0.8199999999999999
 40
0.84
 40
0.8599999999999999
 40
0.88
 40
0.9
 40
0.9200000000000001
 40
0.9399999999999998
 40
0.9599999999999999
 40
0.98
 40
1.0
 40
1.0
 40
1.0
 40
1.0
 10
73.34195671989999
 20
27.5222759872
 30
0.0
 10
73.37435143260001
 20
27.6066419157
 30
0.0
 10
73.43910956010001
 20
27.7752712389
 30
0.0
 10
73.53603172069999
 20
28.0275845953
 30
0.0
 10
73.63311151409999
 20
28.2802328507
 30
0.0
 10
73.73026695840001
 20
28.5329793422
 30
0.0
 10
73.828787411
 20
28.7891374994
 30
0.0
 10
73.93202055579999
 20
29.0573620083
 30
0.0
 10
74.0429168784
 20
29.345252098
 30
0.0
 10
74.1645235479
 20
29.6606255662
 30
0.0
 10
74.299998672
 20
30.0115281929
 30
0.0
 10
74.4525290413
 20
30.4059666152
 30
0.0
 10
74.62532136029999
 20
30.8518117815
 30
0.0
 10
74.82123712829999
 20
31.3558258779
 30
0.0
 10
75.0450534506
 20
31.9293607869
 30
0.0
 10
75.2918133727
 20
32.5582866166
 30
0.0
 10
75.551460187
 20
33.2153212297
 30
0.0
 10
75.8154567393
 20
33.8774451729
 30
0.0
 10
76.07432091449999
 20
34.519860271
 30
0.0
 10
76.32747780639999
 20
35.1403844062
 30
0.0
 10
76.57483500159999
 20
35.738062108
 30
0.0
 10
76.8159875211
 20
36.3112471412
 30
0.0
 10
77.05078857390001
 20
36.85900963949999
 30
0.0
 10
77.28081291249999
 20
37.3843547474
 30
0.0
 10
77.5064556435
 20
37.8873232056
 30
0.0
 10
77.723883621
 20
38.3589212896
 30
0.0
 10
77.930739633
 20
38.7944602898
 30
0.0
 10
78.1351515944
 20
39.2110247656
 30
0.0
 10
78.34352668390001
 20
39.6198791576
 30
0.0
 10
78.5513516841
 20
40.0101668015
 30
0.0
 10
78.754373949
 20
40.37300124149999
 30
0.0
 10
78.94857186590001
 20
40.70145964379999
 30
0.0
 10
79.1294777615
 20
40.9901966349
 30
0.0
 10
79.3036620453
 20
41.2519024942
 30
0.0
 10
79.47907993779999
 20
41.4983539346
 30
0.0
 10
79.66028994289999
 20
41.7341231115
 30
0.0
 10
79.8519653017
 20
41.9618716449
 30
0.0
 10
80.04891831050001
 20
42.17169083849999
 30
0.0
 10
80.23710178729999
 20
42.3492099324
 30
0.0
 10
80.41425343049999
 20
42.4964071706
 30
0.0
 10
80.58327337879999
 20
42.6192557282
 30
0.0
 10
80.7473671143
 20
42.72265367929999
 30
0.0
 10
80.91080494619999
 20
42.8108289289
 30
0.0
 10
81.07682980120001
 20
42.8860546211
 30
0.0
 10
81.24501246500001
 20
42.94863173449999
 30
0.0
 10
81.41878957279999
 20
43.0002948039
 30
0.0
 10
81.602131539
 20
43.04210080729999
 30
0.0
 10
81.800519408
 20
43.0747325508
 30
0.0
 10
82.01980866640001
 20
43.0982549566
 30
0.0
 10
82.26496431060001
 20
43.11260160439999
 30
0.0
 10
82.5412298256
 20
43.1185984039
 30
0.0
 10
82.7520443861
 20
43.1187067154
 30
0.0
 10
82.86362209219999
 20
43.1187067154
 30
0.0
  0
SPLINE
  5
15A6
330
221
100
AcDbEntity
  8
DEFAULT_2
  6
HIDDEN
 62
     8
100
AcDbSpline
210
0.0
220
0.0
230
1.0
 70
     8
 71
     3
 72
    23
 73
    19
 74
     0
 42
0.0000001
 43
0.0000000001
 40
0.0
 40
0.0
 40
0.0
 40
0.0
 40
0.0649212896
 40
0.1297519934
 40
0.1944048823
 40
0.2587986998
 40
0.3228612594
 40
0.3865320954
 40
0.4497648241
 40
0.5125291136
 40
0.5748121595
 40
0.6366195699000001
 40
0.6979755695000001
 40
0.7589224520000001
 40
0.8195192353999999
 40
0.8798395213999999
 40
0.9399686129999999
 40
1.0
 40
1.0
 40
1.0
 40
1.0
 10
54.8011220621
 20
41.0326187821
 30
0.0
 10
54.8154309703
 20
41.0326187821
 30
0.0
 10
54.84404584069999
 20
41.031320643
 30
0.0
 10
54.8865525523
 20
41.0254962033
 30
0.0
 10
54.9282430177
 20
41.0158505431
 30
0.0
 10
54.9687123433
 20
41.00247563199999
 30
0.0
 10
55.0075729641
 20
40.98549905899999
 30
0.0
 10
55.0444509119
 20
40.9650828496
 30
0.0
 10
55.07899131470001
 20
40.94142199260001
 30
0.0
 10
55.1108612396
 20
40.91474268059999
 30
0.0
 10
55.1397530154
 20
40.8853002665
 30
0.0
 10
55.1653871681
 20
40.85337693449999
 30
0.0
 10
55.1875151902
 20
40.8192791901
 30
0.0
 10
55.20592205319999
 20
40.7833348588
 30
0.0
 10
55.2204284564
 20
40.745890716
 30
0.0
 10
55.2308927724
 20
40.70730662679999
 30
0.0
 10
55.2372126481
 20
40.6679615018
 30
0.0
 10
55.2386220513
 20
40.6414561798
 30
0.0
 10
55.23862205149999
 20
40.6282250253
 30
0.0
  0
SPLINE
  5
15A7
330
221
100
AcDbEntity
  8
DEFAULT_2
  6
HIDDEN
 62
     8
100
AcDbSpline
210
0.0
220
0.0
230
1.0
 70
     8
 71
     3
 72
    25
 73
    21
 74
     0
 42
0.0000001
 43
0.0000000001
 40
0.0
 40
0.0
 40
0.0
 40
0.0
 40
0.064918665
 40
0.1297466459
 40
0.1943968617
 40
0.258788024
 40
0.3228479407
 40
0.3865161477
 40
0.4497462666
 40
0.5125079681
 40
0.5747884451
 40
0.636593305
 40
0.6979467732
 40
0.7284768352
 40
0.7589113528000001
 40
0.8195056354000001
 40
0.8798234314
 40
0.9099154429999998
 40
0.9399710882999999
 40
1.0
 40
1.0
 40
1.0
 40
1.0
 10
54.5511220618
 20
40.8791294974
 30
0.0
 10
54.56032065329999
 20
40.8791294974
 30
0.0
 10
54.578715928
 20
40.8782949794
 30
0.0
 10
54.60604167020001
 20
40.87455069099999
 30
0.0
 10
54.6328426774
 20
40.86834991639999
 30
0.0
 10
54.65885867369999
 20
40.85975176499999
 30
0.0
 10
54.6838404987
 20
40.8488382443
 30
0.0
 10
54.7075477442
 20
40.8357135379
 30
0.0
 10
54.7297523005
 20
40.8205029712
 30
0.0
 10
54.7502400797
 20
40.8033520646
 30
0.0
 10
54.76881349510001
 20
40.7844245278
 30
0.0
 10
54.7852920971
 20
40.7639033696
 30
0.0
 10
54.79716873760001
 20
40.7456015985
 30
0.0
 10
54.8054618635
 20
40.7303751888
 30
0.0
 10
54.81291404850001
 20
40.71483922249999
 30
0.0
 10
54.82067642699999
 20
40.69480428489999
 30
0.0
 10
54.8262875266
 20
40.674113306
 30
0.0
 10
54.8294384236
 20
40.6573299642
 30
0.0
 10
54.8316923003
 20
40.64044579069999
 30
0.0
 10
54.8323720607
 20
40.6276678246
 30
0.0
 10
54.8323720609
 20
40.6191620823
 30
0.0
  0
SPLINE
  5
15A8
330
221
100
AcDbEntity
  8
DEFAULT_2
  6
HIDDEN
 62
     8
100
AcDbSpline
210
0.0
220
0.0
230
1.0
 70
     8
 71
     3
 72
    25
 73
    21
 74
     0
 42
0.0000001
 43
0.0000000001
 40
0.0
 40
0.0
 40
0.0
 40
0.0
 40
0.0600289117
 40
0.090084557
 40
0.1201765686
 40
0.1804943646
 40
0.2410886472
 40
0.2715231648
 40
0.3020532268
 40
0.363406695
 40
0.4252115549
 40
0.4874920319
 40
0.5502537334000001
 40
0.6134838523
 40
0.6771520593000001
 40
0.741211976
 40
0.8056031383
 40
0.8702533540999999
 40
0.9350813349999999
 40
1.0
 40
1.0
 40
1.0
 40
1.0
 10
51.6448720609
 20
40.6191620707
 30
0.0
 10
51.64487206109999
 20
40.6106563284
 30
0.0
 10
51.64555182149999
 20
40.59787836239999
 30
0.0
 10
51.64780569819999
 20
40.5809941888
 30
0.0
 10
51.65095659520001
 20
40.5642108471
 30
0.0
 10
51.65656769479999
 20
40.5435198682
 30
0.0
 10
51.6643300732
 20
40.5234849305
 30
0.0
 10
51.67178225829999
 20
40.5079489642
 30
0.0
 10
51.6800753841
 20
40.4927225545
 30
0.0
 10
51.6919520247
 20
40.4744207834
 30
0.0
 10
51.7084306266
 20
40.4538996252
 30
0.0
 10
51.7270040421
 20
40.4349720884
 30
0.0
 10
51.7474918212
 20
40.4178211818
 30
0.0
 10
51.7696963775
 20
40.4026106151
 30
0.0
 10
51.793403623
 20
40.3894859088
 30
0.0
 10
51.8183854481
 20
40.378572388
 30
0.0
 10
51.84440144439999
 20
40.36997423659999
 30
0.0
 10
51.8712024516
 20
40.3637734621
 30
0.0
 10
51.89852819369999
 20
40.3600291736
 30
0.0
 10
51.9169234685
 20
40.3591946557
 30
0.0
 10
51.92612205999999
 20
40.3591946557
 30
0.0
  0
SPLINE
  5
15A9
330
221
100
AcDbEntity
  8
DEFAULT_2
  6
HIDDEN
 62
     8
100
AcDbSpline
210
0.0
220
0.0
230
1.0
 70
     8
 71
     3
 72
    23
 73
    19
 74
     0
 42
0.0000001
 43
0.0000000001
 40
0.0
 40
0.0
 40
0.0
 40
0.0
 40
0.060031387
 40
0.1201604785
 40
0.1804807645
 40
0.2410775478
 40
0.3020244303
 40
0.3633804299
 40
0.4251878403
 40
0.4874708862
 40
0.5502351758000001
 40
0.6134679046000001
 40
0.6771387406000001
 40
0.7412013002000001
 40
0.8055951178
 40
0.8702480066999999
 40
0.9350787105
 40
1.0
 40
1.0
 40
1.0
 40
1.0
 10
51.2386220699
 20
40.6282250073
 30
0.0
 10
51.2386220696
 20
40.6414561621
 30
0.0
 10
51.2400314717
 20
40.66796148489999
 30
0.0
 10
51.2463513462
 20
40.70730661119999
 30
0.0
 10
51.2568156612
 20
40.745890702
 30
0.0
 10
51.27132206369999
 20
40.78333484629999
 30
0.0
 10
51.2897289262
 20
40.8192791792
 30
0.0
 10
51.311856948
 20
40.8533769252
 30
0.0
 10
51.3374911008
 20
40.8853002586
 30
0.0
 10
51.3663828768
 20
40.9147426743
 30
0.0
 10
51.39825280229999
 20
40.9414219876
 30
0.0
 10
51.43279320569999
 20
40.9650828459
 30
0.0
 10
51.4696711543
 20
40.9854990564
 30
0.0
 10
51.5085317762
 20
41.0024756303
 30
0.0
 10
51.54900110279999
 20
41.0158505422
 30
0.0
 10
51.5906915695
 20
41.0254962029
 30
0.0
 10
51.63319828229999
 20
41.0313206429
 30
0.0
 10
51.66181315350001
 20
41.0326187821
 30
0.0
 10
51.6761220621
 20
41.0326187821
 30
0.0
  0
SPLINE
  5
15AA
330
221
100
AcDbEntity
  8
DEFAULT_2
  6
HIDDEN
 62
     8
100
AcDbSpline
210
0.0
220
0.0
230
1.0
 70
     8
 71
     3
 72
    25
 73
    21
 74
     0
 42
0.0000001
 43
0.0000000001
 40
0.0
 40
0.0
 40
0.0
 40
0.0
 40
0.0600289116
 40
0.0900845569
 40
0.1201765685
 40
0.1804943645
 40
0.241088647
 40
0.2715231646
 40
0.3020532266
 40
0.3634066948
 40
0.4252115547
 40
0.4874920317
 40
0.5502537332000001
 40
0.6134838522
 40
0.6771520593000001
 40
0.741211976
 40
0.8056031384
 40
0.8702533542000001
 40
0.9350813350999999
 40
1.0
 40
1.0
 40
1.0
 40
1.0
 10
54.8323720609
 20
40.6191620823
 30
0.0
 10
54.8323720611
 20
40.6106563398
 30
0.0
 10
54.8316923011
 20
40.5978783734
 30
0.0
 10
54.829438425
 20
40.5809941992
 30
0.0
 10
54.82628752850001
 20
40.5642108569
 30
0.0
 10
54.82067642949999
 20
40.54351987719999
 30
0.0
 10
54.8129140514
 20
40.5234849387
 30
0.0
 10
54.80546186659999
 20
40.5079489718
 30
0.0
 10
54.7971687409
 20
40.4927225614
 30
0.0
 10
54.7852921004
 20
40.4744207894
 30
0.0
 10
54.7688134985
 20
40.45389963019999
 30
0.0
 10
54.7502400828
 20
40.43497209249999
 30
0.0
 10
54.72975230340001
 20
40.417821185
 30
0.0
 10
54.7075477467
 20
40.4026106175
 30
0.0
 10
54.6838405006
 20
40.38948591039999
 30
0.0
 10
54.65885867489999
 20
40.3785723891
 30
0.0
 10
54.6328426779
 20
40.36997423719999
 30
0.0
 10
54.60604166989999
 20
40.3637734623
 30
0.0
 10
54.578715927
 20
40.3600291736
 30
0.0
 10
54.5603206517
 20
40.3591946557
 30
0.0
 10
54.55112205999999
 20
40.3591946557
 30
0.0
  0
SPLINE
  5
15AB
330
221
100
AcDbEntity
  8
DEFAULT_2
  6
HIDDEN
 62
     8
100
AcDbSpline
210
0.0
220
0.0
230
1.0
 70
     8
 71
     3
 72
    25
 73
    21
 74
     0
 42
0.0000001
 43
0.0000000001
 40
0.0
 40
0.0
 40
0.0
 40
0.0
 40
0.0649186649
 40
0.1297466458
 40
0.1943968616
 40
0.258788024
 40
0.3228479407
 40
0.3865161478
 40
0.4497462668
 40
0.5125079683
 40
0.5747884453000001
 40
0.6365933052
 40
0.6979467734
 40
0.7284768354000001
 40
0.7589113530000001
 40
0.8195056355
 40
0.8798234315
 40
0.9099154431
 40
0.9399710883999999
 40
1.0
 40
1.0
 40
1.0
 40
1.0
 10
51.9261220618
 20
40.8791294974
 30
0.0
 10
51.9169234701
 20
40.8791294974
 30
0.0
 10
51.89852819479999
 20
40.8782949794
 30
0.0
 10
51.8712024518
 20
40.8745506907
 30
0.0
 10
51.8444014438
 20
40.86834991579999
 30
0.0
 10
51.81838544689999
 20
40.859751764
 30
0.0
 10
51.7934036212
 20
40.8488382426
 30
0.0
 10
51.7696963751
 20
40.8357135355
 30
0.0
 10
51.7474918184
 20
40.820502968
 30
0.0
 10
51.72700403890001
 20
40.8033520605
 30
0.0
 10
51.7084306233
 20
40.7844245228
 30
0.0
 10
51.6919520213
 20
40.7639033636
 30
0.0
 10
51.6800753809
 20
40.74560159159999
 30
0.0
 10
51.6717822552
 20
40.73037518119999
 30
0.0
 10
51.6643300704
 20
40.7148392143
 30
0.0
 10
51.65656769229999
 20
40.69480427579999
 30
0.0
 10
51.6509565933
 20
40.67411329619999
 30
0.0
 10
51.64780569680001
 20
40.6573299538
 30
0.0
 10
51.64555182069999
 20
40.64044577969999
 30
0.0
 10
51.64487206069999
 20
40.6276678133
 30
0.0
 10
51.6448720609
 20
40.6191620707
 30
0.0
  0
SPLINE
  5
15AC
330
221
100
AcDbEntity
  8
DEFAULT_2
  6
HIDDEN
 62
     8
100
AcDbSpline
210
0.0
220
0.0
230
1.0
 70
     8
 71
     3
 72
    15
 73
    11
 74
     0
 42
0.0000001
 43
0.0000000001
 40
0.0
 40
0.0
 40
0.0
 40
0.0
 40
0.1240434282
 40
0.248173116
 40
0.3725048642
 40
0.4971359101
 40
0.6221501551
 40
0.7476104352
 40
0.8735558566999999
 40
1.0
 40
1.0
 40
1.0
 40
1.0
 10
54.48877548649999
 20
40.11329868829999
 30
0.0
 10
54.4887262131
 20
40.0857068417
 30
0.0
 10
54.49190041579999
 20
40.0304423938
 30
0.0
 10
54.5064201966
 20
39.9486787517
 30
0.0
 10
54.53050596229999
 20
39.8690577427
 30
0.0
 10
54.56384251060001
 20
39.7926354469
 30
0.0
 10
54.60599050949999
 20
39.720407551
 30
0.0
 10
54.6563994652
 20
39.6533155073
 30
0.0
 10
54.71439725959999
 20
39.5922422955
 30
0.0
 10
54.757559827
 20
39.55611861619999
 30
0.0
 10
54.780115122
 20
39.53931609019999
 30
0.0
  0
SPLINE
  5
15AD
330
221
100
AcDbEntity
  8
DEFAULT_2
  6
HIDDEN
 62
     8
100
AcDbSpline
210
0.0
220
0.0
230
1.0
 70
     8
 71
     3
 72
    37
 73
    33
 74
     0
 42
0.0000001
 43
0.0000000001
 40
0.0
 40
0.0
 40
0.0
 40
0.0
 40
0.0307172253
 40
0.0614604441
 40
0.0922503849
 40
0.1231044791
 40
0.1540383264
 40
0.1850641085
 40
0.2161904521
 40
0.2474220386
 40
0.2787594821
 40
0.3101993418
 40
0.3417342932
 40
0.3733534384
 40
0.4050427423
 40
0.4367855749000001
 40
0.5002846457
 40
0.5637623362
 40
0.5954792639999999
 40
0.6271336422
 40
0.6587101305
 40
0.6901962802
 40
0.7215830231
 40
0.7528650442
 40
0.7840410201000001
 40
0.815113711
 40
0.8460898892000001
 40
0.8769801333
 40
0.9077983551999999
 40
0.9385615887
 40
0.9692883391
 40
1.0
 40
1.0
 40
1.0
 40
1.0
 10
54.48877548649999
 20
40.11329868829999
 30
0.0
 10
54.48881781589999
 20
40.1370020444
 30
0.0
 10
54.4913165208
 20
40.1844597492
 30
0.0
 10
54.5022670977
 20
40.2549164627
 30
0.0
 10
54.52031397689999
 20
40.324013755
 30
0.0
 10
54.5452829888
 20
40.3910757832
 30
0.0
 10
54.57693182689999
 20
40.4554584962
 30
0.0
 10
54.61495447459999
 20
40.5165410225
 30
0.0
 10
54.65898324850001
 20
40.57373555489999
 30
0.0
 10
54.70859289709999
 20
40.62649187719999
 30
0.0
 10
54.7633046951
 20
40.67430290889999
 30
0.0
 10
54.82259093999999
 20
40.7167093893
 30
0.0
 10
54.8858809627
 20
40.7533042389
 30
0.0
 10
54.9525632297
 20
40.78373629069999
 30
0.0
 10
55.0220039256
 20
40.8077139096
 30
0.0
 10
55.1173277493
 20
40.8307678883
 30
0.0
 10
55.2400356954
 20
40.8424501476
 30
0.0
 10
55.3627253808
 20
40.8307735306
 30
0.0
 10
55.4579837541
 20
40.8077168935
 30
0.0
 10
55.5273404872
 20
40.7837397006
 30
0.0
 10
55.5939160356
 20
40.753307619
 30
0.0
 10
55.6570774687
 20
40.7167122492
 30
0.0
 10
55.716214364
 20
40.6743047455
 30
0.0
 10
55.7707573521
 20
40.6264922232
 30
0.0
 10
55.82018022839999
 20
40.5737340215
 30
0.0
 10
55.86400595909999
 20
40.516537342
 30
0.0
 10
55.901811174
 20
40.4554525555
 30
0.0
 10
55.93323025170001
 20
40.39106764639999
 30
0.0
 10
55.9579594096
 20
40.3240036667
 30
0.0
 10
55.9757587124
 20
40.2549048423
 30
0.0
 10
55.9864565233
 20
40.184447143
 30
0.0
 10
55.9887844462
 20
40.1369977505
 30
0.0
 10
55.9887421245
 20
40.11329868829999
 30
0.0
  0
SPLINE
  5
15AE
330
221
100
AcDbEntity
  8
DEFAULT_2
  6
HIDDEN
 62
     8
100
AcDbSpline
210
0.0
220
0.0
230
1.0
 70
     8
 71
     3
 72
    15
 73
    11
 74
     0
 42
0.0000001
 43
0.0000000001
 40
0.0
 40
0.0
 40
0.0
 40
0.0
 40
0.1263994807
 40
0.2523284839
 40
0.3777971287
 40
0.5028371074
 40
0.6275002989000001
 40
0.7518573871
 40
0.8759904068
 40
1.0
 40
1.0
 40
1.0
 40
1.0
 10
55.7254104681
 20
39.5628623935
 30
0.0
 10
55.7458816135
 20
39.5797606025
 30
0.0
 10
55.78497776819999
 20
39.6157086957
 30
0.0
 10
55.83735776060001
 20
39.6754964766
 30
0.0
 10
55.8827897689
 20
39.7403856117
 30
0.0
 10
55.920734122
 20
39.8096153654
 30
0.0
 10
55.95075018470001
 20
39.88238204530001
 30
0.0
 10
55.9724856374
 20
39.9578415991
 30
0.0
 10
55.98568720229999
 20
40.03510315689999
 30
0.0
 10
55.98869561749999
 20
40.08725599239999
 30
0.0
 10
55.9887421245
 20
40.11329868829999
 30
0.0
  0
SPLINE
  5
15AF
330
221
100
AcDbEntity
  8
DEFAULT_2
  6
HIDDEN
 62
     8
100
AcDbSpline
210
0.0
220
0.0
230
1.0
 70
     8
 71
     3
 72
    19
 73
    15
 74
     0
 42
0.0000001
 43
0.0000000001
 40
0.0
 40
0.0
 40
0.0
 40
0.0
 40
0.0620707892
 40
0.124309837
 40
0.1867029923
 40
0.2492317538
 40
0.3744965279
 40
0.5000000347000001
 40
0.6255035336
 40
0.7507682873000001
 40
0.8132970365
 40
0.8756901801000001
 40
0.937929218
 40
1.0
 40
1.0
 40
1.0
 40
1.0
 10
54.780115122
 20
39.53931609019999
 30
0.0
 10
54.79699788539999
 20
39.52673930639999
 30
0.0
 10
54.831894178
 20
39.5029720328
 30
0.0
 10
54.887103119
 20
39.4718161121
 30
0.0
 10
54.9448721578
 20
39.4453164338
 30
0.0
 10
55.0247499142
 20
39.4164446105
 30
0.0
 10
55.12891000729999
 20
39.3928941125
 30
0.0
 10
55.2568862402
 20
39.3855491492
 30
0.0
 10
55.3843380654
 20
39.3992566182
 30
0.0
 10
55.48719645649999
 20
39.4279637487
 30
0.0
 10
55.5655376926
 20
39.4607766381
 30
0.0
 10
55.6219157673
 20
39.4901195558
 30
0.0
 10
55.675505013
 20
39.5239855884
 30
0.0
 10
55.70917492229999
 20
39.5494605227
 30
0.0
 10
55.7254104681
 20
39.5628623935
 30
0.0
  0
SPLINE
  5
15B0
330
221
100
AcDbEntity
  8
DEFAULT_2
  6
HIDDEN
 62
     8
100
AcDbSpline
210
0.0
220
0.0
230
1.0
 70
     8
 71
     3
 72
    15
 73
    11
 74
     0
 42
0.0000001
 43
0.0000000001
 40
0.0
 40
0.0
 40
0.0
 40
0.0
 40
0.1240095932
 40
0.2481426129
 40
0.3724997011
 40
0.4971628926
 40
0.6222028713000001
 40
0.7476715161000001
 40
0.8736005193
 40
1.0
 40
1.0
 40
1.0
 40
1.0
 10
50.4885019973
 20
40.11329868829999
 30
0.0
 10
50.4885485043
 20
40.08725599239999
 30
0.0
 10
50.4915569194
 20
40.03510315689999
 30
0.0
 10
50.5047584843
 20
39.9578415991
 30
0.0
 10
50.5264939371
 20
39.88238204530001
 30
0.0
 10
50.55650999970001
 20
39.8096153654
 30
0.0
 10
50.5944543528
 20
39.7403856117
 30
0.0
 10
50.6398863612
 20
39.6754964766
 30
0.0
 10
50.6922663535
 20
39.6157086957
 30
0.0
 10
50.7313625083
 20
39.5797606025
 30
0.0
 10
50.7518336537
 20
39.5628623935
 30
0.0
  0
SPLINE
  5
15B1
330
221
100
AcDbEntity
  8
DEFAULT_2
  6
HIDDEN
 62
     8
100
AcDbSpline
210
0.0
220
0.0
230
1.0
 70
     8
 71
     3
 72
    37
 73
    33
 74
     0
 42
0.0000001
 43
0.0000000001
 40
0.0
 40
0.0
 40
0.0
 40
0.0
 40
0.0307116609
 40
0.0614384113
 40
0.0922016448
 40
0.1230198667
 40
0.1539101108
 40
0.184886289
 40
0.2159589799
 40
0.2471349558
 40
0.2784169769
 40
0.3098037198
 40
0.3412898695
 40
0.3728663578
 40
0.404520736
 40
0.4362376638
 40
0.4997153543
 40
0.5632144251
 40
0.5949572577000001
 40
0.6266465616
 40
0.6582657068
 40
0.6898006581999999
 40
0.7212405179000001
 40
0.7525779614000001
 40
0.7838095479
 40
0.8149358915
 40
0.8459616735999999
 40
0.8768955208999999
 40
0.9077496151
 40
0.9385395559
 40
0.9692827747
 40
1.0
 40
1.0
 40
1.0
 40
1.0
 10
50.4885019973
 20
40.11329868829999
 30
0.0
 10
50.48845967560001
 20
40.1369977505
 30
0.0
 10
50.4907875984
 20
40.184447143
 30
0.0
 10
50.5014854094
 20
40.2549048423
 30
0.0
 10
50.5192847121
 20
40.3240036667
 30
0.0
 10
50.54401387
 20
40.39106764639999
 30
0.0
 10
50.5754329478
 20
40.4554525555
 30
0.0
 10
50.6132381626
 20
40.516537342
 30
0.0
 10
50.6570638934
 20
40.5737340215
 30
0.0
 10
50.7064867697
 20
40.6264922232
 30
0.0
 10
50.7610297577
 20
40.6743047455
 30
0.0
 10
50.820166653
 20
40.7167122492
 30
0.0
 10
50.8833280862
 20
40.753307619
 30
0.0
 10
50.9499036346
 20
40.7837397006
 30
0.0
 10
51.01926036760001
 20
40.8077168935
 30
0.0
 10
51.11451874090001
 20
40.8307735306
 30
0.0
 10
51.2372084264
 20
40.8424501476
 30
0.0
 10
51.3599163724
 20
40.8307678883
 30
0.0
 10
51.4552401962
 20
40.8077139096
 30
0.0
 10
51.5246808921
 20
40.78373629069999
 30
0.0
 10
51.59136315899999
 20
40.7533042389
 30
0.0
 10
51.65465318169999
 20
40.7167093893
 30
0.0
 10
51.7139394267
 20
40.67430290889999
 30
0.0
 10
51.7686512247
 20
40.62649187719999
 30
0.0
 10
51.8182608732
 20
40.57373555489999
 30
0.0
 10
51.8622896472
 20
40.5165410225
 30
0.0
 10
51.90031229479999
 20
40.4554584962
 30
0.0
 10
51.93196113289999
 20
40.3910757832
 30
0.0
 10
51.95693014479999
 20
40.324013755
 30
0.0
 10
51.97497702399999
 20
40.2549164627
 30
0.0
 10
51.9859276009
 20
40.1844597492
 30
0.0
 10
51.9884263059
 20
40.1370020444
 30
0.0
 10
51.9884686353
 20
40.11329868829999
 30
0.0
  0
SPLINE
  5
15B2
330
221
100
AcDbEntity
  8
DEFAULT_2
  6
HIDDEN
 62
     8
100
AcDbSpline
210
0.0
220
0.0
230
1.0
 70
     8
 71
     3
 72
    15
 73
    11
 74
     0
 42
0.0000001
 43
0.0000000001
 40
0.0
 40
0.0
 40
0.0
 40
0.0
 40
0.1264441433
 40
0.2523895648
 40
0.3778498449
 40
0.5028640899
 40
0.6274951358
 40
0.7518268840000001
 40
0.8759565718000001
 40
1.0
 40
1.0
 40
1.0
 40
1.0
 10
51.69712899970001
 20
39.53931609019999
 30
0.0
 10
51.71968429479999
 20
39.55611861619999
 30
0.0
 10
51.7628468622
 20
39.5922422955
 30
0.0
 10
51.8208446566
 20
39.6533155073
 30
0.0
 10
51.8712536122
 20
39.720407551
 30
0.0
 10
51.9134016111
 20
39.7926354469
 30
0.0
 10
51.9467381595
 20
39.8690577427
 30
0.0
 10
51.9708239251
 20
39.9486787517
 30
0.0
 10
51.9853437059
 20
40.0304423938
 30
0.0
 10
51.9885179087
 20
40.0857068417
 30
0.0
 10
51.9884686353
 20
40.11329868829999
 30
0.0
  0
SPLINE
  5
15B3
330
221
100
AcDbEntity
  8
DEFAULT_2
  6
HIDDEN
 62
     8
100
AcDbSpline
210
0.0
220
0.0
230
1.0
 70
     8
 71
     3
 72
    19
 73
    15
 74
     0
 42
0.0000001
 43
0.0000000001
 40
0.0
 40
0.0
 40
0.0
 40
0.0
 40
0.062070782
 40
0.1243098199
 40
0.1867029635
 40
0.2492317127
 40
0.3744964664
 40
0.4999999653
 40
0.6255034721000001
 40
0.7507682462
 40
0.8132970076999999
 40
0.8756901629999999
 40
0.9379292107999999
 40
1.0
 40
1.0
 40
1.0
 40
1.0
 10
50.7518336537
 20
39.5628623935
 30
0.0
 10
50.7680691994
 20
39.5494605227
 30
0.0
 10
50.8017391088
 20
39.5239855884
 30
0.0
 10
50.85532835439999
 20
39.4901195558
 30
0.0
 10
50.9117064291
 20
39.4607766381
 30
0.0
 10
50.9900476653
 20
39.4279637487
 30
0.0
 10
51.0929060564
 20
39.3992566182
 30
0.0
 10
51.22035788149999
 20
39.3855491492
 30
0.0
 10
51.34833411449999
 20
39.3928941125
 30
0.0
 10
51.4524942075
 20
39.4164446105
 30
0.0
 10
51.5323719639
 20
39.4453164338
 30
0.0
 10
51.5901410028
 20
39.4718161121
 30
0.0
 10
51.6453499438
 20
39.5029720328
 30
0.0
 10
51.6802462364
 20
39.52673930639999
 30
0.0
 10
51.69712899970001
 20
39.53931609019999
 30
0.0
  0
SPLINE
  5
15B4
330
221
100
AcDbEntity
  8
DEFAULT_2
  6
HIDDEN
 62
     8
100
AcDbSpline
210
0.0
220
0.0
230
1.0
 70
     8
 71
     3
 72
    28
 73
    24
 74
     0
 42
0.0000001
 43
0.0000000001
 40
0.0
 40
0.0
 40
0.0
 40
0.0
 40
0.0304179132
 40
0.0608438774
 40
0.0912855642
 40
0.1217508504
 40
0.1827610579
 40
0.243952018
 40
0.2746413641
 40
0.3053939311
 40
0.3670878803
 40
0.4290854569000001
 40
0.4914065279999999
 40
0.5540586425999999
 40
0.6170364820000001
 40
0.6803220812000001
 40
0.7120800783
 40
0.7439027664
 40
0.8077026380999999
 40
0.8716887018999999
 40
0.9037421874999999
 40
0.9358199730999999
 40
1.0
 40
1.0
 40
1.0
 40
1.0
 10
51.2386220607
 20
40.6282250073
 30
0.0
 10
51.2386220606
 20
40.63497163610001
 30
0.0
 10
51.23897792840001
 20
40.64846940679999
 30
0.0
 10
51.24057770970001
 20
40.66866187809999
 30
0.0
 10
51.2432393856
 20
40.6887536614
 30
0.0
 10
51.248195227
 20
40.71534715489999
 30
0.0
 10
51.2570125034
 20
40.7481084548
 30
0.0
 10
51.2692066139
 20
40.7798198512
 30
0.0
 10
51.28090432789999
 20
40.80438723469999
 30
0.0
 10
51.29389850739999
 20
40.82842101239999
 30
0.0
 10
51.31248264739999
 20
40.85727315009999
 30
0.0
 10
51.33824033159999
 20
40.8895879808
 30
0.0
 10
51.36722393300001
 20
40.9193420244
 30
0.0
 10
51.3991433297
 20
40.94625815659999
 30
0.0
 10
51.43368293139999
 20
40.9700907944
 30
0.0
 10
51.46434420550001
 20
40.9871874938
 30
0.0
 10
51.4898333235
 20
40.99912837419999
 30
0.0
 10
51.5159591024
 20
41.00990684550001
 30
0.0
 10
51.5495993225
 20
41.0211047768
 30
0.0
 10
51.5841781339
 20
41.02916159969999
 30
0.0
 10
51.6122398914
 20
41.03369279519999
 30
0.0
 10
51.640520408
 20
41.0369393463
 30
0.0
 10
51.6618870677
 20
41.0379157796
 30
0.0
 10
51.6761220619
 20
41.0379157796
 30
0.0
  0
SPLINE
  5
15B5
330
221
100
AcDbEntity
  8
DEFAULT_2
  6
HIDDEN
 62
     8
100
AcDbSpline
210
0.0
220
0.0
230
1.0
 70
     8
 71
     3
 72
    28
 73
    24
 74
     0
 42
0.0000001
 43
0.0000000001
 40
0.0
 40
0.0
 40
0.0
 40
0.0
 40
0.0304179132
 40
0.0608438774
 40
0.0912855643
 40
0.1217508505
 40
0.182761058
 40
0.2439520181
 40
0.2746413643
 40
0.3053939313
 40
0.3670878805
 40
0.4290854571000001
 40
0.4914065282000001
 40
0.5540586427000001
 40
0.6170364821000001
 40
0.6803220812000001
 40
0.7120800783
 40
0.7439027664
 40
0.8077026380999999
 40
0.8716887018999999
 40
0.9037421874999999
 40
0.9358199730999999
 40
1.0
 40
1.0
 40
1.0
 40
1.0
 10
55.23862206069999
 20
40.6282250253
 30
0.0
 10
55.2386220606
 20
40.634971654
 30
0.0
 10
55.2382661922
 20
40.64846942419999
 30
0.0
 10
55.2366664101
 20
40.66866189499999
 30
0.0
 10
55.2340047335
 20
40.6887536775
 30
0.0
 10
55.2290488913
 20
40.7153471701
 30
0.0
 10
55.2202316141
 20
40.7481084688
 30
0.0
 10
55.20803750289999
 20
40.7798198639
 30
0.0
 10
55.1963397885
 20
40.80438724639999
 30
0.0
 10
55.1833456087
 20
40.82842102309999
 30
0.0
 10
55.1647614686
 20
40.8572731594
 30
0.0
 10
55.13900378439999
 20
40.8895879885
 30
0.0
 10
55.1100201832
 20
40.9193420307
 30
0.0
 10
55.078100787
 20
40.94625816149999
 30
0.0
 10
55.043561186
 20
40.9700907981
 30
0.0
 10
55.01289991250001
 20
40.9871874966
 30
0.0
 10
54.98741079520001
 20
40.99912837629999
 30
0.0
 10
54.96128501689999
 20
41.0099068471
 30
0.0
 10
54.9276447977
 20
41.02110477780001
 30
0.0
 10
54.89306598729999
 20
41.0291616002
 30
0.0
 10
54.86500423049999
 20
41.0336927955
 30
0.0
 10
54.83672371469999
 20
41.03693934639999
 30
0.0
 10
54.81535705569999
 20
41.0379157796
 30
0.0
 10
54.8011220619
 20
41.0379157796
 30
0.0
  0
SPLINE
  5
15B6
330
221
100
AcDbEntity
  8
DEFAULT_2
  6
HIDDEN
 62
     8
100
AcDbSpline
210
0.0
220
0.0
230
1.0
 70
     8
 71
     3
 72
    23
 73
    19
 74
     0
 42
0.0000001
 43
0.0000000001
 40
0.0
 40
0.0
 40
0.0
 40
0.0
 40
0.060031387
 40
0.1201604785
 40
0.1804807645
 40
0.2410775478
 40
0.3020244303
 40
0.3633804299
 40
0.4251878403
 40
0.4874708862
 40
0.5502351758000001
 40
0.6134679046000001
 40
0.6771387406000001
 40
0.7412013002000001
 40
0.8055951178
 40
0.8702480066999999
 40
0.9350787105
 40
1.0
 40
1.0
 40
1.0
 40
1.0
 10
55.23862205149999
 20
40.6282250253
 30
0.0
 10
55.2386220518
 20
40.6149938705
 30
0.0
 10
55.2372126497
 20
40.5884885477
 30
0.0
 10
55.2308927752
 20
40.5491434214
 30
0.0
 10
55.2204284602
 20
40.51055933059999
 30
0.0
 10
55.2059220577
 20
40.47311518629999
 30
0.0
 10
55.18751519520001
 20
40.4371708534
 30
0.0
 10
55.1653871734
 20
40.4030731075
 30
0.0
 10
55.1397530206
 20
40.371149774
 30
0.0
 10
55.1108612446
 20
40.3417073584
 30
0.0
 10
55.0789913191
 20
40.31502804499999
 30
0.0
 10
55.0444509157
 20
40.2913671867
 30
0.0
 10
55.007572967
 20
40.2709509762
 30
0.0
 10
54.9687123452
 20
40.2539744023
 30
0.0
 10
54.9282430185
 20
40.2405994905
 30
0.0
 10
54.8865525519
 20
40.2309538298
 30
0.0
 10
54.84404583909999
 20
40.2251293897
 30
0.0
 10
54.8154309679
 20
40.22383125050001
 30
0.0
 10
54.80112205930001
 20
40.22383125050001
 30
0.0
  0
SPLINE
  5
15B7
330
221
100
AcDbEntity
  8
DEFAULT_2
  6
HIDDEN
 62
     8
100
AcDbSpline
210
0.0
220
0.0
230
1.0
 70
     8
 71
     3
 72
    23
 73
    19
 74
     0
 42
0.0000001
 43
0.0000000001
 40
0.0
 40
0.0
 40
0.0
 40
0.0
 40
0.0649212896
 40
0.1297519934
 40
0.1944048823
 40
0.2587986998
 40
0.3228612594
 40
0.3865320954
 40
0.4497648241
 40
0.5125291136
 40
0.5748121595
 40
0.6366195699000001
 40
0.6979755695000001
 40
0.7589224520000001
 40
0.8195192353999999
 40
0.8798395213999999
 40
0.9399686129999999
 40
1.0
 40
1.0
 40
1.0
 40
1.0
 10
51.67612205930001
 20
40.22383125050001
 30
0.0
 10
51.66181315100001
 20
40.22383125050001
 30
0.0
 10
51.6331982807
 20
40.2251293897
 30
0.0
 10
51.5906915691
 20
40.2309538293
 30
0.0
 10
51.54900110359999
 20
40.24059948949999
 30
0.0
 10
51.50853177810001
 20
40.25397440059999
 30
0.0
 10
51.4696711572
 20
40.2709509736
 30
0.0
 10
51.43279320939999
 20
40.291367183
 30
0.0
 10
51.3982528067
 20
40.31502804
 30
0.0
 10
51.3663828818
 20
40.341707352
 30
0.0
 10
51.337491106
 20
40.37114976619999
 30
0.0
 10
51.3118569532
 20
40.4030730981
 30
0.0
 10
51.2897289312
 20
40.4371708425
 30
0.0
 10
51.2713220682
 20
40.4731151738
 30
0.0
 10
51.25681566499999
 20
40.5105593166
 30
0.0
 10
51.246351349
 20
40.5491434059
 30
0.0
 10
51.24003147319999
 20
40.58848853079999
 30
0.0
 10
51.2386220701
 20
40.6149938529
 30
0.0
 10
51.2386220699
 20
40.6282250073
 30
0.0
  0
SPLINE
  5
15B8
330
221
100
AcDbEntity
  8
0
  6
Continuous
 62
     7
100
AcDbSpline
210
0.0
220
0.0
230
1.0
 70
     8
 71
     3
 72
    52
 73
    48
 74
     0
 42
0.0000001
 43
0.0000000001
 40
0.0
 40
0.0
 40
0.0
 40
0.0
 40
0.0073625363
 40
0.0150972101
 40
0.0232704055
 40
0.0319368261
 40
0.0411399799
 40
0.0509106562
 40
0.0612707594
 40
0.0722357534
 40
0.0838150576
 40
0.0960101979
 40
0.108818211
 40
0.122233277
 40
0.136246474
 40
0.1508436939
 40
0.1660083853
 40
0.1817226753
 40
0.2147170483
 40
0.249638725
 40
0.2862780706
 40
0.3244009662
 40
0.3637605931
 40
0.4040945784
 40
0.445133216
 40
0.4865987499
 40
0.5696864607
 40
0.6107458850000001
 40
0.6511133754000001
 40
0.6905184873000002
 40
0.7287030793000002
 40
0.7654180979000001
 40
0.8004340198000001
 40
0.8335353815999999
 40
0.8645346198999998
 40
0.8791926339999999
 40
0.8932661075
 40
0.9067403632999999
 40
0.9196018459999999
 40
0.9318393616999999
 40
0.9434472181
 40
0.9544226615000001
 40
0.9647654484
 40
0.9744795955999999
 40
0.9835771886999999
 40
0.9920760490999999
 40
1.0
 40
1.0
 40
1.0
 40
1.0
 10
23.3833505057
 20
42.7038943293
 30
0.0
 10
23.4298023136
 20
42.67848076589999
 30
0.0
 10
23.5221773868
 20
42.62097137739999
 30
0.0
 10
23.6548981017
 20
42.51864703529999
 30
0.0
 10
23.7848524879
 20
42.39856129289999
 30
0.0
 10
23.9120696146
 20
42.260874333
 30
0.0
 10
24.0365873467
 20
42.1057465424
 30
0.0
 10
24.1584977564
 20
41.9334394137
 30
0.0
 10
24.27786433670001
 20
41.7442210578
 30
0.0
 10
24.3947351652
 20
41.5383705858
 30
0.0
 10
24.50914040760001
 20
41.3162000554
 30
0.0
 10
24.6211610274
 20
41.0780954333
 30
0.0
 10
24.730856747
 20
40.824468197
 30
0.0
 10
24.8382806867
 20
40.5557434743
 30
0.0
 10
24.9434763331
 20
40.2723770876
 30
0.0
 10
25.0465258382
 20
39.97487885090001
 30
0.0
 10
25.1475009624
 20
39.6637853221
 30
0.0
 10
25.2816346762
 20
39.2244263015
 30
0.0
 10
25.4435086325
 20
38.6450807502
 30
0.0
 10
25.6277432059
 20
37.916008552
 30
0.0
 10
25.8055569262
 20
37.1474515018
 30
0.0
 10
25.9776859044
 20
36.3449451796
 30
0.0
 10
26.1448029424
 20
35.51426911
 30
0.0
 10
26.307677837
 20
34.6614006842
 30
0.0
 10
26.4670485727
 20
33.7924733435
 30
0.0
 10
26.6760517218
 20
32.6200653195
 30
0.0
 10
26.8801016869
 20
31.4466347165
 30
0.0
 10
27.0851336594
 20
30.2813936059
 30
0.0
 10
27.2386792769
 20
29.42607472780001
 30
0.0
 10
27.393371271
 20
28.5919776907
 30
0.0
 10
27.5499007825
 20
27.7849589636
 30
0.0
 10
27.709005629
 20
27.0106352905
 30
0.0
 10
27.871290494
 20
26.2743506444
 30
0.0
 10
28.0374401068
 20
25.5811209547
 30
0.0
 10
28.1820862327
 20
25.0334168395
 30
0.0
 10
28.3010335594
 20
24.6206307271
 30
0.0
 10
28.3898913128
 20
24.3303805888
 30
0.0
 10
28.4801144505
 20
24.0541097202
 30
0.0
 10
28.571761817
 20
23.7922536591
 30
0.0
 10
28.6649042177
 20
23.545216156
 30
0.0
 10
28.7595682113
 20
23.3133394505
 30
0.0
 10
28.855790543
 20
23.0969297565
 30
0.0
 10
28.9536150612
 20
22.8962768342
 30
0.0
 10
29.0531083242
 20
22.7116412217
 30
0.0
 10
29.1542826479
 20
22.5431965129
 30
0.0
 10
29.25715778
 20
22.3910904643
 30
0.0
 10
29.3293581621
 20
22.2974842418
 30
0.0
 10
29.3658309883
 20
22.253698144
 30
0.0
  0
SPLINE
  5
15B9
330
221
100
AcDbEntity
  8
0
  6
Continuous
 62
     7
100
AcDbSpline
210
0.0
220
0.0
230
1.0
 70
     8
 71
     3
 72
    15
 73
    11
 74
     0
 42
0.0000001
 43
0.0000000001
 40
0.0
 40
0.0
 40
0.0
 40
0.0
 40
0.1081569043
 40
0.2271948891
 40
0.3595483807
 40
0.5004595962
 40
0.6411988447
 40
0.7731657423999999
 40
0.8919017669
 40
1.0
 40
1.0
 40
1.0
 40
1.0
 10
23.2884393299
 20
42.83617895159999
 30
0.0
 10
23.2894974619
 20
42.8301779866
 30
0.0
 10
23.2918052763
 20
42.8175737121
 30
0.0
 10
23.297865928
 20
42.7981784437
 30
0.0
 10
23.3072448652
 20
42.7780962001
 30
0.0
 10
23.3196723962
 20
42.75829075679999
 30
0.0
 10
23.3343625909
 20
42.7401263429
 30
0.0
 10
23.3503353245
 20
42.7248228552
 30
0.0
 10
23.366788056
 20
42.7129627049
 30
0.0
 10
23.3780076056
 20
42.7068174045
 30
0.0
 10
23.3833505057
 20
42.7038943293
 30
0.0
  0
SPLINE
  5
15BA
330
221
100
AcDbEntity
  8
0
  6
Continuous
 62
     7
100
AcDbSpline
210
0.0
220
0.0
230
1.0
 70
     8
 71
     3
 72
    15
 73
    11
 74
     0
 42
0.0000001
 43
0.0000000001
 40
0.0
 40
0.0
 40
0.0
 40
0.0
 40
0.125005636
 40
0.24999448
 40
0.3749874102000001
 40
0.4999939199
 40
0.6250020813
 40
0.7500004577000001
 40
0.8749947498999999
 40
1.0
 40
1.0
 40
1.0
 40
1.0
 10
29.6539649279
 20
22.1187067235
 30
0.0
 10
29.6402269875
 20
22.1187067235
 30
0.0
 10
29.6127109088
 20
22.118946169
 30
0.0
 10
29.5717896632
 20
22.1249056339
 30
0.0
 10
29.5320354446
 20
22.1361328885
 30
0.0
 10
29.493821162
 20
22.1517770877
 30
0.0
 10
29.4574695226
 20
22.1713594154
 30
0.0
 10
29.4234695404
 20
22.1948074264
 30
0.0
 10
29.3925947688
 20
22.2222988005
 30
0.0
 10
29.3746241123
 20
22.2431425325
 30
0.0
 10
29.3658315398
 20
22.253698124
 30
0.0
  0
SPLINE
  5
15BB
330
221
100
AcDbEntity
  8
0
  6
Continuous
 62
     7
100
AcDbSpline
210
0.0
220
0.0
230
1.0
 70
     8
 71
     3
 72
    52
 73
    48
 74
     0
 42
0.0000001
 43
0.0000000001
 40
0.0
 40
0.0
 40
0.0
 40
0.0
 40
0.0073625363
 40
0.0150972101
 40
0.0232704055
 40
0.0319368261
 40
0.0411399799
 40
0.0509106562
 40
0.0612707594
 40
0.0722357534
 40
0.0838150576
 40
0.0960101979
 40
0.108818211
 40
0.122233277
 40
0.136246474
 40
0.1508436939
 40
0.1660083853
 40
0.1817226753
 40
0.2147170483
 40
0.249638725
 40
0.2862780706
 40
0.3244009662
 40
0.3637605931
 40
0.4040945784
 40
0.445133216
 40
0.4865987499
 40
0.5696864607
 40
0.6107458850000001
 40
0.6511133754000001
 40
0.6905184873000002
 40
0.7287030793000002
 40
0.7654180979000001
 40
0.8004340198000001
 40
0.8335353815999999
 40
0.8645346198999998
 40
0.8791926339999999
 40
0.8932661075
 40
0.9067403632999999
 40
0.9196018459999999
 40
0.9318393616999999
 40
0.9434472181
 40
0.9544226615000001
 40
0.9647654484
 40
0.9744795955999999
 40
0.9835771886999999
 40
0.9920760490999999
 40
1.0
 40
1.0
 40
1.0
 40
1.0
 10
83.0938936161
 20
42.7038943293
 30
0.0
 10
83.0474418082
 20
42.67848076589999
 30
0.0
 10
82.95506673490001
 20
42.62097137739999
 30
0.0
 10
82.82234602009999
 20
42.51864703529999
 30
0.0
 10
82.6923916339
 20
42.39856129289999
 30
0.0
 10
82.5651745072
 20
42.260874333
 30
0.0
 10
82.44065677509999
 20
42.1057465424
 30
0.0
 10
82.3187463654
 20
41.9334394137
 30
0.0
 10
82.19937978510001
 20
41.7442210578
 30
0.0
 10
82.08250895649999
 20
41.5383705858
 30
0.0
 10
81.9681037141
 20
41.3162000554
 30
0.0
 10
81.8560830943
 20
41.0780954333
 30
0.0
 10
81.74638737470001
 20
40.824468197
 30
0.0
 10
81.63896343499999
 20
40.5557434743
 30
0.0
 10
81.53376778870001
 20
40.2723770876
 30
0.0
 10
81.4307182835
 20
39.97487885090001
 30
0.0
 10
81.3297431594
 20
39.6637853221
 30
0.0
 10
81.19560944559999
 20
39.2244263015
 30
0.0
 10
81.0337354892
 20
38.6450807502
 30
0.0
 10
80.84950091579999
 20
37.916008552
 30
0.0
 10
80.67168719559999
 20
37.1474515018
 30
0.0
 10
80.4995582173
 20
36.3449451796
 30
0.0
 10
80.33244117939998
 20
35.51426911
 30
0.0
 10
80.1695662848
 20
34.6614006842
 30
0.0
 10
80.0101955491
 20
33.7924733435
 30
0.0
 10
79.8011924
 20
32.6200653195
 30
0.0
 10
79.59714243479999
 20
31.4466347165
 30
0.0
 10
79.3921104624
 20
30.2813936059
 30
0.0
 10
79.23856484479999
 20
29.42607472780001
 30
0.0
 10
79.0838728508
 20
28.5919776907
 30
0.0
 10
78.9273433393
 20
27.7849589636
 30
0.0
 10
78.7682384927
 20
27.0106352905
 30
0.0
 10
78.60595362779999
 20
26.2743506444
 30
0.0
 10
78.43980401500001
 20
25.5811209547
 30
0.0
 10
78.2951578891
 20
25.0334168395
 30
0.0
 10
78.1762105624
 20
24.6206307271
 30
0.0
 10
78.08735280890001
 20
24.3303805888
 30
0.0
 10
77.9971296713
 20
24.0541097202
 30
0.0
 10
77.9054823047
 20
23.7922536591
 30
0.0
 10
77.8123399041
 20
23.545216156
 30
0.0
 10
77.7176759104
 20
23.3133394505
 30
0.0
 10
77.6214535787
 20
23.0969297565
 30
0.0
 10
77.5236290606
 20
22.8962768342
 30
0.0
 10
77.4241357976
 20
22.7116412217
 30
0.0
 10
77.32296147380001
 20
22.5431965129
 30
0.0
 10
77.22008634169999
 20
22.3910904643
 30
0.0
 10
77.1478859596
 20
22.2974842418
 30
0.0
 10
77.11141313350001
 20
22.253698144
 30
0.0
  0
SPLINE
  5
15BC
330
221
100
AcDbEntity
  8
0
  6
Continuous
 62
     7
100
AcDbSpline
210
0.0
220
0.0
230
1.0
 70
     8
 71
     3
 72
    15
 73
    11
 74
     0
 42
0.0000001
 43
0.0000000001
 40
0.0
 40
0.0
 40
0.0
 40
0.0
 40
0.1081569043
 40
0.2271948891
 40
0.3595483807
 40
0.5004595962
 40
0.6411988447
 40
0.7731657423999999
 40
0.8919017669
 40
1.0
 40
1.0
 40
1.0
 40
1.0
 10
83.18880479189999
 20
42.83617895159999
 30
0.0
 10
83.1877466599
 20
42.8301779866
 30
0.0
 10
83.18543884550001
 20
42.8175737121
 30
0.0
 10
83.1793781938
 20
42.7981784437
 30
0.0
 10
83.1699992565
 20
42.7780962001
 30
0.0
 10
83.15757172560001
 20
42.75829075679999
 30
0.0
 10
83.1428815309
 20
42.7401263429
 30
0.0
 10
83.12690879729998
 20
42.7248228552
 30
0.0
 10
83.1104560658
 20
42.7129627049
 30
0.0
 10
83.0992365162
 20
42.7068174045
 30
0.0
 10
83.0938936161
 20
42.7038943293
 30
0.0
  0
SPLINE
  5
15BD
330
221
100
AcDbEntity
  8
0
  6
Continuous
 62
     7
100
AcDbSpline
210
0.0
220
0.0
230
1.0
 70
     8
 71
     3
 72
    15
 73
    11
 74
     0
 42
0.0000001
 43
0.0000000001
 40
0.0
 40
0.0
 40
0.0
 40
0.0
 40
0.125005636
 40
0.24999448
 40
0.3749874102000001
 40
0.4999939199
 40
0.6250020813
 40
0.7500004577000001
 40
0.8749947498999999
 40
1.0
 40
1.0
 40
1.0
 40
1.0
 10
76.8232791938
 20
22.1187067235
 30
0.0
 10
76.83701713419999
 20
22.1187067235
 30
0.0
 10
76.864533213
 20
22.118946169
 30
0.0
 10
76.9054544585
 20
22.1249056339
 30
0.0
 10
76.9452086772
 20
22.1361328885
 30
0.0
 10
76.9834229597
 20
22.1517770877
 30
0.0
 10
77.01977459920001
 20
22.1713594154
 30
0.0
 10
77.0537745813
 20
22.1948074264
 30
0.0
 10
77.0846493529
 20
22.2222988005
 30
0.0
 10
77.1026200095
 20
22.2431425325
 30
0.0
 10
77.1114125819
 20
22.253698124
 30
0.0
  0
SPLINE
  5
15BE
330
221
100
AcDbEntity
  8
0
  6
Continuous
 62
     9
100
AcDbSpline
210
0.0
220
0.0
230
1.0
 70
     8
 71
     3
 72
    61
 73
    57
 74
     0
 42
0.0000001
 43
0.0000000001
 40
0.0
 40
0.0
 40
0.0
 40
0.0
 40
0.081350121
 40
0.162679783
 40
0.2439587469
 40
0.3251252249
 40
0.4060647394
 40
0.4865737082
 40
0.566294834
 40
0.6056811165
 40
0.6446091291000001
 40
0.682930878
 40
0.7204546125000001
 40
0.7569356079000001
 40
0.792069188
 40
0.8254900390999999
 40
0.8567838206999999
 40
0.8855172296999999
 40
0.8987946090999999
 40
0.9112866673
 40
0.9229556599999998
 40
0.9337754091
 40
0.9437259284999999
 40
0.9528004315999998
 40
0.9609983853000001
 40
0.9683310677999999
 40
0.9748148434
 40
0.9804746073999998
 40
0.9853385365000001
 40
0.9874822320999999
 40
0.9894394018000001
 40
0.9912143469
 40
0.9928116142
 40
0.9942358118000001
 40
0.9954915479
 40
0.9965833803
 40
0.9975156651
 40
0.9979233226999999
 40
0.9982927081999999
 40
0.9986243595999999
 40
0.9989188153
 40
0.9991766134
 40
0.9993982922
 40
0.99958439
 40
0.9997354448000001
 40
0.9997979993999999
 40
0.999851995
 40
0.9998974990999998
 40
0.9999345787999999
 40
0.9999633015
 40
0.9999745499999999
 40
0.9999837343999999
 40
0.9999908632
 40
0.9999959448
 40
0.9999989876
 40
1.0
 40
1.0
 40
1.0
 40
1.0
 10
53.2386220609
 20
42.7039956637
 30
0.0
 10
54.04819871459999
 20
42.7040063298
 30
0.0
 10
55.6671484189
 20
42.7040134914
 30
0.0
 10
58.0949666387
 20
42.70396940749999
 30
0.0
 10
60.5209572855
 20
42.7038705413
 30
0.0
 10
62.94306527799999
 20
42.7037405545
 30
0.0
 10
65.3575104647
 20
42.7035847635
 30
0.0
 10
67.75757185759999
 20
42.7034295385
 30
0.0
 10
69.7441055747
 20
42.70330031639999
 30
0.0
 10
71.31683571269999
 20
42.70323440219999
 30
0.0
 10
72.47756930379999
 20
42.7031990233
 30
0.0
 10
73.6197672704
 20
42.703170629
 30
0.0
 10
74.73761311619999
 20
42.70316554759999
 30
0.0
 10
75.82373108029999
 20
42.70318407629999
 30
0.0
 10
76.86901814489999
 20
42.7031943313
 30
0.0
 10
77.86268331799999
 20
42.70320676409999
 30
0.0
 10
78.7926555396
 20
42.7032846791
 30
0.0
 10
79.52216481259999
 20
42.70340760879999
 30
0.0
 10
80.0645639004
 20
42.70350523429999
 30
0.0
 10
80.43714206289999
 20
42.7035701651
 30
0.0
 10
80.78526248800001
 20
42.7036239448
 30
0.0
 10
81.1080901366
 20
42.70366663929999
 30
0.0
 10
81.40509805689999
 20
42.7036983239
 30
0.0
 10
81.67601450460001
 20
42.7037251898
 30
0.0
 10
81.92087887539999
 20
42.7037538492
 30
0.0
 10
82.13996095369999
 20
42.7037881836
 30
0.0
 10
82.33378358299999
 20
42.70383289059999
 30
0.0
 10
82.5030377769
 20
42.7038765621
 30
0.0
 10
82.62910055170001
 20
42.703903101
 30
0.0
 10
82.71831600869999
 20
42.7039121643
 30
0.0
 10
82.7767906473
 20
42.7039120644
 30
0.0
 10
82.82982736300001
 20
42.7039042198
 30
0.0
 10
82.87756006939998
 20
42.7038919354
 30
0.0
 10
82.9201257338
 20
42.7038787113
 30
0.0
 10
82.95766143299999
 20
42.7038678938
 30
0.0
 10
82.9903017364
 20
42.7038631039
 30
0.0
 10
83.01450216880001
 20
42.7038632047
 30
0.0
 10
83.0315129845
 20
42.70386533239999
 30
0.0
 10
83.04254644270001
 20
42.7038675825
 30
0.0
 10
83.0524533424
 20
42.7038703944
 30
0.0
 10
83.06124975199999
 20
42.7038736043
 30
0.0
 10
83.0689517417
 20
42.7038770494
 30
0.0
 10
83.07557537660001
 20
42.70388056309999
 30
0.0
 10
83.08113673580001
 20
42.7038839901
 30
0.0
 10
83.08511450979999
 20
42.7038867683
 30
0.0
 10
83.0877776718
 20
42.70388883729999
 30
0.0
 10
83.0893903451
 20
42.7038901123
 30
0.0
 10
83.09074969840001
 20
42.703891394
 30
0.0
 10
83.0918569854
 20
42.7038920823
 30
0.0
 10
83.0926247048
 20
42.7038935225
 30
0.0
 10
83.09311247789999
 20
42.7038929209
 30
0.0
 10
83.09338971149999
 20
42.70389545989999
 30
0.0
 10
83.0935950443
 20
42.70388985599999
 30
0.0
 10
83.0937639475
 20
42.703903153
 30
0.0
 10
83.09382494499999
 20
42.703880267
 30
0.0
 10
83.0938962271
 20
42.7039040602
 30
0.0
 10
83.0938936161
 20
42.7038943293
 30
0.0
  0
SPLINE
  5
15BF
330
221
100
AcDbEntity
  8
0
  6
Continuous
 62
     9
100
AcDbSpline
210
0.0
220
0.0
230
1.0
 70
     8
 71
     3
 72
    10
 73
     6
 74
     0
 42
0.0000001
 43
0.0000000001
 40
0.0
 40
0.0
 40
0.0
 40
0.0
 40
0.5002438645
 40
0.7503546928000001
 40
1.0
 40
1.0
 40
1.0
 40
1.0
 10
53.2386220609
 20
22.2573117224
 30
0.0
 10
55.1562241022
 20
22.2576782629
 30
0.0
 10
58.03258464329999
 20
22.2590416179
 30
0.0
 10
61.86591700720001
 20
22.2631917577
 30
0.0
 10
63.7816475521
 20
22.2659032152
 30
0.0
 10
64.7386205568
 20
22.2672660521
 30
0.0
  0
SPLINE
  5
15C0
330
221
100
AcDbEntity
  8
0
  6
Continuous
 62
     9
100
AcDbSpline
210
0.0
220
0.0
230
1.0
 70
     8
 71
     3
 72
    12
 73
     8
 74
     0
 42
0.0000001
 43
0.0000000001
 40
0.0
 40
0.0
 40
0.0
 40
0.0
 40
0.2615763004
 40
0.4556756489
 40
0.6460939885000001
 40
0.8294983434999998
 40
1.0
 40
1.0
 40
1.0
 40
1.0
 10
64.7386205568
 20
22.2672660521
 30
0.0
 10
65.4941431205
 20
22.268342001
 30
0.0
 10
66.8102915498
 20
22.2702188303
 30
0.0
 10
68.6764348068
 20
22.2721193723
 30
0.0
 10
70.31679139970001
 20
22.2725401398
 30
0.0
 10
71.8889892334
 20
22.2709604178
 30
0.0
 10
72.9111897982
 20
22.2682534769
 30
0.0
 10
73.40365504960001
 20
22.2665834093
 30
0.0
  0
SPLINE
  5
15C1
330
221
100
AcDbEntity
  8
0
  6
Continuous
 62
     9
100
AcDbSpline
210
0.0
220
0.0
230
1.0
 70
     8
 71
     3
 72
    18
 73
    14
 74
     0
 42
0.0000001
 43
0.0000000001
 40
0.0
 40
0.0
 40
0.0
 40
0.0
 40
0.2540027837
 40
0.4740654410000001
 40
0.6540972659000001
 40
0.7922403317
 40
0.8908212701999998
 40
0.9267542707999998
 40
0.9547213368999999
 40
0.9753984928999999
 40
0.9894290776000001
 40
0.9974420095000001
 40
1.0
 40
1.0
 40
1.0
 40
1.0
 10
73.40365504960001
 20
22.2665834093
 30
0.0
 10
73.71758213939999
 20
22.2655188073
 30
0.0
 10
74.303501329
 20
22.2632586784
 30
0.0
 10
75.1118605884
 20
22.2598098294
 30
0.0
 10
75.7772129727
 20
22.2571454635
 30
0.0
 10
76.2919476494
 20
22.255442884
 30
0.0
 10
76.62964050460001
 20
22.2545854841
 30
0.0
 10
76.82946249149999
 20
22.2541751893
 30
0.0
 10
76.93588263479999
 20
22.2539763656
 30
0.0
 10
77.0087964122
 20
22.2538598116
 30
0.0
 10
77.07121306020001
 20
22.2537481079
 30
0.0
 10
77.08570481859999
 20
22.2537519679
 30
0.0
 10
77.1145740376
 20
22.2536834847
 30
0.0
 10
77.1114125819
 20
22.253698124
 30
0.0
  0
SPLINE
  5
15C2
330
221
100
AcDbEntity
  8
0
  6
Continuous
 62
     9
100
AcDbSpline
210
0.0
220
0.0
230
1.0
 70
     8
 71
     3
 72
    10
 73
     6
 74
     0
 42
0.0000001
 43
0.0000000001
 40
0.0
 40
0.0
 40
0.0
 40
0.0
 40
0.5002438644
 40
0.7503546927000001
 40
1.0
 40
1.0
 40
1.0
 40
1.0
 10
53.2386220609
 20
22.2573117224
 30
0.0
 10
51.3210200197
 20
22.2576782629
 30
0.0
 10
48.44465947869999
 20
22.2590416179
 30
0.0
 10
44.6113271148
 20
22.2631917577
 30
0.0
 10
42.6955965697
 20
22.2659032151
 30
0.0
 10
41.73862356479999
 20
22.2672660521
 30
0.0
  0
SPLINE
  5
15C3
330
221
100
AcDbEntity
  8
0
  6
Continuous
 62
     9
100
AcDbSpline
210
0.0
220
0.0
230
1.0
 70
     8
 71
     3
 72
    23
 73
    19
 74
     0
 42
0.0000001
 43
0.0000000001
 40
0.0
 40
0.0
 40
0.0
 40
0.0
 40
0.1893374067
 40
0.3759858467
 40
0.5559921485000001
 40
0.6409883341000001
 40
0.7203954568000001
 40
0.7919867306999999
 40
0.8535777819999999
 40
0.9037132331
 40
0.9421033312
 40
0.9695169858999999
 40
0.9795276575
 40
0.9873309708
 40
0.9931086393999999
 40
0.997035366
 40
0.9992818666999999
 40
1.0
 40
1.0
 40
1.0
 40
1.0
 10
41.73862356479999
 20
22.2672660521
 30
0.0
 10
40.9577448706
 20
22.2683781111
 30
0.0
 10
39.4070775695
 20
22.2705864142
 30
0.0
 10
37.1140136975
 20
22.2727320105
 30
0.0
 10
35.2512810802
 20
22.2719923876
 30
0.0
 10
33.8308421773
 20
22.2690528342
 30
0.0
 10
32.8575452126
 20
22.2659589156
 30
0.0
 10
31.9807596184
 20
22.2624420777
 30
0.0
 10
31.2247591746
 20
22.2592222148
 30
0.0
 10
30.6055163625
 20
22.2568074834
 30
0.0
 10
30.1276701729
 20
22.2552828815
 30
0.0
 10
29.8143350722
 20
22.254511787
 30
0.0
 10
29.6287236073
 20
22.2541389014
 30
0.0
 10
29.5296702419
 20
22.2539561764
 30
0.0
 10
29.4616974442
 20
22.2538487338
 30
0.0
 10
29.4034367615
 20
22.2537449418
 30
0.0
 10
29.3898904779
 20
22.2537485187
 30
0.0
 10
29.3628697927
 20
22.2536844094
 30
0.0
 10
29.3658315398
 20
22.253698124
 30
0.0
  0
SPLINE
  5
15C4
330
221
100
AcDbEntity
  8
0
  6
Continuous
 62
     9
100
AcDbSpline
210
0.0
220
0.0
230
1.0
 70
     8
 71
     3
 72
    61
 73
    57
 74
     0
 42
0.0000001
 43
0.0000000001
 40
0.0
 40
0.0
 40
0.0
 40
0.0
 40
0.0811248192
 40
0.1622461246
 40
0.2433348043
 40
0.3243310122
 40
0.4051235574
 40
0.4855144442000001
 40
0.565155796
 40
0.6045210851000001
 40
0.6434440177000001
 40
0.6817794975
 40
0.7193389081000001
 40
0.7558803848000001
 40
0.7911006968000001
 40
0.8246334614
 40
0.8560599529999999
 40
0.8849381053
 40
0.8982885147000001
 40
0.9108517854
 40
0.9225885357999999
 40
0.9334712667999999
 40
0.9434788792
 40
0.9526039904999999
 40
0.9608457190999999
 40
0.9682154676999999
 40
0.9747298837999998
 40
0.9804143076999999
 40
0.9852974448000001
 40
0.9874489167
 40
0.9894127681999998
 40
0.9911933892
 40
0.9927953961
 40
0.9942234618
 40
0.9954822591999999
 40
0.9965764285999998
 40
0.9975104787000001
 40
0.9979188576
 40
0.998288885
 40
0.9986211202999999
 40
0.9989161231
 40
0.9991744470999998
 40
0.9993966234
 40
0.9995831773999999
 40
0.9997346344
 40
0.9997973656999999
 40
0.9998515198000001
 40
0.9998971623999999
 40
0.999934359
 40
0.9999631753999999
 40
0.9999744615999999
 40
0.9999836773
 40
0.9999908308
 40
0.9999959303
 40
0.9999989838999999
 40
1.0
 40
1.0
 40
1.0
 40
1.0
 10
53.2386220609
 20
42.83599153439999
 30
0.0
 10
54.0485232139
 20
42.83596204280001
 30
0.0
 10
55.6682904391
 20
42.83583040049999
 30
0.0
 10
58.0975979891
 20
42.83538393119999
 30
0.0
 10
60.52562149989999
 20
42.8346793409
 30
0.0
 10
62.9503627917
 20
42.8337520017
 30
0.0
 10
65.3681376651
 20
42.832649465
 30
0.0
 10
67.7723864468
 20
42.83149662689999
 30
0.0
 10
69.76305063879999
 20
42.8306266654
 30
0.0
 10
71.33972395899999
 20
42.8301453862
 30
0.0
 10
72.50402447509999
 20
42.8299193144
 30
0.0
 10
73.6502962129
 20
42.8298485039
 30
0.0
 10
74.7727929321
 20
42.82997525899999
 30
0.0
 10
75.8641896545
 20
42.8303098046
 30
0.0
 10
76.9153867092
 20
42.83080728849999
 30
0.0
 10
77.91551875759999
 20
42.8314506084
 30
0.0
 10
78.85233437720001
 20
42.8322575858
 30
0.0
 10
79.58766150390001
 20
42.8330264878
 30
0.0
 10
80.13466971639999
 20
42.8336179824
 30
0.0
 10
80.5105486373
 20
42.83402247489999
 30
0.0
 10
80.86179177609999
 20
42.8343877521
 30
0.0
 10
81.1875207968
 20
42.83471055199999
 30
0.0
 10
81.48717682350001
 20
42.834987885
 30
0.0
 10
81.76046670179999
 20
42.8352268908
 30
0.0
 10
82.0074217604
 20
42.83543547939999
 30
0.0
 10
82.22831322679999
 20
42.83561989289999
 30
0.0
 10
82.4236741144
 20
42.83578745839999
 30
0.0
 10
82.59421018819999
 20
42.8359297864
 30
0.0
 10
82.7211892891
 20
42.83602404889999
 30
0.0
 10
82.81102446490001
 20
42.83607459929999
 30
0.0
 10
82.869886005
 20
42.8360979383
 30
0.0
 10
82.92326202300001
 20
42.83610672
 30
0.0
 10
82.9712890797
 20
42.8361074253
 30
0.0
 10
83.01410656539999
 20
42.83610691409999
 30
0.0
 10
83.05185410909999
 20
42.8361116754
 30
0.0
 10
83.0846696951
 20
42.8361289478
 30
0.0
 10
83.10899521119999
 20
42.8361495916
 30
0.0
 10
83.12609133189999
 20
42.8361661602
 30
0.0
 10
83.13717930160001
 20
42.8361770403
 30
0.0
 10
83.1471353941
 20
42.83618611909999
 30
0.0
 10
83.15597630890001
 20
42.83619259469999
 30
0.0
 10
83.16371846299999
 20
42.83619558809999
 30
0.0
 10
83.1703779278
 20
42.8361957767
 30
0.0
 10
83.17597050399999
 20
42.8361939204
 30
0.0
 10
83.17997125939999
 20
42.8361911162
 30
0.0
 10
83.18265024750001
 20
42.83618846849999
 30
0.0
 10
83.18427277959999
 20
42.8361865083
 30
0.0
 10
83.1856405755
 20
42.83618474709999
 30
0.0
 10
83.18675489399998
 20
42.83618268459999
 30
0.0
 10
83.18752747239999
 20
42.83618205989999
 30
0.0
 10
83.18801851139999
 20
42.8361800117
 30
0.0
 10
83.18829736999999
 20
42.836181771
 30
0.0
 10
83.1885045828
 20
42.836175365
 30
0.0
 10
83.18867345100001
 20
42.8361884636
 30
0.0
 10
83.1887368974
 20
42.83616474739999
 30
0.0
 10
83.18880655680001
 20
42.8361889407
 30
0.0
 10
83.18880479189999
 20
42.83617895159999
 30
0.0
  0
SPLINE
  5
15C5
330
221
100
AcDbEntity
  8
0
  6
Continuous
 62
     9
100
AcDbSpline
210
0.0
220
0.0
230
1.0
 70
     8
 71
     3
 72
    61
 73
    57
 74
     0
 42
0.0000001
 43
0.0000000001
 40
0.0
 40
0.0
 40
0.0
 40
0.0
 40
0.081350121
 40
0.162679783
 40
0.2439587469
 40
0.3251252249
 40
0.4060647394
 40
0.4865737082
 40
0.566294834
 40
0.6056811165
 40
0.6446091291000001
 40
0.682930878
 40
0.7204546125000001
 40
0.7569356079000001
 40
0.792069188
 40
0.8254900390999999
 40
0.8567838206999999
 40
0.8855172296999999
 40
0.8987946090999999
 40
0.9112866673
 40
0.9229556599999998
 40
0.9337754091
 40
0.9437259284999999
 40
0.9528004315999998
 40
0.9609983853000001
 40
0.9683310677999999
 40
0.9748148434
 40
0.9804746073999998
 40
0.9853385365000001
 40
0.9874822320999999
 40
0.9894394018000001
 40
0.9912143469
 40
0.9928116142
 40
0.9942358118000001
 40
0.9954915479
 40
0.9965833803
 40
0.9975156651
 40
0.9979233226999999
 40
0.9982927081999999
 40
0.9986243595999999
 40
0.9989188153
 40
0.9991766134
 40
0.9993982922
 40
0.99958439
 40
0.9997354448000001
 40
0.9997979993999999
 40
0.999851995
 40
0.9998974990999998
 40
0.9999345787999999
 40
0.9999633015
 40
0.9999745499999999
 40
0.9999837343999999
 40
0.9999908632
 40
0.9999959448
 40
0.9999989876
 40
1.0
 40
1.0
 40
1.0
 40
1.0
 10
53.2386220609
 20
42.7039956637
 30
0.0
 10
52.4290454072
 20
42.7040063298
 30
0.0
 10
50.81009570289999
 20
42.7040134914
 30
0.0
 10
48.3822774831
 20
42.70396940749999
 30
0.0
 10
45.9562868362
 20
42.7038705413
 30
0.0
 10
43.53417884379999
 20
42.7037405545
 30
0.0
 10
41.11973365699999
 20
42.7035847635
 30
0.0
 10
38.7196722641
 20
42.7034295385
 30
0.0
 10
36.7331385471
 20
42.70330031639999
 30
0.0
 10
35.1604084091
 20
42.70323440219999
 30
0.0
 10
33.9996748179
 20
42.7031990233
 30
0.0
 10
32.8574768514
 20
42.703170629
 30
0.0
 10
31.7396310056
 20
42.70316554759999
 30
0.0
 10
30.6535130415
 20
42.70318407629999
 30
0.0
 10
29.6082259768
 20
42.7031943313
 30
0.0
 10
28.6145608038
 20
42.70320676409999
 30
0.0
 10
27.6845885821
 20
42.7032846791
 30
0.0
 10
26.9550793092
 20
42.70340760879999
 30
0.0
 10
26.4126802214
 20
42.70350523429999
 30
0.0
 10
26.0401020589
 20
42.7035701651
 30
0.0
 10
25.6919816337
 20
42.7036239448
 30
0.0
 10
25.36915398510001
 20
42.70366663929999
 30
0.0
 10
25.0721460649
 20
42.7036983239
 30
0.0
 10
24.8012296172
 20
42.7037251898
 30
0.0
 10
24.5563652464
 20
42.7037538492
 30
0.0
 10
24.337283168
 20
42.7037881836
 30
0.0
 10
24.1434605387
 20
42.70383289059999
 30
0.0
 10
23.9742063448
 20
42.7038765621
 30
0.0
 10
23.84814357
 20
42.703903101
 30
0.0
 10
23.7589281131
 20
42.7039121643
 30
0.0
 10
23.7004534745
 20
42.7039120644
 30
0.0
 10
23.6474167587
 20
42.7039042198
 30
0.0
 10
23.5996840524
 20
42.7038919354
 30
0.0
 10
23.557118388
 20
42.7038787113
 30
0.0
 10
23.5195826887
 20
42.7038678938
 30
0.0
 10
23.4869423854
 20
42.7038631039
 30
0.0
 10
23.462741953
 20
42.7038632047
 30
0.0
 10
23.4457311373
 20
42.70386533239999
 30
0.0
 10
23.4346976791
 20
42.7038675825
 30
0.0
 10
23.4247907794
 20
42.7038703944
 30
0.0
 10
23.4159943697
 20
42.7038736043
 30
0.0
 10
23.4082923801
 20
42.7038770494
 30
0.0
 10
23.4016687452
 20
42.70388056309999
 30
0.0
 10
23.3961073859
 20
42.7038839901
 30
0.0
 10
23.392129612
 20
42.7038867683
 30
0.0
 10
23.38946645
 20
42.70388883729999
 30
0.0
 10
23.3878537766
 20
42.7038901123
 30
0.0
 10
23.3864944234
 20
42.703891394
 30
0.0
 10
23.3853871364
 20
42.7038920823
 30
0.0
 10
23.3846194169
 20
42.7038935225
 30
0.0
 10
23.3841316438
 20
42.7038929209
 30
0.0
 10
23.3838544103
 20
42.70389545989999
 30
0.0
 10
23.3836490774
 20
42.70388985599999
 30
0.0
 10
23.3834801743
 20
42.703903153
 30
0.0
 10
23.3834191768
 20
42.703880267
 30
0.0
 10
23.3833478947
 20
42.7039040602
 30
0.0
 10
23.3833505057
 20
42.7038943293
 30
0.0
  0
SPLINE
  5
15C6
330
221
100
AcDbEntity
  8
0
  6
Continuous
 62
     9
100
AcDbSpline
210
0.0
220
0.0
230
1.0
 70
     8
 71
     3
 72
    61
 73
    57
 74
     0
 42
0.0000001
 43
0.0000000001
 40
0.0
 40
0.0
 40
0.0
 40
0.0
 40
0.0811248192
 40
0.1622461246
 40
0.2433348043
 40
0.3243310122
 40
0.4051235574
 40
0.4855144442000001
 40
0.565155796
 40
0.6045210851000001
 40
0.6434440177000001
 40
0.6817794975
 40
0.7193389081000001
 40
0.7558803848000001
 40
0.7911006968000001
 40
0.8246334614
 40
0.8560599529999999
 40
0.8849381053
 40
0.8982885147000001
 40
0.9108517854
 40
0.9225885357999999
 40
0.9334712667999999
 40
0.9434788792
 40
0.9526039904999999
 40
0.9608457190999999
 40
0.9682154676999999
 40
0.9747298837999998
 40
0.9804143076999999
 40
0.9852974448000001
 40
0.9874489167
 40
0.9894127681999998
 40
0.9911933892
 40
0.9927953961
 40
0.9942234618
 40
0.9954822591999999
 40
0.9965764285999998
 40
0.9975104787000001
 40
0.9979188576
 40
0.998288885
 40
0.9986211202999999
 40
0.9989161231
 40
0.9991744470999998
 40
0.9993966234
 40
0.9995831773999999
 40
0.9997346344
 40
0.9997973656999999
 40
0.9998515198000001
 40
0.9998971623999999
 40
0.999934359
 40
0.9999631753999999
 40
0.9999744615999999
 40
0.9999836773
 40
0.9999908308
 40
0.9999959303
 40
0.9999989838999999
 40
1.0
 40
1.0
 40
1.0
 40
1.0
 10
53.2386220609
 20
42.83599153439999
 30
0.0
 10
52.4287209079
 20
42.83596204280001
 30
0.0
 10
50.80895368270001
 20
42.83583040049999
 30
0.0
 10
48.3796461326
 20
42.83538393119999
 30
0.0
 10
45.95162262189999
 20
42.8346793409
 30
0.0
 10
43.5268813301
 20
42.8337520017
 30
0.0
 10
41.10910645669999
 20
42.832649465
 30
0.0
 10
38.7048576749
 20
42.83149662689999
 30
0.0
 10
36.71419348300001
 20
42.8306266654
 30
0.0
 10
35.1375201628
 20
42.8301453862
 30
0.0
 10
33.97321964670001
 20
42.8299193144
 30
0.0
 10
32.8269479089
 20
42.8298485039
 30
0.0
 10
31.7044511896
 20
42.82997525899999
 30
0.0
 10
30.6130544673
 20
42.8303098046
 30
0.0
 10
29.5618574126
 20
42.83080728849999
 30
0.0
 10
28.5617253641
 20
42.8314506084
 30
0.0
 10
27.6249097446
 20
42.8322575858
 30
0.0
 10
26.8895826179
 20
42.8330264878
 30
0.0
 10
26.3425744054
 20
42.8336179824
 30
0.0
 10
25.9666954845
 20
42.83402247489999
 30
0.0
 10
25.6154523457
 20
42.8343877521
 30
0.0
 10
25.289723325
 20
42.83471055199999
 30
0.0
 10
24.9900672983
 20
42.834987885
 30
0.0
 10
24.71677742
 20
42.8352268908
 30
0.0
 10
24.4698223614
 20
42.83543547939999
 30
0.0
 10
24.248930895
 20
42.83561989289999
 30
0.0
 10
24.0535700073
 20
42.83578745839999
 30
0.0
 10
23.8830339336
 20
42.8359297864
 30
0.0
 10
23.7560548327
 20
42.83602404889999
 30
0.0
 10
23.6662196569
 20
42.83607459929999
 30
0.0
 10
23.6073581168
 20
42.8360979383
 30
0.0
 10
23.5539820988
 20
42.83610672
 30
0.0
 10
23.5059550421
 20
42.8361074253
 30
0.0
 10
23.4631375564
 20
42.83610691409999
 30
0.0
 10
23.4253900126
 20
42.8361116754
 30
0.0
 10
23.3925744267
 20
42.8361289478
 30
0.0
 10
23.3682489106
 20
42.8361495916
 30
0.0
 10
23.3511527899
 20
42.8361661602
 30
0.0
 10
23.3400648202
 20
42.8361770403
 30
0.0
 10
23.3301087277
 20
42.83618611909999
 30
0.0
 10
23.3212678128
 20
42.83619259469999
 30
0.0
 10
23.3135256587
 20
42.83619558809999
 30
0.0
 10
23.306866194
 20
42.8361957767
 30
0.0
 10
23.3012736178
 20
42.8361939204
 30
0.0
 10
23.2972728624
 20
42.8361911162
 30
0.0
 10
23.2945938743
 20
42.83618846849999
 30
0.0
 10
23.2929713422
 20
42.8361865083
 30
0.0
 10
23.2916035463
 20
42.83618474709999
 30
0.0
 10
23.2904892277
 20
42.83618268459999
 30
0.0
 10
23.2897166494
 20
42.83618205989999
 30
0.0
 10
23.2892256104
 20
42.8361800117
 30
0.0
 10
23.2889467518
 20
42.836181771
 30
0.0
 10
23.288739539
 20
42.836175365
 30
0.0
 10
23.2885706708
 20
42.8361884636
 30
0.0
 10
23.2885072243
 20
42.83616474739999
 30
0.0
 10
23.2884375649
 20
42.8361889407
 30
0.0
 10
23.2884393299
 20
42.83617895159999
 30
0.0
  0
LINE
  5
15C7
330
221
100
AcDbEntity
  8
0
  6
Continuous
 62
     9
100
AcDbLine
 10
53.23864612699999
 20
22.2573117178
 30
0.0
 11
53.23864562659999
 21
22.2434766404
 31
0.0
  0
LINE
  5
15C8
330
221
100
AcDbEntity
  8
0
  6
Continuous
 62
     9
100
AcDbLine
 10
53.23864562659999
 20
22.2434766404
 30
0.0
 11
53.2386300258
 21
22.1187067235
 31
0.0
  0
ENDSEC
  0
SECTION
  2
OBJECTS
  0
DICTIONARY
  5
C
330
0
100
AcDbDictionary
281
     1
  3
ACAD_CIP_PREVIOUS_PRODUCT_INFO
350
1704
  3
ACAD_COLOR
350
1698
  3
ACAD_DETAILVIEWSTYLE
350
16B1
  3
ACAD_GROUP
350
D
  3
ACAD_IMAGE_DICT
350
165F
  3
ACAD_IMAGE_VARS
350
1660
  3
ACAD_LAYOUT
350
1A
  3
ACAD_MATERIAL
350
1666
  3
ACAD_MLEADERSTYLE
350
16AD
  3
ACAD_MLINESTYLE
350
17
  3
ACAD_PLOTSETTINGS
350
19
  3
ACAD_PLOTSTYLENAME
350
E
  3
ACAD_SCALELIST
350
169B
  3
ACAD_SECTIONVIEWSTYLE
350
16AF
  3
ACAD_TABLESTYLE
350
1699
  3
ACAD_VISUALSTYLE
350
167F
  3
ACDB_RECOMPOSE_DATA
350
17D3
  3
AcDbVariableDictionary
350
16F6
  3
DWGPROPS
350
17D4
  0
DICTIONARY
  5
16B7
330
8
100
AcDbDictionary
280
     1
281
     1
  0
DICTIONARY
  5
1707
330
10
100
AcDbDictionary
280
     1
281
     1
  3
ADSK_XREC_LAYER_RECONCILED
360
1708
  0
DICTIONARY
  5
1709
330
1FA
100
AcDbDictionary
280
     1
281
     1
  3
ADSK_XREC_LAYER_RECONCILED
360
170A
  0
DICTIONARY
  5
170B
330
1FB
100
AcDbDictionary
280
     1
281
     1
  3
ADSK_XREC_LAYER_RECONCILED
360
170C
  0
DICTIONARY
  5
170D
330
1FC
100
AcDbDictionary
280
     1
281
     1
  3
ADSK_XREC_LAYER_RECONCILED
360
170E
  0
DICTIONARY
  5
170F
330
1FD
100
AcDbDictionary
280
     1
281
     1
  3
ADSK_XREC_LAYER_RECONCILED
360
1710
  0
DICTIONARY
  5
1711
330
1FE
100
AcDbDictionary
280
     1
281
     1
  3
ADSK_XREC_LAYER_RECONCILED
360
1712
  0
DICTIONARY
  5
1713
330
1FF
100
AcDbDictionary
280
     1
281
     1
  3
ADSK_XREC_LAYER_RECONCILED
360
1714
  0
DICTIONARY
  5
1715
330
200
100
AcDbDictionary
280
     1
281
     1
  3
ADSK_XREC_LAYER_RECONCILED
360
1716
  0
DICTIONARY
  5
1717
330
201
100
AcDbDictionary
280
     1
281
     1
  3
ADSK_XREC_LAYER_RECONCILED
360
1718
  0
DICTIONARY
  5
1719
330
202
100
AcDbDictionary
280
     1
281
     1
  3
ADSK_XREC_LAYER_RECONCILED
360
171A
  0
DICTIONARY
  5
171B
330
203
100
AcDbDictionary
280
     1
281
     1
  3
ADSK_XREC_LAYER_RECONCILED
360
171C
  0
DICTIONARY
  5
171D
330
204
100
AcDbDictionary
280
     1
281
     1
  3
ADSK_XREC_LAYER_RECONCILED
360
171E
  0
DICTIONARY
  5
171F
330
205
100
AcDbDictionary
280
     1
281
     1
  3
ADSK_XREC_LAYER_RECONCILED
360
1720
  0
DICTIONARY
  5
1721
330
206
100
AcDbDictionary
280
     1
281
     1
  3
ADSK_XREC_LAYER_RECONCILED
360
1722
  0
DICTIONARY
  5
1723
330
207
100
AcDbDictionary
280
     1
281
     1
  3
ADSK_XREC_LAYER_RECONCILED
360
1724
  0
DICTIONARY
  5
1725
330
208
100
AcDbDictionary
280
     1
281
     1
  3
ADSK_XREC_LAYER_RECONCILED
360
1726
  0
DICTIONARY
  5
1727
330
209
100
AcDbDictionary
280
     1
281
     1
  3
ADSK_XREC_LAYER_RECONCILED
360
1728
  0
DICTIONARY
  5
1729
330
20A
100
AcDbDictionary
280
     1
281
     1
  3
ADSK_XREC_LAYER_RECONCILED
360
172A
  0
DICTIONARY
  5
172B
330
20B
100
AcDbDictionary
280
     1
281
     1
  3
ADSK_XREC_LAYER_RECONCILED
360
172C
  0
DICTIONARY
  5
172D
330
20C
100
AcDbDictionary
280
     1
281
     1
  3
ADSK_XREC_LAYER_RECONCILED
360
172E
  0
DICTIONARY
  5
172F
330
20D
100
AcDbDictionary
280
     1
281
     1
  3
ADSK_XREC_LAYER_RECONCILED
360
1730
  0
DICTIONARY
  5
1731
330
20E
100
AcDbDictionary
280
     1
281
     1
  3
ADSK_XREC_LAYER_RECONCILED
360
1732
  0
DICTIONARY
  5
1733
330
20F
100
AcDbDictionary
280
     1
281
     1
  3
ADSK_XREC_LAYER_RECONCILED
360
1734
  0
DICTIONARY
  5
1735
330
210
100
AcDbDictionary
280
     1
281
     1
  3
ADSK_XREC_LAYER_RECONCILED
360
1736
  0
DICTIONARY
  5
1737
330
211
100
AcDbDictionary
280
     1
281
     1
  3
ADSK_XREC_LAYER_RECONCILED
360
1738
  0
DICTIONARY
  5
1739
330
212
100
AcDbDictionary
280
     1
281
     1
  3
ADSK_XREC_LAYER_RECONCILED
360
173A
  0
DICTIONARY
  5
173B
330
213
100
AcDbDictionary
280
     1
281
     1
  3
ADSK_XREC_LAYER_RECONCILED
360
173C
  0
DICTIONARY
  5
173D
330
214
100
AcDbDictionary
280
     1
281
     1
  3
ADSK_XREC_LAYER_RECONCILED
360
173E
  0
DICTIONARY
  5
173F
330
215
100
AcDbDictionary
280
     1
281
     1
  3
ADSK_XREC_LAYER_RECONCILED
360
1740
  0
DICTIONARY
  5
1741
330
216
100
AcDbDictionary
280
     1
281
     1
  3
ADSK_XREC_LAYER_RECONCILED
360
1742
  0
DICTIONARY
  5
1743
330
217
100
AcDbDictionary
280
     1
281
     1
  3
ADSK_XREC_LAYER_RECONCILED
360
1744
  0
DICTIONARY
  5
1745
330
218
100
AcDbDictionary
280
     1
281
     1
  3
ADSK_XREC_LAYER_RECONCILED
360
1746
  0
DICTIONARY
  5
1747
330
219
100
AcDbDictionary
280
     1
281
     1
  3
ADSK_XREC_LAYER_RECONCILED
360
1748
  0
XRECORD
  5
1704
102
{ACAD_REACTORS
330
C
102
}
330
C
100
AcDbXrecord
280
     1
300
ACDLT
300
2018
300
ACDLT_F_S
  0
DICTIONARY
  5
1698
102
{ACAD_REACTORS
330
C
102
}
330
C
100
AcDbDictionary
281
     1
  0
DICTIONARY
  5
16B1
102
{ACAD_REACTORS
330
C
102
}
330
C
100
AcDbDictionary
281
     1
  3
Imperial24
350
16B2
  0
DICTIONARY
  5
D
102
{ACAD_REACTORS
330
C
102
}
330
C
100
AcDbDictionary
281
     1
  0
DICTIONARY
  5
165F
330
C
100
AcDbDictionary
281
     1
  3
VIBE-6033-D-SPECS-INTERNES_img_1
350
1663
  0
RASTERVARIABLES
  5
1660
330
C
100
AcDbRasterVariables
 90
        0
 70
     0
 71
     1
 72
     5
  0
DICTIONARY
  5
1A
102
{ACAD_REACTORS
330
C
102
}
330
C
100
AcDbDictionary
281
     1
  3
Layout1
350
1662
  3
Model
350
1661
  0
DICTIONARY
  5
1666
102
{ACAD_REACTORS
330
C
102
}
330
C
100
AcDbDictionary
281
     1
  3
ByBlock
350
166F
  3
ByLayer
350
1667
  3
Global
350
1677
  0
DICTIONARY
  5
16AD
102
{ACAD_REACTORS
330
C
102
}
330
C
100
AcDbDictionary
281
     1
  3
Standard
350
16AE
  0
DICTIONARY
  5
17
102
{ACAD_REACTORS
330
C
102
}
330
C
100
AcDbDictionary
281
     1
  3
Standard
350
18
  0
DICTIONARY
  5
19
102
{ACAD_REACTORS
330
C
102
}
330
C
100
AcDbDictionary
281
     1
  0
ACDBDICTIONARYWDFLT
  5
E
102
{ACAD_REACTORS
330
C
102
}
330
C
100
AcDbDictionary
281
     1
  3
Normal
350
F
100
AcDbDictionaryWithDefault
340
F
  0
DICTIONARY
  5
169B
102
{ACAD_REACTORS
330
C
102
}
330
C
100
AcDbDictionary
281
     1
  3
A0
350
169C
  3
A1
350
169D
  3
A2
350
169E
  3
A3
350
169F
  3
A4
350
16A0
  3
A5
350
16A1
  3
A6
350
16A2
  3
A7
350
16A3
  3
A8
350
16A4
  3
A9
350
16A5
  3
B0
350
16A6
  3
B1
350
16A7
  3
B2
350
16A8
  3
B3
350
16A9
  3
B4
350
16AA
  3
B5
350
16AB
  3
B6
350
16AC
  0
DICTIONARY
  5
16AF
102
{ACAD_REACTORS
330
C
102
}
330
C
100
AcDbDictionary
281
     1
  3
Imperial24
350
16B0
  0
DICTIONARY
  5
1699
102
{ACAD_REACTORS
330
C
102
}
330
C
100
AcDbDictionary
281
     1
  3
Standard
350
169A
  0
DICTIONARY
  5
167F
102
{ACAD_REACTORS
330
C
102
}
330
C
100
AcDbDictionary
281
     1
  3
2dWireframe
350
1685
  3
Basic
350
1684
  3
Brighten
350
168B
  3
ColorChange
350
168F
  3
Conceptual
350
1688
  3
Dim
350
168A
  3
EdgeColorOff
350
1697
  3
Facepattern
350
168E
  3
Flat
350
1680
  3
FlatWithEdges
350
1681
  3
Gouraud
350
1682
  3
GouraudWithEdges
350
1683
  3
Hidden
350
1687
  3
JitterOff
350
1695
  3
Linepattern
350
168D
  3
OverhangOff
350
1696
  3
Realistic
350
1689
  3
Shaded
350
1694
  3
Shaded with edges
350
1693
  3
Shades of Gray
350
1690
  3
Sketchy
350
1691
  3
Thicken
350
168C
  3
Wireframe
350
1686
  3
X-Ray
350
1692
  0
XRECORD
  5
17D3
102
{ACAD_REACTORS
330
C
102
}
330
C
100
AcDbXrecord
280
     1
 90
        1
330
169A
  0
DICTIONARY
  5
16F6
102
{ACAD_REACTORS
330
C
102
}
330
C
100
AcDbDictionary
281
     1
  3
CANNOSCALE
350
16FB
  3
CMLEADERSTYLE
350
16F8
  3
CTABLESTYLE
350
16F7
  3
CVIEWDETAILSTYLE
350
16F9
  3
CVIEWSECTIONSTYLE
350
16FA
  3
DIMASSOC
350
16FE
  3
INDEXCTL
350
16FD
  3
SORTENTS
350
16FC
  3
XCLIPFRAME
350
17D1
  0
XRECORD
  5
17D4
102
{ACAD_REACTORS
330
C
102
}
330
C
100
AcDbXrecord
280
     1
  1
DWGPROPS COOKIE
  2

  3

  4

  6

  7

  8
guillaumes
  9

300
=
301
=
302
=
303
=
304
=
305
=
306
=
307
=
308
=
309
=
 40
0.0011805555555556
 41
2458459.541111111
 42
2458465.481238426
  1

 90
        0
  0
XRECORD
  5
1708
102
{ACAD_REACTORS
330
1707
102
}
330
1707
100
AcDbXrecord
280
     1
290
     1
  0
XRECORD
  5
170A
102
{ACAD_REACTORS
330
1709
102
}
330
1709
100
AcDbXrecord
280
     1
290
     1
  0
XRECORD
  5
170C
102
{ACAD_REACTORS
330
170B
102
}
330
170B
100
AcDbXrecord
280
     1
290
     1
  0
XRECORD
  5
170E
102
{ACAD_REACTORS
330
170D
102
}
330
170D
100
AcDbXrecord
280
     1
290
     1
  0
XRECORD
  5
1710
102
{ACAD_REACTORS
330
170F
102
}
330
170F
100
AcDbXrecord
280
     1
290
     1
  0
XRECORD
  5
1712
102
{ACAD_REACTORS
330
1711
102
}
330
1711
100
AcDbXrecord
280
     1
290
     1
  0
XRECORD
  5
1714
102
{ACAD_REACTORS
330
1713
102
}
330
1713
100
AcDbXrecord
280
     1
290
     1
  0
XRECORD
  5
1716
102
{ACAD_REACTORS
330
1715
102
}
330
1715
100
AcDbXrecord
280
     1
290
     1
  0
XRECORD
  5
1718
102
{ACAD_REACTORS
330
1717
102
}
330
1717
100
AcDbXrecord
280
     1
290
     1
  0
XRECORD
  5
171A
102
{ACAD_REACTORS
330
1719
102
}
330
1719
100
AcDbXrecord
280
     1
290
     1
  0
XRECORD
  5
171C
102
{ACAD_REACTORS
330
171B
102
}
330
171B
100
AcDbXrecord
280
     1
290
     1
  0
XRECORD
  5
171E
102
{ACAD_REACTORS
330
171D
102
}
330
171D
100
AcDbXrecord
280
     1
290
     1
  0
XRECORD
  5
1720
102
{ACAD_REACTORS
330
171F
102
}
330
171F
100
AcDbXrecord
280
     1
290
     1
  0
XRECORD
  5
1722
102
{ACAD_REACTORS
330
1721
102
}
330
1721
100
AcDbXrecord
280
     1
290
     1
  0
XRECORD
  5
1724
102
{ACAD_REACTORS
330
1723
102
}
330
1723
100
AcDbXrecord
280
     1
290
     1
  0
XRECORD
  5
1726
102
{ACAD_REACTORS
330
1725
102
}
330
1725
100
AcDbXrecord
280
     1
290
     1
  0
XRECORD
  5
1728
102
{ACAD_REACTORS
330
1727
102
}
330
1727
100
AcDbXrecord
280
     1
290
     1
  0
XRECORD
  5
172A
102
{ACAD_REACTORS
330
1729
102
}
330
1729
100
AcDbXrecord
280
     1
290
     1
  0
XRECORD
  5
172C
102
{ACAD_REACTORS
330
172B
102
}
330
172B
100
AcDbXrecord
280
     1
290
     1
  0
XRECORD
  5
172E
102
{ACAD_REACTORS
330
172D
102
}
330
172D
100
AcDbXrecord
280
     1
290
     1
  0
XRECORD
  5
1730
102
{ACAD_REACTORS
330
172F
102
}
330
172F
100
AcDbXrecord
280
     1
290
     1
  0
XRECORD
  5
1732
102
{ACAD_REACTORS
330
1731
102
}
330
1731
100
AcDbXrecord
280
     1
290
     1
  0
XRECORD
  5
1734
102
{ACAD_REACTORS
330
1733
102
}
330
1733
100
AcDbXrecord
280
     1
290
     1
  0
XRECORD
  5
1736
102
{ACAD_REACTORS
330
1735
102
}
330
1735
100
AcDbXrecord
280
     1
290
     1
  0
XRECORD
  5
1738
102
{ACAD_REACTORS
330
1737
102
}
330
1737
100
AcDbXrecord
280
     1
290
     1
  0
XRECORD
  5
173A
102
{ACAD_REACTORS
330
1739
102
}
330
1739
100
AcDbXrecord
280
     1
290
     1
  0
XRECORD
  5
173C
102
{ACAD_REACTORS
330
173B
102
}
330
173B
100
AcDbXrecord
280
     1
290
     1
  0
XRECORD
  5
173E
102
{ACAD_REACTORS
330
173D
102
}
330
173D
100
AcDbXrecord
280
     1
290
     1
  0
XRECORD
  5
1740
102
{ACAD_REACTORS
330
173F
102
}
330
173F
100
AcDbXrecord
280
     1
290
     1
  0
XRECORD
  5
1742
102
{ACAD_REACTORS
330
1741
102
}
330
1741
100
AcDbXrecord
280
     1
290
     1
  0
XRECORD
  5
1744
102
{ACAD_REACTORS
330
1743
102
}
330
1743
100
AcDbXrecord
280
     1
290
     1
  0
XRECORD
  5
1746
102
{ACAD_REACTORS
330
1745
102
}
330
1745
100
AcDbXrecord
280
     1
290
     1
  0
XRECORD
  5
1748
102
{ACAD_REACTORS
330
1747
102
}
330
1747
100
AcDbXrecord
280
     1
290
     1
  0
ACDBDETAILVIEWSTYLE
  5
16B2
102
{ACAD_XDICTIONARY
360
180F
102
}
102
{ACAD_REACTORS
330
16B1
102
}
330
16B1
100
AcDbModelDocViewStyle
 70
     0
  3
Imperial24
290
     0
100
AcDbDetailViewStyle
 70
     0
 71
     0
 90
        3
 71
     1
340
11
 40
0.24
340
0
 40
0.24
300

 40
0.36
280
     3
 71
     2
340
16
 90
       25
 71
     3
340
11
 40
0.24
 90
        1
 40
0.75
 90
        1
300
%<\AcVar ViewType \f "%tc1">% %<\AcVar ViewDetailId>%\PSCALE %<\AcVar ViewScale \f "%sn">%
 71
     4
340
16
 90
       25
340
16
 90
       25
280
     0
  0
IMAGEDEF
  5
1663
102
{ACAD_REACTORS
330
165F
102
}
330
165F
100
AcDbRasterImageDef
 90
        0
  1
VIBE-6033-D-SPECS-INTERNES_img_1.png
 10
6902.0
 20
5784.0
 11
0.0066666667
 21
0.0066666667
280
     1
281
     0
  0
LAYOUT
  5
1662
102
{ACAD_XDICTIONARY
360
17D7
102
}
102
{ACAD_REACTORS
330
1A
102
}
330
1A
100
AcDbPlotSettings
  1

  2
none_device
  4
ANSI_B_(17.00_x_11.00_Inches)
  6

 40
0.0
 41
0.0
 42
0.0
 43
0.0
 44
431.8
 45
279.4
 46
0.0
 47
0.0
 48
0.0
 49
0.0
140
0.0
141
0.0
142
1.0
143
1.0
 70
     0
 72
     0
 73
     0
 74
     0
  7

 75
     0
147
1.0
148
0.0
149
0.0
100
AcDbLayout
  1
Layout1
 70
     1
 71
     1
 10
0.0
 20
0.0
 11
12.0
 21
9.0
 12
0.0
 22
0.0
 32
0.0
 14
1.000000000000000E+20
 24
1.000000000000000E+20
 34
1.000000000000000E+20
 15
-1.000000000000000E+20
 25
-1.000000000000000E+20
 35
-1.000000000000000E+20
146
0.0
 13
0.0
 23
0.0
 33
0.0
 16
1.0
 26
0.0
 36
0.0
 17
0.0
 27
1.0
 37
0.0
 76
     0
330
222
  0
LAYOUT
  5
1661
102
{ACAD_XDICTIONARY
360
17D5
102
}
102
{ACAD_REACTORS
330
1A
102
}
330
1A
100
AcDbPlotSettings
  1

  2
none_device
  4
ANSI_B_(17.00_x_11.00_Inches)
  6

 40
0.0
 41
0.0
 42
0.0
 43
0.0
 44
431.8
 45
279.4
 46
0.0
 47
0.0
 48
0.0
 49
0.0
140
0.0
141
0.0
142
1.0
143
1.0
 70
  1024
 72
     0
 73
     0
 74
     0
  7

 75
     0
147
1.0
148
0.0
149
0.0
100
AcDbLayout
  1
Model
 70
     0
 71
     0
 10
0.0
 20
0.0
 11
17.0
 21
11.0
 12
0.0
 22
0.0
 32
0.0
 14
0.0
 24
0.0
 34
0.0
 15
0.0
 25
0.0
 35
0.0
146
0.0
 13
0.0
 23
0.0
 33
0.0
 16
1.0
 26
0.0
 36
0.0
 17
0.0
 27
1.0
 37
0.0
 76
     0
330
221
331
1F4
  0
MATERIAL
  5
166F
102
{ACAD_XDICTIONARY
360
1670
102
}
102
{ACAD_REACTORS
330
1666
102
}
330
1666
100
AcDbMaterial
  1
ByBlock
 72
     0
 43
0.0208333333333333
 43
0.0
 43
0.0
 43
0.0
 43
0.0
 43
0.0208333333333333
 43
0.0
 43
0.0
 43
0.0
 43
0.0
 43
1.0
 43
0.0
 43
0.0
 43
0.0
 43
0.0
 43
1.0
 77
     0
 47
0.0208333333333333
 47
0.0
 47
0.0
 47
0.0
 47
0.0
 47
0.0208333333333333
 47
0.0
 47
0.0
 47
0.0
 47
0.0
 47
1.0
 47
0.0
 47
0.0
 47
0.0
 47
0.0
 47
1.0
171
     0
 49
0.0208333333333333
 49
0.0
 49
0.0
 49
0.0
 49
0.0
 49
0.0208333333333333
 49
0.0
 49
0.0
 49
0.0
 49
0.0
 49
1.0
 49
0.0
 49
0.0
 49
0.0
 49
0.0
 49
1.0
175
     0
142
0.0208333333333333
142
0.0
142
0.0
142
0.0
142
0.0
142
0.0208333333333333
142
0.0
142
0.0
142
0.0
142
0.0
142
1.0
142
0.0
142
0.0
142
0.0
142
0.0
142
1.0
179
     0
144
0.0208333333333333
144
0.0
144
0.0
144
0.0
144
0.0
144
0.0208333333333333
144
0.0
144
0.0
144
0.0
144
0.0
144
1.0
144
0.0
144
0.0
144
0.0
144
0.0
144
1.0
147
0.0208333333333333
147
0.0
147
0.0
147
0.0
147
0.0
147
0.0208333333333333
147
0.0
147
0.0
147
0.0
147
0.0
147
1.0
147
0.0
147
0.0
147
0.0
147
0.0
147
1.0
  0
MATERIAL
  5
1667
102
{ACAD_XDICTIONARY
360
1668
102
}
102
{ACAD_REACTORS
330
1666
102
}
330
1666
100
AcDbMaterial
  1
ByLayer
 72
     0
 43
0.0208333333333333
 43
0.0
 43
0.0
 43
0.0
 43
0.0
 43
0.0208333333333333
 43
0.0
 43
0.0
 43
0.0
 43
0.0
 43
1.0
 43
0.0
 43
0.0
 43
0.0
 43
0.0
 43
1.0
 77
     0
 47
0.0208333333333333
 47
0.0
 47
0.0
 47
0.0
 47
0.0
 47
0.0208333333333333
 47
0.0
 47
0.0
 47
0.0
 47
0.0
 47
1.0
 47
0.0
 47
0.0
 47
0.0
 47
0.0
 47
1.0
171
     0
 49
0.0208333333333333
 49
0.0
 49
0.0
 49
0.0
 49
0.0
 49
0.0208333333333333
 49
0.0
 49
0.0
 49
0.0
 49
0.0
 49
1.0
 49
0.0
 49
0.0
 49
0.0
 49
0.0
 49
1.0
175
     0
142
0.0208333333333333
142
0.0
142
0.0
142
0.0
142
0.0
142
0.0208333333333333
142
0.0
142
0.0
142
0.0
142
0.0
142
1.0
142
0.0
142
0.0
142
0.0
142
0.0
142
1.0
179
     0
144
0.0208333333333333
144
0.0
144
0.0
144
0.0
144
0.0
144
0.0208333333333333
144
0.0
144
0.0
144
0.0
144
0.0
144
1.0
144
0.0
144
0.0
144
0.0
144
0.0
144
1.0
147
0.0208333333333333
147
0.0
147
0.0
147
0.0
147
0.0
147
0.0208333333333333
147
0.0
147
0.0
147
0.0
147
0.0
147
1.0
147
0.0
147
0.0
147
0.0
147
0.0
147
1.0
  0
MATERIAL
  5
1677
102
{ACAD_XDICTIONARY
360
1678
102
}
102
{ACAD_REACTORS
330
1666
102
}
330
1666
100
AcDbMaterial
  1
Global
 72
     0
 43
0.0208333333333333
 43
0.0
 43
0.0
 43
0.0
 43
0.0
 43
0.0208333333333333
 43
0.0
 43
0.0
 43
0.0
 43
0.0
 43
1.0
 43
0.0
 43
0.0
 43
0.0
 43
0.0
 43
1.0
 77
     0
 47
0.0208333333333333
 47
0.0
 47
0.0
 47
0.0
 47
0.0
 47
0.0208333333333333
 47
0.0
 47
0.0
 47
0.0
 47
0.0
 47
1.0
 47
0.0
 47
0.0
 47
0.0
 47
0.0
 47
1.0
171
     0
 49
0.0208333333333333
 49
0.0
 49
0.0
 49
0.0
 49
0.0
 49
0.0208333333333333
 49
0.0
 49
0.0
 49
0.0
 49
0.0
 49
1.0
 49
0.0
 49
0.0
 49
0.0
 49
0.0
 49
1.0
175
     0
142
0.0208333333333333
142
0.0
142
0.0
142
0.0
142
0.0
142
0.0208333333333333
142
0.0
142
0.0
142
0.0
142
0.0
142
1.0
142
0.0
142
0.0
142
0.0
142
0.0
142
1.0
179
     0
144
0.0208333333333333
144
0.0
144
0.0
144
0.0
144
0.0
144
0.0208333333333333
144
0.0
144
0.0
144
0.0
144
0.0
144
1.0
144
0.0
144
0.0
144
0.0
144
0.0
144
1.0
147
0.0208333333333333
147
0.0
147
0.0
147
0.0
147
0.0
147
0.0208333333333333
147
0.0
147
0.0
147
0.0
147
0.0
147
1.0
147
0.0
147
0.0
147
0.0
147
0.0
147
1.0
  0
MLEADERSTYLE
  5
16AE
102
{ACAD_REACTORS
330
16AD
102
}
330
16AD
100
AcDbMLeaderStyle
170
     2
171
     1
172
     0
 90
        2
 40
0.0
 41
0.0
173
     1
 91
-1056964608
340
14
 92
       -2
290
     1
 42
0.09
291
     1
 43
0.36
  3
Standard
 44
0.18
300

342
11
174
     1
178
     6
175
     1
176
     0
 93
-1056964608
 45
0.18
292
     0
297
     0
 46
0.18
 94
-1056964608
 47
1.0
 49
1.0
140
1.0
293
     1
141
0.0
294
     1
177
     0
142
1.0
295
     0
296
     0
143
0.125
1001
ACAD_MLEADERVER
1070
     2
  0
MLINESTYLE
  5
18
102
{ACAD_REACTORS
330
17
102
}
330
17
100
AcDbMlineStyle
  2
STANDARD
 70
     0
  3

 62
   256
 51
90.0
 52
90.0
 71
     2
 49
0.5
 62
   256
  6
BYLAYER
 49
-0.5
 62
   256
  6
BYLAYER
  0
ACDBPLACEHOLDER
  5
F
102
{ACAD_REACTORS
330
E
102
}
330
E
  0
SCALE
  5
169C
102
{ACAD_REACTORS
330
169B
102
}
330
169B
100
AcDbScale
 70
     0
300
1:1
140
1.0
141
1.0
290
     1
  0
SCALE
  5
169D
102
{ACAD_REACTORS
330
169B
102
}
330
169B
100
AcDbScale
 70
     0
300
1/128" = 1'-0"
140
0.0078125
141
12.0
290
     0
  0
SCALE
  5
169E
102
{ACAD_REACTORS
330
169B
102
}
330
169B
100
AcDbScale
 70
     0
300
1/64" = 1'-0"
140
0.015625
141
12.0
290
     0
  0
SCALE
  5
169F
102
{ACAD_REACTORS
330
169B
102
}
330
169B
100
AcDbScale
 70
     0
300
1/32" = 1'-0"
140
0.03125
141
12.0
290
     0
  0
SCALE
  5
16A0
102
{ACAD_REACTORS
330
169B
102
}
330
169B
100
AcDbScale
 70
     0
300
1/16" = 1'-0"
140
0.0625
141
12.0
290
     0
  0
SCALE
  5
16A1
102
{ACAD_REACTORS
330
169B
102
}
330
169B
100
AcDbScale
 70
     0
300
3/32" = 1'-0"
140
0.09375
141
12.0
290
     0
  0
SCALE
  5
16A2
102
{ACAD_REACTORS
330
169B
102
}
330
169B
100
AcDbScale
 70
     0
300
1/8" = 1'-0"
140
0.125
141
12.0
290
     0
  0
SCALE
  5
16A3
102
{ACAD_REACTORS
330
169B
102
}
330
169B
100
AcDbScale
 70
     0
300
3/16" = 1'-0"
140
0.1875
141
12.0
290
     0
  0
SCALE
  5
16A4
102
{ACAD_REACTORS
330
169B
102
}
330
169B
100
AcDbScale
 70
     0
300
1/4" = 1'-0"
140
0.25
141
12.0
290
     0
  0
SCALE
  5
16A5
102
{ACAD_REACTORS
330
169B
102
}
330
169B
100
AcDbScale
 70
     0
300
3/8" = 1'-0"
140
0.375
141
12.0
290
     0
  0
SCALE
  5
16A6
102
{ACAD_REACTORS
330
169B
102
}
330
169B
100
AcDbScale
 70
     0
300
1/2" = 1'-0"
140
0.5
141
12.0
290
     0
  0
SCALE
  5
16A7
102
{ACAD_REACTORS
330
169B
102
}
330
169B
100
AcDbScale
 70
     0
300
3/4" = 1'-0"
140
0.75
141
12.0
290
     0
  0
SCALE
  5
16A8
102
{ACAD_REACTORS
330
169B
102
}
330
169B
100
AcDbScale
 70
     0
300
1" = 1'-0"
140
1.0
141
12.0
290
     0
  0
SCALE
  5
16A9
102
{ACAD_REACTORS
330
169B
102
}
330
169B
100
AcDbScale
 70
     0
300
1-1/2" = 1'-0"
140
1.5
141
12.0
290
     0
  0
SCALE
  5
16AA
102
{ACAD_REACTORS
330
169B
102
}
330
169B
100
AcDbScale
 70
     0
300
3" = 1'-0"
140
3.0
141
12.0
290
     0
  0
SCALE
  5
16AB
102
{ACAD_REACTORS
330
169B
102
}
330
169B
100
AcDbScale
 70
     0
300
6" = 1'-0"
140
6.0
141
12.0
290
     0
  0
SCALE
  5
16AC
102
{ACAD_REACTORS
330
169B
102
}
330
169B
100
AcDbScale
 70
     0
300
1'-0" = 1'-0"
140
12.0
141
12.0
290
     0
  0
ACDBSECTIONVIEWSTYLE
  5
16B0
102
{ACAD_XDICTIONARY
360
180D
102
}
102
{ACAD_REACTORS
330
16AF
102
}
330
16AF
100
AcDbModelDocViewStyle
 70
     0
  3
Imperial24
290
     0
100
AcDbSectionViewStyle
 70
     0
 71
     0
 90
       78
 71
     1
340
11
 40
0.24
340
0
340
0
 40
0.24
300
I, O, Q, S, X, Z
 40
0.48
 90
        3
 40
0.18
 90
        1
 71
     2
340
16
 90
       25
340
16
 90
       50
 40
0.24
 40
0.0
 40
0.24
 71
     3
340
11
 40
0.24
 90
        1
 40
0.75
 90
        1
300
%<\AcVar ViewType \f "%tc1">% %<\AcVar ViewSectionStartId>%-%<\AcVar ViewSectionEndId>%\PSCALE %<\AcVar ViewScale \f "%sn">%
 71
     4
300
ANSI31
 40
1.0
 90
        0
290
     0
290
     0
 90
        6
 40
0.0
 40
1.570796326794896
 40
0.2617993877991494
 40
1.308996938995747
 40
-0.2617993877991494
 40
1.832595714594046
  0
TABLESTYLE
  5
169A
102
{ACAD_XDICTIONARY
360
16B4
102
}
102
{ACAD_REACTORS
330
1699
102
}
330
1699
100
AcDbTableStyle
  3
Standard
 70
     0
 71
     0
 40
0.06
 41
0.06
280
     0
281
     0
  7
STANDARD
140
0.18
170
     2
 62
     0
 63
     7
283
     0
274
    -2
284
     1
 64
     0
275
    -2
285
     1
 65
     0
276
    -2
286
     1
 66
     0
277
    -2
287
     1
 67
     0
278
    -2
288
     1
 68
     0
279
    -2
289
     1
 69
     0
  7
STANDARD
140
0.25
170
     5
 62
     0
 63
     7
283
     0
274
    -2
284
     1
 64
     0
275
    -2
285
     1
 65
     0
276
    -2
286
     1
 66
     0
277
    -2
287
     1
 67
     0
278
    -2
288
     1
 68
     0
279
    -2
289
     1
 69
     0
  7
STANDARD
140
0.18
170
     5
 62
     0
 63
     7
283
     0
274
    -2
284
     1
 64
     0
275
    -2
285
     1
 65
     0
276
    -2
286
     1
 66
     0
277
    -2
287
     1
 67
     0
278
    -2
288
     1
 68
     0
279
    -2
289
     1
 69
     0
  0
VISUALSTYLE
  5
1685
102
{ACAD_XDICTIONARY
360
17E6
102
}
102
{ACAD_REACTORS
330
167F
102
}
330
167F
100
AcDbVisualStyle
  2
2dWireframe
 70
     4
 71
     0
 72
     2
 73
     0
 90
        0
 40
-0.6
 41
-30.0
 62
     5
 63
     7
 74
     1
 91
        4
 64
     7
 65
   257
 75
     1
175
     1
 42
1.0
 92
        0
 66
   257
 43
1.0
 76
     1
 77
     6
 78
     2
 67
     7
 79
     5
170
     0
171
     0
290
     0
174
     0
 93
        1
 44
0.0
173
     0
291
     0
 45
0.0
1001
ACAD
1000
AcDbSavedByObjectVersion
1070
     0
  0
VISUALSTYLE
  5
1684
102
{ACAD_XDICTIONARY
360
17E4
102
}
102
{ACAD_REACTORS
330
167F
102
}
330
167F
100
AcDbVisualStyle
  2
Basic
 70
     7
 71
     1
 72
     0
 73
     1
 90
        0
 40
-0.6
 41
-30.0
 62
     5
 63
     7
 74
     0
 91
        4
 64
     7
 65
   257
 75
     1
175
     1
 42
1.0
 92
        8
 66
     7
 43
1.0
 76
     1
 77
     6
 78
     2
 67
     7
 79
     5
170
     0
171
     0
290
     0
174
     0
 93
        1
 44
0.0
173
     0
291
     1
 45
0.0
1001
ACAD
1000
AcDbSavedByObjectVersion
1070
     0
  0
VISUALSTYLE
  5
168B
102
{ACAD_XDICTIONARY
360
17F2
102
}
102
{ACAD_REACTORS
330
167F
102
}
330
167F
100
AcDbVisualStyle
  2
Brighten
 70
    12
 71
     2
 72
     2
 73
     0
 90
        0
 40
-0.6
 41
-30.0
 62
     5
 63
     7
 74
     1
 91
        4
 64
     7
 65
   257
 75
     1
175
     1
 42
1.0
 92
        8
 66
     7
 43
1.0
 76
     1
 77
     6
 78
     2
 67
     7
 79
     5
170
     0
171
     0
290
     0
174
     0
 93
        1
 44
50.0
173
     0
291
     1
 45
0.0
1001
ACAD
1000
AcDbSavedByObjectVersion
1070
     0
  0
VISUALSTYLE
  5
168F
102
{ACAD_XDICTIONARY
360
17FA
102
}
102
{ACAD_REACTORS
330
167F
102
}
330
167F
100
AcDbVisualStyle
  2
ColorChange
 70
    16
 71
     2
 72
     2
 73
     3
 90
        0
 40
-0.6
 41
-30.0
 62
     5
 63
     8
 74
     1
 91
        4
 64
     7
 65
   257
 75
     1
175
     1
 42
1.0
 92
        8
 66
     8
 43
1.0
 76
     1
 77
     6
 78
     2
 67
     7
 79
     5
170
     0
171
     0
290
     0
174
     0
 93
        1
 44
0.0
173
     0
291
     1
 45
0.0
1001
ACAD
1000
AcDbSavedByObjectVersion
1070
     0
  0
VISUALSTYLE
  5
1688
102
{ACAD_XDICTIONARY
360
17EC
102
}
102
{ACAD_REACTORS
330
167F
102
}
330
167F
100
AcDbVisualStyle
  2
Conceptual
 70
     9
 71
     3
 72
     2
 73
     0
 90
        0
 40
-0.6
 41
-30.0
 62
     5
 63
     7
 74
     2
 91
        2
 64
     7
 65
   257
 75
     1
175
     1
 42
179.0
 92
        8
 66
     7
 43
1.0
 76
     1
 77
     6
 78
     2
 67
     7
 79
     3
170
     0
171
     0
290
     0
174
     0
 93
        1
 44
0.0
173
     0
291
     0
 45
0.0
1001
ACAD
1000
AcDbSavedByObjectVersion
1070
     0
  0
VISUALSTYLE
  5
168A
102
{ACAD_XDICTIONARY
360
17F0
102
}
102
{ACAD_REACTORS
330
167F
102
}
330
167F
100
AcDbVisualStyle
  2
Dim
 70
    11
 71
     2
 72
     2
 73
     0
 90
        0
 40
-0.6
 41
-30.0
 62
     5
 63
     7
 74
     1
 91
        4
 64
     7
 65
   257
 75
     1
175
     1
 42
1.0
 92
        8
 66
     7
 43
1.0
 76
     1
 77
     6
 78
     2
 67
     7
 79
     5
170
     0
171
     0
290
     0
174
     0
 93
        1
 44
-50.0
173
     0
291
     1
 45
0.0
1001
ACAD
1000
AcDbSavedByObjectVersion
1070
     0
  0
VISUALSTYLE
  5
1697
102
{ACAD_XDICTIONARY
360
180A
102
}
102
{ACAD_REACTORS
330
167F
102
}
330
167F
100
AcDbVisualStyle
  2
EdgeColorOff
 70
    22
 71
     2
 72
     2
 73
     0
 90
        0
 40
-0.6
 41
-30.0
 62
     5
 63
     7
 74
     1
 91
        4
 64
     7
 65
   257
 75
     1
175
     1
 42
1.0
 92
        8
 66
     7
 43
1.0
 76
     1
 77
     6
 78
     2
 67
     7
 79
     5
170
     0
171
     0
290
     0
174
     0
 93
        1
 44
0.0
173
     0
291
     1
 45
0.0
1001
ACAD
1000
AcDbSavedByObjectVersion
1070
     0
  0
VISUALSTYLE
  5
168E
102
{ACAD_XDICTIONARY
360
17F8
102
}
102
{ACAD_REACTORS
330
167F
102
}
330
167F
100
AcDbVisualStyle
  2
Facepattern
 70
    15
 71
     2
 72
     2
 73
     0
 90
        0
 40
-0.6
 41
-30.0
 62
     5
 63
     7
 74
     1
 91
        4
 64
     7
 65
   257
 75
     1
175
     1
 42
1.0
 92
        8
 66
     7
 43
1.0
 76
     1
 77
     6
 78
     2
 67
     7
 79
     5
170
     0
171
     0
290
     0
174
     0
 93
        1
 44
0.0
173
     0
291
     1
 45
0.0
1001
ACAD
1000
AcDbSavedByObjectVersion
1070
     0
  0
VISUALSTYLE
  5
1680
102
{ACAD_XDICTIONARY
360
17DC
102
}
102
{ACAD_REACTORS
330
167F
102
}
330
167F
100
AcDbVisualStyle
  2
Flat
 70
     0
 71
     2
 72
     1
 73
     1
 90
        2
 40
-0.6
 41
30.0
 62
     5
 63
     7
 74
     0
 91
        0
 64
     7
 65
   257
 75
     1
175
     1
 42
1.0
 92
        8
 66
     7
 43
1.0
 76
     1
 77
     6
 78
     2
 67
     7
 79
     5
170
     0
171
     0
290
     0
174
     0
 93
       13
 44
0.0
173
     0
291
     1
 45
0.0
1001
ACAD
1000
AcDbSavedByObjectVersion
1070
     0
  0
VISUALSTYLE
  5
1681
102
{ACAD_XDICTIONARY
360
17DE
102
}
102
{ACAD_REACTORS
330
167F
102
}
330
167F
100
AcDbVisualStyle
  2
FlatWithEdges
 70
     1
 71
     2
 72
     1
 73
     1
 90
        2
 40
-0.6
 41
30.0
 62
     5
 63
     7
 74
     1
 91
        0
 64
     7
 65
   257
 75
     1
175
     1
 42
1.0
 92
        0
 66
   257
 43
1.0
 76
     1
 77
     6
 78
     2
 67
     7
 79
     5
170
     0
171
     0
290
     0
174
     0
 93
       13
 44
0.0
173
     0
291
     1
 45
0.0
1001
ACAD
1000
AcDbSavedByObjectVersion
1070
     0
  0
VISUALSTYLE
  5
1682
102
{ACAD_XDICTIONARY
360
17E0
102
}
102
{ACAD_REACTORS
330
167F
102
}
330
167F
100
AcDbVisualStyle
  2
Gouraud
 70
     2
 71
     2
 72
     2
 73
     1
 90
        2
 40
-0.6
 41
30.0
 62
     5
 63
     7
 74
     0
 91
        0
 64
     7
 65
   257
 75
     1
175
     1
 42
1.0
 92
        0
 66
     7
 43
1.0
 76
     1
 77
     6
 78
     2
 67
     7
 79
     5
170
     0
171
     0
290
     0
174
     0
 93
       13
 44
0.0
173
     0
291
     1
 45
0.0
1001
ACAD
1000
AcDbSavedByObjectVersion
1070
     0
  0
VISUALSTYLE
  5
1683
102
{ACAD_XDICTIONARY
360
17E2
102
}
102
{ACAD_REACTORS
330
167F
102
}
330
167F
100
AcDbVisualStyle
  2
GouraudWithEdges
 70
     3
 71
     2
 72
     2
 73
     1
 90
        2
 40
-0.6
 41
30.0
 62
     5
 63
     7
 74
     1
 91
        0
 64
     7
 65
   257
 75
     1
175
     1
 42
1.0
 92
        0
 66
   257
 43
1.0
 76
     1
 77
     6
 78
     2
 67
     7
 79
     5
170
     0
171
     0
290
     0
174
     0
 93
       13
 44
0.0
173
     0
291
     1
 45
0.0
1001
ACAD
1000
AcDbSavedByObjectVersion
1070
     0
  0
VISUALSTYLE
  5
1687
102
{ACAD_XDICTIONARY
360
17EA
102
}
102
{ACAD_REACTORS
330
167F
102
}
330
167F
100
AcDbVisualStyle
  2
Hidden
 70
     6
 71
     1
 72
     2
 73
     2
 90
        0
 40
-0.6
 41
-30.0
 62
     5
 63
     7
 74
     2
 91
        2
 64
     7
 65
   257
 75
     2
175
     1
 42
40.0
 92
        0
 66
   257
 43
1.0
 76
     1
 77
     6
 78
     2
 67
     7
 79
     3
170
     0
171
     0
290
     0
174
     0
 93
        1
 44
0.0
173
     0
291
     0
 45
0.0
1001
ACAD
1000
AcDbSavedByObjectVersion
1070
     0
  0
VISUALSTYLE
  5
1695
102
{ACAD_XDICTIONARY
360
1806
102
}
102
{ACAD_REACTORS
330
167F
102
}
330
167F
100
AcDbVisualStyle
  2
JitterOff
 70
    20
 71
     2
 72
     2
 73
     0
 90
        0
 40
-0.6
 41
-30.0
 62
     5
 63
     7
 74
     1
 91
        4
 64
     7
 65
   257
 75
     1
175
     1
 42
1.0
 92
       10
 66
     7
 43
1.0
 76
     1
 77
     6
 78
     2
 67
     7
 79
     5
170
     0
171
     0
290
     0
174
     0
 93
        1
 44
0.0
173
     0
291
     1
 45
0.0
1001
ACAD
1000
AcDbSavedByObjectVersion
1070
     0
  0
VISUALSTYLE
  5
168D
102
{ACAD_XDICTIONARY
360
17F6
102
}
102
{ACAD_REACTORS
330
167F
102
}
330
167F
100
AcDbVisualStyle
  2
Linepattern
 70
    14
 71
     2
 72
     2
 73
     0
 90
        0
 40
-0.6
 41
-30.0
 62
     5
 63
     7
 74
     1
 91
        4
 64
     7
 65
   257
 75
     7
175
     7
 42
1.0
 92
        8
 66
     7
 43
1.0
 76
     1
 77
     6
 78
     2
 67
     7
 79
     5
170
     0
171
     0
290
     0
174
     0
 93
        1
 44
0.0
173
     0
291
     1
 45
0.0
1001
ACAD
1000
AcDbSavedByObjectVersion
1070
     0
  0
VISUALSTYLE
  5
1696
102
{ACAD_XDICTIONARY
360
1808
102
}
102
{ACAD_REACTORS
330
167F
102
}
330
167F
100
AcDbVisualStyle
  2
OverhangOff
 70
    21
 71
     2
 72
     2
 73
     0
 90
        0
 40
-0.6
 41
-30.0
 62
     5
 63
     7
 74
     1
 91
        4
 64
     7
 65
   257
 75
     1
175
     1
 42
1.0
 92
        9
 66
     7
 43
1.0
 76
     1
 77
     6
 78
     2
 67
     7
 79
     5
170
     0
171
     0
290
     0
174
     0
 93
        1
 44
0.0
173
     0
291
     1
 45
0.0
1001
ACAD
1000
AcDbSavedByObjectVersion
1070
     0
  0
VISUALSTYLE
  5
1689
102
{ACAD_XDICTIONARY
360
17EE
102
}
102
{ACAD_REACTORS
330
167F
102
}
330
167F
100
AcDbVisualStyle
  2
Realistic
 70
     8
 71
     2
 72
     2
 73
     0
 90
        2
 40
-0.6
 41
30.0
 62
     5
 63
     7
 74
     0
 91
        0
 64
     7
 65
   257
 75
     1
175
     1
 42
1.0
 92
        8
 66
   257
 43
1.0
 76
     1
 77
     6
 78
     2
 67
     7
 79
     3
170
     0
171
     0
290
     0
174
     0
 93
       13
 44
0.0
173
     0
291
     0
 45
0.0
1001
ACAD
1000
AcDbSavedByObjectVersion
1070
     0
  0
VISUALSTYLE
  5
1694
102
{ACAD_XDICTIONARY
360
1804
102
}
102
{ACAD_REACTORS
330
167F
102
}
330
167F
100
AcDbVisualStyle
  2
Shaded
 70
    27
 71
     2
 72
     2
 73
     1
 90
        2
 40
-0.6
 41
30.0
 62
     5
 63
     7
 74
     0
 91
        4
 64
     7
 65
   257
 75
     1
175
     1
 42
1.0
 92
        8
 66
   257
 43
1.0
 76
     1
 77
     6
 78
     2
 67
     8
 79
     3
170
     0
171
     0
290
     0
174
     0
 93
        5
 44
0.0
173
     0
291
     0
 45
0.0
1001
ACAD
1000
AcDbSavedByObjectVersion
1070
     0
  0
VISUALSTYLE
  5
1693
102
{ACAD_XDICTIONARY
360
1802
102
}
102
{ACAD_REACTORS
330
167F
102
}
330
167F
100
AcDbVisualStyle
  2
Shaded with edges
 70
    26
 71
     2
 72
     2
 73
     1
 90
        2
 40
-0.6
 41
30.0
 62
     5
 63
     7
 74
     1
 91
        2
 64
     7
 65
   257
 75
     2
175
     1
 42
1.0
 92
        8
 66
   257
 43
1.0
 76
     1
 77
     6
 78
     2
 67
     7
 79
     3
170
     0
171
     0
290
     0
174
     0
 93
        5
 44
0.0
173
     0
291
     0
 45
0.0
1001
ACAD
1000
AcDbSavedByObjectVersion
1070
     0
  0
VISUALSTYLE
  5
1690
102
{ACAD_XDICTIONARY
360
17FC
102
}
102
{ACAD_REACTORS
330
167F
102
}
330
167F
100
AcDbVisualStyle
  2
Shades of Gray
 70
    23
 71
     2
 72
     2
 73
     3
 90
        0
 40
-0.6
 41
-30.0
 62
     5
 63
     7
 74
     2
 91
        2
 64
     7
 65
     7
 75
     1
175
     1
 42
40.0
 92
        8
 66
     7
 43
1.0
 76
     1
 77
     6
 78
     2
 67
     7
 79
     3
170
     0
171
     0
290
     0
174
     0
 93
        1
 44
0.0
173
     0
291
     0
 45
0.0
1001
ACAD
1000
AcDbSavedByObjectVersion
1070
     0
  0
VISUALSTYLE
  5
1691
102
{ACAD_XDICTIONARY
360
17FE
102
}
102
{ACAD_REACTORS
330
167F
102
}
330
167F
100
AcDbVisualStyle
  2
Sketchy
 70
    24
 71
     1
 72
     2
 73
     2
 90
        0
 40
-0.6
 41
-30.0
 62
     5
 63
     7
 74
     2
 91
        2
 64
     7
 65
     7
 75
     1
175
     1
 42
40.0
 92
       11
 66
     7
 43
1.0
 76
     1
 77
     6
 78
     2
 67
     7
 79
     6
170
     0
171
     0
290
     0
174
     0
 93
        1
 44
0.0
173
     0
291
     0
 45
0.0
1001
ACAD
1000
AcDbSavedByObjectVersion
1070
     0
  0
VISUALSTYLE
  5
168C
102
{ACAD_XDICTIONARY
360
17F4
102
}
102
{ACAD_REACTORS
330
167F
102
}
330
167F
100
AcDbVisualStyle
  2
Thicken
 70
    13
 71
     2
 72
     2
 73
     0
 90
        0
 40
-0.6
 41
-30.0
 62
     5
 63
     7
 74
     1
 91
        4
 64
     7
 65
   257
 75
     1
175
     1
 42
1.0
 92
       12
 66
     7
 43
1.0
 76
     1
 77
     6
 78
     2
 67
     7
 79
     5
170
     0
171
     0
290
     0
174
     0
 93
        1
 44
0.0
173
     0
291
     1
 45
0.0
1001
ACAD
1000
AcDbSavedByObjectVersion
1070
     0
  0
VISUALSTYLE
  5
1686
102
{ACAD_XDICTIONARY
360
17E8
102
}
102
{ACAD_REACTORS
330
167F
102
}
330
167F
100
AcDbVisualStyle
  2
Wireframe
 70
     5
 71
     0
 72
     2
 73
     0
 90
        0
 40
-0.6
 41
-30.0
 62
     5
 63
     7
 74
     1
 91
        4
 64
     7
 65
   257
 75
     1
175
     1
 42
1.0
 92
        0
 66
   257
 43
1.0
 76
     1
 77
     6
 78
     2
 67
     7
 79
     3
170
     0
171
     0
290
     0
174
     0
 93
        1
 44
0.0
173
     0
291
     0
 45
0.0
1001
ACAD
1000
AcDbSavedByObjectVersion
1070
     0
  0
VISUALSTYLE
  5
1692
102
{ACAD_XDICTIONARY
360
1800
102
}
102
{ACAD_REACTORS
330
167F
102
}
330
167F
100
AcDbVisualStyle
  2
X-Ray
 70
    25
 71
     2
 72
     2
 73
     1
 90
        1
 40
0.5
 41
-30.0
 62
     5
 63
     7
 74
     1
 91
        0
 64
     7
 65
   257
 75
     1
175
     1
 42
1.0
 92
        8
 66
     7
 43
1.0
 76
     1
 77
     6
 78
     2
 67
     7
 79
     3
170
     0
171
     0
290
     0
174
     0
 93
       13
 44
0.0
173
     0
291
     0
 45
0.0
1001
ACAD
1000
AcDbSavedByObjectVersion
1070
     0
  0
DICTIONARYVAR
  5
16FB
102
{ACAD_REACTORS
330
16F6
102
}
330
16F6
100
DictionaryVariables
280
     0
  1
1:1
  0
DICTIONARYVAR
  5
16F8
102
{ACAD_REACTORS
330
16F6
102
}
330
16F6
100
DictionaryVariables
280
     0
  1
STANDARD
  0
DICTIONARYVAR
  5
16F7
102
{ACAD_REACTORS
330
16F6
102
}
330
16F6
100
DictionaryVariables
280
     0
  1
STANDARD
  0
DICTIONARYVAR
  5
16F9
102
{ACAD_REACTORS
330
16F6
102
}
330
16F6
100
DictionaryVariables
280
     0
  1
Imperial24
  0
DICTIONARYVAR
  5
16FA
102
{ACAD_REACTORS
330
16F6
102
}
330
16F6
100
DictionaryVariables
280
     0
  1
Imperial24
  0
DICTIONARYVAR
  5
16FE
102
{ACAD_REACTORS
330
16F6
102
}
330
16F6
100
DictionaryVariables
280
     0
  1
1
  0
DICTIONARYVAR
  5
16FD
102
{ACAD_REACTORS
330
16F6
102
}
330
16F6
100
DictionaryVariables
280
     0
  1
0
  0
DICTIONARYVAR
  5
16FC
102
{ACAD_REACTORS
330
16F6
102
}
330
16F6
100
DictionaryVariables
280
     0
  1
127
  0
DICTIONARYVAR
  5
17D1
102
{ACAD_REACTORS
330
16F6
102
}
330
16F6
100
DictionaryVariables
280
     0
  1
2
  0
DICTIONARY
  5
180F
330
16B2
100
AcDbDictionary
280
     1
281
     1
  3
ACAD_XREC_ROUNDTRIP
360
1810
  0
DICTIONARY
  5
17D7
330
1662
100
AcDbDictionary
280
     1
281
     1
  3
ACAD_XREC_ROUNDTRIP
360
17D8
  0
DICTIONARY
  5
17D5
330
1661
100
AcDbDictionary
280
     1
281
     1
  3
ACAD_XREC_ROUNDTRIP
360
17D6
  0
DICTIONARY
  5
1670
330
166F
100
AcDbDictionary
280
     1
281
     1
  3
ACAD_XREC_ROUNDTRIP
360
17DA
  3
BUMPTILE
360
1672
  3
DIFFUSETILE
360
1671
  3
OPACITYTILE
360
1675
  3
REFLECTIONTILE
360
1674
  3
REFRACTIONTILE
360
1676
  3
SPECULARTILE
360
1673
  0
DICTIONARY
  5
1668
330
1667
100
AcDbDictionary
280
     1
281
     1
  3
ACAD_XREC_ROUNDTRIP
360
17D9
  3
BUMPTILE
360
166A
  3
DIFFUSETILE
360
1669
  3
OPACITYTILE
360
166D
  3
REFLECTIONTILE
360
166C
  3
REFRACTIONTILE
360
166E
  3
SPECULARTILE
360
166B
  0
DICTIONARY
  5
1678
330
1677
100
AcDbDictionary
280
     1
281
     1
  3
ACAD_XREC_ROUNDTRIP
360
17DB
  3
BUMPTILE
360
167A
  3
DIFFUSETILE
360
1679
  3
OPACITYTILE
360
167D
  3
REFLECTIONTILE
360
167C
  3
REFRACTIONTILE
360
167E
  3
SPECULARTILE
360
167B
  0
DICTIONARY
  5
180D
330
16B0
100
AcDbDictionary
280
     1
281
     1
  3
ACAD_XREC_ROUNDTRIP
360
180E
  0
DICTIONARY
  5
16B4
330
169A
100
AcDbDictionary
280
     1
281
     1
  3
ACAD_ROUNDTRIP_2008_TABLESTYLE_CELLSTYLEMAP
360
17D2
  3
ACAD_XREC_ROUNDTRIP
360
180C
  0
DICTIONARY
  5
17E6
330
1685
100
AcDbDictionary
280
     1
281
     1
  3
ACAD_XREC_ROUNDTRIP
360
17E7
  0
DICTIONARY
  5
17E4
330
1684
100
AcDbDictionary
280
     1
281
     1
  3
ACAD_XREC_ROUNDTRIP
360
17E5
  0
DICTIONARY
  5
17F2
330
168B
100
AcDbDictionary
280
     1
281
     1
  3
ACAD_XREC_ROUNDTRIP
360
17F3
  0
DICTIONARY
  5
17FA
330
168F
100
AcDbDictionary
280
     1
281
     1
  3
ACAD_XREC_ROUNDTRIP
360
17FB
  0
DICTIONARY
  5
17EC
330
1688
100
AcDbDictionary
280
     1
281
     1
  3
ACAD_XREC_ROUNDTRIP
360
17ED
  0
DICTIONARY
  5
17F0
330
168A
100
AcDbDictionary
280
     1
281
     1
  3
ACAD_XREC_ROUNDTRIP
360
17F1
  0
DICTIONARY
  5
180A
330
1697
100
AcDbDictionary
280
     1
281
     1
  3
ACAD_XREC_ROUNDTRIP
360
180B
  0
DICTIONARY
  5
17F8
330
168E
100
AcDbDictionary
280
     1
281
     1
  3
ACAD_XREC_ROUNDTRIP
360
17F9
  0
DICTIONARY
  5
17DC
330
1680
100
AcDbDictionary
280
     1
281
     1
  3
ACAD_XREC_ROUNDTRIP
360
17DD
  0
DICTIONARY
  5
17DE
330
1681
100
AcDbDictionary
280
     1
281
     1
  3
ACAD_XREC_ROUNDTRIP
360
17DF
  0
DICTIONARY
  5
17E0
330
1682
100
AcDbDictionary
280
     1
281
     1
  3
ACAD_XREC_ROUNDTRIP
360
17E1
  0
DICTIONARY
  5
17E2
330
1683
100
AcDbDictionary
280
     1
281
     1
  3
ACAD_XREC_ROUNDTRIP
360
17E3
  0
DICTIONARY
  5
17EA
330
1687
100
AcDbDictionary
280
     1
281
     1
  3
ACAD_XREC_ROUNDTRIP
360
17EB
  0
DICTIONARY
  5
1806
330
1695
100
AcDbDictionary
280
     1
281
     1
  3
ACAD_XREC_ROUNDTRIP
360
1807
  0
DICTIONARY
  5
17F6
330
168D
100
AcDbDictionary
280
     1
281
     1
  3
ACAD_XREC_ROUNDTRIP
360
17F7
  0
DICTIONARY
  5
1808
330
1696
100
AcDbDictionary
280
     1
281
     1
  3
ACAD_XREC_ROUNDTRIP
360
1809
  0
DICTIONARY
  5
17EE
330
1689
100
AcDbDictionary
280
     1
281
     1
  3
ACAD_XREC_ROUNDTRIP
360
17EF
  0
DICTIONARY
  5
1804
330
1694
100
AcDbDictionary
280
     1
281
     1
  3
ACAD_XREC_ROUNDTRIP
360
1805
  0
DICTIONARY
  5
1802
330
1693
100
AcDbDictionary
280
     1
281
     1
  3
ACAD_XREC_ROUNDTRIP
360
1803
  0
DICTIONARY
  5
17FC
330
1690
100
AcDbDictionary
280
     1
281
     1
  3
ACAD_XREC_ROUNDTRIP
360
17FD
  0
DICTIONARY
  5
17FE
330
1691
100
AcDbDictionary
280
     1
281
     1
  3
ACAD_XREC_ROUNDTRIP
360
17FF
  0
DICTIONARY
  5
17F4
330
168C
100
AcDbDictionary
280
     1
281
     1
  3
ACAD_XREC_ROUNDTRIP
360
17F5
  0
DICTIONARY
  5
17E8
330
1686
100
AcDbDictionary
280
     1
281
     1
  3
ACAD_XREC_ROUNDTRIP
360
17E9
  0
DICTIONARY
  5
1800
330
1692
100
AcDbDictionary
280
     1
281
     1
  3
ACAD_XREC_ROUNDTRIP
360
1801
  0
XRECORD
  5
1810
102
{ACAD_REACTORS
330
180F
102
}
330
180F
100
AcDbXrecord
280
     1
102
DISPLAYNAME
  1
Imperial24
102
FLAGS
 90
        0
  0
XRECORD
  5
17D8
102
{ACAD_REACTORS
330
17D7
102
}
330
17D7
100
AcDbXrecord
280
     1
102
SHADEPLOT
 70
     0
102
SHADEPLOTRESLEVEL
 70
     2
102
SHADEPLOTCUSTOMDPI
 70
   300
  0
XRECORD
  5
17D6
102
{ACAD_REACTORS
330
17D5
102
}
330
17D5
100
AcDbXrecord
280
     1
102
SHADEPLOT
 70
     0
102
SHADEPLOTRESLEVEL
 70
     2
102
SHADEPLOTCUSTOMDPI
 70
   300
  0
XRECORD
  5
17DA
102
{ACAD_REACTORS
330
1670
102
}
330
1670
100
AcDbXrecord
280
     1
102
MATERIAL
148
0.0
149
0.0
149
0.0
 93
        0
 94
      127
282
     0
 72
     0
 77
     0
171
     0
175
     0
179
     0
273
     0
  0
XRECORD
  5
1672
102
{ACAD_REACTORS
330
1670
102
}
330
1670
100
AcDbXrecord
280
     1
270
     1
271
     1
  0
XRECORD
  5
1671
102
{ACAD_REACTORS
330
1670
102
}
330
1670
100
AcDbXrecord
280
     1
270
     1
271
     1
  0
XRECORD
  5
1675
102
{ACAD_REACTORS
330
1670
102
}
330
1670
100
AcDbXrecord
280
     1
270
     1
271
     1
  0
XRECORD
  5
1674
102
{ACAD_REACTORS
330
1670
102
}
330
1670
100
AcDbXrecord
280
     1
270
     1
271
     1
  0
XRECORD
  5
1676
102
{ACAD_REACTORS
330
1670
102
}
330
1670
100
AcDbXrecord
280
     1
270
     1
271
     1
  0
XRECORD
  5
1673
102
{ACAD_REACTORS
330
1670
102
}
330
1670
100
AcDbXrecord
280
     1
270
     1
271
     1
  0
XRECORD
  5
17D9
102
{ACAD_REACTORS
330
1668
102
}
330
1668
100
AcDbXrecord
280
     1
102
MATERIAL
148
0.0
149
0.0
149
0.0
 93
        0
 94
      127
282
     0
 72
     0
 77
     0
171
     0
175
     0
179
     0
273
     0
  0
XRECORD
  5
166A
102
{ACAD_REACTORS
330
1668
102
}
330
1668
100
AcDbXrecord
280
     1
270
     1
271
     1
  0
XRECORD
  5
1669
102
{ACAD_REACTORS
330
1668
102
}
330
1668
100
AcDbXrecord
280
     1
270
     1
271
     1
  0
XRECORD
  5
166D
102
{ACAD_REACTORS
330
1668
102
}
330
1668
100
AcDbXrecord
280
     1
270
     1
271
     1
  0
XRECORD
  5
166C
102
{ACAD_REACTORS
330
1668
102
}
330
1668
100
AcDbXrecord
280
     1
270
     1
271
     1
  0
XRECORD
  5
166E
102
{ACAD_REACTORS
330
1668
102
}
330
1668
100
AcDbXrecord
280
     1
270
     1
271
     1
  0
XRECORD
  5
166B
102
{ACAD_REACTORS
330
1668
102
}
330
1668
100
AcDbXrecord
280
     1
270
     1
271
     1
  0
XRECORD
  5
17DB
102
{ACAD_REACTORS
330
1678
102
}
330
1678
100
AcDbXrecord
280
     1
102
MATERIAL
148
0.0
149
0.0
149
0.0
 93
        0
 94
      127
282
     0
 72
     0
 77
     0
171
     0
175
     0
179
     0
273
     0
  0
XRECORD
  5
167A
102
{ACAD_REACTORS
330
1678
102
}
330
1678
100
AcDbXrecord
280
     1
270
     1
271
     1
  0
XRECORD
  5
1679
102
{ACAD_REACTORS
330
1678
102
}
330
1678
100
AcDbXrecord
280
     1
270
     1
271
     1
  0
XRECORD
  5
167D
102
{ACAD_REACTORS
330
1678
102
}
330
1678
100
AcDbXrecord
280
     1
270
     1
271
     1
  0
XRECORD
  5
167C
102
{ACAD_REACTORS
330
1678
102
}
330
1678
100
AcDbXrecord
280
     1
270
     1
271
     1
  0
XRECORD
  5
167E
102
{ACAD_REACTORS
330
1678
102
}
330
1678
100
AcDbXrecord
280
     1
270
     1
271
     1
  0
XRECORD
  5
167B
102
{ACAD_REACTORS
330
1678
102
}
330
1678
100
AcDbXrecord
280
     1
270
     1
271
     1
  0
XRECORD
  5
180E
102
{ACAD_REACTORS
330
180D
102
}
330
180D
100
AcDbXrecord
280
     1
102
DISPLAYNAME
  1
Imperial24
102
FLAGS
 90
        0
  0
CELLSTYLEMAP
  5
17D2
102
{ACAD_REACTORS
330
16B4
102
}
330
16B4
100
AcDbCellStyleMap
 90
        3
300
CELLSTYLE
  1
TABLEFORMAT_BEGIN
 90
        5
170
     1
 91
        0
 92
    32768
 62
   257
 93
        1
300
CONTENTFORMAT
  1
CONTENTFORMAT_BEGIN
 90
        0
 91
        0
 92
      512
 93
        0
300

 40
0.0
140
1.0
 94
        5
 62
     0
340
11
144
0.25
309
CONTENTFORMAT_END
171
     0
 94
        0
309
TABLEFORMAT_END
  1
CELLSTYLE_BEGIN
 90
        1
 91
        1
300
_TITLE
309
CELLSTYLE_END
300
CELLSTYLE
  1
TABLEFORMAT_BEGIN
 90
        5
170
     1
 91
        0
 92
        0
 62
   257
 93
        1
300
CONTENTFORMAT
  1
CONTENTFORMAT_BEGIN
 90
        0
 91
        0
 92
      512
 93
        0
300

 40
0.0
140
1.0
 94
        5
 62
     0
340
11
144
0.18
309
CONTENTFORMAT_END
171
     0
 94
        0
309
TABLEFORMAT_END
  1
CELLSTYLE_BEGIN
 90
        2
 91
        1
300
_HEADER
309
CELLSTYLE_END
300
CELLSTYLE
  1
TABLEFORMAT_BEGIN
 90
        5
170
     1
 91
        0
 92
        0
 62
   257
 93
        1
300
CONTENTFORMAT
  1
CONTENTFORMAT_BEGIN
 90
        0
 91
        0
 92
      512
 93
        0
300

 40
0.0
140
1.0
 94
        2
 62
     0
340
11
144
0.18
309
CONTENTFORMAT_END
171
     0
 94
        0
309
TABLEFORMAT_END
  1
CELLSTYLE_BEGIN
 90
        3
 91
        2
300
_DATA
309
CELLSTYLE_END
  0
XRECORD
  5
180C
102
{ACAD_REACTORS
330
16B4
102
}
330
16B4
100
AcDbXrecord
280
     1
102
ACAD_ROUNDTRIP_PRE2007_TABLESTYLE
 90
      512
 91
        0
  1

 92
      512
 93
        0
  2

 94
      512
 95
        0
  3

  0
XRECORD
  5
17E7
102
{ACAD_REACTORS
330
17E6
102
}
330
17E6
100
AcDbXrecord
280
     1
102
RTVSPost2010Prop28
280
     1
102
RTVSPost2010PropOp28
 70
     1
102
RTVSPost2010Prop29
280
     1
102
RTVSPost2010PropOp29
 70
     1
102
RTVSPost2010Prop30
280
     0
102
RTVSPost2010PropOp30
 70
     1
102
RTVSPost2010Prop31
280
     0
102
RTVSPost2010PropOp31
 70
     1
102
RTVSPost2010Prop32
280
     0
102
RTVSPost2010PropOp32
 70
     1
102
RTVSPost2010Prop33
280
     0
102
RTVSPost2010PropOp33
 70
     1
102
RTVSPost2010Prop34
280
     0
102
RTVSPost2010PropOp34
 70
     1
102
RTVSPost2010Prop35
280
     0
102
RTVSPost2010PropOp35
 70
     1
102
RTVSPost2010Prop36
280
     0
102
RTVSPost2010PropOp36
 70
     1
102
RTVSPost2010Prop37
 90
       50
102
RTVSPost2010PropOp37
 70
     1
102
RTVSPost2010Prop38
140
0.0
102
RTVSPost2010PropOp38
 70
     1
102
RTVSPost2010Prop39
140
1.0
102
RTVSPost2010PropOp39
 70
     1
102
RTVSPost2010Prop40
 90
        0
102
RTVSPost2010PropOp40
 70
     1
102
RTVSPost2010Prop41ColorIndex
 90
       18
102
RTVSPost2010Prop41ColorRGB
 90
        0
102
RTVSPost2010PropOp41
 70
     1
102
RTVSPost2010Prop42
 90
       50
102
RTVSPost2010PropOp42
 70
     1
102
RTVSPost2010Prop43
 90
        3
102
RTVSPost2010PropOp43
 70
     1
102
RTVSPost2010Prop44ColorIndex
 90
        5
102
RTVSPost2010Prop44ColorRGB
 90
      255
102
RTVSPost2010PropOp44
 70
     1
102
RTVSPost2010Prop45
280
     0
102
RTVSPost2010PropOp45
 70
     1
102
RTVSPost2010Prop46
 90
       50
102
RTVSPost2010PropOp46
 70
     1
102
RTVSPost2010Prop47
 90
       50
102
RTVSPost2010PropOp47
 70
     1
102
RTVSPost2010Prop48
 90
       50
102
RTVSPost2010PropOp48
 70
     1
102
RTVSPost2010Prop49
280
     0
102
RTVSPost2010PropOp49
 70
     1
102
RTVSPost2010Prop50
 90
       50
102
RTVSPost2010PropOp50
 70
     1
102
RTVSPost2010Prop51ColorIndex
 90
      256
102
RTVSPost2010Prop51ColorRGB
 90
-16777216
102
RTVSPost2010PropOp51
 70
     0
102
RTVSPost2010Prop52
140
1.0
102
RTVSPost2010PropOp52
 70
     0
102
RTVSPost2010Prop53
 90
        2
102
RTVSPost2010PropOp53
 70
     1
102
RTVSPost2010Prop54
  1
strokes_ogs.tif
102
RTVSPost2010PropOp54
 70
     1
102
RTVSPost2010Prop55
280
     0
102
RTVSPost2010PropOp55
 70
     1
102
RTVSPost2010Prop56
140
1.0
102
RTVSPost2010PropOp56
 70
     1
102
RTVSPost2010Prop57
140
1.0
102
RTVSPost2010PropOp57
 70
     1
102
RTVSPropertyOp0
 70
     1
102
RTVSPropertyOp1
 70
     1
102
RTVSPropertyOp2
 70
     1
102
RTVSPropertyOp3
 70
     1
102
RTVSPropertyOp4
 70
     1
102
RTVSPropertyOp5
 70
     1
102
RTVSPropertyOp6
 70
     1
102
RTVSPropertyOp7
 70
     1
102
RTVSPropertyOp8
 70
     1
102
RTVSPropertyOp9
 70
     1
102
RTVSPropertyOp10
 70
     1
102
RTVSPropertyOp11
 70
     1
102
RTVSPropertyOp12
 70
     1
102
RTVSPropertyOp13
 70
     1
102
RTVSPropertyOp14
 70
     1
102
RTVSPropertyOp15
 70
     1
102
RTVSPropertyOp16
 70
     1
102
RTVSPropertyOp17
 70
     1
102
RTVSPropertyOp18
 70
     1
102
RTVSPropertyOp19
 70
     1
102
RTVSPropertyOp20
 70
     1
102
RTVSPropertyOp21
 70
     1
102
RTVSPropertyOp22
 70
     1
102
RTVSPropertyOp23
 70
     1
102
RTVSPropertyOp24
 70
     1
102
RTVSPropertyOp25
 70
     1
102
RTVSPropertyOp26
 70
     1
102
RTVSPropertyOp27
 70
     1
102
RTVSPropertyOp28
 70
     1
102
RTVSPropertyOp29
 70
     1
102
RTVSPropertyOp30
 70
     1
102
RTVSPropertyOp31
 70
     1
102
RTVSPropertyOp32
 70
     1
102
RTVSPropertyOp33
 70
     1
102
RTVSPropertyOp34
 70
     1
102
RTVSPropertyOp35
 70
     1
102
RTVSPropertyOp36
 70
     1
102
RTVSPropertyOp37
 70
     1
102
RTVSPropertyOp38
 70
     1
102
RTVSPropertyOp39
 70
     1
102
RTVSPropertyOp40
 70
     1
102
RTVSPropertyOp41
 70
     1
102
RTVSPropertyOp42
 70
     1
102
RTVSPropertyOp43
 70
     1
102
RTVSPropertyOp44
 70
     1
102
RTVSPropertyOp45
 70
     1
102
RTVSPropertyOp46
 70
     1
102
RTVSPropertyOp47
 70
     1
102
RTVSPropertyOp48
 70
     1
102
RTVSPropertyOp49
 70
     1
102
RTVSPropertyOp50
 70
     1
102
RTVSPropertyOp51
 70
     0
102
RTVSPropertyOp52
 70
     0
102
RTVSPropertyOp53
 70
     1
102
RTVSPropertyOp54
 70
     1
102
RTVSPropertyOp55
 70
     1
102
RTVSPropertyOp56
 70
     1
102
RTVSPropertyOp57
 70
     1
102
RTVSPropertyOp58
 70
     1
102
RTVSPropertyOp59
 70
     1
102
RTVSPropertyOp60
 70
     1
102
RTVSPropertyOp61
 70
     1
102
RTVSPropertyOp62
 70
     1
  0
XRECORD
  5
17E5
102
{ACAD_REACTORS
330
17E4
102
}
330
17E4
100
AcDbXrecord
280
     1
102
RTVSPost2010Prop28
280
     0
102
RTVSPost2010PropOp28
 70
     1
102
RTVSPost2010Prop29
280
     1
102
RTVSPost2010PropOp29
 70
     1
102
RTVSPost2010Prop30
280
     1
102
RTVSPost2010PropOp30
 70
     1
102
RTVSPost2010Prop31
280
     0
102
RTVSPost2010PropOp31
 70
     1
102
RTVSPost2010Prop32
280
     0
102
RTVSPost2010PropOp32
 70
     1
102
RTVSPost2010Prop33
280
     0
102
RTVSPost2010PropOp33
 70
     1
102
RTVSPost2010Prop34
280
     0
102
RTVSPost2010PropOp34
 70
     1
102
RTVSPost2010Prop35
280
     0
102
RTVSPost2010PropOp35
 70
     1
102
RTVSPost2010Prop36
280
     0
102
RTVSPost2010PropOp36
 70
     1
102
RTVSPost2010Prop37
 90
       50
102
RTVSPost2010PropOp37
 70
     1
102
RTVSPost2010Prop38
140
0.0
102
RTVSPost2010PropOp38
 70
     1
102
RTVSPost2010Prop39
140
1.0
102
RTVSPost2010PropOp39
 70
     1
102
RTVSPost2010Prop40
 90
        0
102
RTVSPost2010PropOp40
 70
     1
102
RTVSPost2010Prop41ColorIndex
 90
       18
102
RTVSPost2010Prop41ColorRGB
 90
        0
102
RTVSPost2010PropOp41
 70
     1
102
RTVSPost2010Prop42
 90
       50
102
RTVSPost2010PropOp42
 70
     1
102
RTVSPost2010Prop43
 90
        3
102
RTVSPost2010PropOp43
 70
     1
102
RTVSPost2010Prop44ColorIndex
 90
        5
102
RTVSPost2010Prop44ColorRGB
 90
      255
102
RTVSPost2010PropOp44
 70
     1
102
RTVSPost2010Prop45
280
     0
102
RTVSPost2010PropOp45
 70
     1
102
RTVSPost2010Prop46
 90
       50
102
RTVSPost2010PropOp46
 70
     1
102
RTVSPost2010Prop47
 90
       50
102
RTVSPost2010PropOp47
 70
     1
102
RTVSPost2010Prop48
 90
       50
102
RTVSPost2010PropOp48
 70
     1
102
RTVSPost2010Prop49
280
     0
102
RTVSPost2010PropOp49
 70
     1
102
RTVSPost2010Prop50
 90
       50
102
RTVSPost2010PropOp50
 70
     1
102
RTVSPost2010Prop51ColorIndex
 90
      256
102
RTVSPost2010Prop51ColorRGB
 90
-16777216
102
RTVSPost2010PropOp51
 70
     0
102
RTVSPost2010Prop52
140
1.0
102
RTVSPost2010PropOp52
 70
     0
102
RTVSPost2010Prop53
 90
        2
102
RTVSPost2010PropOp53
 70
     1
102
RTVSPost2010Prop54
  1
strokes_ogs.tif
102
RTVSPost2010PropOp54
 70
     1
102
RTVSPost2010Prop55
280
     0
102
RTVSPost2010PropOp55
 70
     1
102
RTVSPost2010Prop56
140
1.0
102
RTVSPost2010PropOp56
 70
     1
102
RTVSPost2010Prop57
140
1.0
102
RTVSPost2010PropOp57
 70
     1
102
RTVSPropertyOp0
 70
     1
102
RTVSPropertyOp1
 70
     1
102
RTVSPropertyOp2
 70
     1
102
RTVSPropertyOp3
 70
     1
102
RTVSPropertyOp4
 70
     1
102
RTVSPropertyOp5
 70
     1
102
RTVSPropertyOp6
 70
     1
102
RTVSPropertyOp7
 70
     1
102
RTVSPropertyOp8
 70
     1
102
RTVSPropertyOp9
 70
     1
102
RTVSPropertyOp10
 70
     1
102
RTVSPropertyOp11
 70
     1
102
RTVSPropertyOp12
 70
     1
102
RTVSPropertyOp13
 70
     1
102
RTVSPropertyOp14
 70
     1
102
RTVSPropertyOp15
 70
     1
102
RTVSPropertyOp16
 70
     1
102
RTVSPropertyOp17
 70
     1
102
RTVSPropertyOp18
 70
     1
102
RTVSPropertyOp19
 70
     1
102
RTVSPropertyOp20
 70
     1
102
RTVSPropertyOp21
 70
     1
102
RTVSPropertyOp22
 70
     1
102
RTVSPropertyOp23
 70
     1
102
RTVSPropertyOp24
 70
     1
102
RTVSPropertyOp25
 70
     1
102
RTVSPropertyOp26
 70
     1
102
RTVSPropertyOp27
 70
     1
102
RTVSPropertyOp28
 70
     1
102
RTVSPropertyOp29
 70
     1
102
RTVSPropertyOp30
 70
     1
102
RTVSPropertyOp31
 70
     1
102
RTVSPropertyOp32
 70
     1
102
RTVSPropertyOp33
 70
     1
102
RTVSPropertyOp34
 70
     1
102
RTVSPropertyOp35
 70
     1
102
RTVSPropertyOp36
 70
     1
102
RTVSPropertyOp37
 70
     1
102
RTVSPropertyOp38
 70
     1
102
RTVSPropertyOp39
 70
     1
102
RTVSPropertyOp40
 70
     1
102
RTVSPropertyOp41
 70
     1
102
RTVSPropertyOp42
 70
     1
102
RTVSPropertyOp43
 70
     1
102
RTVSPropertyOp44
 70
     1
102
RTVSPropertyOp45
 70
     1
102
RTVSPropertyOp46
 70
     1
102
RTVSPropertyOp47
 70
     1
102
RTVSPropertyOp48
 70
     1
102
RTVSPropertyOp49
 70
     1
102
RTVSPropertyOp50
 70
     1
102
RTVSPropertyOp51
 70
     0
102
RTVSPropertyOp52
 70
     0
102
RTVSPropertyOp53
 70
     1
102
RTVSPropertyOp54
 70
     1
102
RTVSPropertyOp55
 70
     1
102
RTVSPropertyOp56
 70
     1
102
RTVSPropertyOp57
 70
     1
102
RTVSPropertyOp58
 70
     1
102
RTVSPropertyOp59
 70
     1
102
RTVSPropertyOp60
 70
     1
102
RTVSPropertyOp61
 70
     1
102
RTVSPropertyOp62
 70
     1
  0
XRECORD
  5
17F3
102
{ACAD_REACTORS
330
17F2
102
}
330
17F2
100
AcDbXrecord
280
     1
102
RTVSPost2010Prop28
280
     0
102
RTVSPost2010PropOp28
 70
     1
102
RTVSPost2010Prop29
280
     1
102
RTVSPost2010PropOp29
 70
     1
102
RTVSPost2010Prop30
280
     1
102
RTVSPost2010PropOp30
 70
     1
102
RTVSPost2010Prop31
280
     0
102
RTVSPost2010PropOp31
 70
     1
102
RTVSPost2010Prop32
280
     0
102
RTVSPost2010PropOp32
 70
     1
102
RTVSPost2010Prop33
280
     0
102
RTVSPost2010PropOp33
 70
     1
102
RTVSPost2010Prop34
280
     0
102
RTVSPost2010PropOp34
 70
     1
102
RTVSPost2010Prop35
280
     0
102
RTVSPost2010PropOp35
 70
     1
102
RTVSPost2010Prop36
280
     0
102
RTVSPost2010PropOp36
 70
     1
102
RTVSPost2010Prop37
 90
       50
102
RTVSPost2010PropOp37
 70
     1
102
RTVSPost2010Prop38
140
0.0
102
RTVSPost2010PropOp38
 70
     1
102
RTVSPost2010Prop39
140
1.0
102
RTVSPost2010PropOp39
 70
     1
102
RTVSPost2010Prop40
 90
        0
102
RTVSPost2010PropOp40
 70
     1
102
RTVSPost2010Prop41ColorIndex
 90
       18
102
RTVSPost2010Prop41ColorRGB
 90
        0
102
RTVSPost2010PropOp41
 70
     1
102
RTVSPost2010Prop42
 90
       50
102
RTVSPost2010PropOp42
 70
     1
102
RTVSPost2010Prop43
 90
        3
102
RTVSPost2010PropOp43
 70
     1
102
RTVSPost2010Prop44ColorIndex
 90
        5
102
RTVSPost2010Prop44ColorRGB
 90
      255
102
RTVSPost2010PropOp44
 70
     1
102
RTVSPost2010Prop45
280
     0
102
RTVSPost2010PropOp45
 70
     1
102
RTVSPost2010Prop46
 90
       50
102
RTVSPost2010PropOp46
 70
     1
102
RTVSPost2010Prop47
 90
       50
102
RTVSPost2010PropOp47
 70
     1
102
RTVSPost2010Prop48
 90
       50
102
RTVSPost2010PropOp48
 70
     1
102
RTVSPost2010Prop49
280
     0
102
RTVSPost2010PropOp49
 70
     1
102
RTVSPost2010Prop50
 90
       50
102
RTVSPost2010PropOp50
 70
     1
102
RTVSPost2010Prop51ColorIndex
 90
      256
102
RTVSPost2010Prop51ColorRGB
 90
-16777216
102
RTVSPost2010PropOp51
 70
     0
102
RTVSPost2010Prop52
140
1.0
102
RTVSPost2010PropOp52
 70
     0
102
RTVSPost2010Prop53
 90
        2
102
RTVSPost2010PropOp53
 70
     1
102
RTVSPost2010Prop54
  1
strokes_ogs.tif
102
RTVSPost2010PropOp54
 70
     1
102
RTVSPost2010Prop55
280
     0
102
RTVSPost2010PropOp55
 70
     1
102
RTVSPost2010Prop56
140
1.0
102
RTVSPost2010PropOp56
 70
     1
102
RTVSPost2010Prop57
140
1.0
102
RTVSPost2010PropOp57
 70
     1
102
RTVSPropertyOp0
 70
     1
102
RTVSPropertyOp1
 70
     1
102
RTVSPropertyOp2
 70
     1
102
RTVSPropertyOp3
 70
     1
102
RTVSPropertyOp4
 70
     1
102
RTVSPropertyOp5
 70
     1
102
RTVSPropertyOp6
 70
     1
102
RTVSPropertyOp7
 70
     1
102
RTVSPropertyOp8
 70
     1
102
RTVSPropertyOp9
 70
     1
102
RTVSPropertyOp10
 70
     1
102
RTVSPropertyOp11
 70
     1
102
RTVSPropertyOp12
 70
     1
102
RTVSPropertyOp13
 70
     1
102
RTVSPropertyOp14
 70
     1
102
RTVSPropertyOp15
 70
     1
102
RTVSPropertyOp16
 70
     1
102
RTVSPropertyOp17
 70
     1
102
RTVSPropertyOp18
 70
     1
102
RTVSPropertyOp19
 70
     1
102
RTVSPropertyOp20
 70
     1
102
RTVSPropertyOp21
 70
     1
102
RTVSPropertyOp22
 70
     1
102
RTVSPropertyOp23
 70
     1
102
RTVSPropertyOp24
 70
     1
102
RTVSPropertyOp25
 70
     1
102
RTVSPropertyOp26
 70
     1
102
RTVSPropertyOp27
 70
     1
102
RTVSPropertyOp28
 70
     1
102
RTVSPropertyOp29
 70
     1
102
RTVSPropertyOp30
 70
     1
102
RTVSPropertyOp31
 70
     1
102
RTVSPropertyOp32
 70
     1
102
RTVSPropertyOp33
 70
     1
102
RTVSPropertyOp34
 70
     1
102
RTVSPropertyOp35
 70
     1
102
RTVSPropertyOp36
 70
     1
102
RTVSPropertyOp37
 70
     1
102
RTVSPropertyOp38
 70
     1
102
RTVSPropertyOp39
 70
     1
102
RTVSPropertyOp40
 70
     1
102
RTVSPropertyOp41
 70
     1
102
RTVSPropertyOp42
 70
     1
102
RTVSPropertyOp43
 70
     1
102
RTVSPropertyOp44
 70
     1
102
RTVSPropertyOp45
 70
     1
102
RTVSPropertyOp46
 70
     1
102
RTVSPropertyOp47
 70
     1
102
RTVSPropertyOp48
 70
     1
102
RTVSPropertyOp49
 70
     1
102
RTVSPropertyOp50
 70
     1
102
RTVSPropertyOp51
 70
     0
102
RTVSPropertyOp52
 70
     0
102
RTVSPropertyOp53
 70
     1
102
RTVSPropertyOp54
 70
     1
102
RTVSPropertyOp55
 70
     1
102
RTVSPropertyOp56
 70
     1
102
RTVSPropertyOp57
 70
     1
102
RTVSPropertyOp58
 70
     1
102
RTVSPropertyOp59
 70
     1
102
RTVSPropertyOp60
 70
     1
102
RTVSPropertyOp61
 70
     1
102
RTVSPropertyOp62
 70
     1
  0
XRECORD
  5
17FB
102
{ACAD_REACTORS
330
17FA
102
}
330
17FA
100
AcDbXrecord
280
     1
102
RTVSPost2010Prop28
280
     0
102
RTVSPost2010PropOp28
 70
     1
102
RTVSPost2010Prop29
280
     1
102
RTVSPost2010PropOp29
 70
     1
102
RTVSPost2010Prop30
280
     1
102
RTVSPost2010PropOp30
 70
     1
102
RTVSPost2010Prop31
280
     0
102
RTVSPost2010PropOp31
 70
     1
102
RTVSPost2010Prop32
280
     0
102
RTVSPost2010PropOp32
 70
     1
102
RTVSPost2010Prop33
280
     0
102
RTVSPost2010PropOp33
 70
     1
102
RTVSPost2010Prop34
280
     0
102
RTVSPost2010PropOp34
 70
     1
102
RTVSPost2010Prop35
280
     0
102
RTVSPost2010PropOp35
 70
     1
102
RTVSPost2010Prop36
280
     0
102
RTVSPost2010PropOp36
 70
     1
102
RTVSPost2010Prop37
 90
       50
102
RTVSPost2010PropOp37
 70
     1
102
RTVSPost2010Prop38
140
0.0
102
RTVSPost2010PropOp38
 70
     1
102
RTVSPost2010Prop39
140
1.0
102
RTVSPost2010PropOp39
 70
     1
102
RTVSPost2010Prop40
 90
        0
102
RTVSPost2010PropOp40
 70
     1
102
RTVSPost2010Prop41ColorIndex
 90
       18
102
RTVSPost2010Prop41ColorRGB
 90
        0
102
RTVSPost2010PropOp41
 70
     1
102
RTVSPost2010Prop42
 90
       50
102
RTVSPost2010PropOp42
 70
     1
102
RTVSPost2010Prop43
 90
        3
102
RTVSPost2010PropOp43
 70
     1
102
RTVSPost2010Prop44ColorIndex
 90
        5
102
RTVSPost2010Prop44ColorRGB
 90
      255
102
RTVSPost2010PropOp44
 70
     1
102
RTVSPost2010Prop45
280
     0
102
RTVSPost2010PropOp45
 70
     1
102
RTVSPost2010Prop46
 90
       50
102
RTVSPost2010PropOp46
 70
     1
102
RTVSPost2010Prop47
 90
       50
102
RTVSPost2010PropOp47
 70
     1
102
RTVSPost2010Prop48
 90
       50
102
RTVSPost2010PropOp48
 70
     1
102
RTVSPost2010Prop49
280
     0
102
RTVSPost2010PropOp49
 70
     1
102
RTVSPost2010Prop50
 90
       50
102
RTVSPost2010PropOp50
 70
     1
102
RTVSPost2010Prop51ColorIndex
 90
      256
102
RTVSPost2010Prop51ColorRGB
 90
-16777216
102
RTVSPost2010PropOp51
 70
     0
102
RTVSPost2010Prop52
140
1.0
102
RTVSPost2010PropOp52
 70
     0
102
RTVSPost2010Prop53
 90
        2
102
RTVSPost2010PropOp53
 70
     1
102
RTVSPost2010Prop54
  1
strokes_ogs.tif
102
RTVSPost2010PropOp54
 70
     1
102
RTVSPost2010Prop55
280
     0
102
RTVSPost2010PropOp55
 70
     1
102
RTVSPost2010Prop56
140
1.0
102
RTVSPost2010PropOp56
 70
     1
102
RTVSPost2010Prop57
140
1.0
102
RTVSPost2010PropOp57
 70
     1
102
RTVSPropertyOp0
 70
     1
102
RTVSPropertyOp1
 70
     1
102
RTVSPropertyOp2
 70
     1
102
RTVSPropertyOp3
 70
     1
102
RTVSPropertyOp4
 70
     1
102
RTVSPropertyOp5
 70
     1
102
RTVSPropertyOp6
 70
     1
102
RTVSPropertyOp7
 70
     1
102
RTVSPropertyOp8
 70
     1
102
RTVSPropertyOp9
 70
     1
102
RTVSPropertyOp10
 70
     1
102
RTVSPropertyOp11
 70
     1
102
RTVSPropertyOp12
 70
     1
102
RTVSPropertyOp13
 70
     1
102
RTVSPropertyOp14
 70
     1
102
RTVSPropertyOp15
 70
     1
102
RTVSPropertyOp16
 70
     1
102
RTVSPropertyOp17
 70
     1
102
RTVSPropertyOp18
 70
     1
102
RTVSPropertyOp19
 70
     1
102
RTVSPropertyOp20
 70
     1
102
RTVSPropertyOp21
 70
     1
102
RTVSPropertyOp22
 70
     1
102
RTVSPropertyOp23
 70
     1
102
RTVSPropertyOp24
 70
     1
102
RTVSPropertyOp25
 70
     1
102
RTVSPropertyOp26
 70
     1
102
RTVSPropertyOp27
 70
     1
102
RTVSPropertyOp28
 70
     1
102
RTVSPropertyOp29
 70
     1
102
RTVSPropertyOp30
 70
     1
102
RTVSPropertyOp31
 70
     1
102
RTVSPropertyOp32
 70
     1
102
RTVSPropertyOp33
 70
     1
102
RTVSPropertyOp34
 70
     1
102
RTVSPropertyOp35
 70
     1
102
RTVSPropertyOp36
 70
     1
102
RTVSPropertyOp37
 70
     1
102
RTVSPropertyOp38
 70
     1
102
RTVSPropertyOp39
 70
     1
102
RTVSPropertyOp40
 70
     1
102
RTVSPropertyOp41
 70
     1
102
RTVSPropertyOp42
 70
     1
102
RTVSPropertyOp43
 70
     1
102
RTVSPropertyOp44
 70
     1
102
RTVSPropertyOp45
 70
     1
102
RTVSPropertyOp46
 70
     1
102
RTVSPropertyOp47
 70
     1
102
RTVSPropertyOp48
 70
     1
102
RTVSPropertyOp49
 70
     1
102
RTVSPropertyOp50
 70
     1
102
RTVSPropertyOp51
 70
     0
102
RTVSPropertyOp52
 70
     0
102
RTVSPropertyOp53
 70
     1
102
RTVSPropertyOp54
 70
     1
102
RTVSPropertyOp55
 70
     1
102
RTVSPropertyOp56
 70
     1
102
RTVSPropertyOp57
 70
     1
102
RTVSPropertyOp58
 70
     1
102
RTVSPropertyOp59
 70
     1
102
RTVSPropertyOp60
 70
     1
102
RTVSPropertyOp61
 70
     1
102
RTVSPropertyOp62
 70
     1
  0
XRECORD
  5
17ED
102
{ACAD_REACTORS
330
17EC
102
}
330
17EC
100
AcDbXrecord
280
     1
102
RTVSPost2010Prop28
280
     0
102
RTVSPost2010PropOp28
 70
     1
102
RTVSPost2010Prop29
280
     1
102
RTVSPost2010PropOp29
 70
     1
102
RTVSPost2010Prop30
280
     1
102
RTVSPost2010PropOp30
 70
     1
102
RTVSPost2010Prop31
280
     0
102
RTVSPost2010PropOp31
 70
     1
102
RTVSPost2010Prop32
280
     0
102
RTVSPost2010PropOp32
 70
     1
102
RTVSPost2010Prop33
280
     0
102
RTVSPost2010PropOp33
 70
     1
102
RTVSPost2010Prop34
280
     0
102
RTVSPost2010PropOp34
 70
     1
102
RTVSPost2010Prop35
280
     0
102
RTVSPost2010PropOp35
 70
     1
102
RTVSPost2010Prop36
280
     0
102
RTVSPost2010PropOp36
 70
     1
102
RTVSPost2010Prop37
 90
       50
102
RTVSPost2010PropOp37
 70
     1
102
RTVSPost2010Prop38
140
0.0
102
RTVSPost2010PropOp38
 70
     1
102
RTVSPost2010Prop39
140
1.0
102
RTVSPost2010PropOp39
 70
     1
102
RTVSPost2010Prop40
 90
        0
102
RTVSPost2010PropOp40
 70
     1
102
RTVSPost2010Prop41ColorIndex
 90
       18
102
RTVSPost2010Prop41ColorRGB
 90
        0
102
RTVSPost2010PropOp41
 70
     1
102
RTVSPost2010Prop42
 90
       50
102
RTVSPost2010PropOp42
 70
     1
102
RTVSPost2010Prop43
 90
        3
102
RTVSPost2010PropOp43
 70
     1
102
RTVSPost2010Prop44ColorIndex
 90
        5
102
RTVSPost2010Prop44ColorRGB
 90
      255
102
RTVSPost2010PropOp44
 70
     1
102
RTVSPost2010Prop45
280
     0
102
RTVSPost2010PropOp45
 70
     1
102
RTVSPost2010Prop46
 90
       50
102
RTVSPost2010PropOp46
 70
     1
102
RTVSPost2010Prop47
 90
       50
102
RTVSPost2010PropOp47
 70
     1
102
RTVSPost2010Prop48
 90
       50
102
RTVSPost2010PropOp48
 70
     1
102
RTVSPost2010Prop49
280
     0
102
RTVSPost2010PropOp49
 70
     1
102
RTVSPost2010Prop50
 90
       50
102
RTVSPost2010PropOp50
 70
     1
102
RTVSPost2010Prop51ColorIndex
 90
      256
102
RTVSPost2010Prop51ColorRGB
 90
-16777216
102
RTVSPost2010PropOp51
 70
     0
102
RTVSPost2010Prop52
140
1.0
102
RTVSPost2010PropOp52
 70
     0
102
RTVSPost2010Prop53
 90
        2
102
RTVSPost2010PropOp53
 70
     1
102
RTVSPost2010Prop54
  1
strokes_ogs.tif
102
RTVSPost2010PropOp54
 70
     1
102
RTVSPost2010Prop55
280
     0
102
RTVSPost2010PropOp55
 70
     1
102
RTVSPost2010Prop56
140
1.0
102
RTVSPost2010PropOp56
 70
     1
102
RTVSPost2010Prop57
140
1.0
102
RTVSPost2010PropOp57
 70
     1
102
RTVSPropertyOp0
 70
     1
102
RTVSPropertyOp1
 70
     1
102
RTVSPropertyOp2
 70
     1
102
RTVSPropertyOp3
 70
     1
102
RTVSPropertyOp4
 70
     1
102
RTVSPropertyOp5
 70
     1
102
RTVSPropertyOp6
 70
     1
102
RTVSPropertyOp7
 70
     1
102
RTVSPropertyOp8
 70
     1
102
RTVSPropertyOp9
 70
     1
102
RTVSPropertyOp10
 70
     1
102
RTVSPropertyOp11
 70
     1
102
RTVSPropertyOp12
 70
     1
102
RTVSPropertyOp13
 70
     1
102
RTVSPropertyOp14
 70
     1
102
RTVSPropertyOp15
 70
     1
102
RTVSPropertyOp16
 70
     1
102
RTVSPropertyOp17
 70
     1
102
RTVSPropertyOp18
 70
     1
102
RTVSPropertyOp19
 70
     1
102
RTVSPropertyOp20
 70
     1
102
RTVSPropertyOp21
 70
     1
102
RTVSPropertyOp22
 70
     1
102
RTVSPropertyOp23
 70
     1
102
RTVSPropertyOp24
 70
     1
102
RTVSPropertyOp25
 70
     1
102
RTVSPropertyOp26
 70
     1
102
RTVSPropertyOp27
 70
     1
102
RTVSPropertyOp28
 70
     1
102
RTVSPropertyOp29
 70
     1
102
RTVSPropertyOp30
 70
     1
102
RTVSPropertyOp31
 70
     1
102
RTVSPropertyOp32
 70
     1
102
RTVSPropertyOp33
 70
     1
102
RTVSPropertyOp34
 70
     1
102
RTVSPropertyOp35
 70
     1
102
RTVSPropertyOp36
 70
     1
102
RTVSPropertyOp37
 70
     1
102
RTVSPropertyOp38
 70
     1
102
RTVSPropertyOp39
 70
     1
102
RTVSPropertyOp40
 70
     1
102
RTVSPropertyOp41
 70
     1
102
RTVSPropertyOp42
 70
     1
102
RTVSPropertyOp43
 70
     1
102
RTVSPropertyOp44
 70
     1
102
RTVSPropertyOp45
 70
     1
102
RTVSPropertyOp46
 70
     1
102
RTVSPropertyOp47
 70
     1
102
RTVSPropertyOp48
 70
     1
102
RTVSPropertyOp49
 70
     1
102
RTVSPropertyOp50
 70
     1
102
RTVSPropertyOp51
 70
     0
102
RTVSPropertyOp52
 70
     0
102
RTVSPropertyOp53
 70
     1
102
RTVSPropertyOp54
 70
     1
102
RTVSPropertyOp55
 70
     1
102
RTVSPropertyOp56
 70
     1
102
RTVSPropertyOp57
 70
     1
102
RTVSPropertyOp58
 70
     1
102
RTVSPropertyOp59
 70
     1
102
RTVSPropertyOp60
 70
     1
102
RTVSPropertyOp61
 70
     1
102
RTVSPropertyOp62
 70
     1
  0
XRECORD
  5
17F1
102
{ACAD_REACTORS
330
17F0
102
}
330
17F0
100
AcDbXrecord
280
     1
102
RTVSPost2010Prop28
280
     0
102
RTVSPost2010PropOp28
 70
     1
102
RTVSPost2010Prop29
280
     1
102
RTVSPost2010PropOp29
 70
     1
102
RTVSPost2010Prop30
280
     1
102
RTVSPost2010PropOp30
 70
     1
102
RTVSPost2010Prop31
280
     0
102
RTVSPost2010PropOp31
 70
     1
102
RTVSPost2010Prop32
280
     0
102
RTVSPost2010PropOp32
 70
     1
102
RTVSPost2010Prop33
280
     0
102
RTVSPost2010PropOp33
 70
     1
102
RTVSPost2010Prop34
280
     0
102
RTVSPost2010PropOp34
 70
     1
102
RTVSPost2010Prop35
280
     0
102
RTVSPost2010PropOp35
 70
     1
102
RTVSPost2010Prop36
280
     0
102
RTVSPost2010PropOp36
 70
     1
102
RTVSPost2010Prop37
 90
       50
102
RTVSPost2010PropOp37
 70
     1
102
RTVSPost2010Prop38
140
0.0
102
RTVSPost2010PropOp38
 70
     1
102
RTVSPost2010Prop39
140
1.0
102
RTVSPost2010PropOp39
 70
     1
102
RTVSPost2010Prop40
 90
        0
102
RTVSPost2010PropOp40
 70
     1
102
RTVSPost2010Prop41ColorIndex
 90
       18
102
RTVSPost2010Prop41ColorRGB
 90
        0
102
RTVSPost2010PropOp41
 70
     1
102
RTVSPost2010Prop42
 90
       50
102
RTVSPost2010PropOp42
 70
     1
102
RTVSPost2010Prop43
 90
        3
102
RTVSPost2010PropOp43
 70
     1
102
RTVSPost2010Prop44ColorIndex
 90
        5
102
RTVSPost2010Prop44ColorRGB
 90
      255
102
RTVSPost2010PropOp44
 70
     1
102
RTVSPost2010Prop45
280
     0
102
RTVSPost2010PropOp45
 70
     1
102
RTVSPost2010Prop46
 90
       50
102
RTVSPost2010PropOp46
 70
     1
102
RTVSPost2010Prop47
 90
       50
102
RTVSPost2010PropOp47
 70
     1
102
RTVSPost2010Prop48
 90
       50
102
RTVSPost2010PropOp48
 70
     1
102
RTVSPost2010Prop49
280
     0
102
RTVSPost2010PropOp49
 70
     1
102
RTVSPost2010Prop50
 90
       50
102
RTVSPost2010PropOp50
 70
     1
102
RTVSPost2010Prop51ColorIndex
 90
      256
102
RTVSPost2010Prop51ColorRGB
 90
-16777216
102
RTVSPost2010PropOp51
 70
     0
102
RTVSPost2010Prop52
140
1.0
102
RTVSPost2010PropOp52
 70
     0
102
RTVSPost2010Prop53
 90
        2
102
RTVSPost2010PropOp53
 70
     1
102
RTVSPost2010Prop54
  1
strokes_ogs.tif
102
RTVSPost2010PropOp54
 70
     1
102
RTVSPost2010Prop55
280
     0
102
RTVSPost2010PropOp55
 70
     1
102
RTVSPost2010Prop56
140
1.0
102
RTVSPost2010PropOp56
 70
     1
102
RTVSPost2010Prop57
140
1.0
102
RTVSPost2010PropOp57
 70
     1
102
RTVSPropertyOp0
 70
     1
102
RTVSPropertyOp1
 70
     1
102
RTVSPropertyOp2
 70
     1
102
RTVSPropertyOp3
 70
     1
102
RTVSPropertyOp4
 70
     1
102
RTVSPropertyOp5
 70
     1
102
RTVSPropertyOp6
 70
     1
102
RTVSPropertyOp7
 70
     1
102
RTVSPropertyOp8
 70
     1
102
RTVSPropertyOp9
 70
     1
102
RTVSPropertyOp10
 70
     1
102
RTVSPropertyOp11
 70
     1
102
RTVSPropertyOp12
 70
     1
102
RTVSPropertyOp13
 70
     1
102
RTVSPropertyOp14
 70
     1
102
RTVSPropertyOp15
 70
     1
102
RTVSPropertyOp16
 70
     1
102
RTVSPropertyOp17
 70
     1
102
RTVSPropertyOp18
 70
     1
102
RTVSPropertyOp19
 70
     1
102
RTVSPropertyOp20
 70
     1
102
RTVSPropertyOp21
 70
     1
102
RTVSPropertyOp22
 70
     1
102
RTVSPropertyOp23
 70
     1
102
RTVSPropertyOp24
 70
     1
102
RTVSPropertyOp25
 70
     1
102
RTVSPropertyOp26
 70
     1
102
RTVSPropertyOp27
 70
     1
102
RTVSPropertyOp28
 70
     1
102
RTVSPropertyOp29
 70
     1
102
RTVSPropertyOp30
 70
     1
102
RTVSPropertyOp31
 70
     1
102
RTVSPropertyOp32
 70
     1
102
RTVSPropertyOp33
 70
     1
102
RTVSPropertyOp34
 70
     1
102
RTVSPropertyOp35
 70
     1
102
RTVSPropertyOp36
 70
     1
102
RTVSPropertyOp37
 70
     1
102
RTVSPropertyOp38
 70
     1
102
RTVSPropertyOp39
 70
     1
102
RTVSPropertyOp40
 70
     1
102
RTVSPropertyOp41
 70
     1
102
RTVSPropertyOp42
 70
     1
102
RTVSPropertyOp43
 70
     1
102
RTVSPropertyOp44
 70
     1
102
RTVSPropertyOp45
 70
     1
102
RTVSPropertyOp46
 70
     1
102
RTVSPropertyOp47
 70
     1
102
RTVSPropertyOp48
 70
     1
102
RTVSPropertyOp49
 70
     1
102
RTVSPropertyOp50
 70
     1
102
RTVSPropertyOp51
 70
     0
102
RTVSPropertyOp52
 70
     0
102
RTVSPropertyOp53
 70
     1
102
RTVSPropertyOp54
 70
     1
102
RTVSPropertyOp55
 70
     1
102
RTVSPropertyOp56
 70
     1
102
RTVSPropertyOp57
 70
     1
102
RTVSPropertyOp58
 70
     1
102
RTVSPropertyOp59
 70
     1
102
RTVSPropertyOp60
 70
     1
102
RTVSPropertyOp61
 70
     1
102
RTVSPropertyOp62
 70
     1
  0
XRECORD
  5
180B
102
{ACAD_REACTORS
330
180A
102
}
330
180A
100
AcDbXrecord
280
     1
102
RTVSPost2010Prop28
280
     0
102
RTVSPost2010PropOp28
 70
     1
102
RTVSPost2010Prop29
280
     1
102
RTVSPost2010PropOp29
 70
     1
102
RTVSPost2010Prop30
280
     1
102
RTVSPost2010PropOp30
 70
     1
102
RTVSPost2010Prop31
280
     0
102
RTVSPost2010PropOp31
 70
     1
102
RTVSPost2010Prop32
280
     0
102
RTVSPost2010PropOp32
 70
     1
102
RTVSPost2010Prop33
280
     0
102
RTVSPost2010PropOp33
 70
     1
102
RTVSPost2010Prop34
280
     0
102
RTVSPost2010PropOp34
 70
     1
102
RTVSPost2010Prop35
280
     0
102
RTVSPost2010PropOp35
 70
     1
102
RTVSPost2010Prop36
280
     0
102
RTVSPost2010PropOp36
 70
     1
102
RTVSPost2010Prop37
 90
       50
102
RTVSPost2010PropOp37
 70
     0
102
RTVSPost2010Prop38
140
0.0
102
RTVSPost2010PropOp38
 70
     0
102
RTVSPost2010Prop39
140
1.0
102
RTVSPost2010PropOp39
 70
     0
102
RTVSPost2010Prop40
 90
        0
102
RTVSPost2010PropOp40
 70
     0
102
RTVSPost2010Prop41ColorIndex
 90
       18
102
RTVSPost2010Prop41ColorRGB
 90
        0
102
RTVSPost2010PropOp41
 70
     0
102
RTVSPost2010Prop42
 90
       50
102
RTVSPost2010PropOp42
 70
     0
102
RTVSPost2010Prop43
 90
        3
102
RTVSPost2010PropOp43
 70
     0
102
RTVSPost2010Prop44ColorIndex
 90
        5
102
RTVSPost2010Prop44ColorRGB
 90
      255
102
RTVSPost2010PropOp44
 70
     0
102
RTVSPost2010Prop45
280
     0
102
RTVSPost2010PropOp45
 70
     1
102
RTVSPost2010Prop46
 90
       50
102
RTVSPost2010PropOp46
 70
     0
102
RTVSPost2010Prop47
 90
       50
102
RTVSPost2010PropOp47
 70
     0
102
RTVSPost2010Prop48
 90
       50
102
RTVSPost2010PropOp48
 70
     0
102
RTVSPost2010Prop49
280
     0
102
RTVSPost2010PropOp49
 70
     1
102
RTVSPost2010Prop50
 90
       50
102
RTVSPost2010PropOp50
 70
     0
102
RTVSPost2010Prop51ColorIndex
 90
      256
102
RTVSPost2010Prop51ColorRGB
 90
-16777216
102
RTVSPost2010PropOp51
 70
     0
102
RTVSPost2010Prop52
140
1.0
102
RTVSPost2010PropOp52
 70
     0
102
RTVSPost2010Prop53
 90
        2
102
RTVSPost2010PropOp53
 70
     0
102
RTVSPost2010Prop54
  1
strokes_ogs.tif
102
RTVSPost2010PropOp54
 70
     0
102
RTVSPost2010Prop55
280
     0
102
RTVSPost2010PropOp55
 70
     1
102
RTVSPost2010Prop56
140
1.0
102
RTVSPost2010PropOp56
 70
     0
102
RTVSPost2010Prop57
140
1.0
102
RTVSPost2010PropOp57
 70
     0
102
RTVSPropertyOp0
 70
     0
102
RTVSPropertyOp1
 70
     0
102
RTVSPropertyOp2
 70
     0
102
RTVSPropertyOp3
 70
     0
102
RTVSPropertyOp4
 70
     0
102
RTVSPropertyOp5
 70
     0
102
RTVSPropertyOp6
 70
     0
102
RTVSPropertyOp7
 70
     0
102
RTVSPropertyOp8
 70
     0
102
RTVSPropertyOp9
 70
     0
102
RTVSPropertyOp10
 70
     0
102
RTVSPropertyOp11
 70
     0
102
RTVSPropertyOp12
 70
     0
102
RTVSPropertyOp13
 70
     0
102
RTVSPropertyOp14
 70
     2
102
RTVSPropertyOp15
 70
     0
102
RTVSPropertyOp16
 70
     0
102
RTVSPropertyOp17
 70
     0
102
RTVSPropertyOp18
 70
     0
102
RTVSPropertyOp19
 70
     0
102
RTVSPropertyOp20
 70
     0
102
RTVSPropertyOp21
 70
     0
102
RTVSPropertyOp22
 70
     0
102
RTVSPropertyOp23
 70
     0
102
RTVSPropertyOp24
 70
     0
102
RTVSPropertyOp25
 70
     0
102
RTVSPropertyOp26
 70
     0
102
RTVSPropertyOp27
 70
     0
102
RTVSPropertyOp28
 70
     1
102
RTVSPropertyOp29
 70
     1
102
RTVSPropertyOp30
 70
     1
102
RTVSPropertyOp31
 70
     1
102
RTVSPropertyOp32
 70
     1
102
RTVSPropertyOp33
 70
     1
102
RTVSPropertyOp34
 70
     1
102
RTVSPropertyOp35
 70
     1
102
RTVSPropertyOp36
 70
     1
102
RTVSPropertyOp37
 70
     0
102
RTVSPropertyOp38
 70
     0
102
RTVSPropertyOp39
 70
     0
102
RTVSPropertyOp40
 70
     0
102
RTVSPropertyOp41
 70
     0
102
RTVSPropertyOp42
 70
     0
102
RTVSPropertyOp43
 70
     0
102
RTVSPropertyOp44
 70
     0
102
RTVSPropertyOp45
 70
     1
102
RTVSPropertyOp46
 70
     0
102
RTVSPropertyOp47
 70
     0
102
RTVSPropertyOp48
 70
     0
102
RTVSPropertyOp49
 70
     1
102
RTVSPropertyOp50
 70
     0
102
RTVSPropertyOp51
 70
     0
102
RTVSPropertyOp52
 70
     0
102
RTVSPropertyOp53
 70
     0
102
RTVSPropertyOp54
 70
     0
102
RTVSPropertyOp55
 70
     1
102
RTVSPropertyOp56
 70
     0
102
RTVSPropertyOp57
 70
     0
102
RTVSPropertyOp58
 70
     0
102
RTVSPropertyOp59
 70
     0
102
RTVSPropertyOp60
 70
     0
102
RTVSPropertyOp61
 70
     0
102
RTVSPropertyOp62
 70
     0
  0
XRECORD
  5
17F9
102
{ACAD_REACTORS
330
17F8
102
}
330
17F8
100
AcDbXrecord
280
     1
102
RTVSPost2010Prop28
280
     0
102
RTVSPost2010PropOp28
 70
     1
102
RTVSPost2010Prop29
280
     1
102
RTVSPost2010PropOp29
 70
     1
102
RTVSPost2010Prop30
280
     1
102
RTVSPost2010PropOp30
 70
     1
102
RTVSPost2010Prop31
280
     0
102
RTVSPost2010PropOp31
 70
     1
102
RTVSPost2010Prop32
280
     0
102
RTVSPost2010PropOp32
 70
     1
102
RTVSPost2010Prop33
280
     0
102
RTVSPost2010PropOp33
 70
     1
102
RTVSPost2010Prop34
280
     0
102
RTVSPost2010PropOp34
 70
     1
102
RTVSPost2010Prop35
280
     0
102
RTVSPost2010PropOp35
 70
     1
102
RTVSPost2010Prop36
280
     0
102
RTVSPost2010PropOp36
 70
     1
102
RTVSPost2010Prop37
 90
       50
102
RTVSPost2010PropOp37
 70
     1
102
RTVSPost2010Prop38
140
0.0
102
RTVSPost2010PropOp38
 70
     1
102
RTVSPost2010Prop39
140
1.0
102
RTVSPost2010PropOp39
 70
     1
102
RTVSPost2010Prop40
 90
        0
102
RTVSPost2010PropOp40
 70
     1
102
RTVSPost2010Prop41ColorIndex
 90
       18
102
RTVSPost2010Prop41ColorRGB
 90
        0
102
RTVSPost2010PropOp41
 70
     1
102
RTVSPost2010Prop42
 90
       50
102
RTVSPost2010PropOp42
 70
     1
102
RTVSPost2010Prop43
 90
        3
102
RTVSPost2010PropOp43
 70
     1
102
RTVSPost2010Prop44ColorIndex
 90
        5
102
RTVSPost2010Prop44ColorRGB
 90
      255
102
RTVSPost2010PropOp44
 70
     1
102
RTVSPost2010Prop45
280
     0
102
RTVSPost2010PropOp45
 70
     1
102
RTVSPost2010Prop46
 90
       50
102
RTVSPost2010PropOp46
 70
     1
102
RTVSPost2010Prop47
 90
       50
102
RTVSPost2010PropOp47
 70
     1
102
RTVSPost2010Prop48
 90
       50
102
RTVSPost2010PropOp48
 70
     1
102
RTVSPost2010Prop49
280
     0
102
RTVSPost2010PropOp49
 70
     1
102
RTVSPost2010Prop50
 90
       50
102
RTVSPost2010PropOp50
 70
     1
102
RTVSPost2010Prop51ColorIndex
 90
      256
102
RTVSPost2010Prop51ColorRGB
 90
-16777216
102
RTVSPost2010PropOp51
 70
     0
102
RTVSPost2010Prop52
140
1.0
102
RTVSPost2010PropOp52
 70
     0
102
RTVSPost2010Prop53
 90
        2
102
RTVSPost2010PropOp53
 70
     1
102
RTVSPost2010Prop54
  1
strokes_ogs.tif
102
RTVSPost2010PropOp54
 70
     1
102
RTVSPost2010Prop55
280
     0
102
RTVSPost2010PropOp55
 70
     1
102
RTVSPost2010Prop56
140
1.0
102
RTVSPost2010PropOp56
 70
     1
102
RTVSPost2010Prop57
140
1.0
102
RTVSPost2010PropOp57
 70
     1
102
RTVSPropertyOp0
 70
     1
102
RTVSPropertyOp1
 70
     1
102
RTVSPropertyOp2
 70
     1
102
RTVSPropertyOp3
 70
     1
102
RTVSPropertyOp4
 70
     1
102
RTVSPropertyOp5
 70
     1
102
RTVSPropertyOp6
 70
     1
102
RTVSPropertyOp7
 70
     1
102
RTVSPropertyOp8
 70
     1
102
RTVSPropertyOp9
 70
     1
102
RTVSPropertyOp10
 70
     1
102
RTVSPropertyOp11
 70
     1
102
RTVSPropertyOp12
 70
     1
102
RTVSPropertyOp13
 70
     1
102
RTVSPropertyOp14
 70
     1
102
RTVSPropertyOp15
 70
     1
102
RTVSPropertyOp16
 70
     1
102
RTVSPropertyOp17
 70
     1
102
RTVSPropertyOp18
 70
     1
102
RTVSPropertyOp19
 70
     1
102
RTVSPropertyOp20
 70
     1
102
RTVSPropertyOp21
 70
     1
102
RTVSPropertyOp22
 70
     1
102
RTVSPropertyOp23
 70
     1
102
RTVSPropertyOp24
 70
     1
102
RTVSPropertyOp25
 70
     1
102
RTVSPropertyOp26
 70
     1
102
RTVSPropertyOp27
 70
     1
102
RTVSPropertyOp28
 70
     1
102
RTVSPropertyOp29
 70
     1
102
RTVSPropertyOp30
 70
     1
102
RTVSPropertyOp31
 70
     1
102
RTVSPropertyOp32
 70
     1
102
RTVSPropertyOp33
 70
     1
102
RTVSPropertyOp34
 70
     1
102
RTVSPropertyOp35
 70
     1
102
RTVSPropertyOp36
 70
     1
102
RTVSPropertyOp37
 70
     1
102
RTVSPropertyOp38
 70
     1
102
RTVSPropertyOp39
 70
     1
102
RTVSPropertyOp40
 70
     1
102
RTVSPropertyOp41
 70
     1
102
RTVSPropertyOp42
 70
     1
102
RTVSPropertyOp43
 70
     1
102
RTVSPropertyOp44
 70
     1
102
RTVSPropertyOp45
 70
     1
102
RTVSPropertyOp46
 70
     1
102
RTVSPropertyOp47
 70
     1
102
RTVSPropertyOp48
 70
     1
102
RTVSPropertyOp49
 70
     1
102
RTVSPropertyOp50
 70
     1
102
RTVSPropertyOp51
 70
     0
102
RTVSPropertyOp52
 70
     0
102
RTVSPropertyOp53
 70
     1
102
RTVSPropertyOp54
 70
     1
102
RTVSPropertyOp55
 70
     1
102
RTVSPropertyOp56
 70
     1
102
RTVSPropertyOp57
 70
     1
102
RTVSPropertyOp58
 70
     1
102
RTVSPropertyOp59
 70
     1
102
RTVSPropertyOp60
 70
     1
102
RTVSPropertyOp61
 70
     1
102
RTVSPropertyOp62
 70
     1
  0
XRECORD
  5
17DD
102
{ACAD_REACTORS
330
17DC
102
}
330
17DC
100
AcDbXrecord
280
     1
102
RTVSPost2010Prop28
280
     0
102
RTVSPost2010PropOp28
 70
     1
102
RTVSPost2010Prop29
280
     1
102
RTVSPost2010PropOp29
 70
     1
102
RTVSPost2010Prop30
280
     1
102
RTVSPost2010PropOp30
 70
     1
102
RTVSPost2010Prop31
280
     0
102
RTVSPost2010PropOp31
 70
     1
102
RTVSPost2010Prop32
280
     0
102
RTVSPost2010PropOp32
 70
     1
102
RTVSPost2010Prop33
280
     0
102
RTVSPost2010PropOp33
 70
     1
102
RTVSPost2010Prop34
280
     0
102
RTVSPost2010PropOp34
 70
     1
102
RTVSPost2010Prop35
280
     0
102
RTVSPost2010PropOp35
 70
     1
102
RTVSPost2010Prop36
280
     0
102
RTVSPost2010PropOp36
 70
     1
102
RTVSPost2010Prop37
 90
       50
102
RTVSPost2010PropOp37
 70
     1
102
RTVSPost2010Prop38
140
0.0
102
RTVSPost2010PropOp38
 70
     1
102
RTVSPost2010Prop39
140
1.0
102
RTVSPost2010PropOp39
 70
     1
102
RTVSPost2010Prop40
 90
        0
102
RTVSPost2010PropOp40
 70
     1
102
RTVSPost2010Prop41ColorIndex
 90
       18
102
RTVSPost2010Prop41ColorRGB
 90
        0
102
RTVSPost2010PropOp41
 70
     1
102
RTVSPost2010Prop42
 90
       50
102
RTVSPost2010PropOp42
 70
     1
102
RTVSPost2010Prop43
 90
        3
102
RTVSPost2010PropOp43
 70
     1
102
RTVSPost2010Prop44ColorIndex
 90
        5
102
RTVSPost2010Prop44ColorRGB
 90
      255
102
RTVSPost2010PropOp44
 70
     1
102
RTVSPost2010Prop45
280
     0
102
RTVSPost2010PropOp45
 70
     1
102
RTVSPost2010Prop46
 90
       50
102
RTVSPost2010PropOp46
 70
     1
102
RTVSPost2010Prop47
 90
       50
102
RTVSPost2010PropOp47
 70
     1
102
RTVSPost2010Prop48
 90
       50
102
RTVSPost2010PropOp48
 70
     1
102
RTVSPost2010Prop49
280
     0
102
RTVSPost2010PropOp49
 70
     1
102
RTVSPost2010Prop50
 90
       50
102
RTVSPost2010PropOp50
 70
     1
102
RTVSPost2010Prop51ColorIndex
 90
      256
102
RTVSPost2010Prop51ColorRGB
 90
-16777216
102
RTVSPost2010PropOp51
 70
     0
102
RTVSPost2010Prop52
140
1.0
102
RTVSPost2010PropOp52
 70
     0
102
RTVSPost2010Prop53
 90
        2
102
RTVSPost2010PropOp53
 70
     1
102
RTVSPost2010Prop54
  1
strokes_ogs.tif
102
RTVSPost2010PropOp54
 70
     1
102
RTVSPost2010Prop55
280
     0
102
RTVSPost2010PropOp55
 70
     1
102
RTVSPost2010Prop56
140
1.0
102
RTVSPost2010PropOp56
 70
     1
102
RTVSPost2010Prop57
140
1.0
102
RTVSPost2010PropOp57
 70
     1
102
RTVSPropertyOp0
 70
     1
102
RTVSPropertyOp1
 70
     1
102
RTVSPropertyOp2
 70
     1
102
RTVSPropertyOp3
 70
     1
102
RTVSPropertyOp4
 70
     1
102
RTVSPropertyOp5
 70
     1
102
RTVSPropertyOp6
 70
     1
102
RTVSPropertyOp7
 70
     1
102
RTVSPropertyOp8
 70
     1
102
RTVSPropertyOp9
 70
     1
102
RTVSPropertyOp10
 70
     1
102
RTVSPropertyOp11
 70
     1
102
RTVSPropertyOp12
 70
     1
102
RTVSPropertyOp13
 70
     1
102
RTVSPropertyOp14
 70
     1
102
RTVSPropertyOp15
 70
     1
102
RTVSPropertyOp16
 70
     1
102
RTVSPropertyOp17
 70
     1
102
RTVSPropertyOp18
 70
     1
102
RTVSPropertyOp19
 70
     1
102
RTVSPropertyOp20
 70
     1
102
RTVSPropertyOp21
 70
     1
102
RTVSPropertyOp22
 70
     1
102
RTVSPropertyOp23
 70
     1
102
RTVSPropertyOp24
 70
     1
102
RTVSPropertyOp25
 70
     1
102
RTVSPropertyOp26
 70
     1
102
RTVSPropertyOp27
 70
     1
102
RTVSPropertyOp28
 70
     1
102
RTVSPropertyOp29
 70
     1
102
RTVSPropertyOp30
 70
     1
102
RTVSPropertyOp31
 70
     1
102
RTVSPropertyOp32
 70
     1
102
RTVSPropertyOp33
 70
     1
102
RTVSPropertyOp34
 70
     1
102
RTVSPropertyOp35
 70
     1
102
RTVSPropertyOp36
 70
     1
102
RTVSPropertyOp37
 70
     1
102
RTVSPropertyOp38
 70
     1
102
RTVSPropertyOp39
 70
     1
102
RTVSPropertyOp40
 70
     1
102
RTVSPropertyOp41
 70
     1
102
RTVSPropertyOp42
 70
     1
102
RTVSPropertyOp43
 70
     1
102
RTVSPropertyOp44
 70
     1
102
RTVSPropertyOp45
 70
     1
102
RTVSPropertyOp46
 70
     1
102
RTVSPropertyOp47
 70
     1
102
RTVSPropertyOp48
 70
     1
102
RTVSPropertyOp49
 70
     1
102
RTVSPropertyOp50
 70
     1
102
RTVSPropertyOp51
 70
     0
102
RTVSPropertyOp52
 70
     0
102
RTVSPropertyOp53
 70
     1
102
RTVSPropertyOp54
 70
     1
102
RTVSPropertyOp55
 70
     1
102
RTVSPropertyOp56
 70
     1
102
RTVSPropertyOp57
 70
     1
102
RTVSPropertyOp58
 70
     1
102
RTVSPropertyOp59
 70
     1
102
RTVSPropertyOp60
 70
     1
102
RTVSPropertyOp61
 70
     1
102
RTVSPropertyOp62
 70
     1
  0
XRECORD
  5
17DF
102
{ACAD_REACTORS
330
17DE
102
}
330
17DE
100
AcDbXrecord
280
     1
102
RTVSPost2010Prop28
280
     0
102
RTVSPost2010PropOp28
 70
     1
102
RTVSPost2010Prop29
280
     1
102
RTVSPost2010PropOp29
 70
     1
102
RTVSPost2010Prop30
280
     1
102
RTVSPost2010PropOp30
 70
     1
102
RTVSPost2010Prop31
280
     0
102
RTVSPost2010PropOp31
 70
     1
102
RTVSPost2010Prop32
280
     0
102
RTVSPost2010PropOp32
 70
     1
102
RTVSPost2010Prop33
280
     0
102
RTVSPost2010PropOp33
 70
     1
102
RTVSPost2010Prop34
280
     0
102
RTVSPost2010PropOp34
 70
     1
102
RTVSPost2010Prop35
280
     0
102
RTVSPost2010PropOp35
 70
     1
102
RTVSPost2010Prop36
280
     0
102
RTVSPost2010PropOp36
 70
     1
102
RTVSPost2010Prop37
 90
       50
102
RTVSPost2010PropOp37
 70
     1
102
RTVSPost2010Prop38
140
0.0
102
RTVSPost2010PropOp38
 70
     1
102
RTVSPost2010Prop39
140
1.0
102
RTVSPost2010PropOp39
 70
     1
102
RTVSPost2010Prop40
 90
        0
102
RTVSPost2010PropOp40
 70
     1
102
RTVSPost2010Prop41ColorIndex
 90
       18
102
RTVSPost2010Prop41ColorRGB
 90
        0
102
RTVSPost2010PropOp41
 70
     1
102
RTVSPost2010Prop42
 90
       50
102
RTVSPost2010PropOp42
 70
     1
102
RTVSPost2010Prop43
 90
        3
102
RTVSPost2010PropOp43
 70
     1
102
RTVSPost2010Prop44ColorIndex
 90
        5
102
RTVSPost2010Prop44ColorRGB
 90
      255
102
RTVSPost2010PropOp44
 70
     1
102
RTVSPost2010Prop45
280
     0
102
RTVSPost2010PropOp45
 70
     1
102
RTVSPost2010Prop46
 90
       50
102
RTVSPost2010PropOp46
 70
     1
102
RTVSPost2010Prop47
 90
       50
102
RTVSPost2010PropOp47
 70
     1
102
RTVSPost2010Prop48
 90
       50
102
RTVSPost2010PropOp48
 70
     1
102
RTVSPost2010Prop49
280
     0
102
RTVSPost2010PropOp49
 70
     1
102
RTVSPost2010Prop50
 90
       50
102
RTVSPost2010PropOp50
 70
     1
102
RTVSPost2010Prop51ColorIndex
 90
      256
102
RTVSPost2010Prop51ColorRGB
 90
-16777216
102
RTVSPost2010PropOp51
 70
     0
102
RTVSPost2010Prop52
140
1.0
102
RTVSPost2010PropOp52
 70
     0
102
RTVSPost2010Prop53
 90
        2
102
RTVSPost2010PropOp53
 70
     1
102
RTVSPost2010Prop54
  1
strokes_ogs.tif
102
RTVSPost2010PropOp54
 70
     1
102
RTVSPost2010Prop55
280
     0
102
RTVSPost2010PropOp55
 70
     1
102
RTVSPost2010Prop56
140
1.0
102
RTVSPost2010PropOp56
 70
     1
102
RTVSPost2010Prop57
140
1.0
102
RTVSPost2010PropOp57
 70
     1
102
RTVSPropertyOp0
 70
     1
102
RTVSPropertyOp1
 70
     1
102
RTVSPropertyOp2
 70
     1
102
RTVSPropertyOp3
 70
     1
102
RTVSPropertyOp4
 70
     1
102
RTVSPropertyOp5
 70
     1
102
RTVSPropertyOp6
 70
     1
102
RTVSPropertyOp7
 70
     1
102
RTVSPropertyOp8
 70
     1
102
RTVSPropertyOp9
 70
     1
102
RTVSPropertyOp10
 70
     1
102
RTVSPropertyOp11
 70
     1
102
RTVSPropertyOp12
 70
     1
102
RTVSPropertyOp13
 70
     1
102
RTVSPropertyOp14
 70
     1
102
RTVSPropertyOp15
 70
     1
102
RTVSPropertyOp16
 70
     1
102
RTVSPropertyOp17
 70
     1
102
RTVSPropertyOp18
 70
     1
102
RTVSPropertyOp19
 70
     1
102
RTVSPropertyOp20
 70
     1
102
RTVSPropertyOp21
 70
     1
102
RTVSPropertyOp22
 70
     1
102
RTVSPropertyOp23
 70
     1
102
RTVSPropertyOp24
 70
     1
102
RTVSPropertyOp25
 70
     1
102
RTVSPropertyOp26
 70
     1
102
RTVSPropertyOp27
 70
     1
102
RTVSPropertyOp28
 70
     1
102
RTVSPropertyOp29
 70
     1
102
RTVSPropertyOp30
 70
     1
102
RTVSPropertyOp31
 70
     1
102
RTVSPropertyOp32
 70
     1
102
RTVSPropertyOp33
 70
     1
102
RTVSPropertyOp34
 70
     1
102
RTVSPropertyOp35
 70
     1
102
RTVSPropertyOp36
 70
     1
102
RTVSPropertyOp37
 70
     1
102
RTVSPropertyOp38
 70
     1
102
RTVSPropertyOp39
 70
     1
102
RTVSPropertyOp40
 70
     1
102
RTVSPropertyOp41
 70
     1
102
RTVSPropertyOp42
 70
     1
102
RTVSPropertyOp43
 70
     1
102
RTVSPropertyOp44
 70
     1
102
RTVSPropertyOp45
 70
     1
102
RTVSPropertyOp46
 70
     1
102
RTVSPropertyOp47
 70
     1
102
RTVSPropertyOp48
 70
     1
102
RTVSPropertyOp49
 70
     1
102
RTVSPropertyOp50
 70
     1
102
RTVSPropertyOp51
 70
     0
102
RTVSPropertyOp52
 70
     0
102
RTVSPropertyOp53
 70
     1
102
RTVSPropertyOp54
 70
     1
102
RTVSPropertyOp55
 70
     1
102
RTVSPropertyOp56
 70
     1
102
RTVSPropertyOp57
 70
     1
102
RTVSPropertyOp58
 70
     1
102
RTVSPropertyOp59
 70
     1
102
RTVSPropertyOp60
 70
     1
102
RTVSPropertyOp61
 70
     1
102
RTVSPropertyOp62
 70
     1
  0
XRECORD
  5
17E1
102
{ACAD_REACTORS
330
17E0
102
}
330
17E0
100
AcDbXrecord
280
     1
102
RTVSPost2010Prop28
280
     0
102
RTVSPost2010PropOp28
 70
     1
102
RTVSPost2010Prop29
280
     1
102
RTVSPost2010PropOp29
 70
     1
102
RTVSPost2010Prop30
280
     1
102
RTVSPost2010PropOp30
 70
     1
102
RTVSPost2010Prop31
280
     0
102
RTVSPost2010PropOp31
 70
     1
102
RTVSPost2010Prop32
280
     0
102
RTVSPost2010PropOp32
 70
     1
102
RTVSPost2010Prop33
280
     0
102
RTVSPost2010PropOp33
 70
     1
102
RTVSPost2010Prop34
280
     0
102
RTVSPost2010PropOp34
 70
     1
102
RTVSPost2010Prop35
280
     0
102
RTVSPost2010PropOp35
 70
     1
102
RTVSPost2010Prop36
280
     0
102
RTVSPost2010PropOp36
 70
     1
102
RTVSPost2010Prop37
 90
       50
102
RTVSPost2010PropOp37
 70
     1
102
RTVSPost2010Prop38
140
0.0
102
RTVSPost2010PropOp38
 70
     1
102
RTVSPost2010Prop39
140
1.0
102
RTVSPost2010PropOp39
 70
     1
102
RTVSPost2010Prop40
 90
        0
102
RTVSPost2010PropOp40
 70
     1
102
RTVSPost2010Prop41ColorIndex
 90
       18
102
RTVSPost2010Prop41ColorRGB
 90
        0
102
RTVSPost2010PropOp41
 70
     1
102
RTVSPost2010Prop42
 90
       50
102
RTVSPost2010PropOp42
 70
     1
102
RTVSPost2010Prop43
 90
        3
102
RTVSPost2010PropOp43
 70
     1
102
RTVSPost2010Prop44ColorIndex
 90
        5
102
RTVSPost2010Prop44ColorRGB
 90
      255
102
RTVSPost2010PropOp44
 70
     1
102
RTVSPost2010Prop45
280
     0
102
RTVSPost2010PropOp45
 70
     1
102
RTVSPost2010Prop46
 90
       50
102
RTVSPost2010PropOp46
 70
     1
102
RTVSPost2010Prop47
 90
       50
102
RTVSPost2010PropOp47
 70
     1
102
RTVSPost2010Prop48
 90
       50
102
RTVSPost2010PropOp48
 70
     1
102
RTVSPost2010Prop49
280
     0
102
RTVSPost2010PropOp49
 70
     1
102
RTVSPost2010Prop50
 90
       50
102
RTVSPost2010PropOp50
 70
     1
102
RTVSPost2010Prop51ColorIndex
 90
      256
102
RTVSPost2010Prop51ColorRGB
 90
-16777216
102
RTVSPost2010PropOp51
 70
     0
102
RTVSPost2010Prop52
140
1.0
102
RTVSPost2010PropOp52
 70
     0
102
RTVSPost2010Prop53
 90
        2
102
RTVSPost2010PropOp53
 70
     1
102
RTVSPost2010Prop54
  1
strokes_ogs.tif
102
RTVSPost2010PropOp54
 70
     1
102
RTVSPost2010Prop55
280
     0
102
RTVSPost2010PropOp55
 70
     1
102
RTVSPost2010Prop56
140
1.0
102
RTVSPost2010PropOp56
 70
     1
102
RTVSPost2010Prop57
140
1.0
102
RTVSPost2010PropOp57
 70
     1
102
RTVSPropertyOp0
 70
     1
102
RTVSPropertyOp1
 70
     1
102
RTVSPropertyOp2
 70
     1
102
RTVSPropertyOp3
 70
     1
102
RTVSPropertyOp4
 70
     1
102
RTVSPropertyOp5
 70
     1
102
RTVSPropertyOp6
 70
     1
102
RTVSPropertyOp7
 70
     1
102
RTVSPropertyOp8
 70
     1
102
RTVSPropertyOp9
 70
     1
102
RTVSPropertyOp10
 70
     1
102
RTVSPropertyOp11
 70
     1
102
RTVSPropertyOp12
 70
     1
102
RTVSPropertyOp13
 70
     1
102
RTVSPropertyOp14
 70
     1
102
RTVSPropertyOp15
 70
     1
102
RTVSPropertyOp16
 70
     1
102
RTVSPropertyOp17
 70
     1
102
RTVSPropertyOp18
 70
     1
102
RTVSPropertyOp19
 70
     1
102
RTVSPropertyOp20
 70
     1
102
RTVSPropertyOp21
 70
     1
102
RTVSPropertyOp22
 70
     1
102
RTVSPropertyOp23
 70
     1
102
RTVSPropertyOp24
 70
     1
102
RTVSPropertyOp25
 70
     1
102
RTVSPropertyOp26
 70
     1
102
RTVSPropertyOp27
 70
     1
102
RTVSPropertyOp28
 70
     1
102
RTVSPropertyOp29
 70
     1
102
RTVSPropertyOp30
 70
     1
102
RTVSPropertyOp31
 70
     1
102
RTVSPropertyOp32
 70
     1
102
RTVSPropertyOp33
 70
     1
102
RTVSPropertyOp34
 70
     1
102
RTVSPropertyOp35
 70
     1
102
RTVSPropertyOp36
 70
     1
102
RTVSPropertyOp37
 70
     1
102
RTVSPropertyOp38
 70
     1
102
RTVSPropertyOp39
 70
     1
102
RTVSPropertyOp40
 70
     1
102
RTVSPropertyOp41
 70
     1
102
RTVSPropertyOp42
 70
     1
102
RTVSPropertyOp43
 70
     1
102
RTVSPropertyOp44
 70
     1
102
RTVSPropertyOp45
 70
     1
102
RTVSPropertyOp46
 70
     1
102
RTVSPropertyOp47
 70
     1
102
RTVSPropertyOp48
 70
     1
102
RTVSPropertyOp49
 70
     1
102
RTVSPropertyOp50
 70
     1
102
RTVSPropertyOp51
 70
     0
102
RTVSPropertyOp52
 70
     0
102
RTVSPropertyOp53
 70
     1
102
RTVSPropertyOp54
 70
     1
102
RTVSPropertyOp55
 70
     1
102
RTVSPropertyOp56
 70
     1
102
RTVSPropertyOp57
 70
     1
102
RTVSPropertyOp58
 70
     1
102
RTVSPropertyOp59
 70
     1
102
RTVSPropertyOp60
 70
     1
102
RTVSPropertyOp61
 70
     1
102
RTVSPropertyOp62
 70
     1
  0
XRECORD
  5
17E3
102
{ACAD_REACTORS
330
17E2
102
}
330
17E2
100
AcDbXrecord
280
     1
102
RTVSPost2010Prop28
280
     0
102
RTVSPost2010PropOp28
 70
     1
102
RTVSPost2010Prop29
280
     1
102
RTVSPost2010PropOp29
 70
     1
102
RTVSPost2010Prop30
280
     1
102
RTVSPost2010PropOp30
 70
     1
102
RTVSPost2010Prop31
280
     0
102
RTVSPost2010PropOp31
 70
     1
102
RTVSPost2010Prop32
280
     0
102
RTVSPost2010PropOp32
 70
     1
102
RTVSPost2010Prop33
280
     0
102
RTVSPost2010PropOp33
 70
     1
102
RTVSPost2010Prop34
280
     0
102
RTVSPost2010PropOp34
 70
     1
102
RTVSPost2010Prop35
280
     0
102
RTVSPost2010PropOp35
 70
     1
102
RTVSPost2010Prop36
280
     0
102
RTVSPost2010PropOp36
 70
     1
102
RTVSPost2010Prop37
 90
       50
102
RTVSPost2010PropOp37
 70
     1
102
RTVSPost2010Prop38
140
0.0
102
RTVSPost2010PropOp38
 70
     1
102
RTVSPost2010Prop39
140
1.0
102
RTVSPost2010PropOp39
 70
     1
102
RTVSPost2010Prop40
 90
        0
102
RTVSPost2010PropOp40
 70
     1
102
RTVSPost2010Prop41ColorIndex
 90
       18
102
RTVSPost2010Prop41ColorRGB
 90
        0
102
RTVSPost2010PropOp41
 70
     1
102
RTVSPost2010Prop42
 90
       50
102
RTVSPost2010PropOp42
 70
     1
102
RTVSPost2010Prop43
 90
        3
102
RTVSPost2010PropOp43
 70
     1
102
RTVSPost2010Prop44ColorIndex
 90
        5
102
RTVSPost2010Prop44ColorRGB
 90
      255
102
RTVSPost2010PropOp44
 70
     1
102
RTVSPost2010Prop45
280
     0
102
RTVSPost2010PropOp45
 70
     1
102
RTVSPost2010Prop46
 90
       50
102
RTVSPost2010PropOp46
 70
     1
102
RTVSPost2010Prop47
 90
       50
102
RTVSPost2010PropOp47
 70
     1
102
RTVSPost2010Prop48
 90
       50
102
RTVSPost2010PropOp48
 70
     1
102
RTVSPost2010Prop49
280
     0
102
RTVSPost2010PropOp49
 70
     1
102
RTVSPost2010Prop50
 90
       50
102
RTVSPost2010PropOp50
 70
     1
102
RTVSPost2010Prop51ColorIndex
 90
      256
102
RTVSPost2010Prop51ColorRGB
 90
-16777216
102
RTVSPost2010PropOp51
 70
     0
102
RTVSPost2010Prop52
140
1.0
102
RTVSPost2010PropOp52
 70
     0
102
RTVSPost2010Prop53
 90
        2
102
RTVSPost2010PropOp53
 70
     1
102
RTVSPost2010Prop54
  1
strokes_ogs.tif
102
RTVSPost2010PropOp54
 70
     1
102
RTVSPost2010Prop55
280
     0
102
RTVSPost2010PropOp55
 70
     1
102
RTVSPost2010Prop56
140
1.0
102
RTVSPost2010PropOp56
 70
     1
102
RTVSPost2010Prop57
140
1.0
102
RTVSPost2010PropOp57
 70
     1
102
RTVSPropertyOp0
 70
     1
102
RTVSPropertyOp1
 70
     1
102
RTVSPropertyOp2
 70
     1
102
RTVSPropertyOp3
 70
     1
102
RTVSPropertyOp4
 70
     1
102
RTVSPropertyOp5
 70
     1
102
RTVSPropertyOp6
 70
     1
102
RTVSPropertyOp7
 70
     1
102
RTVSPropertyOp8
 70
     1
102
RTVSPropertyOp9
 70
     1
102
RTVSPropertyOp10
 70
     1
102
RTVSPropertyOp11
 70
     1
102
RTVSPropertyOp12
 70
     1
102
RTVSPropertyOp13
 70
     1
102
RTVSPropertyOp14
 70
     1
102
RTVSPropertyOp15
 70
     1
102
RTVSPropertyOp16
 70
     1
102
RTVSPropertyOp17
 70
     1
102
RTVSPropertyOp18
 70
     1
102
RTVSPropertyOp19
 70
     1
102
RTVSPropertyOp20
 70
     1
102
RTVSPropertyOp21
 70
     1
102
RTVSPropertyOp22
 70
     1
102
RTVSPropertyOp23
 70
     1
102
RTVSPropertyOp24
 70
     1
102
RTVSPropertyOp25
 70
     1
102
RTVSPropertyOp26
 70
     1
102
RTVSPropertyOp27
 70
     1
102
RTVSPropertyOp28
 70
     1
102
RTVSPropertyOp29
 70
     1
102
RTVSPropertyOp30
 70
     1
102
RTVSPropertyOp31
 70
     1
102
RTVSPropertyOp32
 70
     1
102
RTVSPropertyOp33
 70
     1
102
RTVSPropertyOp34
 70
     1
102
RTVSPropertyOp35
 70
     1
102
RTVSPropertyOp36
 70
     1
102
RTVSPropertyOp37
 70
     1
102
RTVSPropertyOp38
 70
     1
102
RTVSPropertyOp39
 70
     1
102
RTVSPropertyOp40
 70
     1
102
RTVSPropertyOp41
 70
     1
102
RTVSPropertyOp42
 70
     1
102
RTVSPropertyOp43
 70
     1
102
RTVSPropertyOp44
 70
     1
102
RTVSPropertyOp45
 70
     1
102
RTVSPropertyOp46
 70
     1
102
RTVSPropertyOp47
 70
     1
102
RTVSPropertyOp48
 70
     1
102
RTVSPropertyOp49
 70
     1
102
RTVSPropertyOp50
 70
     1
102
RTVSPropertyOp51
 70
     0
102
RTVSPropertyOp52
 70
     0
102
RTVSPropertyOp53
 70
     1
102
RTVSPropertyOp54
 70
     1
102
RTVSPropertyOp55
 70
     1
102
RTVSPropertyOp56
 70
     1
102
RTVSPropertyOp57
 70
     1
102
RTVSPropertyOp58
 70
     1
102
RTVSPropertyOp59
 70
     1
102
RTVSPropertyOp60
 70
     1
102
RTVSPropertyOp61
 70
     1
102
RTVSPropertyOp62
 70
     1
  0
XRECORD
  5
17EB
102
{ACAD_REACTORS
330
17EA
102
}
330
17EA
100
AcDbXrecord
280
     1
102
RTVSPost2010Prop28
280
     0
102
RTVSPost2010PropOp28
 70
     1
102
RTVSPost2010Prop29
280
     1
102
RTVSPost2010PropOp29
 70
     1
102
RTVSPost2010Prop30
280
     1
102
RTVSPost2010PropOp30
 70
     1
102
RTVSPost2010Prop31
280
     0
102
RTVSPost2010PropOp31
 70
     1
102
RTVSPost2010Prop32
280
     0
102
RTVSPost2010PropOp32
 70
     1
102
RTVSPost2010Prop33
280
     0
102
RTVSPost2010PropOp33
 70
     1
102
RTVSPost2010Prop34
280
     0
102
RTVSPost2010PropOp34
 70
     1
102
RTVSPost2010Prop35
280
     0
102
RTVSPost2010PropOp35
 70
     1
102
RTVSPost2010Prop36
280
     0
102
RTVSPost2010PropOp36
 70
     1
102
RTVSPost2010Prop37
 90
       50
102
RTVSPost2010PropOp37
 70
     1
102
RTVSPost2010Prop38
140
0.0
102
RTVSPost2010PropOp38
 70
     1
102
RTVSPost2010Prop39
140
1.0
102
RTVSPost2010PropOp39
 70
     1
102
RTVSPost2010Prop40
 90
        0
102
RTVSPost2010PropOp40
 70
     1
102
RTVSPost2010Prop41ColorIndex
 90
       18
102
RTVSPost2010Prop41ColorRGB
 90
        0
102
RTVSPost2010PropOp41
 70
     1
102
RTVSPost2010Prop42
 90
       50
102
RTVSPost2010PropOp42
 70
     1
102
RTVSPost2010Prop43
 90
        3
102
RTVSPost2010PropOp43
 70
     1
102
RTVSPost2010Prop44ColorIndex
 90
        5
102
RTVSPost2010Prop44ColorRGB
 90
      255
102
RTVSPost2010PropOp44
 70
     1
102
RTVSPost2010Prop45
280
     0
102
RTVSPost2010PropOp45
 70
     1
102
RTVSPost2010Prop46
 90
       50
102
RTVSPost2010PropOp46
 70
     1
102
RTVSPost2010Prop47
 90
       50
102
RTVSPost2010PropOp47
 70
     1
102
RTVSPost2010Prop48
 90
       50
102
RTVSPost2010PropOp48
 70
     1
102
RTVSPost2010Prop49
280
     0
102
RTVSPost2010PropOp49
 70
     1
102
RTVSPost2010Prop50
 90
       50
102
RTVSPost2010PropOp50
 70
     1
102
RTVSPost2010Prop51ColorIndex
 90
      256
102
RTVSPost2010Prop51ColorRGB
 90
-16777216
102
RTVSPost2010PropOp51
 70
     0
102
RTVSPost2010Prop52
140
1.0
102
RTVSPost2010PropOp52
 70
     0
102
RTVSPost2010Prop53
 90
        2
102
RTVSPost2010PropOp53
 70
     1
102
RTVSPost2010Prop54
  1
strokes_ogs.tif
102
RTVSPost2010PropOp54
 70
     1
102
RTVSPost2010Prop55
280
     0
102
RTVSPost2010PropOp55
 70
     1
102
RTVSPost2010Prop56
140
1.0
102
RTVSPost2010PropOp56
 70
     1
102
RTVSPost2010Prop57
140
1.0
102
RTVSPost2010PropOp57
 70
     1
102
RTVSPropertyOp0
 70
     1
102
RTVSPropertyOp1
 70
     1
102
RTVSPropertyOp2
 70
     1
102
RTVSPropertyOp3
 70
     1
102
RTVSPropertyOp4
 70
     1
102
RTVSPropertyOp5
 70
     1
102
RTVSPropertyOp6
 70
     1
102
RTVSPropertyOp7
 70
     1
102
RTVSPropertyOp8
 70
     1
102
RTVSPropertyOp9
 70
     1
102
RTVSPropertyOp10
 70
     1
102
RTVSPropertyOp11
 70
     1
102
RTVSPropertyOp12
 70
     1
102
RTVSPropertyOp13
 70
     1
102
RTVSPropertyOp14
 70
     1
102
RTVSPropertyOp15
 70
     1
102
RTVSPropertyOp16
 70
     1
102
RTVSPropertyOp17
 70
     1
102
RTVSPropertyOp18
 70
     1
102
RTVSPropertyOp19
 70
     1
102
RTVSPropertyOp20
 70
     1
102
RTVSPropertyOp21
 70
     1
102
RTVSPropertyOp22
 70
     1
102
RTVSPropertyOp23
 70
     1
102
RTVSPropertyOp24
 70
     1
102
RTVSPropertyOp25
 70
     1
102
RTVSPropertyOp26
 70
     1
102
RTVSPropertyOp27
 70
     1
102
RTVSPropertyOp28
 70
     1
102
RTVSPropertyOp29
 70
     1
102
RTVSPropertyOp30
 70
     1
102
RTVSPropertyOp31
 70
     1
102
RTVSPropertyOp32
 70
     1
102
RTVSPropertyOp33
 70
     1
102
RTVSPropertyOp34
 70
     1
102
RTVSPropertyOp35
 70
     1
102
RTVSPropertyOp36
 70
     1
102
RTVSPropertyOp37
 70
     1
102
RTVSPropertyOp38
 70
     1
102
RTVSPropertyOp39
 70
     1
102
RTVSPropertyOp40
 70
     1
102
RTVSPropertyOp41
 70
     1
102
RTVSPropertyOp42
 70
     1
102
RTVSPropertyOp43
 70
     1
102
RTVSPropertyOp44
 70
     1
102
RTVSPropertyOp45
 70
     1
102
RTVSPropertyOp46
 70
     1
102
RTVSPropertyOp47
 70
     1
102
RTVSPropertyOp48
 70
     1
102
RTVSPropertyOp49
 70
     1
102
RTVSPropertyOp50
 70
     1
102
RTVSPropertyOp51
 70
     0
102
RTVSPropertyOp52
 70
     0
102
RTVSPropertyOp53
 70
     1
102
RTVSPropertyOp54
 70
     1
102
RTVSPropertyOp55
 70
     1
102
RTVSPropertyOp56
 70
     1
102
RTVSPropertyOp57
 70
     1
102
RTVSPropertyOp58
 70
     1
102
RTVSPropertyOp59
 70
     1
102
RTVSPropertyOp60
 70
     1
102
RTVSPropertyOp61
 70
     1
102
RTVSPropertyOp62
 70
     1
  0
XRECORD
  5
1807
102
{ACAD_REACTORS
330
1806
102
}
330
1806
100
AcDbXrecord
280
     1
102
RTVSPost2010Prop28
280
     0
102
RTVSPost2010PropOp28
 70
     1
102
RTVSPost2010Prop29
280
     1
102
RTVSPost2010PropOp29
 70
     1
102
RTVSPost2010Prop30
280
     1
102
RTVSPost2010PropOp30
 70
     1
102
RTVSPost2010Prop31
280
     0
102
RTVSPost2010PropOp31
 70
     1
102
RTVSPost2010Prop32
280
     0
102
RTVSPost2010PropOp32
 70
     1
102
RTVSPost2010Prop33
280
     0
102
RTVSPost2010PropOp33
 70
     1
102
RTVSPost2010Prop34
280
     0
102
RTVSPost2010PropOp34
 70
     1
102
RTVSPost2010Prop35
280
     0
102
RTVSPost2010PropOp35
 70
     1
102
RTVSPost2010Prop36
280
     0
102
RTVSPost2010PropOp36
 70
     1
102
RTVSPost2010Prop37
 90
       50
102
RTVSPost2010PropOp37
 70
     0
102
RTVSPost2010Prop38
140
0.0
102
RTVSPost2010PropOp38
 70
     0
102
RTVSPost2010Prop39
140
1.0
102
RTVSPost2010PropOp39
 70
     0
102
RTVSPost2010Prop40
 90
        0
102
RTVSPost2010PropOp40
 70
     0
102
RTVSPost2010Prop41ColorIndex
 90
       18
102
RTVSPost2010Prop41ColorRGB
 90
        0
102
RTVSPost2010PropOp41
 70
     0
102
RTVSPost2010Prop42
 90
       50
102
RTVSPost2010PropOp42
 70
     0
102
RTVSPost2010Prop43
 90
        3
102
RTVSPost2010PropOp43
 70
     0
102
RTVSPost2010Prop44ColorIndex
 90
        5
102
RTVSPost2010Prop44ColorRGB
 90
      255
102
RTVSPost2010PropOp44
 70
     0
102
RTVSPost2010Prop45
280
     0
102
RTVSPost2010PropOp45
 70
     1
102
RTVSPost2010Prop46
 90
       50
102
RTVSPost2010PropOp46
 70
     0
102
RTVSPost2010Prop47
 90
       50
102
RTVSPost2010PropOp47
 70
     0
102
RTVSPost2010Prop48
 90
       50
102
RTVSPost2010PropOp48
 70
     0
102
RTVSPost2010Prop49
280
     0
102
RTVSPost2010PropOp49
 70
     1
102
RTVSPost2010Prop50
 90
       50
102
RTVSPost2010PropOp50
 70
     0
102
RTVSPost2010Prop51ColorIndex
 90
      256
102
RTVSPost2010Prop51ColorRGB
 90
-16777216
102
RTVSPost2010PropOp51
 70
     0
102
RTVSPost2010Prop52
140
1.0
102
RTVSPost2010PropOp52
 70
     0
102
RTVSPost2010Prop53
 90
        2
102
RTVSPost2010PropOp53
 70
     0
102
RTVSPost2010Prop54
  1
strokes_ogs.tif
102
RTVSPost2010PropOp54
 70
     0
102
RTVSPost2010Prop55
280
     0
102
RTVSPost2010PropOp55
 70
     1
102
RTVSPost2010Prop56
140
1.0
102
RTVSPost2010PropOp56
 70
     0
102
RTVSPost2010Prop57
140
1.0
102
RTVSPost2010PropOp57
 70
     0
102
RTVSPropertyOp0
 70
     0
102
RTVSPropertyOp1
 70
     0
102
RTVSPropertyOp2
 70
     0
102
RTVSPropertyOp3
 70
     0
102
RTVSPropertyOp4
 70
     0
102
RTVSPropertyOp5
 70
     0
102
RTVSPropertyOp6
 70
     0
102
RTVSPropertyOp7
 70
     0
102
RTVSPropertyOp8
 70
     0
102
RTVSPropertyOp9
 70
     0
102
RTVSPropertyOp10
 70
     0
102
RTVSPropertyOp11
 70
     0
102
RTVSPropertyOp12
 70
     0
102
RTVSPropertyOp13
 70
     0
102
RTVSPropertyOp14
 70
     2
102
RTVSPropertyOp15
 70
     0
102
RTVSPropertyOp16
 70
     0
102
RTVSPropertyOp17
 70
     0
102
RTVSPropertyOp18
 70
     0
102
RTVSPropertyOp19
 70
     0
102
RTVSPropertyOp20
 70
     0
102
RTVSPropertyOp21
 70
     0
102
RTVSPropertyOp22
 70
     0
102
RTVSPropertyOp23
 70
     0
102
RTVSPropertyOp24
 70
     0
102
RTVSPropertyOp25
 70
     0
102
RTVSPropertyOp26
 70
     0
102
RTVSPropertyOp27
 70
     0
102
RTVSPropertyOp28
 70
     1
102
RTVSPropertyOp29
 70
     1
102
RTVSPropertyOp30
 70
     1
102
RTVSPropertyOp31
 70
     1
102
RTVSPropertyOp32
 70
     1
102
RTVSPropertyOp33
 70
     1
102
RTVSPropertyOp34
 70
     1
102
RTVSPropertyOp35
 70
     1
102
RTVSPropertyOp36
 70
     1
102
RTVSPropertyOp37
 70
     0
102
RTVSPropertyOp38
 70
     0
102
RTVSPropertyOp39
 70
     0
102
RTVSPropertyOp40
 70
     0
102
RTVSPropertyOp41
 70
     0
102
RTVSPropertyOp42
 70
     0
102
RTVSPropertyOp43
 70
     0
102
RTVSPropertyOp44
 70
     0
102
RTVSPropertyOp45
 70
     1
102
RTVSPropertyOp46
 70
     0
102
RTVSPropertyOp47
 70
     0
102
RTVSPropertyOp48
 70
     0
102
RTVSPropertyOp49
 70
     1
102
RTVSPropertyOp50
 70
     0
102
RTVSPropertyOp51
 70
     0
102
RTVSPropertyOp52
 70
     0
102
RTVSPropertyOp53
 70
     0
102
RTVSPropertyOp54
 70
     0
102
RTVSPropertyOp55
 70
     1
102
RTVSPropertyOp56
 70
     0
102
RTVSPropertyOp57
 70
     0
102
RTVSPropertyOp58
 70
     0
102
RTVSPropertyOp59
 70
     0
102
RTVSPropertyOp60
 70
     0
102
RTVSPropertyOp61
 70
     0
102
RTVSPropertyOp62
 70
     0
  0
XRECORD
  5
17F7
102
{ACAD_REACTORS
330
17F6
102
}
330
17F6
100
AcDbXrecord
280
     1
102
RTVSPost2010Prop28
280
     0
102
RTVSPost2010PropOp28
 70
     1
102
RTVSPost2010Prop29
280
     1
102
RTVSPost2010PropOp29
 70
     1
102
RTVSPost2010Prop30
280
     1
102
RTVSPost2010PropOp30
 70
     1
102
RTVSPost2010Prop31
280
     0
102
RTVSPost2010PropOp31
 70
     1
102
RTVSPost2010Prop32
280
     0
102
RTVSPost2010PropOp32
 70
     1
102
RTVSPost2010Prop33
280
     0
102
RTVSPost2010PropOp33
 70
     1
102
RTVSPost2010Prop34
280
     0
102
RTVSPost2010PropOp34
 70
     1
102
RTVSPost2010Prop35
280
     0
102
RTVSPost2010PropOp35
 70
     1
102
RTVSPost2010Prop36
280
     0
102
RTVSPost2010PropOp36
 70
     1
102
RTVSPost2010Prop37
 90
       50
102
RTVSPost2010PropOp37
 70
     1
102
RTVSPost2010Prop38
140
0.0
102
RTVSPost2010PropOp38
 70
     1
102
RTVSPost2010Prop39
140
1.0
102
RTVSPost2010PropOp39
 70
     1
102
RTVSPost2010Prop40
 90
        0
102
RTVSPost2010PropOp40
 70
     1
102
RTVSPost2010Prop41ColorIndex
 90
       18
102
RTVSPost2010Prop41ColorRGB
 90
        0
102
RTVSPost2010PropOp41
 70
     1
102
RTVSPost2010Prop42
 90
       50
102
RTVSPost2010PropOp42
 70
     1
102
RTVSPost2010Prop43
 90
        3
102
RTVSPost2010PropOp43
 70
     1
102
RTVSPost2010Prop44ColorIndex
 90
        5
102
RTVSPost2010Prop44ColorRGB
 90
      255
102
RTVSPost2010PropOp44
 70
     1
102
RTVSPost2010Prop45
280
     0
102
RTVSPost2010PropOp45
 70
     1
102
RTVSPost2010Prop46
 90
       50
102
RTVSPost2010PropOp46
 70
     1
102
RTVSPost2010Prop47
 90
       50
102
RTVSPost2010PropOp47
 70
     1
102
RTVSPost2010Prop48
 90
       50
102
RTVSPost2010PropOp48
 70
     1
102
RTVSPost2010Prop49
280
     0
102
RTVSPost2010PropOp49
 70
     1
102
RTVSPost2010Prop50
 90
       50
102
RTVSPost2010PropOp50
 70
     1
102
RTVSPost2010Prop51ColorIndex
 90
      256
102
RTVSPost2010Prop51ColorRGB
 90
-16777216
102
RTVSPost2010PropOp51
 70
     0
102
RTVSPost2010Prop52
140
1.0
102
RTVSPost2010PropOp52
 70
     0
102
RTVSPost2010Prop53
 90
        2
102
RTVSPost2010PropOp53
 70
     1
102
RTVSPost2010Prop54
  1
strokes_ogs.tif
102
RTVSPost2010PropOp54
 70
     1
102
RTVSPost2010Prop55
280
     0
102
RTVSPost2010PropOp55
 70
     1
102
RTVSPost2010Prop56
140
1.0
102
RTVSPost2010PropOp56
 70
     1
102
RTVSPost2010Prop57
140
1.0
102
RTVSPost2010PropOp57
 70
     1
102
RTVSPropertyOp0
 70
     1
102
RTVSPropertyOp1
 70
     1
102
RTVSPropertyOp2
 70
     1
102
RTVSPropertyOp3
 70
     1
102
RTVSPropertyOp4
 70
     1
102
RTVSPropertyOp5
 70
     1
102
RTVSPropertyOp6
 70
     1
102
RTVSPropertyOp7
 70
     1
102
RTVSPropertyOp8
 70
     1
102
RTVSPropertyOp9
 70
     1
102
RTVSPropertyOp10
 70
     1
102
RTVSPropertyOp11
 70
     1
102
RTVSPropertyOp12
 70
     1
102
RTVSPropertyOp13
 70
     1
102
RTVSPropertyOp14
 70
     1
102
RTVSPropertyOp15
 70
     1
102
RTVSPropertyOp16
 70
     1
102
RTVSPropertyOp17
 70
     1
102
RTVSPropertyOp18
 70
     1
102
RTVSPropertyOp19
 70
     1
102
RTVSPropertyOp20
 70
     1
102
RTVSPropertyOp21
 70
     1
102
RTVSPropertyOp22
 70
     1
102
RTVSPropertyOp23
 70
     1
102
RTVSPropertyOp24
 70
     1
102
RTVSPropertyOp25
 70
     1
102
RTVSPropertyOp26
 70
     1
102
RTVSPropertyOp27
 70
     1
102
RTVSPropertyOp28
 70
     1
102
RTVSPropertyOp29
 70
     1
102
RTVSPropertyOp30
 70
     1
102
RTVSPropertyOp31
 70
     1
102
RTVSPropertyOp32
 70
     1
102
RTVSPropertyOp33
 70
     1
102
RTVSPropertyOp34
 70
     1
102
RTVSPropertyOp35
 70
     1
102
RTVSPropertyOp36
 70
     1
102
RTVSPropertyOp37
 70
     1
102
RTVSPropertyOp38
 70
     1
102
RTVSPropertyOp39
 70
     1
102
RTVSPropertyOp40
 70
     1
102
RTVSPropertyOp41
 70
     1
102
RTVSPropertyOp42
 70
     1
102
RTVSPropertyOp43
 70
     1
102
RTVSPropertyOp44
 70
     1
102
RTVSPropertyOp45
 70
     1
102
RTVSPropertyOp46
 70
     1
102
RTVSPropertyOp47
 70
     1
102
RTVSPropertyOp48
 70
     1
102
RTVSPropertyOp49
 70
     1
102
RTVSPropertyOp50
 70
     1
102
RTVSPropertyOp51
 70
     0
102
RTVSPropertyOp52
 70
     0
102
RTVSPropertyOp53
 70
     1
102
RTVSPropertyOp54
 70
     1
102
RTVSPropertyOp55
 70
     1
102
RTVSPropertyOp56
 70
     1
102
RTVSPropertyOp57
 70
     1
102
RTVSPropertyOp58
 70
     1
102
RTVSPropertyOp59
 70
     1
102
RTVSPropertyOp60
 70
     1
102
RTVSPropertyOp61
 70
     1
102
RTVSPropertyOp62
 70
     1
  0
XRECORD
  5
1809
102
{ACAD_REACTORS
330
1808
102
}
330
1808
100
AcDbXrecord
280
     1
102
RTVSPost2010Prop28
280
     0
102
RTVSPost2010PropOp28
 70
     1
102
RTVSPost2010Prop29
280
     1
102
RTVSPost2010PropOp29
 70
     1
102
RTVSPost2010Prop30
280
     1
102
RTVSPost2010PropOp30
 70
     1
102
RTVSPost2010Prop31
280
     0
102
RTVSPost2010PropOp31
 70
     1
102
RTVSPost2010Prop32
280
     0
102
RTVSPost2010PropOp32
 70
     1
102
RTVSPost2010Prop33
280
     0
102
RTVSPost2010PropOp33
 70
     1
102
RTVSPost2010Prop34
280
     0
102
RTVSPost2010PropOp34
 70
     1
102
RTVSPost2010Prop35
280
     0
102
RTVSPost2010PropOp35
 70
     1
102
RTVSPost2010Prop36
280
     0
102
RTVSPost2010PropOp36
 70
     1
102
RTVSPost2010Prop37
 90
       50
102
RTVSPost2010PropOp37
 70
     0
102
RTVSPost2010Prop38
140
0.0
102
RTVSPost2010PropOp38
 70
     0
102
RTVSPost2010Prop39
140
1.0
102
RTVSPost2010PropOp39
 70
     0
102
RTVSPost2010Prop40
 90
        0
102
RTVSPost2010PropOp40
 70
     0
102
RTVSPost2010Prop41ColorIndex
 90
       18
102
RTVSPost2010Prop41ColorRGB
 90
        0
102
RTVSPost2010PropOp41
 70
     0
102
RTVSPost2010Prop42
 90
       50
102
RTVSPost2010PropOp42
 70
     0
102
RTVSPost2010Prop43
 90
        3
102
RTVSPost2010PropOp43
 70
     0
102
RTVSPost2010Prop44ColorIndex
 90
        5
102
RTVSPost2010Prop44ColorRGB
 90
      255
102
RTVSPost2010PropOp44
 70
     0
102
RTVSPost2010Prop45
280
     0
102
RTVSPost2010PropOp45
 70
     1
102
RTVSPost2010Prop46
 90
       50
102
RTVSPost2010PropOp46
 70
     0
102
RTVSPost2010Prop47
 90
       50
102
RTVSPost2010PropOp47
 70
     0
102
RTVSPost2010Prop48
 90
       50
102
RTVSPost2010PropOp48
 70
     0
102
RTVSPost2010Prop49
280
     0
102
RTVSPost2010PropOp49
 70
     1
102
RTVSPost2010Prop50
 90
       50
102
RTVSPost2010PropOp50
 70
     0
102
RTVSPost2010Prop51ColorIndex
 90
      256
102
RTVSPost2010Prop51ColorRGB
 90
-16777216
102
RTVSPost2010PropOp51
 70
     0
102
RTVSPost2010Prop52
140
1.0
102
RTVSPost2010PropOp52
 70
     0
102
RTVSPost2010Prop53
 90
        2
102
RTVSPost2010PropOp53
 70
     0
102
RTVSPost2010Prop54
  1
strokes_ogs.tif
102
RTVSPost2010PropOp54
 70
     0
102
RTVSPost2010Prop55
280
     0
102
RTVSPost2010PropOp55
 70
     1
102
RTVSPost2010Prop56
140
1.0
102
RTVSPost2010PropOp56
 70
     0
102
RTVSPost2010Prop57
140
1.0
102
RTVSPost2010PropOp57
 70
     0
102
RTVSPropertyOp0
 70
     0
102
RTVSPropertyOp1
 70
     0
102
RTVSPropertyOp2
 70
     0
102
RTVSPropertyOp3
 70
     0
102
RTVSPropertyOp4
 70
     0
102
RTVSPropertyOp5
 70
     0
102
RTVSPropertyOp6
 70
     0
102
RTVSPropertyOp7
 70
     0
102
RTVSPropertyOp8
 70
     0
102
RTVSPropertyOp9
 70
     0
102
RTVSPropertyOp10
 70
     0
102
RTVSPropertyOp11
 70
     0
102
RTVSPropertyOp12
 70
     0
102
RTVSPropertyOp13
 70
     0
102
RTVSPropertyOp14
 70
     2
102
RTVSPropertyOp15
 70
     0
102
RTVSPropertyOp16
 70
     0
102
RTVSPropertyOp17
 70
     0
102
RTVSPropertyOp18
 70
     0
102
RTVSPropertyOp19
 70
     0
102
RTVSPropertyOp20
 70
     0
102
RTVSPropertyOp21
 70
     0
102
RTVSPropertyOp22
 70
     0
102
RTVSPropertyOp23
 70
     0
102
RTVSPropertyOp24
 70
     0
102
RTVSPropertyOp25
 70
     0
102
RTVSPropertyOp26
 70
     0
102
RTVSPropertyOp27
 70
     0
102
RTVSPropertyOp28
 70
     1
102
RTVSPropertyOp29
 70
     1
102
RTVSPropertyOp30
 70
     1
102
RTVSPropertyOp31
 70
     1
102
RTVSPropertyOp32
 70
     1
102
RTVSPropertyOp33
 70
     1
102
RTVSPropertyOp34
 70
     1
102
RTVSPropertyOp35
 70
     1
102
RTVSPropertyOp36
 70
     1
102
RTVSPropertyOp37
 70
     0
102
RTVSPropertyOp38
 70
     0
102
RTVSPropertyOp39
 70
     0
102
RTVSPropertyOp40
 70
     0
102
RTVSPropertyOp41
 70
     0
102
RTVSPropertyOp42
 70
     0
102
RTVSPropertyOp43
 70
     0
102
RTVSPropertyOp44
 70
     0
102
RTVSPropertyOp45
 70
     1
102
RTVSPropertyOp46
 70
     0
102
RTVSPropertyOp47
 70
     0
102
RTVSPropertyOp48
 70
     0
102
RTVSPropertyOp49
 70
     1
102
RTVSPropertyOp50
 70
     0
102
RTVSPropertyOp51
 70
     0
102
RTVSPropertyOp52
 70
     0
102
RTVSPropertyOp53
 70
     0
102
RTVSPropertyOp54
 70
     0
102
RTVSPropertyOp55
 70
     1
102
RTVSPropertyOp56
 70
     0
102
RTVSPropertyOp57
 70
     0
102
RTVSPropertyOp58
 70
     0
102
RTVSPropertyOp59
 70
     0
102
RTVSPropertyOp60
 70
     0
102
RTVSPropertyOp61
 70
     0
102
RTVSPropertyOp62
 70
     0
  0
XRECORD
  5
17EF
102
{ACAD_REACTORS
330
17EE
102
}
330
17EE
100
AcDbXrecord
280
     1
102
RTVSPost2010Prop28
280
     0
102
RTVSPost2010PropOp28
 70
     1
102
RTVSPost2010Prop29
280
     1
102
RTVSPost2010PropOp29
 70
     1
102
RTVSPost2010Prop30
280
     1
102
RTVSPost2010PropOp30
 70
     1
102
RTVSPost2010Prop31
280
     0
102
RTVSPost2010PropOp31
 70
     1
102
RTVSPost2010Prop32
280
     0
102
RTVSPost2010PropOp32
 70
     1
102
RTVSPost2010Prop33
280
     0
102
RTVSPost2010PropOp33
 70
     1
102
RTVSPost2010Prop34
280
     0
102
RTVSPost2010PropOp34
 70
     1
102
RTVSPost2010Prop35
280
     0
102
RTVSPost2010PropOp35
 70
     1
102
RTVSPost2010Prop36
280
     0
102
RTVSPost2010PropOp36
 70
     1
102
RTVSPost2010Prop37
 90
       50
102
RTVSPost2010PropOp37
 70
     1
102
RTVSPost2010Prop38
140
0.0
102
RTVSPost2010PropOp38
 70
     1
102
RTVSPost2010Prop39
140
1.0
102
RTVSPost2010PropOp39
 70
     1
102
RTVSPost2010Prop40
 90
        0
102
RTVSPost2010PropOp40
 70
     1
102
RTVSPost2010Prop41ColorIndex
 90
       18
102
RTVSPost2010Prop41ColorRGB
 90
        0
102
RTVSPost2010PropOp41
 70
     1
102
RTVSPost2010Prop42
 90
       50
102
RTVSPost2010PropOp42
 70
     1
102
RTVSPost2010Prop43
 90
        3
102
RTVSPost2010PropOp43
 70
     1
102
RTVSPost2010Prop44ColorIndex
 90
        5
102
RTVSPost2010Prop44ColorRGB
 90
      255
102
RTVSPost2010PropOp44
 70
     1
102
RTVSPost2010Prop45
280
     0
102
RTVSPost2010PropOp45
 70
     1
102
RTVSPost2010Prop46
 90
       50
102
RTVSPost2010PropOp46
 70
     1
102
RTVSPost2010Prop47
 90
       50
102
RTVSPost2010PropOp47
 70
     1
102
RTVSPost2010Prop48
 90
       50
102
RTVSPost2010PropOp48
 70
     1
102
RTVSPost2010Prop49
280
     0
102
RTVSPost2010PropOp49
 70
     1
102
RTVSPost2010Prop50
 90
       50
102
RTVSPost2010PropOp50
 70
     1
102
RTVSPost2010Prop51ColorIndex
 90
      256
102
RTVSPost2010Prop51ColorRGB
 90
-16777216
102
RTVSPost2010PropOp51
 70
     0
102
RTVSPost2010Prop52
140
1.0
102
RTVSPost2010PropOp52
 70
     0
102
RTVSPost2010Prop53
 90
        2
102
RTVSPost2010PropOp53
 70
     1
102
RTVSPost2010Prop54
  1
strokes_ogs.tif
102
RTVSPost2010PropOp54
 70
     1
102
RTVSPost2010Prop55
280
     0
102
RTVSPost2010PropOp55
 70
     1
102
RTVSPost2010Prop56
140
1.0
102
RTVSPost2010PropOp56
 70
     1
102
RTVSPost2010Prop57
140
1.0
102
RTVSPost2010PropOp57
 70
     1
102
RTVSPropertyOp0
 70
     1
102
RTVSPropertyOp1
 70
     1
102
RTVSPropertyOp2
 70
     1
102
RTVSPropertyOp3
 70
     1
102
RTVSPropertyOp4
 70
     1
102
RTVSPropertyOp5
 70
     1
102
RTVSPropertyOp6
 70
     1
102
RTVSPropertyOp7
 70
     1
102
RTVSPropertyOp8
 70
     1
102
RTVSPropertyOp9
 70
     1
102
RTVSPropertyOp10
 70
     1
102
RTVSPropertyOp11
 70
     1
102
RTVSPropertyOp12
 70
     1
102
RTVSPropertyOp13
 70
     1
102
RTVSPropertyOp14
 70
     1
102
RTVSPropertyOp15
 70
     1
102
RTVSPropertyOp16
 70
     1
102
RTVSPropertyOp17
 70
     1
102
RTVSPropertyOp18
 70
     1
102
RTVSPropertyOp19
 70
     1
102
RTVSPropertyOp20
 70
     1
102
RTVSPropertyOp21
 70
     1
102
RTVSPropertyOp22
 70
     1
102
RTVSPropertyOp23
 70
     1
102
RTVSPropertyOp24
 70
     1
102
RTVSPropertyOp25
 70
     1
102
RTVSPropertyOp26
 70
     1
102
RTVSPropertyOp27
 70
     1
102
RTVSPropertyOp28
 70
     1
102
RTVSPropertyOp29
 70
     1
102
RTVSPropertyOp30
 70
     1
102
RTVSPropertyOp31
 70
     1
102
RTVSPropertyOp32
 70
     1
102
RTVSPropertyOp33
 70
     1
102
RTVSPropertyOp34
 70
     1
102
RTVSPropertyOp35
 70
     1
102
RTVSPropertyOp36
 70
     1
102
RTVSPropertyOp37
 70
     1
102
RTVSPropertyOp38
 70
     1
102
RTVSPropertyOp39
 70
     1
102
RTVSPropertyOp40
 70
     1
102
RTVSPropertyOp41
 70
     1
102
RTVSPropertyOp42
 70
     1
102
RTVSPropertyOp43
 70
     1
102
RTVSPropertyOp44
 70
     1
102
RTVSPropertyOp45
 70
     1
102
RTVSPropertyOp46
 70
     1
102
RTVSPropertyOp47
 70
     1
102
RTVSPropertyOp48
 70
     1
102
RTVSPropertyOp49
 70
     1
102
RTVSPropertyOp50
 70
     1
102
RTVSPropertyOp51
 70
     0
102
RTVSPropertyOp52
 70
     0
102
RTVSPropertyOp53
 70
     1
102
RTVSPropertyOp54
 70
     1
102
RTVSPropertyOp55
 70
     1
102
RTVSPropertyOp56
 70
     1
102
RTVSPropertyOp57
 70
     1
102
RTVSPropertyOp58
 70
     1
102
RTVSPropertyOp59
 70
     1
102
RTVSPropertyOp60
 70
     1
102
RTVSPropertyOp61
 70
     1
102
RTVSPropertyOp62
 70
     1
  0
XRECORD
  5
1805
102
{ACAD_REACTORS
330
1804
102
}
330
1804
100
AcDbXrecord
280
     1
102
RTVSPost2010Prop28
280
     0
102
RTVSPost2010PropOp28
 70
     1
102
RTVSPost2010Prop29
280
     1
102
RTVSPost2010PropOp29
 70
     1
102
RTVSPost2010Prop30
280
     1
102
RTVSPost2010PropOp30
 70
     1
102
RTVSPost2010Prop31
280
     0
102
RTVSPost2010PropOp31
 70
     1
102
RTVSPost2010Prop32
280
     0
102
RTVSPost2010PropOp32
 70
     1
102
RTVSPost2010Prop33
280
     0
102
RTVSPost2010PropOp33
 70
     1
102
RTVSPost2010Prop34
280
     0
102
RTVSPost2010PropOp34
 70
     1
102
RTVSPost2010Prop35
280
     0
102
RTVSPost2010PropOp35
 70
     1
102
RTVSPost2010Prop36
280
     0
102
RTVSPost2010PropOp36
 70
     1
102
RTVSPost2010Prop37
 90
       50
102
RTVSPost2010PropOp37
 70
     1
102
RTVSPost2010Prop38
140
0.0
102
RTVSPost2010PropOp38
 70
     1
102
RTVSPost2010Prop39
140
1.0
102
RTVSPost2010PropOp39
 70
     1
102
RTVSPost2010Prop40
 90
        0
102
RTVSPost2010PropOp40
 70
     1
102
RTVSPost2010Prop41ColorIndex
 90
       18
102
RTVSPost2010Prop41ColorRGB
 90
        0
102
RTVSPost2010PropOp41
 70
     1
102
RTVSPost2010Prop42
 90
       50
102
RTVSPost2010PropOp42
 70
     1
102
RTVSPost2010Prop43
 90
        3
102
RTVSPost2010PropOp43
 70
     1
102
RTVSPost2010Prop44ColorIndex
 90
        5
102
RTVSPost2010Prop44ColorRGB
 90
      255
102
RTVSPost2010PropOp44
 70
     1
102
RTVSPost2010Prop45
280
     0
102
RTVSPost2010PropOp45
 70
     1
102
RTVSPost2010Prop46
 90
       50
102
RTVSPost2010PropOp46
 70
     1
102
RTVSPost2010Prop47
 90
       50
102
RTVSPost2010PropOp47
 70
     1
102
RTVSPost2010Prop48
 90
       50
102
RTVSPost2010PropOp48
 70
     1
102
RTVSPost2010Prop49
280
     0
102
RTVSPost2010PropOp49
 70
     1
102
RTVSPost2010Prop50
 90
       50
102
RTVSPost2010PropOp50
 70
     1
102
RTVSPost2010Prop51ColorIndex
 90
      256
102
RTVSPost2010Prop51ColorRGB
 90
-16777216
102
RTVSPost2010PropOp51
 70
     0
102
RTVSPost2010Prop52
140
1.0
102
RTVSPost2010PropOp52
 70
     0
102
RTVSPost2010Prop53
 90
        2
102
RTVSPost2010PropOp53
 70
     1
102
RTVSPost2010Prop54
  1
strokes_ogs.tif
102
RTVSPost2010PropOp54
 70
     1
102
RTVSPost2010Prop55
280
     0
102
RTVSPost2010PropOp55
 70
     1
102
RTVSPost2010Prop56
140
1.0
102
RTVSPost2010PropOp56
 70
     1
102
RTVSPost2010Prop57
140
1.0
102
RTVSPost2010PropOp57
 70
     1
102
RTVSPropertyOp0
 70
     1
102
RTVSPropertyOp1
 70
     1
102
RTVSPropertyOp2
 70
     1
102
RTVSPropertyOp3
 70
     1
102
RTVSPropertyOp4
 70
     1
102
RTVSPropertyOp5
 70
     1
102
RTVSPropertyOp6
 70
     1
102
RTVSPropertyOp7
 70
     1
102
RTVSPropertyOp8
 70
     1
102
RTVSPropertyOp9
 70
     1
102
RTVSPropertyOp10
 70
     1
102
RTVSPropertyOp11
 70
     1
102
RTVSPropertyOp12
 70
     1
102
RTVSPropertyOp13
 70
     1
102
RTVSPropertyOp14
 70
     1
102
RTVSPropertyOp15
 70
     1
102
RTVSPropertyOp16
 70
     1
102
RTVSPropertyOp17
 70
     1
102
RTVSPropertyOp18
 70
     1
102
RTVSPropertyOp19
 70
     1
102
RTVSPropertyOp20
 70
     1
102
RTVSPropertyOp21
 70
     1
102
RTVSPropertyOp22
 70
     1
102
RTVSPropertyOp23
 70
     1
102
RTVSPropertyOp24
 70
     1
102
RTVSPropertyOp25
 70
     1
102
RTVSPropertyOp26
 70
     1
102
RTVSPropertyOp27
 70
     1
102
RTVSPropertyOp28
 70
     1
102
RTVSPropertyOp29
 70
     1
102
RTVSPropertyOp30
 70
     1
102
RTVSPropertyOp31
 70
     1
102
RTVSPropertyOp32
 70
     1
102
RTVSPropertyOp33
 70
     1
102
RTVSPropertyOp34
 70
     1
102
RTVSPropertyOp35
 70
     1
102
RTVSPropertyOp36
 70
     1
102
RTVSPropertyOp37
 70
     1
102
RTVSPropertyOp38
 70
     1
102
RTVSPropertyOp39
 70
     1
102
RTVSPropertyOp40
 70
     1
102
RTVSPropertyOp41
 70
     1
102
RTVSPropertyOp42
 70
     1
102
RTVSPropertyOp43
 70
     1
102
RTVSPropertyOp44
 70
     1
102
RTVSPropertyOp45
 70
     1
102
RTVSPropertyOp46
 70
     1
102
RTVSPropertyOp47
 70
     1
102
RTVSPropertyOp48
 70
     1
102
RTVSPropertyOp49
 70
     1
102
RTVSPropertyOp50
 70
     1
102
RTVSPropertyOp51
 70
     0
102
RTVSPropertyOp52
 70
     0
102
RTVSPropertyOp53
 70
     1
102
RTVSPropertyOp54
 70
     1
102
RTVSPropertyOp55
 70
     1
102
RTVSPropertyOp56
 70
     1
102
RTVSPropertyOp57
 70
     1
102
RTVSPropertyOp58
 70
     1
102
RTVSPropertyOp59
 70
     1
102
RTVSPropertyOp60
 70
     1
102
RTVSPropertyOp61
 70
     1
102
RTVSPropertyOp62
 70
     1
  0
XRECORD
  5
1803
102
{ACAD_REACTORS
330
1802
102
}
330
1802
100
AcDbXrecord
280
     1
102
RTVSPost2010Prop28
280
     0
102
RTVSPost2010PropOp28
 70
     1
102
RTVSPost2010Prop29
280
     1
102
RTVSPost2010PropOp29
 70
     1
102
RTVSPost2010Prop30
280
     1
102
RTVSPost2010PropOp30
 70
     1
102
RTVSPost2010Prop31
280
     0
102
RTVSPost2010PropOp31
 70
     1
102
RTVSPost2010Prop32
280
     0
102
RTVSPost2010PropOp32
 70
     1
102
RTVSPost2010Prop33
280
     0
102
RTVSPost2010PropOp33
 70
     1
102
RTVSPost2010Prop34
280
     0
102
RTVSPost2010PropOp34
 70
     1
102
RTVSPost2010Prop35
280
     0
102
RTVSPost2010PropOp35
 70
     1
102
RTVSPost2010Prop36
280
     0
102
RTVSPost2010PropOp36
 70
     1
102
RTVSPost2010Prop37
 90
       50
102
RTVSPost2010PropOp37
 70
     1
102
RTVSPost2010Prop38
140
0.0
102
RTVSPost2010PropOp38
 70
     1
102
RTVSPost2010Prop39
140
1.0
102
RTVSPost2010PropOp39
 70
     1
102
RTVSPost2010Prop40
 90
        0
102
RTVSPost2010PropOp40
 70
     1
102
RTVSPost2010Prop41ColorIndex
 90
       18
102
RTVSPost2010Prop41ColorRGB
 90
        0
102
RTVSPost2010PropOp41
 70
     1
102
RTVSPost2010Prop42
 90
       50
102
RTVSPost2010PropOp42
 70
     1
102
RTVSPost2010Prop43
 90
        3
102
RTVSPost2010PropOp43
 70
     1
102
RTVSPost2010Prop44ColorIndex
 90
        5
102
RTVSPost2010Prop44ColorRGB
 90
      255
102
RTVSPost2010PropOp44
 70
     1
102
RTVSPost2010Prop45
280
     0
102
RTVSPost2010PropOp45
 70
     1
102
RTVSPost2010Prop46
 90
       50
102
RTVSPost2010PropOp46
 70
     1
102
RTVSPost2010Prop47
 90
       50
102
RTVSPost2010PropOp47
 70
     1
102
RTVSPost2010Prop48
 90
       50
102
RTVSPost2010PropOp48
 70
     1
102
RTVSPost2010Prop49
280
     0
102
RTVSPost2010PropOp49
 70
     1
102
RTVSPost2010Prop50
 90
       50
102
RTVSPost2010PropOp50
 70
     1
102
RTVSPost2010Prop51ColorIndex
 90
      256
102
RTVSPost2010Prop51ColorRGB
 90
-16777216
102
RTVSPost2010PropOp51
 70
     0
102
RTVSPost2010Prop52
140
1.0
102
RTVSPost2010PropOp52
 70
     0
102
RTVSPost2010Prop53
 90
        2
102
RTVSPost2010PropOp53
 70
     1
102
RTVSPost2010Prop54
  1
strokes_ogs.tif
102
RTVSPost2010PropOp54
 70
     1
102
RTVSPost2010Prop55
280
     0
102
RTVSPost2010PropOp55
 70
     1
102
RTVSPost2010Prop56
140
1.0
102
RTVSPost2010PropOp56
 70
     1
102
RTVSPost2010Prop57
140
1.0
102
RTVSPost2010PropOp57
 70
     1
102
RTVSPropertyOp0
 70
     1
102
RTVSPropertyOp1
 70
     1
102
RTVSPropertyOp2
 70
     1
102
RTVSPropertyOp3
 70
     1
102
RTVSPropertyOp4
 70
     1
102
RTVSPropertyOp5
 70
     1
102
RTVSPropertyOp6
 70
     1
102
RTVSPropertyOp7
 70
     1
102
RTVSPropertyOp8
 70
     1
102
RTVSPropertyOp9
 70
     1
102
RTVSPropertyOp10
 70
     1
102
RTVSPropertyOp11
 70
     1
102
RTVSPropertyOp12
 70
     1
102
RTVSPropertyOp13
 70
     1
102
RTVSPropertyOp14
 70
     1
102
RTVSPropertyOp15
 70
     1
102
RTVSPropertyOp16
 70
     1
102
RTVSPropertyOp17
 70
     1
102
RTVSPropertyOp18
 70
     1
102
RTVSPropertyOp19
 70
     1
102
RTVSPropertyOp20
 70
     1
102
RTVSPropertyOp21
 70
     1
102
RTVSPropertyOp22
 70
     1
102
RTVSPropertyOp23
 70
     1
102
RTVSPropertyOp24
 70
     1
102
RTVSPropertyOp25
 70
     1
102
RTVSPropertyOp26
 70
     1
102
RTVSPropertyOp27
 70
     1
102
RTVSPropertyOp28
 70
     1
102
RTVSPropertyOp29
 70
     1
102
RTVSPropertyOp30
 70
     1
102
RTVSPropertyOp31
 70
     1
102
RTVSPropertyOp32
 70
     1
102
RTVSPropertyOp33
 70
     1
102
RTVSPropertyOp34
 70
     1
102
RTVSPropertyOp35
 70
     1
102
RTVSPropertyOp36
 70
     1
102
RTVSPropertyOp37
 70
     1
102
RTVSPropertyOp38
 70
     1
102
RTVSPropertyOp39
 70
     1
102
RTVSPropertyOp40
 70
     1
102
RTVSPropertyOp41
 70
     1
102
RTVSPropertyOp42
 70
     1
102
RTVSPropertyOp43
 70
     1
102
RTVSPropertyOp44
 70
     1
102
RTVSPropertyOp45
 70
     1
102
RTVSPropertyOp46
 70
     1
102
RTVSPropertyOp47
 70
     1
102
RTVSPropertyOp48
 70
     1
102
RTVSPropertyOp49
 70
     1
102
RTVSPropertyOp50
 70
     1
102
RTVSPropertyOp51
 70
     0
102
RTVSPropertyOp52
 70
     0
102
RTVSPropertyOp53
 70
     1
102
RTVSPropertyOp54
 70
     1
102
RTVSPropertyOp55
 70
     1
102
RTVSPropertyOp56
 70
     1
102
RTVSPropertyOp57
 70
     1
102
RTVSPropertyOp58
 70
     1
102
RTVSPropertyOp59
 70
     1
102
RTVSPropertyOp60
 70
     1
102
RTVSPropertyOp61
 70
     1
102
RTVSPropertyOp62
 70
     1
  0
XRECORD
  5
17FD
102
{ACAD_REACTORS
330
17FC
102
}
330
17FC
100
AcDbXrecord
280
     1
102
RTVSPost2010Prop28
280
     0
102
RTVSPost2010PropOp28
 70
     1
102
RTVSPost2010Prop29
280
     1
102
RTVSPost2010PropOp29
 70
     1
102
RTVSPost2010Prop30
280
     1
102
RTVSPost2010PropOp30
 70
     1
102
RTVSPost2010Prop31
280
     0
102
RTVSPost2010PropOp31
 70
     1
102
RTVSPost2010Prop32
280
     0
102
RTVSPost2010PropOp32
 70
     1
102
RTVSPost2010Prop33
280
     0
102
RTVSPost2010PropOp33
 70
     1
102
RTVSPost2010Prop34
280
     0
102
RTVSPost2010PropOp34
 70
     1
102
RTVSPost2010Prop35
280
     0
102
RTVSPost2010PropOp35
 70
     1
102
RTVSPost2010Prop36
280
     0
102
RTVSPost2010PropOp36
 70
     1
102
RTVSPost2010Prop37
 90
       50
102
RTVSPost2010PropOp37
 70
     1
102
RTVSPost2010Prop38
140
0.0
102
RTVSPost2010PropOp38
 70
     1
102
RTVSPost2010Prop39
140
1.0
102
RTVSPost2010PropOp39
 70
     1
102
RTVSPost2010Prop40
 90
        0
102
RTVSPost2010PropOp40
 70
     1
102
RTVSPost2010Prop41ColorIndex
 90
       18
102
RTVSPost2010Prop41ColorRGB
 90
        0
102
RTVSPost2010PropOp41
 70
     1
102
RTVSPost2010Prop42
 90
       50
102
RTVSPost2010PropOp42
 70
     1
102
RTVSPost2010Prop43
 90
        3
102
RTVSPost2010PropOp43
 70
     1
102
RTVSPost2010Prop44ColorIndex
 90
        5
102
RTVSPost2010Prop44ColorRGB
 90
      255
102
RTVSPost2010PropOp44
 70
     1
102
RTVSPost2010Prop45
280
     0
102
RTVSPost2010PropOp45
 70
     1
102
RTVSPost2010Prop46
 90
       50
102
RTVSPost2010PropOp46
 70
     1
102
RTVSPost2010Prop47
 90
       50
102
RTVSPost2010PropOp47
 70
     1
102
RTVSPost2010Prop48
 90
       50
102
RTVSPost2010PropOp48
 70
     1
102
RTVSPost2010Prop49
280
     0
102
RTVSPost2010PropOp49
 70
     1
102
RTVSPost2010Prop50
 90
       50
102
RTVSPost2010PropOp50
 70
     1
102
RTVSPost2010Prop51ColorIndex
 90
      256
102
RTVSPost2010Prop51ColorRGB
 90
-16777216
102
RTVSPost2010PropOp51
 70
     0
102
RTVSPost2010Prop52
140
1.0
102
RTVSPost2010PropOp52
 70
     0
102
RTVSPost2010Prop53
 90
        2
102
RTVSPost2010PropOp53
 70
     1
102
RTVSPost2010Prop54
  1
strokes_ogs.tif
102
RTVSPost2010PropOp54
 70
     1
102
RTVSPost2010Prop55
280
     0
102
RTVSPost2010PropOp55
 70
     1
102
RTVSPost2010Prop56
140
1.0
102
RTVSPost2010PropOp56
 70
     1
102
RTVSPost2010Prop57
140
1.0
102
RTVSPost2010PropOp57
 70
     1
102
RTVSPropertyOp0
 70
     1
102
RTVSPropertyOp1
 70
     1
102
RTVSPropertyOp2
 70
     1
102
RTVSPropertyOp3
 70
     1
102
RTVSPropertyOp4
 70
     1
102
RTVSPropertyOp5
 70
     1
102
RTVSPropertyOp6
 70
     1
102
RTVSPropertyOp7
 70
     1
102
RTVSPropertyOp8
 70
     1
102
RTVSPropertyOp9
 70
     1
102
RTVSPropertyOp10
 70
     1
102
RTVSPropertyOp11
 70
     1
102
RTVSPropertyOp12
 70
     1
102
RTVSPropertyOp13
 70
     1
102
RTVSPropertyOp14
 70
     1
102
RTVSPropertyOp15
 70
     1
102
RTVSPropertyOp16
 70
     1
102
RTVSPropertyOp17
 70
     1
102
RTVSPropertyOp18
 70
     1
102
RTVSPropertyOp19
 70
     1
102
RTVSPropertyOp20
 70
     1
102
RTVSPropertyOp21
 70
     1
102
RTVSPropertyOp22
 70
     1
102
RTVSPropertyOp23
 70
     1
102
RTVSPropertyOp24
 70
     1
102
RTVSPropertyOp25
 70
     1
102
RTVSPropertyOp26
 70
     1
102
RTVSPropertyOp27
 70
     1
102
RTVSPropertyOp28
 70
     1
102
RTVSPropertyOp29
 70
     1
102
RTVSPropertyOp30
 70
     1
102
RTVSPropertyOp31
 70
     1
102
RTVSPropertyOp32
 70
     1
102
RTVSPropertyOp33
 70
     1
102
RTVSPropertyOp34
 70
     1
102
RTVSPropertyOp35
 70
     1
102
RTVSPropertyOp36
 70
     1
102
RTVSPropertyOp37
 70
     1
102
RTVSPropertyOp38
 70
     1
102
RTVSPropertyOp39
 70
     1
102
RTVSPropertyOp40
 70
     1
102
RTVSPropertyOp41
 70
     1
102
RTVSPropertyOp42
 70
     1
102
RTVSPropertyOp43
 70
     1
102
RTVSPropertyOp44
 70
     1
102
RTVSPropertyOp45
 70
     1
102
RTVSPropertyOp46
 70
     1
102
RTVSPropertyOp47
 70
     1
102
RTVSPropertyOp48
 70
     1
102
RTVSPropertyOp49
 70
     1
102
RTVSPropertyOp50
 70
     1
102
RTVSPropertyOp51
 70
     0
102
RTVSPropertyOp52
 70
     0
102
RTVSPropertyOp53
 70
     1
102
RTVSPropertyOp54
 70
     1
102
RTVSPropertyOp55
 70
     1
102
RTVSPropertyOp56
 70
     1
102
RTVSPropertyOp57
 70
     1
102
RTVSPropertyOp58
 70
     1
102
RTVSPropertyOp59
 70
     1
102
RTVSPropertyOp60
 70
     1
102
RTVSPropertyOp61
 70
     1
102
RTVSPropertyOp62
 70
     1
  0
XRECORD
  5
17FF
102
{ACAD_REACTORS
330
17FE
102
}
330
17FE
100
AcDbXrecord
280
     1
102
RTVSPost2010Prop28
280
     0
102
RTVSPost2010PropOp28
 70
     1
102
RTVSPost2010Prop29
280
     1
102
RTVSPost2010PropOp29
 70
     1
102
RTVSPost2010Prop30
280
     1
102
RTVSPost2010PropOp30
 70
     1
102
RTVSPost2010Prop31
280
     0
102
RTVSPost2010PropOp31
 70
     1
102
RTVSPost2010Prop32
280
     0
102
RTVSPost2010PropOp32
 70
     1
102
RTVSPost2010Prop33
280
     0
102
RTVSPost2010PropOp33
 70
     1
102
RTVSPost2010Prop34
280
     0
102
RTVSPost2010PropOp34
 70
     1
102
RTVSPost2010Prop35
280
     0
102
RTVSPost2010PropOp35
 70
     1
102
RTVSPost2010Prop36
280
     0
102
RTVSPost2010PropOp36
 70
     1
102
RTVSPost2010Prop37
 90
       50
102
RTVSPost2010PropOp37
 70
     1
102
RTVSPost2010Prop38
140
0.0
102
RTVSPost2010PropOp38
 70
     1
102
RTVSPost2010Prop39
140
1.0
102
RTVSPost2010PropOp39
 70
     1
102
RTVSPost2010Prop40
 90
        0
102
RTVSPost2010PropOp40
 70
     1
102
RTVSPost2010Prop41ColorIndex
 90
       18
102
RTVSPost2010Prop41ColorRGB
 90
        0
102
RTVSPost2010PropOp41
 70
     1
102
RTVSPost2010Prop42
 90
       50
102
RTVSPost2010PropOp42
 70
     1
102
RTVSPost2010Prop43
 90
        3
102
RTVSPost2010PropOp43
 70
     1
102
RTVSPost2010Prop44ColorIndex
 90
        5
102
RTVSPost2010Prop44ColorRGB
 90
      255
102
RTVSPost2010PropOp44
 70
     1
102
RTVSPost2010Prop45
280
     0
102
RTVSPost2010PropOp45
 70
     1
102
RTVSPost2010Prop46
 90
       50
102
RTVSPost2010PropOp46
 70
     1
102
RTVSPost2010Prop47
 90
       50
102
RTVSPost2010PropOp47
 70
     1
102
RTVSPost2010Prop48
 90
       50
102
RTVSPost2010PropOp48
 70
     1
102
RTVSPost2010Prop49
280
     0
102
RTVSPost2010PropOp49
 70
     1
102
RTVSPost2010Prop50
 90
       50
102
RTVSPost2010PropOp50
 70
     1
102
RTVSPost2010Prop51ColorIndex
 90
      256
102
RTVSPost2010Prop51ColorRGB
 90
-16777216
102
RTVSPost2010PropOp51
 70
     0
102
RTVSPost2010Prop52
140
1.0
102
RTVSPost2010PropOp52
 70
     0
102
RTVSPost2010Prop53
 90
        2
102
RTVSPost2010PropOp53
 70
     1
102
RTVSPost2010Prop54
  1
strokes_ogs.tif
102
RTVSPost2010PropOp54
 70
     1
102
RTVSPost2010Prop55
280
     0
102
RTVSPost2010PropOp55
 70
     1
102
RTVSPost2010Prop56
140
1.0
102
RTVSPost2010PropOp56
 70
     1
102
RTVSPost2010Prop57
140
1.0
102
RTVSPost2010PropOp57
 70
     1
102
RTVSPropertyOp0
 70
     1
102
RTVSPropertyOp1
 70
     1
102
RTVSPropertyOp2
 70
     1
102
RTVSPropertyOp3
 70
     1
102
RTVSPropertyOp4
 70
     1
102
RTVSPropertyOp5
 70
     1
102
RTVSPropertyOp6
 70
     1
102
RTVSPropertyOp7
 70
     1
102
RTVSPropertyOp8
 70
     1
102
RTVSPropertyOp9
 70
     1
102
RTVSPropertyOp10
 70
     1
102
RTVSPropertyOp11
 70
     1
102
RTVSPropertyOp12
 70
     1
102
RTVSPropertyOp13
 70
     1
102
RTVSPropertyOp14
 70
     1
102
RTVSPropertyOp15
 70
     1
102
RTVSPropertyOp16
 70
     1
102
RTVSPropertyOp17
 70
     1
102
RTVSPropertyOp18
 70
     1
102
RTVSPropertyOp19
 70
     1
102
RTVSPropertyOp20
 70
     1
102
RTVSPropertyOp21
 70
     1
102
RTVSPropertyOp22
 70
     1
102
RTVSPropertyOp23
 70
     1
102
RTVSPropertyOp24
 70
     1
102
RTVSPropertyOp25
 70
     1
102
RTVSPropertyOp26
 70
     1
102
RTVSPropertyOp27
 70
     1
102
RTVSPropertyOp28
 70
     1
102
RTVSPropertyOp29
 70
     1
102
RTVSPropertyOp30
 70
     1
102
RTVSPropertyOp31
 70
     1
102
RTVSPropertyOp32
 70
     1
102
RTVSPropertyOp33
 70
     1
102
RTVSPropertyOp34
 70
     1
102
RTVSPropertyOp35
 70
     1
102
RTVSPropertyOp36
 70
     1
102
RTVSPropertyOp37
 70
     1
102
RTVSPropertyOp38
 70
     1
102
RTVSPropertyOp39
 70
     1
102
RTVSPropertyOp40
 70
     1
102
RTVSPropertyOp41
 70
     1
102
RTVSPropertyOp42
 70
     1
102
RTVSPropertyOp43
 70
     1
102
RTVSPropertyOp44
 70
     1
102
RTVSPropertyOp45
 70
     1
102
RTVSPropertyOp46
 70
     1
102
RTVSPropertyOp47
 70
     1
102
RTVSPropertyOp48
 70
     1
102
RTVSPropertyOp49
 70
     1
102
RTVSPropertyOp50
 70
     1
102
RTVSPropertyOp51
 70
     0
102
RTVSPropertyOp52
 70
     0
102
RTVSPropertyOp53
 70
     1
102
RTVSPropertyOp54
 70
     1
102
RTVSPropertyOp55
 70
     1
102
RTVSPropertyOp56
 70
     1
102
RTVSPropertyOp57
 70
     1
102
RTVSPropertyOp58
 70
     1
102
RTVSPropertyOp59
 70
     1
102
RTVSPropertyOp60
 70
     1
102
RTVSPropertyOp61
 70
     1
102
RTVSPropertyOp62
 70
     1
  0
XRECORD
  5
17F5
102
{ACAD_REACTORS
330
17F4
102
}
330
17F4
100
AcDbXrecord
280
     1
102
RTVSPost2010Prop28
280
     0
102
RTVSPost2010PropOp28
 70
     1
102
RTVSPost2010Prop29
280
     1
102
RTVSPost2010PropOp29
 70
     1
102
RTVSPost2010Prop30
280
     1
102
RTVSPost2010PropOp30
 70
     1
102
RTVSPost2010Prop31
280
     0
102
RTVSPost2010PropOp31
 70
     1
102
RTVSPost2010Prop32
280
     0
102
RTVSPost2010PropOp32
 70
     1
102
RTVSPost2010Prop33
280
     0
102
RTVSPost2010PropOp33
 70
     1
102
RTVSPost2010Prop34
280
     0
102
RTVSPost2010PropOp34
 70
     1
102
RTVSPost2010Prop35
280
     0
102
RTVSPost2010PropOp35
 70
     1
102
RTVSPost2010Prop36
280
     0
102
RTVSPost2010PropOp36
 70
     1
102
RTVSPost2010Prop37
 90
       50
102
RTVSPost2010PropOp37
 70
     1
102
RTVSPost2010Prop38
140
0.0
102
RTVSPost2010PropOp38
 70
     1
102
RTVSPost2010Prop39
140
1.0
102
RTVSPost2010PropOp39
 70
     1
102
RTVSPost2010Prop40
 90
        0
102
RTVSPost2010PropOp40
 70
     1
102
RTVSPost2010Prop41ColorIndex
 90
       18
102
RTVSPost2010Prop41ColorRGB
 90
        0
102
RTVSPost2010PropOp41
 70
     1
102
RTVSPost2010Prop42
 90
       50
102
RTVSPost2010PropOp42
 70
     1
102
RTVSPost2010Prop43
 90
        3
102
RTVSPost2010PropOp43
 70
     1
102
RTVSPost2010Prop44ColorIndex
 90
        5
102
RTVSPost2010Prop44ColorRGB
 90
      255
102
RTVSPost2010PropOp44
 70
     1
102
RTVSPost2010Prop45
280
     0
102
RTVSPost2010PropOp45
 70
     1
102
RTVSPost2010Prop46
 90
       50
102
RTVSPost2010PropOp46
 70
     1
102
RTVSPost2010Prop47
 90
       50
102
RTVSPost2010PropOp47
 70
     1
102
RTVSPost2010Prop48
 90
       50
102
RTVSPost2010PropOp48
 70
     1
102
RTVSPost2010Prop49
280
     0
102
RTVSPost2010PropOp49
 70
     1
102
RTVSPost2010Prop50
 90
       50
102
RTVSPost2010PropOp50
 70
     1
102
RTVSPost2010Prop51ColorIndex
 90
      256
102
RTVSPost2010Prop51ColorRGB
 90
-16777216
102
RTVSPost2010PropOp51
 70
     0
102
RTVSPost2010Prop52
140
1.0
102
RTVSPost2010PropOp52
 70
     0
102
RTVSPost2010Prop53
 90
        2
102
RTVSPost2010PropOp53
 70
     1
102
RTVSPost2010Prop54
  1
strokes_ogs.tif
102
RTVSPost2010PropOp54
 70
     1
102
RTVSPost2010Prop55
280
     0
102
RTVSPost2010PropOp55
 70
     1
102
RTVSPost2010Prop56
140
1.0
102
RTVSPost2010PropOp56
 70
     1
102
RTVSPost2010Prop57
140
1.0
102
RTVSPost2010PropOp57
 70
     1
102
RTVSPropertyOp0
 70
     1
102
RTVSPropertyOp1
 70
     1
102
RTVSPropertyOp2
 70
     1
102
RTVSPropertyOp3
 70
     1
102
RTVSPropertyOp4
 70
     1
102
RTVSPropertyOp5
 70
     1
102
RTVSPropertyOp6
 70
     1
102
RTVSPropertyOp7
 70
     1
102
RTVSPropertyOp8
 70
     1
102
RTVSPropertyOp9
 70
     1
102
RTVSPropertyOp10
 70
     1
102
RTVSPropertyOp11
 70
     1
102
RTVSPropertyOp12
 70
     1
102
RTVSPropertyOp13
 70
     1
102
RTVSPropertyOp14
 70
     1
102
RTVSPropertyOp15
 70
     1
102
RTVSPropertyOp16
 70
     1
102
RTVSPropertyOp17
 70
     1
102
RTVSPropertyOp18
 70
     1
102
RTVSPropertyOp19
 70
     1
102
RTVSPropertyOp20
 70
     1
102
RTVSPropertyOp21
 70
     1
102
RTVSPropertyOp22
 70
     1
102
RTVSPropertyOp23
 70
     1
102
RTVSPropertyOp24
 70
     1
102
RTVSPropertyOp25
 70
     1
102
RTVSPropertyOp26
 70
     1
102
RTVSPropertyOp27
 70
     1
102
RTVSPropertyOp28
 70
     1
102
RTVSPropertyOp29
 70
     1
102
RTVSPropertyOp30
 70
     1
102
RTVSPropertyOp31
 70
     1
102
RTVSPropertyOp32
 70
     1
102
RTVSPropertyOp33
 70
     1
102
RTVSPropertyOp34
 70
     1
102
RTVSPropertyOp35
 70
     1
102
RTVSPropertyOp36
 70
     1
102
RTVSPropertyOp37
 70
     1
102
RTVSPropertyOp38
 70
     1
102
RTVSPropertyOp39
 70
     1
102
RTVSPropertyOp40
 70
     1
102
RTVSPropertyOp41
 70
     1
102
RTVSPropertyOp42
 70
     1
102
RTVSPropertyOp43
 70
     1
102
RTVSPropertyOp44
 70
     1
102
RTVSPropertyOp45
 70
     1
102
RTVSPropertyOp46
 70
     1
102
RTVSPropertyOp47
 70
     1
102
RTVSPropertyOp48
 70
     1
102
RTVSPropertyOp49
 70
     1
102
RTVSPropertyOp50
 70
     1
102
RTVSPropertyOp51
 70
     0
102
RTVSPropertyOp52
 70
     0
102
RTVSPropertyOp53
 70
     1
102
RTVSPropertyOp54
 70
     1
102
RTVSPropertyOp55
 70
     1
102
RTVSPropertyOp56
 70
     1
102
RTVSPropertyOp57
 70
     1
102
RTVSPropertyOp58
 70
     1
102
RTVSPropertyOp59
 70
     1
102
RTVSPropertyOp60
 70
     1
102
RTVSPropertyOp61
 70
     1
102
RTVSPropertyOp62
 70
     1
  0
XRECORD
  5
17E9
102
{ACAD_REACTORS
330
17E8
102
}
330
17E8
100
AcDbXrecord
280
     1
102
RTVSPost2010Prop28
280
     0
102
RTVSPost2010PropOp28
 70
     1
102
RTVSPost2010Prop29
280
     1
102
RTVSPost2010PropOp29
 70
     1
102
RTVSPost2010Prop30
280
     1
102
RTVSPost2010PropOp30
 70
     1
102
RTVSPost2010Prop31
280
     0
102
RTVSPost2010PropOp31
 70
     1
102
RTVSPost2010Prop32
280
     0
102
RTVSPost2010PropOp32
 70
     1
102
RTVSPost2010Prop33
280
     0
102
RTVSPost2010PropOp33
 70
     1
102
RTVSPost2010Prop34
280
     0
102
RTVSPost2010PropOp34
 70
     1
102
RTVSPost2010Prop35
280
     0
102
RTVSPost2010PropOp35
 70
     1
102
RTVSPost2010Prop36
280
     0
102
RTVSPost2010PropOp36
 70
     1
102
RTVSPost2010Prop37
 90
       50
102
RTVSPost2010PropOp37
 70
     1
102
RTVSPost2010Prop38
140
0.0
102
RTVSPost2010PropOp38
 70
     1
102
RTVSPost2010Prop39
140
1.0
102
RTVSPost2010PropOp39
 70
     1
102
RTVSPost2010Prop40
 90
        0
102
RTVSPost2010PropOp40
 70
     1
102
RTVSPost2010Prop41ColorIndex
 90
       18
102
RTVSPost2010Prop41ColorRGB
 90
        0
102
RTVSPost2010PropOp41
 70
     1
102
RTVSPost2010Prop42
 90
       50
102
RTVSPost2010PropOp42
 70
     1
102
RTVSPost2010Prop43
 90
        3
102
RTVSPost2010PropOp43
 70
     1
102
RTVSPost2010Prop44ColorIndex
 90
        5
102
RTVSPost2010Prop44ColorRGB
 90
      255
102
RTVSPost2010PropOp44
 70
     1
102
RTVSPost2010Prop45
280
     0
102
RTVSPost2010PropOp45
 70
     1
102
RTVSPost2010Prop46
 90
       50
102
RTVSPost2010PropOp46
 70
     1
102
RTVSPost2010Prop47
 90
       50
102
RTVSPost2010PropOp47
 70
     1
102
RTVSPost2010Prop48
 90
       50
102
RTVSPost2010PropOp48
 70
     1
102
RTVSPost2010Prop49
280
     0
102
RTVSPost2010PropOp49
 70
     1
102
RTVSPost2010Prop50
 90
       50
102
RTVSPost2010PropOp50
 70
     1
102
RTVSPost2010Prop51ColorIndex
 90
      256
102
RTVSPost2010Prop51ColorRGB
 90
-16777216
102
RTVSPost2010PropOp51
 70
     0
102
RTVSPost2010Prop52
140
1.0
102
RTVSPost2010PropOp52
 70
     0
102
RTVSPost2010Prop53
 90
        2
102
RTVSPost2010PropOp53
 70
     1
102
RTVSPost2010Prop54
  1
strokes_ogs.tif
102
RTVSPost2010PropOp54
 70
     1
102
RTVSPost2010Prop55
280
     0
102
RTVSPost2010PropOp55
 70
     1
102
RTVSPost2010Prop56
140
1.0
102
RTVSPost2010PropOp56
 70
     1
102
RTVSPost2010Prop57
140
1.0
102
RTVSPost2010PropOp57
 70
     1
102
RTVSPropertyOp0
 70
     1
102
RTVSPropertyOp1
 70
     1
102
RTVSPropertyOp2
 70
     1
102
RTVSPropertyOp3
 70
     1
102
RTVSPropertyOp4
 70
     1
102
RTVSPropertyOp5
 70
     1
102
RTVSPropertyOp6
 70
     1
102
RTVSPropertyOp7
 70
     1
102
RTVSPropertyOp8
 70
     1
102
RTVSPropertyOp9
 70
     1
102
RTVSPropertyOp10
 70
     1
102
RTVSPropertyOp11
 70
     1
102
RTVSPropertyOp12
 70
     1
102
RTVSPropertyOp13
 70
     1
102
RTVSPropertyOp14
 70
     1
102
RTVSPropertyOp15
 70
     1
102
RTVSPropertyOp16
 70
     1
102
RTVSPropertyOp17
 70
     1
102
RTVSPropertyOp18
 70
     1
102
RTVSPropertyOp19
 70
     1
102
RTVSPropertyOp20
 70
     1
102
RTVSPropertyOp21
 70
     1
102
RTVSPropertyOp22
 70
     1
102
RTVSPropertyOp23
 70
     1
102
RTVSPropertyOp24
 70
     1
102
RTVSPropertyOp25
 70
     1
102
RTVSPropertyOp26
 70
     1
102
RTVSPropertyOp27
 70
     1
102
RTVSPropertyOp28
 70
     1
102
RTVSPropertyOp29
 70
     1
102
RTVSPropertyOp30
 70
     1
102
RTVSPropertyOp31
 70
     1
102
RTVSPropertyOp32
 70
     1
102
RTVSPropertyOp33
 70
     1
102
RTVSPropertyOp34
 70
     1
102
RTVSPropertyOp35
 70
     1
102
RTVSPropertyOp36
 70
     1
102
RTVSPropertyOp37
 70
     1
102
RTVSPropertyOp38
 70
     1
102
RTVSPropertyOp39
 70
     1
102
RTVSPropertyOp40
 70
     1
102
RTVSPropertyOp41
 70
     1
102
RTVSPropertyOp42
 70
     1
102
RTVSPropertyOp43
 70
     1
102
RTVSPropertyOp44
 70
     1
102
RTVSPropertyOp45
 70
     1
102
RTVSPropertyOp46
 70
     1
102
RTVSPropertyOp47
 70
     1
102
RTVSPropertyOp48
 70
     1
102
RTVSPropertyOp49
 70
     1
102
RTVSPropertyOp50
 70
     1
102
RTVSPropertyOp51
 70
     0
102
RTVSPropertyOp52
 70
     0
102
RTVSPropertyOp53
 70
     1
102
RTVSPropertyOp54
 70
     1
102
RTVSPropertyOp55
 70
     1
102
RTVSPropertyOp56
 70
     1
102
RTVSPropertyOp57
 70
     1
102
RTVSPropertyOp58
 70
     1
102
RTVSPropertyOp59
 70
     1
102
RTVSPropertyOp60
 70
     1
102
RTVSPropertyOp61
 70
     1
102
RTVSPropertyOp62
 70
     1
  0
XRECORD
  5
1801
102
{ACAD_REACTORS
330
1800
102
}
330
1800
100
AcDbXrecord
280
     1
102
RTVSPost2010Prop28
280
     0
102
RTVSPost2010PropOp28
 70
     1
102
RTVSPost2010Prop29
280
     1
102
RTVSPost2010PropOp29
 70
     1
102
RTVSPost2010Prop30
280
     1
102
RTVSPost2010PropOp30
 70
     1
102
RTVSPost2010Prop31
280
     0
102
RTVSPost2010PropOp31
 70
     1
102
RTVSPost2010Prop32
280
     0
102
RTVSPost2010PropOp32
 70
     1
102
RTVSPost2010Prop33
280
     0
102
RTVSPost2010PropOp33
 70
     1
102
RTVSPost2010Prop34
280
     0
102
RTVSPost2010PropOp34
 70
     1
102
RTVSPost2010Prop35
280
     0
102
RTVSPost2010PropOp35
 70
     1
102
RTVSPost2010Prop36
280
     0
102
RTVSPost2010PropOp36
 70
     1
102
RTVSPost2010Prop37
 90
       50
102
RTVSPost2010PropOp37
 70
     1
102
RTVSPost2010Prop38
140
0.0
102
RTVSPost2010PropOp38
 70
     1
102
RTVSPost2010Prop39
140
1.0
102
RTVSPost2010PropOp39
 70
     1
102
RTVSPost2010Prop40
 90
        0
102
RTVSPost2010PropOp40
 70
     1
102
RTVSPost2010Prop41ColorIndex
 90
       18
102
RTVSPost2010Prop41ColorRGB
 90
        0
102
RTVSPost2010PropOp41
 70
     1
102
RTVSPost2010Prop42
 90
       50
102
RTVSPost2010PropOp42
 70
     1
102
RTVSPost2010Prop43
 90
        3
102
RTVSPost2010PropOp43
 70
     1
102
RTVSPost2010Prop44ColorIndex
 90
        5
102
RTVSPost2010Prop44ColorRGB
 90
      255
102
RTVSPost2010PropOp44
 70
     1
102
RTVSPost2010Prop45
280
     0
102
RTVSPost2010PropOp45
 70
     1
102
RTVSPost2010Prop46
 90
       50
102
RTVSPost2010PropOp46
 70
     1
102
RTVSPost2010Prop47
 90
       50
102
RTVSPost2010PropOp47
 70
     1
102
RTVSPost2010Prop48
 90
       50
102
RTVSPost2010PropOp48
 70
     1
102
RTVSPost2010Prop49
280
     0
102
RTVSPost2010PropOp49
 70
     1
102
RTVSPost2010Prop50
 90
       50
102
RTVSPost2010PropOp50
 70
     1
102
RTVSPost2010Prop51ColorIndex
 90
      256
102
RTVSPost2010Prop51ColorRGB
 90
-16777216
102
RTVSPost2010PropOp51
 70
     0
102
RTVSPost2010Prop52
140
1.0
102
RTVSPost2010PropOp52
 70
     0
102
RTVSPost2010Prop53
 90
        2
102
RTVSPost2010PropOp53
 70
     1
102
RTVSPost2010Prop54
  1
strokes_ogs.tif
102
RTVSPost2010PropOp54
 70
     1
102
RTVSPost2010Prop55
280
     0
102
RTVSPost2010PropOp55
 70
     1
102
RTVSPost2010Prop56
140
1.0
102
RTVSPost2010PropOp56
 70
     1
102
RTVSPost2010Prop57
140
1.0
102
RTVSPost2010PropOp57
 70
     1
102
RTVSPropertyOp0
 70
     1
102
RTVSPropertyOp1
 70
     1
102
RTVSPropertyOp2
 70
     1
102
RTVSPropertyOp3
 70
     1
102
RTVSPropertyOp4
 70
     1
102
RTVSPropertyOp5
 70
     1
102
RTVSPropertyOp6
 70
     1
102
RTVSPropertyOp7
 70
     1
102
RTVSPropertyOp8
 70
     1
102
RTVSPropertyOp9
 70
     1
102
RTVSPropertyOp10
 70
     1
102
RTVSPropertyOp11
 70
     1
102
RTVSPropertyOp12
 70
     1
102
RTVSPropertyOp13
 70
     1
102
RTVSPropertyOp14
 70
     1
102
RTVSPropertyOp15
 70
     1
102
RTVSPropertyOp16
 70
     1
102
RTVSPropertyOp17
 70
     1
102
RTVSPropertyOp18
 70
     1
102
RTVSPropertyOp19
 70
     1
102
RTVSPropertyOp20
 70
     1
102
RTVSPropertyOp21
 70
     1
102
RTVSPropertyOp22
 70
     1
102
RTVSPropertyOp23
 70
     1
102
RTVSPropertyOp24
 70
     1
102
RTVSPropertyOp25
 70
     1
102
RTVSPropertyOp26
 70
     1
102
RTVSPropertyOp27
 70
     1
102
RTVSPropertyOp28
 70
     1
102
RTVSPropertyOp29
 70
     1
102
RTVSPropertyOp30
 70
     1
102
RTVSPropertyOp31
 70
     1
102
RTVSPropertyOp32
 70
     1
102
RTVSPropertyOp33
 70
     1
102
RTVSPropertyOp34
 70
     1
102
RTVSPropertyOp35
 70
     1
102
RTVSPropertyOp36
 70
     1
102
RTVSPropertyOp37
 70
     1
102
RTVSPropertyOp38
 70
     1
102
RTVSPropertyOp39
 70
     1
102
RTVSPropertyOp40
 70
     1
102
RTVSPropertyOp41
 70
     1
102
RTVSPropertyOp42
 70
     1
102
RTVSPropertyOp43
 70
     1
102
RTVSPropertyOp44
 70
     1
102
RTVSPropertyOp45
 70
     1
102
RTVSPropertyOp46
 70
     1
102
RTVSPropertyOp47
 70
     1
102
RTVSPropertyOp48
 70
     1
102
RTVSPropertyOp49
 70
     1
102
RTVSPropertyOp50
 70
     1
102
RTVSPropertyOp51
 70
     0
102
RTVSPropertyOp52
 70
     0
102
RTVSPropertyOp53
 70
     1
102
RTVSPropertyOp54
 70
     1
102
RTVSPropertyOp55
 70
     1
102
RTVSPropertyOp56
 70
     1
102
RTVSPropertyOp57
 70
     1
102
RTVSPropertyOp58
 70
     1
102
RTVSPropertyOp59
 70
     1
102
RTVSPropertyOp60
 70
     1
102
RTVSPropertyOp61
 70
     1
102
RTVSPropertyOp62
 70
     1
  0
ENDSEC
  0
EOF
