  0
SECTION
  2
HEADER
  9
$ACADVER
  1
AC1015
  9
$ACADMAINTVER
 70
    20
  9
$DWGCODEPAGE
  3
ANSI_1252
  9
$INSBASE
 10
0.0
 20
0.0
 30
0.0
  9
$EXTMIN
 10
23.25048873051247
 20
62.59651727312547
 30
-0.0015258207003583
  9
$EXTMAX
 10
83.23746775590235
 20
95.58398462284122
 30
0.0000000349246037
  9
$LIMMIN
 10
0.0
 20
0.0
  9
$LIMMAX
 10
181.3333333333
 20
117.3333333333
  9
$ORTHOMODE
 70
     0
  9
$REGENMODE
 70
     1
  9
$FILLMODE
 70
     1
  9
$QTEXTMODE
 70
     0
  9
$MIRRTEXT
 70
     0
  9
$LTSCALE
 40
9.973333333300001
  9
$ATTMODE
 70
     1
  9
$TEXTSIZE
 40
0.2
  9
$TRACEWID
 40
0.05
  9
$TEXTSTYLE
  7
STANDARD
  9
$CLAYER
  8
0
  9
$CELTYPE
  6
BYLAYER
  9
$CECOLOR
 62
   256
  9
$CELTSCALE
 40
1.0
  9
$DISPSILH
 70
     0
  9
$DIMSCALE
 40
1.0
  9
$DIMASZ
 40
2.0
  9
$DIMEXO
 40
0.0625
  9
$DIMDLI
 40
6.890666666699999
  9
$DIMRND
 40
0.0
  9
$DIMDLE
 40
0.0
  9
$DIMEXE
 40
0.125
  9
$DIMTP
 40
0.001
  9
$DIMTM
 40
0.001
  9
$DIMTXT
 40
1.333333333299999
  9
$DIMCEN
 40
1.631999999999999
  9
$DIMTSZ
 40
0.0
  9
$DIMTOL
 70
     1
  9
$DIMLIM
 70
     0
  9
$DIMTIH
 70
     1
  9
$DIMTOH
 70
     1
  9
$DIMSE1
 70
     0
  9
$DIMSE2
 70
     0
  9
$DIMTAD
 70
     0
  9
$DIMZIN
 70
     0
  9
$DIMBLK
  1
_FILLED
  9
$DIMASO
 70
     1
  9
$DIMSHO
 70
     1
  9
$DIMPOST
  1

  9
$DIMAPOST
  1

  9
$DIMALT
 70
     1
  9
$DIMALTD
 70
     2
  9
$DIMALTF
 40
25.4
  9
$DIMLFAC
 40
1.0
  9
$DIMTOFL
 70
     0
  9
$DIMTVP
 40
0.0
  9
$DIMTIX
 70
     0
  9
$DIMSOXD
 70
     0
  9
$DIMSAH
 70
     0
  9
$DIMBLK1
  1

  9
$DIMBLK2
  1

  9
$DIMSTYLE
  2
STANDARD
  9
$DIMCLRD
 70
     0
  9
$DIMCLRE
 70
     0
  9
$DIMCLRT
 70
     0
  9
$DIMTFAC
 40
1.0
  9
$DIMGAP
 40
0.09
  9
$DIMJUST
 70
     0
  9
$DIMSD1
 70
     0
  9
$DIMSD2
 70
     0
  9
$DIMTOLJ
 70
     1
  9
$DIMTZIN
 70
     0
  9
$DIMALTZ
 70
     0
  9
$DIMALTTZ
 70
     0
  9
$DIMUPT
 70
     0
  9
$DIMDEC
 70
     4
  9
$DIMTDEC
 70
     4
  9
$DIMALTU
 70
     2
  9
$DIMALTTD
 70
     2
  9
$DIMTXSTY
  7
STANDARD
  9
$DIMAUNIT
 70
     0
  9
$DIMADEC
 70
     0
  9
$DIMALTRND
 40
0.0
  9
$DIMAZIN
 70
     0
  9
$DIMDSEP
 70
    46
  9
$DIMATFIT
 70
     3
  9
$DIMFRAC
 70
     0
  9
$DIMLDRBLK
  1

  9
$DIMLUNIT
 70
     2
  9
$DIMLWD
 70
    -2
  9
$DIMLWE
 70
    -2
  9
$DIMTMOVE
 70
     0
  9
$LUNITS
 70
     2
  9
$LUPREC
 70
     4
  9
$SKETCHINC
 40
0.1
  9
$FILLETRAD
 40
0.0
  9
$AUNITS
 70
     0
  9
$AUPREC
 70
     0
  9
$MENU
  1
.
  9
$ELEVATION
 40
0.0
  9
$PELEVATION
 40
0.0
  9
$THICKNESS
 40
0.0
  9
$LIMCHECK
 70
     0
  9
$CHAMFERA
 40
0.0
  9
$CHAMFERB
 40
0.0
  9
$CHAMFERC
 40
0.0
  9
$CHAMFERD
 40
0.0
  9
$SKPOLY
 70
     0
  9
$TDCREATE
 40
2458459.541111111
  9
$TDUCREATE
 40
2458459.749444445
  9
$TDUPDATE
 40
2458465.481539352
  9
$TDUUPDATE
 40
2458465.689872685
  9
$TDINDWG
 40
0.0013888889
  9
$TDUSRTIMER
 40
0.0013888889
  9
$USRTIMER
 70
     1
  9
$ANGBASE
 50
0.0
  9
$ANGDIR
 70
     0
  9
$PDMODE
 70
     3
  9
$PDSIZE
 40
0.03125
  9
$PLINEWID
 40
0.0
  9
$SPLFRAME
 70
     0
  9
$SPLINETYPE
 70
     6
  9
$SPLINESEGS
 70
     8
  9
$HANDSEED
  5
1852
  9
$SURFTAB1
 70
     6
  9
$SURFTAB2
 70
     6
  9
$SURFTYPE
 70
     6
  9
$SURFU
 70
     6
  9
$SURFV
 70
     6
  9
$UCSBASE
  2

  9
$UCSNAME
  2

  9
$UCSORG
 10
0.0
 20
0.0
 30
0.0
  9
$UCSXDIR
 10
1.0
 20
0.0
 30
0.0
  9
$UCSYDIR
 10
0.0
 20
1.0
 30
0.0
  9
$UCSORTHOREF
  2

  9
$UCSORTHOVIEW
 70
     0
  9
$UCSORGTOP
 10
0.0
 20
0.0
 30
0.0
  9
$UCSORGBOTTOM
 10
0.0
 20
0.0
 30
0.0
  9
$UCSORGLEFT
 10
0.0
 20
0.0
 30
0.0
  9
$UCSORGRIGHT
 10
0.0
 20
0.0
 30
0.0
  9
$UCSORGFRONT
 10
0.0
 20
0.0
 30
0.0
  9
$UCSORGBACK
 10
0.0
 20
0.0
 30
0.0
  9
$PUCSBASE
  2

  9
$PUCSNAME
  2

  9
$PUCSORG
 10
0.0
 20
0.0
 30
0.0
  9
$PUCSXDIR
 10
1.0
 20
0.0
 30
0.0
  9
$PUCSYDIR
 10
0.0
 20
1.0
 30
0.0
  9
$PUCSORTHOREF
  2

  9
$PUCSORTHOVIEW
 70
     0
  9
$PUCSORGTOP
 10
0.0
 20
0.0
 30
0.0
  9
$PUCSORGBOTTOM
 10
0.0
 20
0.0
 30
0.0
  9
$PUCSORGLEFT
 10
0.0
 20
0.0
 30
0.0
  9
$PUCSORGRIGHT
 10
0.0
 20
0.0
 30
0.0
  9
$PUCSORGFRONT
 10
0.0
 20
0.0
 30
0.0
  9
$PUCSORGBACK
 10
0.0
 20
0.0
 30
0.0
  9
$USERI1
 70
     0
  9
$USERI2
 70
     0
  9
$USERI3
 70
     0
  9
$USERI4
 70
     0
  9
$USERI5
 70
     0
  9
$USERR1
 40
0.0
  9
$USERR2
 40
0.0
  9
$USERR3
 40
0.0
  9
$USERR4
 40
0.0
  9
$USERR5
 40
0.0
  9
$WORLDVIEW
 70
     1
  9
$SHADEDGE
 70
     3
  9
$SHADEDIF
 70
    70
  9
$TILEMODE
 70
     1
  9
$MAXACTVP
 70
    64
  9
$PINSBASE
 10
0.0
 20
0.0
 30
0.0
  9
$PLIMCHECK
 70
     0
  9
$PEXTMIN
 10
1.000000000000000E+20
 20
1.000000000000000E+20
 30
1.000000000000000E+20
  9
$PEXTMAX
 10
-1.000000000000000E+20
 20
-1.000000000000000E+20
 30
-1.000000000000000E+20
  9
$PLIMMIN
 10
0.0
 20
0.0
  9
$PLIMMAX
 10
12.0
 20
9.0
  9
$UNITMODE
 70
     0
  9
$VISRETAIN
 70
     1
  9
$PLINEGEN
 70
     0
  9
$PSLTSCALE
 70
     1
  9
$TREEDEPTH
 70
  3020
  9
$CMLSTYLE
  2
Standard
  9
$CMLJUST
 70
     0
  9
$CMLSCALE
 40
1.0
  9
$PROXYGRAPHICS
 70
     1
  9
$MEASUREMENT
 70
     0
  9
$CELWEIGHT
370
    -1
  9
$ENDCAPS
280
     0
  9
$JOINSTYLE
280
     0
  9
$LWDISPLAY
290
     0
  9
$INSUNITS
 70
     1
  9
$HYPERLINKBASE
  1

  9
$STYLESHEET
  1

  9
$XEDIT
290
     1
  9
$CEPSNTYPE
380
     0
  9
$PSTYLEMODE
290
     1
  9
$FINGERPRINTGUID
  2
{D6BB9D53-DBB1-C14A-92AE-1614914DEB64}
  9
$VERSIONGUID
  2
{3FAC25E4-660E-0844-B472-C99D01AD2D17}
  9
$EXTNAMES
290
     1
  9
$PSVPSCALE
 40
0.0
  9
$OLESTARTUP
290
     0
  0
ENDSEC
  0
SECTION
  2
CLASSES
  0
CLASS
  1
ACDBDICTIONARYWDFLT
  2
AcDbDictionaryWithDefault
  3
ObjectDBX Classes
 90
        0
280
     0
281
     0
  0
CLASS
  1
ACDBPLACEHOLDER
  2
AcDbPlaceHolder
  3
ObjectDBX Classes
 90
        0
280
     0
281
     0
  0
CLASS
  1
LAYOUT
  2
AcDbLayout
  3
ObjectDBX Classes
 90
        0
280
     0
281
     0
  0
CLASS
  1
RASTERVARIABLES
  2
AcDbRasterVariables
  3
ISM
 90
        0
280
     0
281
     0
  0
CLASS
  1
IMAGEDEF
  2
AcDbRasterImageDef
  3
ISM
 90
        0
280
     0
281
     0
  0
CLASS
  1
IMAGEDEF_REACTOR
  2
AcDbRasterImageDefReactor
  3
ISM
 90
    32769
280
     0
281
     0
  0
CLASS
  1
IMAGE
  2
AcDbRasterImage
  3
ISM
 90
    34943
280
     0
281
     1
  0
CLASS
  1
MATERIAL
  2
AcDbMaterial
  3
ObjectDBX Classes
 90
     1153
280
     0
281
     0
  0
CLASS
  1
VISUALSTYLE
  2
AcDbVisualStyle
  3
ObjectDBX Classes
 90
     4095
280
     0
281
     0
  0
CLASS
  1
TABLESTYLE
  2
AcDbTableStyle
  3
ObjectDBX Classes
 90
     4095
280
     0
281
     0
  0
CLASS
  1
SCALE
  2
AcDbScale
  3
ObjectDBX Classes
 90
     1153
280
     0
281
     0
  0
CLASS
  1
MLEADERSTYLE
  2
AcDbMLeaderStyle
  3
ACDB_MLEADERSTYLE_CLASS
 90
     4095
280
     0
281
     0
  0
CLASS
  1
ACDBSECTIONVIEWSTYLE
  2
AcDbSectionViewStyle
  3
ObjectDBX Classes
 90
     1025
280
     0
281
     0
  0
CLASS
  1
ACDBDETAILVIEWSTYLE
  2
AcDbDetailViewStyle
  3
ObjectDBX Classes
 90
     1025
280
     0
281
     0
  0
CLASS
  1
CELLSTYLEMAP
  2
AcDbCellStyleMap
  3
ObjectDBX Classes
 90
     1152
280
     0
281
     0
  0
CLASS
  1
DICTIONARYVAR
  2
AcDbDictionaryVar
  3
ObjectDBX Classes
 90
        0
280
     0
281
     0
  0
CLASS
  1
EXACXREFPANELOBJECT
  2
ExAcXREFPanelObject
  3
EXAC_ESW
 90
     1025
280
     0
281
     0
  0
CLASS
  1
NPOCOLLECTION
  2
AcDbImpNonPersistentObjectsCollection
  3
ObjectDBX Classes
 90
     1153
280
     0
281
     0
  0
ENDSEC
  0
SECTION
  2
TABLES
  0
TABLE
  2
VPORT
  5
8
102
{ACAD_XDICTIONARY
360
16B7
102
}
330
0
100
AcDbSymbolTable
 70
     1
  0
VPORT
  5
1F4
330
8
100
AcDbSymbolTableRecord
100
AcDbViewportTableRecord
  2
*ACTIVE
 70
     0
 10
0.0
 20
0.0
 11
1.0
 21
1.0
 12
53.2439782432074
 22
79.09025094798335
 13
0.0
 23
0.0
 14
1.0
 24
1.0
 15
0.0
 25
0.0
 16
0.0
 26
0.0
 36
1.0
 17
0.0
 27
0.0
 37
0.0
 40
33.1940694416764
 41
2.005224660397074
 42
50.0
 43
0.0
 44
0.0
 50
0.0
 51
0.0
 71
     0
 72
   100
 73
     1
 74
     1
 75
     0
 76
     0
 77
     0
 78
     0
281
     0
 65
     1
110
0.0
120
0.0
130
0.0
111
1.0
121
0.0
131
0.0
112
0.0
122
1.0
132
0.0
 79
     0
146
0.0
1001
ACAD_NAV_VCDISPLAY
1070
     3
  0
ENDTAB
  0
TABLE
  2
LTYPE
  5
5
330
0
100
AcDbSymbolTable
 70
     6
  0
LTYPE
  5
14
330
5
100
AcDbSymbolTableRecord
100
AcDbLinetypeTableRecord
  2
BYBLOCK
 70
     0
  3

 72
    65
 73
     0
 40
0.0
  0
LTYPE
  5
15
330
5
100
AcDbSymbolTableRecord
100
AcDbLinetypeTableRecord
  2
BYLAYER
 70
     0
  3

 72
    65
 73
     0
 40
0.0
  0
LTYPE
  5
16
330
5
100
AcDbSymbolTableRecord
100
AcDbLinetypeTableRecord
  2
CONTINUOUS
 70
     0
  3
Solid line
 72
    65
 73
     0
 40
0.0
  0
LTYPE
  5
1F5
330
5
100
AcDbSymbolTableRecord
100
AcDbLinetypeTableRecord
  2
CENTER
 70
     0
  3
____ _ ____ _ ____ _ ____ _ ____ _ ____ _ ____
 72
    65
 73
     4
 40
0.6
 49
0.375
 74
     0
 49
-0.075
 74
     0
 49
0.075
 74
     0
 49
-0.075
 74
     0
  0
LTYPE
  5
1F6
330
5
100
AcDbSymbolTableRecord
100
AcDbLinetypeTableRecord
  2
HIDDEN
 70
     0
  3
- - - - - - - - - - - - - - - - - - - -
 72
    65
 73
     2
 40
0.2
 49
0.1
 74
     0
 49
-0.1
 74
     0
  0
LTYPE
  5
1F7
330
5
100
AcDbSymbolTableRecord
100
AcDbLinetypeTableRecord
  2
PHANTOM
 70
     0
  3
_____ _ _ _____ _ _ _____ _ _ _____
 72
    65
 73
     6
 40
0.8
 49
0.45
 74
     0
 49
-0.05
 74
     0
 49
0.1
 74
     0
 49
-0.05
 74
     0
 49
0.1
 74
     0
 49
-0.05
 74
     0
  0
LTYPE
  5
1F8
330
5
100
AcDbSymbolTableRecord
100
AcDbLinetypeTableRecord
  2
DOT
 70
     0
  3
. . . . . . . . . . . . . . . . . . . .
 72
    65
 73
     2
 40
0.2
 49
0.1
 74
     0
 49
-0.1
 74
     0
  0
LTYPE
  5
1F9
330
5
100
AcDbSymbolTableRecord
100
AcDbLinetypeTableRecord
  2
DASHED
 70
     0
  3
- - - - - - - - - - - - - - - - - - - -
 72
    65
 73
     2
 40
0.2
 49
0.1
 74
     0
 49
-0.1
 74
     0
  0
ENDTAB
  0
TABLE
  2
LAYER
  5
2
330
0
100
AcDbSymbolTable
 70
    33
  0
LAYER
  5
10
102
{ACAD_XDICTIONARY
360
1707
102
}
330
2
100
AcDbSymbolTableRecord
100
AcDbLayerTableRecord
  2
0
 70
     0
 62
     7
  6
CONTINUOUS
370
    -3
390
F
  0
LAYER
  5
1FA
102
{ACAD_XDICTIONARY
360
1709
102
}
330
2
100
AcDbSymbolTableRecord
100
AcDbLayerTableRecord
  2
DEFAULT_1
 70
     0
 62
     7
  6
CENTER
370
    -3
390
F
  0
LAYER
  5
1FB
102
{ACAD_XDICTIONARY
360
170B
102
}
330
2
100
AcDbSymbolTableRecord
100
AcDbLayerTableRecord
  2
DEFAULT_2
 70
     0
 62
     8
  6
HIDDEN
370
    -3
390
F
  0
LAYER
  5
1FC
102
{ACAD_XDICTIONARY
360
170D
102
}
330
2
100
AcDbSymbolTableRecord
100
AcDbLayerTableRecord
  2
DEFAULT_3
 70
     0
 62
     7
  6
PHANTOM
370
    -3
390
F
  0
LAYER
  5
1FD
102
{ACAD_XDICTIONARY
360
170F
102
}
330
2
100
AcDbSymbolTableRecord
100
AcDbLayerTableRecord
  2
0_DEFAULT
 70
     0
 62
     7
  6
CONTINUOUS
370
    -3
390
F
  0
LAYER
  5
1FE
102
{ACAD_XDICTIONARY
360
1711
102
}
330
2
100
AcDbSymbolTableRecord
100
AcDbLayerTableRecord
  2
1_CURVES
 70
     0
 62
     7
  6
CONTINUOUS
370
    -3
390
F
  0
LAYER
  5
1FF
102
{ACAD_XDICTIONARY
360
1713
102
}
330
2
100
AcDbSymbolTableRecord
100
AcDbLayerTableRecord
  2
1_CURVES_CHROMO_INV
 70
     0
 62
     7
  6
CONTINUOUS
370
    -3
390
F
  0
LAYER
  5
200
102
{ACAD_XDICTIONARY
360
1715
102
}
330
2
100
AcDbSymbolTableRecord
100
AcDbLayerTableRecord
  2
1_CURVES_DOT
 70
     0
 62
     7
  6
CONTINUOUS
370
    -3
390
F
  0
LAYER
  5
201
102
{ACAD_XDICTIONARY
360
1717
102
}
330
2
100
AcDbSymbolTableRecord
100
AcDbLayerTableRecord
  2
1_CURVES_JETS
 70
     0
 62
     7
  6
CONTINUOUS
370
    -3
390
F
  0
LAYER
  5
202
102
{ACAD_XDICTIONARY
360
1719
102
}
330
2
100
AcDbSymbolTableRecord
100
AcDbLayerTableRecord
  2
1_CURVES_SPEC_FRONT
 70
     0
 62
     7
  6
CONTINUOUS
370
    -3
390
F
  0
LAYER
  5
203
102
{ACAD_XDICTIONARY
360
171B
102
}
330
2
100
AcDbSymbolTableRecord
100
AcDbLayerTableRecord
  2
1_CURVES_SPEC_RIGHT
 70
     0
 62
     7
  6
CONTINUOUS
370
    -3
390
F
  0
LAYER
  5
204
102
{ACAD_XDICTIONARY
360
171D
102
}
330
2
100
AcDbSymbolTableRecord
100
AcDbLayerTableRecord
  2
2_PLANES
 70
     0
 62
     7
  6
CONTINUOUS
370
    -3
390
F
  0
LAYER
  5
205
102
{ACAD_XDICTIONARY
360
171F
102
}
330
2
100
AcDbSymbolTableRecord
100
AcDbLayerTableRecord
  2
2_PLANES_CHROMO_INV
 70
     0
 62
     7
  6
CONTINUOUS
370
    -3
390
F
  0
LAYER
  5
206
102
{ACAD_XDICTIONARY
360
1721
102
}
330
2
100
AcDbSymbolTableRecord
100
AcDbLayerTableRecord
  2
2_PLANES_JETS
 70
     0
 62
     7
  6
CONTINUOUS
370
    -3
390
F
  0
LAYER
  5
207
102
{ACAD_XDICTIONARY
360
1723
102
}
330
2
100
AcDbSymbolTableRecord
100
AcDbLayerTableRecord
  2
3_POINTS
 70
     0
 62
     7
  6
CONTINUOUS
370
    -3
390
F
  0
LAYER
  5
208
102
{ACAD_XDICTIONARY
360
1725
102
}
330
2
100
AcDbSymbolTableRecord
100
AcDbLayerTableRecord
  2
3_POINTS_JETS
 70
     0
 62
     7
  6
CONTINUOUS
370
    -3
390
F
  0
LAYER
  5
209
102
{ACAD_XDICTIONARY
360
1727
102
}
330
2
100
AcDbSymbolTableRecord
100
AcDbLayerTableRecord
  2
3_POINTS_SPEC
 70
     0
 62
     7
  6
CONTINUOUS
370
    -3
390
F
  0
LAYER
  5
20A
102
{ACAD_XDICTIONARY
360
1729
102
}
330
2
100
AcDbSymbolTableRecord
100
AcDbLayerTableRecord
  2
4_CSYS
 70
     0
 62
     7
  6
CONTINUOUS
370
    -3
390
F
  0
LAYER
  5
20B
102
{ACAD_XDICTIONARY
360
172B
102
}
330
2
100
AcDbSymbolTableRecord
100
AcDbLayerTableRecord
  2
5_AXIS
 70
     0
 62
     7
  6
CONTINUOUS
370
    -3
390
F
  0
LAYER
  5
20C
102
{ACAD_XDICTIONARY
360
172D
102
}
330
2
100
AcDbSymbolTableRecord
100
AcDbLayerTableRecord
  2
5_AXIS_CHROMO_INV
 70
     0
 62
     7
  6
CONTINUOUS
370
    -3
390
F
  0
LAYER
  5
20D
102
{ACAD_XDICTIONARY
360
172F
102
}
330
2
100
AcDbSymbolTableRecord
100
AcDbLayerTableRecord
  2
5_AXIS_JETS
 70
     0
 62
     7
  6
CONTINUOUS
370
    -3
390
F
  0
LAYER
  5
20E
102
{ACAD_XDICTIONARY
360
1731
102
}
330
2
100
AcDbSymbolTableRecord
100
AcDbLayerTableRecord
  2
6_SURFACES
 70
     0
 62
     7
  6
CONTINUOUS
370
    -3
390
F
  0
LAYER
  5
20F
102
{ACAD_XDICTIONARY
360
1733
102
}
330
2
100
AcDbSymbolTableRecord
100
AcDbLayerTableRecord
  2
6_SURFACES_CHROMO_INV
 70
     0
 62
     7
  6
CONTINUOUS
370
    -3
390
F
  0
LAYER
  5
210
102
{ACAD_XDICTIONARY
360
1735
102
}
330
2
100
AcDbSymbolTableRecord
100
AcDbLayerTableRecord
  2
6_SURFACES_JUPE
 70
     0
 62
     7
  6
CONTINUOUS
370
    -3
390
F
  0
LAYER
  5
211
102
{ACAD_XDICTIONARY
360
1737
102
}
330
2
100
AcDbSymbolTableRecord
100
AcDbLayerTableRecord
  2
6_SURFACES_OFFSET_FIBRE_ACRYLIQ
 70
     0
 62
     7
  6
CONTINUOUS
370
    -3
390
F
  0
LAYER
  5
212
102
{ACAD_XDICTIONARY
360
1739
102
}
330
2
100
AcDbSymbolTableRecord
100
AcDbLayerTableRecord
  2
6_SURFACES_TOOLING
 70
     0
 62
     7
  6
CONTINUOUS
370
    -3
390
F
  0
LAYER
  5
213
102
{ACAD_XDICTIONARY
360
173B
102
}
330
2
100
AcDbSymbolTableRecord
100
AcDbLayerTableRecord
  2
6_SURFACES_TOOLING_BRIDE
 70
     0
 62
     7
  6
CONTINUOUS
370
    -3
390
F
  0
LAYER
  5
214
102
{ACAD_XDICTIONARY
360
173D
102
}
330
2
100
AcDbSymbolTableRecord
100
AcDbLayerTableRecord
  2
6_SURFACES_TOOLING_DROP-IN
 70
     0
 62
     7
  6
CONTINUOUS
370
    -3
390
F
  0
LAYER
  5
215
102
{ACAD_XDICTIONARY
360
173F
102
}
330
2
100
AcDbSymbolTableRecord
100
AcDbLayerTableRecord
  2
6_SURFACES_TOOLING_FS_INT
 70
     0
 62
     7
  6
CONTINUOUS
370
    -3
390
F
  0
LAYER
  5
216
102
{ACAD_XDICTIONARY
360
1741
102
}
330
2
100
AcDbSymbolTableRecord
100
AcDbLayerTableRecord
  2
7_NOTES
 70
     0
 62
     7
  6
CONTINUOUS
370
    -3
390
F
  0
LAYER
  5
217
102
{ACAD_XDICTIONARY
360
1743
102
}
330
2
100
AcDbSymbolTableRecord
100
AcDbLayerTableRecord
  2
8_SOLID
 70
     0
 62
     7
  6
CONTINUOUS
370
    -3
390
F
  0
LAYER
  5
218
102
{ACAD_XDICTIONARY
360
1745
102
}
330
2
100
AcDbSymbolTableRecord
100
AcDbLayerTableRecord
  2
DEGAGEMENT_SERIGRAPHIE
 70
     0
 62
     7
  6
CONTINUOUS
370
    -3
390
F
  0
LAYER
  5
219
102
{ACAD_XDICTIONARY
360
1747
102
}
330
2
100
AcDbSymbolTableRecord
100
AcDbLayerTableRecord
  2
XSEC_DATUMS
 70
     0
 62
     7
  6
CONTINUOUS
370
    -3
390
F
  0
ENDTAB
  0
TABLE
  2
STYLE
  5
3
330
0
100
AcDbSymbolTable
 70
     7
  0
STYLE
  5
11
330
3
100
AcDbSymbolTableRecord
100
AcDbTextStyleTableRecord
  2
STANDARD
 70
     0
 40
0.0
 41
1.0
 50
0.0
 71
     0
 42
0.2
  3
trium.ttf
  4

  0
STYLE
  5
21A
330
3
100
AcDbSymbolTableRecord
100
AcDbTextStyleTableRecord
  2
TEXTSTYLE_1
 70
     0
 40
0.0
 41
0.8
 50
0.0
 71
     0
 42
0.2
  3
gdt
  4

  0
STYLE
  5
21B
330
3
100
AcDbSymbolTableRecord
100
AcDbTextStyleTableRecord
  2
TEXTSTYLE_2
 70
     0
 40
0.0
 41
1.0
 50
0.0
 71
     0
 42
0.2
  3
trium.ttf
  4

  0
STYLE
  5
21C
330
3
100
AcDbSymbolTableRecord
100
AcDbTextStyleTableRecord
  2
TEXTSTYLE_3
 70
     0
 40
0.0
 41
1.0
 50
0.0
 71
     0
 42
0.2
  3
txt
  4

  0
STYLE
  5
21D
330
3
100
AcDbSymbolTableRecord
100
AcDbTextStyleTableRecord
  2
TEXTSTYLE_4
 70
     0
 40
0.0
 41
1.0
 50
0.0
 71
     0
 42
0.2
  3
txt
  4

  0
STYLE
  5
21E
330
3
100
AcDbSymbolTableRecord
100
AcDbTextStyleTableRecord
  2
TEXTSTYLE_5
 70
     0
 40
0.0
 41
1.0
 50
0.0
 71
     0
 42
0.2
  3
trium.ttf
  4

  0
STYLE
  5
21F
330
3
100
AcDbSymbolTableRecord
100
AcDbTextStyleTableRecord
  2
TEXTSTYLE_6
 70
     0
 40
0.0
 41
0.8
 50
0.0
 71
     0
 42
0.2
  3
txt
  4

  0
ENDTAB
  0
TABLE
  2
VIEW
  5
6
330
0
100
AcDbSymbolTable
 70
     0
  0
ENDTAB
  0
TABLE
  2
UCS
  5
7
330
0
100
AcDbSymbolTable
 70
     0
  0
ENDTAB
  0
TABLE
  2
APPID
  5
9
330
0
100
AcDbSymbolTable
 70
     3
  0
APPID
  5
220
330
9
100
AcDbSymbolTableRecord
100
AcDbRegAppTableRecord
  2
ACAD
 70
     0
  0
APPID
  5
16F1
330
9
100
AcDbSymbolTableRecord
100
AcDbRegAppTableRecord
  2
ACAD_MLEADERVER
 70
     0
  0
APPID
  5
1749
330
9
100
AcDbSymbolTableRecord
100
AcDbRegAppTableRecord
  2
ACAD_NAV_VCDISPLAY
 70
     0
  0
ENDTAB
  0
TABLE
  2
DIMSTYLE
  5
A
330
0
100
AcDbSymbolTable
 70
     8
100
AcDbDimStyleTable
 71
     0
  0
DIMSTYLE
105
23F
330
A
100
AcDbSymbolTableRecord
100
AcDbDimStyleTableRecord
  2
STANDARD
 70
     0
 41
2.0
 44
0.125
 47
0.001
 48
0.001
 71
     1
 78
     4
 79
     1
140
1.333333333299999
170
     1
179
     3
271
     3
272
     3
284
     4
340
11
341
223
342
223
343
223
344
223
  0
DIMSTYLE
105
240
330
A
100
AcDbSymbolTableRecord
100
AcDbDimStyleTableRecord
  2
DIMSTYLE_1
 70
     0
 41
2.0
 44
0.125
 47
0.00001
 48
0.00001
 78
     4
 79
     1
140
1.333333333299999
147
0.0625
170
     1
171
    -2
179
     3
271
     3
272
     8
274
     0
284
     4
340
11
341
223
342
223
343
223
344
223
  0
DIMSTYLE
105
241
330
A
100
AcDbSymbolTableRecord
100
AcDbDimStyleTableRecord
  2
DIMSTYLE_2
 70
     0
 41
2.0
 44
0.125
 47
0.001
 48
0.001
 78
     4
 79
     1
140
1.333333333299999
147
0.0625
170
     1
171
     0
179
     3
271
     3
272
     8
274
     0
284
     4
340
11
341
223
342
223
343
223
344
223
  0
DIMSTYLE
105
242
330
A
100
AcDbSymbolTableRecord
100
AcDbDimStyleTableRecord
  2
DIMSTYLE_3
 70
     0
 41
2.0
 44
0.125
 47
0.00001
 48
0.00001
 78
     4
 79
     1
140
1.333333333299999
147
0.0625
170
     1
171
     0
179
     3
271
     3
272
     8
274
     0
284
     4
340
11
341
223
342
223
343
223
344
223
  0
DIMSTYLE
105
243
330
A
100
AcDbSymbolTableRecord
100
AcDbDimStyleTableRecord
  2
DIMSTYLE_4
 70
     0
 41
2.0
 44
0.125
 47
0.03125
 48
0.03125
 78
     4
 79
     1
140
1.333333333299999
147
0.0625
170
     1
171
     1
179
     3
271
     5
272
    32
274
    -1
284
     4
340
11
341
223
342
223
343
223
344
223
  0
DIMSTYLE
105
244
330
A
100
AcDbSymbolTableRecord
100
AcDbDimStyleTableRecord
  2
DIMSTYLE_5
 70
     0
 41
2.0
 44
0.125
 47
0.001
 48
0.001
 78
     4
 79
     1
140
1.333333333299999
147
0.0625
170
     1
171
     1
179
     3
271
     5
272
    32
274
     1
284
     4
340
11
341
223
342
223
343
223
344
223
  0
DIMSTYLE
105
245
330
A
100
AcDbSymbolTableRecord
100
AcDbDimStyleTableRecord
  2
DIMSTYLE_6
 70
     0
 41
2.0
 44
0.125
 47
0.001
 48
0.001
 78
     4
 79
     1
140
1.333333333299999
147
0.0625
170
     1
171
     0
179
     3
272
    16
274
     0
284
     4
340
11
341
223
342
223
343
223
344
223
  0
DIMSTYLE
105
246
330
A
100
AcDbSymbolTableRecord
100
AcDbDimStyleTableRecord
  2
DIMSTYLE_7
 70
     0
 41
2.0
 44
0.125
 47
0.5
 48
0.5
 78
     4
 79
     1
140
1.333333333299999
147
0.0625
179
     3
271
     5
272
    32
284
     4
340
11
341
223
342
223
343
223
344
223
  0
ENDTAB
  0
TABLE
  2
BLOCK_RECORD
  5
1
330
0
100
AcDbSymbolTable
 70
    28
  0
BLOCK_RECORD
  5
221
330
1
100
AcDbSymbolTableRecord
100
AcDbBlockTableRecord
  2
*Model_Space
340
1661
  0
BLOCK_RECORD
  5
222
330
1
100
AcDbSymbolTableRecord
100
AcDbBlockTableRecord
  2
*Paper_Space
340
1662
  0
BLOCK_RECORD
  5
223
330
1
100
AcDbSymbolTableRecord
100
AcDbBlockTableRecord
  2
_FILLED
340
0
102
{BLKREFS
102
}
  0
BLOCK_RECORD
  5
23C
330
1
100
AcDbSymbolTableRecord
100
AcDbBlockTableRecord
  2
L03-MOTEUR-CONTROLE-LED_BL2
340
0
  0
BLOCK_RECORD
  5
23D
330
1
100
AcDbSymbolTableRecord
100
AcDbBlockTableRecord
  2
L03-USAGE_INTERNE_SEULEM_BL1
340
0
  0
BLOCK_RECORD
  5
23E
330
1
100
AcDbSymbolTableRecord
100
AcDbBlockTableRecord
  2
L03-NOTE_SPECS_BAINS_BL0
340
0
  0
ENDTAB
  0
ENDSEC
  0
SECTION
  2
BLOCKS
  0
BLOCK
  5
20
330
221
100
AcDbEntity
  8
0
100
AcDbBlockBegin
  2
*Model_Space
 70
     0
 10
0.0
 20
0.0
 30
0.0
  3
*Model_Space
  1

  0
ENDBLK
  5
21
330
221
100
AcDbEntity
  8
0
100
AcDbBlockEnd
  0
BLOCK
  5
1C
330
222
100
AcDbEntity
 67
     1
  8
0
100
AcDbBlockBegin
  2
*Paper_Space
 70
     0
 10
0.0
 20
0.0
 30
0.0
  3
*Paper_Space
  1

  0
ENDBLK
  5
1D
330
222
100
AcDbEntity
 67
     1
  8
0
100
AcDbBlockEnd
  0
BLOCK
  5
316
330
223
100
AcDbEntity
  8
0
100
AcDbBlockBegin
  2
_FILLED
 70
     0
 10
0.0
 20
0.0
 30
0.0
  3
_FILLED
  1

  0
SOLID
  5
317
330
223
100
AcDbEntity
  8
0
  6
ByBlock
 62
     0
100
AcDbTrace
 10
0.0
 20
0.0
 30
0.0
 11
-1.0
 21
0.1666666667
 31
0.0
 12
-1.0
 22
-0.1666666667
 32
0.0
 13
-1.0
 23
-0.1666666667
 33
0.0
  0
ENDBLK
  5
318
330
223
100
AcDbEntity
  8
0
  6
ByBlock
 62
     0
100
AcDbBlockEnd
  0
BLOCK
  5
247
330
23C
100
AcDbEntity
  8
0
  6
Continuous
 62
     2
100
AcDbBlockBegin
  2
L03-MOTEUR-CONTROLE-LED_BL2
 70
     0
 10
77.0647414119
 20
79.0262363156
 30
0.0
  3
L03-MOTEUR-CONTROLE-LED_BL2
  1

  0
TEXT
  5
248
330
23C
100
AcDbEntity
  8
0
  6
Continuous
 62
     2
100
AcDbText
 10
75.73140755979999
 20
78.35956938959999
 30
0.0
 40
1.333333852099999
  1
DC
 41
1.166666666622919
 72
     5
 11
78.3980752639
 21
78.35956938959999
 31
0.0
100
AcDbText
  0
ELLIPSE
  5
249
330
23C
100
AcDbEntity
  8
0
  6
Continuous
 62
     7
100
AcDbEllipse
 10
77.0647414119
 20
79.0262363156
 30
0.0
 11
-1.942887567899999
 21
0.0
 31
0.0
210
0.0
220
0.0
230
1.0
 40
0.6606458385
 41
0.0
 42
6.283185307179586
  0
ENDBLK
  5
24A
330
23C
100
AcDbEntity
  8
0
  6
ByBlock
 62
     0
100
AcDbBlockEnd
  0
BLOCK
  5
24B
330
23D
100
AcDbEntity
  8
0
  6
Continuous
 62
     2
100
AcDbBlockBegin
  2
L03-USAGE_INTERNE_SEULEM_BL1
 70
     0
 10
123.6235336287
 20
58.741987455
 30
0.0
  3
L03-USAGE_INTERNE_SEULEM_BL1
  1

  0
TEXT
  5
24C
330
23D
100
AcDbEntity
  8
0
  6
Continuous
 62
     7
100
AcDbText
 10
117.3094733269
 20
60.9870214408
 30
0.0
 40
1.1626666667
  1
INTERNAL USE 
 50
10.00000000017667
 41
0.8985215053571577
  7
TEXTSTYLE_2
 72
     5
 11
129.4592289477
 21
63.1293511658
 31
0.0
100
AcDbText
  0
TEXT
  5
24D
330
23D
100
AcDbEntity
  8
0
  6
Continuous
 62
     7
100
AcDbText
 10
116.565789123
 20
58.98550026310001
 30
0.0
 40
1.1626666667
  1
DOCUMENT ONLY
 50
10.00000000013619
 41
0.9764779873892367
  7
TEXTSTYLE_2
 72
     5
 11
130.6747723516
 21
61.4732946767
 31
0.0
100
AcDbText
  0
TEXT
  5
24E
330
23D
100
AcDbEntity
  8
0
  6
Continuous
 62
     7
100
AcDbText
 10
122.6876565019
 20
58.7965190584
 30
0.0
 40
1.1626666667
  1
 
 50
9.999999992915462
 41
0.4543859648938215
  7
TEXTSTYLE_2
 72
     5
 11
123.1583800181
 21
58.8795203147
 31
0.0
100
AcDbText
  0
TEXT
  5
24F
330
23D
100
AcDbEntity
  8
0
  6
Continuous
 62
     7
100
AcDbText
 10
113.9058688032
 20
54.5599778063
 30
0.0
 40
1.1626666667
  1
DOCUMENT POUR USAGE
 50
10.0000000000181
 41
0.9550156294105908
  7
TEXTSTYLE_2
 72
     5
 11
134.2657210667
 21
58.1499690836
 31
0.0
100
AcDbText
  0
TEXT
  5
250
330
23D
100
AcDbEntity
  8
0
  6
Continuous
 62
     7
100
AcDbText
 10
114.3349682492
 20
52.5432293459
 30
0.0
 40
1.1626666667
  1
A L'INTERNE SEULEMENT
 50
10.00000000005668
 41
0.9468599033535422
  7
TEXTSTYLE_2
 72
     5
 11
134.5209496644
 21
56.10256250149999
 31
0.0
100
AcDbText
  0
LINE
  5
251
330
23D
100
AcDbEntity
  8
0
  6
Continuous
 62
     1
100
AcDbLine
 10
137.4800853521
 20
54.39845383699999
 30
0.0
 11
137.4868442847
 21
54.4052127697
 31
0.0
  0
LINE
  5
252
330
23D
100
AcDbEntity
  8
0
  6
Continuous
 62
     1
100
AcDbLine
 10
136.7475157856
 20
54.2692820572
 30
0.0
 11
137.3963972308
 21
54.9181635024
 31
0.0
  0
LINE
  5
253
330
23D
100
AcDbEntity
  8
0
  6
Continuous
 62
     1
100
AcDbLine
 10
136.0149462192
 20
54.14011027739999
 30
0.0
 11
137.3059501768
 21
55.431114235
 31
0.0
  0
LINE
  5
254
330
23D
100
AcDbEntity
  8
0
  6
Continuous
 62
     1
100
AcDbLine
 10
135.2823766528
 20
54.0109384976
 30
0.0
 11
137.2155031229
 21
55.9440649677
 31
0.0
  0
LINE
  5
255
330
23D
100
AcDbEntity
  8
0
  6
Continuous
 62
     1
100
AcDbLine
 10
134.5498070864
 20
53.8817667178
 30
0.0
 11
137.1250560689
 21
56.45701570039999
 31
0.0
  0
LINE
  5
256
330
23D
100
AcDbEntity
  8
0
  6
Continuous
 62
     1
100
AcDbLine
 10
133.81723752
 20
53.752594938
 30
0.0
 11
135.3582413347
 21
55.29359875279999
 31
0.0
  0
LINE
  5
257
330
23D
100
AcDbEntity
  8
0
  6
Continuous
 62
     1
100
AcDbLine
 10
135.9555865275
 20
55.8909439455
 30
0.0
 11
137.034609015
 21
56.969966433
 31
0.0
  0
LINE
  5
258
330
23D
100
AcDbEntity
  8
0
  6
Continuous
 62
     1
100
AcDbLine
 10
133.0846679535
 20
53.6234231582
 30
0.0
 11
134.6256717683
 21
55.164426973
 31
0.0
  0
LINE
  5
259
330
23D
100
AcDbEntity
  8
0
  6
Continuous
 62
     1
100
AcDbLine
 10
135.8651394735
 20
56.4038946782
 30
0.0
 11
136.944161961
 21
57.48291716569999
 31
0.0
  0
LINE
  5
25A
330
23D
100
AcDbEntity
  8
0
  6
Continuous
 62
     1
100
AcDbLine
 10
132.3520983871
 20
53.4942513784
 30
0.0
 11
133.8931022019
 21
55.0352551932
 31
0.0
  0
LINE
  5
25B
330
23D
100
AcDbEntity
  8
0
  6
Continuous
 62
     1
100
AcDbLine
 10
135.7746924196
 20
56.9168454109
 30
0.0
 11
136.8537149071
 21
57.9958678984
 31
0.0
  0
LINE
  5
25C
330
23D
100
AcDbEntity
  8
0
  6
Continuous
 62
     1
100
AcDbLine
 10
131.6195288207
 20
53.3650795986
 30
0.0
 11
133.1605326355
 21
54.9060834134
 31
0.0
  0
LINE
  5
25D
330
23D
100
AcDbEntity
  8
0
  6
Continuous
 62
     1
100
AcDbLine
 10
135.6842453656
 20
57.42979614350001
 30
0.0
 11
136.7632678532
 21
58.508818631
 31
0.0
  0
LINE
  5
25E
330
23D
100
AcDbEntity
  8
0
  6
Continuous
 62
     1
100
AcDbLine
 10
130.8869592543
 20
53.2359078188
 30
0.0
 11
132.4279630691
 21
54.77691163359999
 31
0.0
  0
LINE
  5
25F
330
23D
100
AcDbEntity
  8
0
  6
Continuous
 62
     1
100
AcDbLine
 10
135.5937983117
 20
57.94274687619999
 30
0.0
 11
136.6728207992
 21
59.0217693637
 31
0.0
  0
LINE
  5
260
330
23D
100
AcDbEntity
  8
0
  6
Continuous
 62
     1
100
AcDbLine
 10
130.1543896879
 20
53.10673603899999
 30
0.0
 11
131.6953935027
 21
54.6477398538
 31
0.0
  0
LINE
  5
261
330
23D
100
AcDbEntity
  8
0
  6
Continuous
 62
     1
100
AcDbLine
 10
135.5033512577
 20
58.45569760890001
 30
0.0
 11
136.5823737453
 21
59.5347200964
 31
0.0
  0
LINE
  5
262
330
23D
100
AcDbEntity
  8
0
  6
Continuous
 62
     1
100
AcDbLine
 10
129.4218201215
 20
52.9775642592
 30
0.0
 11
130.9628239362
 21
54.51856807399999
 31
0.0
  0
LINE
  5
263
330
23D
100
AcDbEntity
  8
0
  6
Continuous
 62
     1
100
AcDbLine
 10
135.4129042038
 20
58.96864834149999
 30
0.0
 11
136.4919266913
 21
60.04767082909999
 31
0.0
  0
LINE
  5
264
330
23D
100
AcDbEntity
  8
0
  6
Continuous
 62
     1
100
AcDbLine
 10
128.689250555
 20
52.84839247939999
 30
0.0
 11
130.2302543698
 21
54.3893962942
 31
0.0
  0
LINE
  5
265
330
23D
100
AcDbEntity
  8
0
  6
Continuous
 62
     1
100
AcDbLine
 10
135.3224571499
 20
59.4815990742
 30
0.0
 11
136.4014796374
 21
60.5606215617
 31
0.0
  0
LINE
  5
266
330
23D
100
AcDbEntity
  8
0
  6
Continuous
 62
     1
100
AcDbLine
 10
127.9566809886
 20
52.7192206996
 30
0.0
 11
129.4976848034
 21
54.26022451439999
 31
0.0
  0
LINE
  5
267
330
23D
100
AcDbEntity
  8
0
  6
Continuous
 62
     1
100
AcDbLine
 10
135.2320100959
 20
59.9945498069
 30
0.0
 11
136.3110325834
 21
61.07357229439999
 31
0.0
  0
LINE
  5
268
330
23D
100
AcDbEntity
  8
0
  6
Continuous
 62
     1
100
AcDbLine
 10
127.2241114222
 20
52.5900489198
 30
0.0
 11
128.765115237
 21
54.1310527346
 31
0.0
  0
LINE
  5
269
330
23D
100
AcDbEntity
  8
0
  6
Continuous
 62
     1
100
AcDbLine
 10
134.9291304961
 20
60.2950679937
 30
0.0
 11
136.2205855295
 21
61.5865230271
 31
0.0
  0
LINE
  5
26A
330
23D
100
AcDbEntity
  8
0
  6
Continuous
 62
     1
100
AcDbLine
 10
126.4915418558
 20
52.46087714
 30
0.0
 11
128.0325456706
 21
54.0018809547
 31
0.0
  0
LINE
  5
26B
330
23D
100
AcDbEntity
  8
0
  6
Continuous
 62
     1
100
AcDbLine
 10
134.1965609297
 20
60.1658962139
 30
0.0
 11
136.1301384755
 21
62.0994737597
 31
0.0
  0
LINE
  5
26C
330
23D
100
AcDbEntity
  8
0
  6
Continuous
 62
     1
100
AcDbLine
 10
125.7589722894
 20
52.33170536020001
 30
0.0
 11
127.2999761041
 21
53.87270917489999
 31
0.0
  0
LINE
  5
26D
330
23D
100
AcDbEntity
  8
0
  6
Continuous
 62
     1
100
AcDbLine
 10
133.4639913633
 20
60.03672443399999
 30
0.0
 11
134.4913336615
 21
61.0640667323
 31
0.0
  0
LINE
  5
26E
330
23D
100
AcDbEntity
  8
0
  6
Continuous
 62
     1
100
AcDbLine
 10
134.9606689341
 20
61.53340200489999
 30
0.0
 11
136.0396914216
 21
62.6124244924
 31
0.0
  0
LINE
  5
26F
330
23D
100
AcDbEntity
  8
0
  6
Continuous
 62
     1
100
AcDbLine
 10
125.026402723
 20
52.2025335804
 30
0.0
 11
126.5674065377
 21
53.7435373951
 31
0.0
  0
LINE
  5
270
330
23D
100
AcDbEntity
  8
0
  6
Continuous
 62
     1
100
AcDbLine
 10
132.7314217968
 20
59.9075526542
 30
0.0
 11
133.7587638855
 21
60.9348947429
 31
0.0
  0
LINE
  5
271
330
23D
100
AcDbEntity
  8
0
  6
Continuous
 62
     1
100
AcDbLine
 10
134.8702218801
 20
62.0463527375
 30
0.0
 11
135.9492443677
 21
63.1253752251
 31
0.0
  0
LINE
  5
272
330
23D
100
AcDbEntity
  8
0
  6
Continuous
 62
     1
100
AcDbLine
 10
124.2938331565
 20
52.0733618006
 30
0.0
 11
125.8348369713
 21
53.61436561529999
 31
0.0
  0
LINE
  5
273
330
23D
100
AcDbEntity
  8
0
  6
Continuous
 62
     1
100
AcDbLine
 10
131.9988522304
 20
59.77838087439999
 30
0.0
 11
133.0261941095
 21
60.8057227535
 31
0.0
  0
LINE
  5
274
330
23D
100
AcDbEntity
  8
0
  6
Continuous
 62
     1
100
AcDbLine
 10
134.7797748262
 20
62.55930347020001
 30
0.0
 11
135.8587973137
 21
63.6383259577
 31
0.0
  0
LINE
  5
275
330
23D
100
AcDbEntity
  8
0
  6
Continuous
 62
     1
100
AcDbLine
 10
123.5612635901
 20
51.9441900207
 30
0.0
 11
125.1022674049
 21
53.4851938355
 31
0.0
  0
LINE
  5
276
330
23D
100
AcDbEntity
  8
0
  6
Continuous
 62
     1
100
AcDbLine
 10
131.266282664
 20
59.6492090946
 30
0.0
 11
132.2936243334
 21
60.6765507641
 31
0.0
  0
LINE
  5
277
330
23D
100
AcDbEntity
  8
0
  6
Continuous
 62
     1
100
AcDbLine
 10
134.6893277723
 20
63.07225420289999
 30
0.0
 11
135.7683502598
 21
64.1512766904
 31
0.0
  0
LINE
  5
278
330
23D
100
AcDbEntity
  8
0
  6
Continuous
 62
     1
100
AcDbLine
 10
122.8286940237
 20
51.8150182409
 30
0.0
 11
124.3696978385
 21
53.35602205569999
 31
0.0
  0
LINE
  5
279
330
23D
100
AcDbEntity
  8
0
  6
Continuous
 62
     1
100
AcDbLine
 10
130.5337130976
 20
59.52003731479999
 30
0.0
 11
131.5610545574
 21
60.5473787746
 31
0.0
  0
LINE
  5
27A
330
23D
100
AcDbEntity
  8
0
  6
Continuous
 62
     1
100
AcDbLine
 10
134.5988807183
 20
63.5852049356
 30
0.0
 11
135.6779032058
 21
64.6642274231
 31
0.0
  0
LINE
  5
27B
330
23D
100
AcDbEntity
  8
0
  6
Continuous
 62
     1
100
AcDbLine
 10
122.0961244573
 20
51.6858464611
 30
0.0
 11
123.6371282721
 21
53.2268502759
 31
0.0
  0
LINE
  5
27C
330
23D
100
AcDbEntity
  8
0
  6
Continuous
 62
     1
100
AcDbLine
 10
129.8011435312
 20
59.39086553500001
 30
0.0
 11
130.8284847814
 21
60.4182067852
 31
0.0
  0
LINE
  5
27D
330
23D
100
AcDbEntity
  8
0
  6
Continuous
 62
     1
100
AcDbLine
 10
134.5084336644
 20
64.09815566819999
 30
0.0
 11
135.5874561519
 21
65.17717815569999
 31
0.0
  0
LINE
  5
27E
330
23D
100
AcDbEntity
  8
0
  6
Continuous
 62
     1
100
AcDbLine
 10
121.3635548909
 20
51.5566746813
 30
0.0
 11
122.9045587056
 21
53.0976784961
 31
0.0
  0
LINE
  5
27F
330
23D
100
AcDbEntity
  8
0
  6
Continuous
 62
     1
100
AcDbLine
 10
129.0685739647
 20
59.2616937552
 30
0.0
 11
130.0959150053
 21
60.2890347958
 31
0.0
  0
LINE
  5
280
330
23D
100
AcDbEntity
  8
0
  6
Continuous
 62
     1
100
AcDbLine
 10
134.4179866104
 20
64.6111064009
 30
0.0
 11
135.4970090979
 21
65.69012888839999
 31
0.0
  0
LINE
  5
281
330
23D
100
AcDbEntity
  8
0
  6
Continuous
 62
     1
100
AcDbLine
 10
120.6309853244
 20
51.4275029015
 30
0.0
 11
122.1719891392
 21
52.9685067163
 31
0.0
  0
LINE
  5
282
330
23D
100
AcDbEntity
  8
0
  6
Continuous
 62
     1
100
AcDbLine
 10
128.3360043983
 20
59.1325219754
 30
0.0
 11
129.3633452293
 21
60.1598628064
 31
0.0
  0
LINE
  5
283
330
23D
100
AcDbEntity
  8
0
  6
Continuous
 62
     1
100
AcDbLine
 10
134.3275395565
 20
65.12405713359999
 30
0.0
 11
135.406562044
 21
66.2030796211
 31
0.0
  0
LINE
  5
284
330
23D
100
AcDbEntity
  8
0
  6
Continuous
 62
     1
100
AcDbLine
 10
119.898415758
 20
51.2983311217
 30
0.0
 11
121.4394195728
 21
52.8393349365
 31
0.0
  0
LINE
  5
285
330
23D
100
AcDbEntity
  8
0
  6
Continuous
 62
     1
100
AcDbLine
 10
127.6034348319
 20
59.0033501956
 30
0.0
 11
128.6307754533
 21
60.030690817
 31
0.0
  0
LINE
  5
286
330
23D
100
AcDbEntity
  8
0
  6
Continuous
 62
     1
100
AcDbLine
 10
134.2370925025
 20
65.6370078662
 30
0.0
 11
135.3161149901
 21
66.71603035369999
 31
0.0
  0
LINE
  5
287
330
23D
100
AcDbEntity
  8
0
  6
Continuous
 62
     1
100
AcDbLine
 10
119.1658461916
 20
51.1691593419
 30
0.0
 11
120.7068500064
 21
52.71016315669999
 31
0.0
  0
LINE
  5
288
330
23D
100
AcDbEntity
  8
0
  6
Continuous
 62
     1
100
AcDbLine
 10
126.8708652655
 20
58.87417841579999
 30
0.0
 11
127.8982056773
 21
59.9015188276
 31
0.0
  0
LINE
  5
289
330
23D
100
AcDbEntity
  8
0
  6
Continuous
 62
     1
100
AcDbLine
 10
134.0622164011
 20
66.0655295514
 30
0.0
 11
135.2256679361
 21
67.22898108639999
 31
0.0
  0
LINE
  5
28A
330
23D
100
AcDbEntity
  8
0
  6
Continuous
 62
     1
100
AcDbLine
 10
118.4332766252
 20
51.0399875621
 30
0.0
 11
119.97428044
 21
52.58099137689999
 31
0.0
  0
LINE
  5
28B
330
23D
100
AcDbEntity
  8
0
  6
Continuous
 62
     1
100
AcDbLine
 10
126.1382956991
 20
58.74500663600001
 30
0.0
 11
127.1656359012
 21
59.7723468381
 31
0.0
  0
LINE
  5
28C
330
23D
100
AcDbEntity
  8
0
  6
Continuous
 62
     1
100
AcDbLine
 10
133.3296468347
 20
65.9363577716
 30
0.0
 11
134.8706506495
 21
67.47736158640001
 31
0.0
  0
LINE
  5
28D
330
23D
100
AcDbEntity
  8
0
  6
Continuous
 62
     1
100
AcDbLine
 10
117.7007070588
 20
50.91081578229999
 30
0.0
 11
119.2417108736
 21
52.4518195971
 31
0.0
  0
LINE
  5
28E
330
23D
100
AcDbEntity
  8
0
  6
Continuous
 62
     1
100
AcDbLine
 10
125.4057261327
 20
58.61583485619999
 30
0.0
 11
126.4330661252
 21
59.6431748487
 31
0.0
  0
LINE
  5
28F
330
23D
100
AcDbEntity
  8
0
  6
Continuous
 62
     1
100
AcDbLine
 10
132.5970772683
 20
65.80718599179999
 30
0.0
 11
134.1380810831
 21
67.3481898066
 31
0.0
  0
LINE
  5
290
330
23D
100
AcDbEntity
  8
0
  6
Continuous
 62
     1
100
AcDbLine
 10
116.9681374924
 20
50.7816440025
 30
0.0
 11
118.5091413071
 21
52.32264781729999
 31
0.0
  0
LINE
  5
291
330
23D
100
AcDbEntity
  8
0
  6
Continuous
 62
     1
100
AcDbLine
 10
124.6731565662
 20
58.48666307640001
 30
0.0
 11
125.7004963492
 21
59.5140028593
 31
0.0
  0
LINE
  5
292
330
23D
100
AcDbEntity
  8
0
  6
Continuous
 62
     1
100
AcDbLine
 10
131.8645077019
 20
65.67801421199999
 30
0.0
 11
133.4055115166
 21
67.2190180268
 31
0.0
  0
LINE
  5
293
330
23D
100
AcDbEntity
  8
0
  6
Continuous
 62
     1
100
AcDbLine
 10
116.2355679259
 20
50.6524722227
 30
0.0
 11
117.7765717407
 21
52.1934760375
 31
0.0
  0
LINE
  5
294
330
23D
100
AcDbEntity
  8
0
  6
Continuous
 62
     1
100
AcDbLine
 10
123.9405869998
 20
58.35749129659999
 30
0.0
 11
124.9679265731
 21
59.3848308699
 31
0.0
  0
LINE
  5
295
330
23D
100
AcDbEntity
  8
0
  6
Continuous
 62
     1
100
AcDbLine
 10
131.1319381354
 20
65.5488424322
 30
0.0
 11
132.6729419502
 21
67.089846247
 31
0.0
  0
LINE
  5
296
330
23D
100
AcDbEntity
  8
0
  6
Continuous
 62
     1
100
AcDbLine
 10
115.5029983595
 20
50.5233004429
 30
0.0
 11
117.0440021743
 21
52.0643042577
 31
0.0
  0
LINE
  5
297
330
23D
100
AcDbEntity
  8
0
  6
Continuous
 62
     1
100
AcDbLine
 10
123.2080174334
 20
58.22831951680001
 30
0.0
 11
124.2353567971
 21
59.2556588805
 31
0.0
  0
LINE
  5
298
330
23D
100
AcDbEntity
  8
0
  6
Continuous
 62
     1
100
AcDbLine
 10
130.399368569
 20
65.4196706524
 30
0.0
 11
131.9403723838
 21
66.9606744672
 31
0.0
  0
LINE
  5
299
330
23D
100
AcDbEntity
  8
0
  6
Continuous
 62
     1
100
AcDbLine
 10
114.7704287931
 20
50.39412866310001
 30
0.0
 11
116.3114326079
 21
51.9351324779
 31
0.0
  0
LINE
  5
29A
330
23D
100
AcDbEntity
  8
0
  6
Continuous
 62
     1
100
AcDbLine
 10
122.475447867
 20
58.099147737
 30
0.0
 11
123.5027870211
 21
59.1264868911
 31
0.0
  0
LINE
  5
29B
330
23D
100
AcDbEntity
  8
0
  6
Continuous
 62
     1
100
AcDbLine
 10
129.6667990026
 20
65.2904988726
 30
0.0
 11
131.2078028174
 21
66.8315026874
 31
0.0
  0
LINE
  5
29C
330
23D
100
AcDbEntity
  8
0
  6
Continuous
 62
     1
100
AcDbLine
 10
114.0378592267
 20
50.2649568833
 30
0.0
 11
115.5788630415
 21
51.8059606981
 31
0.0
  0
LINE
  5
29D
330
23D
100
AcDbEntity
  8
0
  6
Continuous
 62
     1
100
AcDbLine
 10
121.7428783006
 20
57.9699759572
 30
0.0
 11
122.7702172451
 21
58.9973149017
 31
0.0
  0
LINE
  5
29E
330
23D
100
AcDbEntity
  8
0
  6
Continuous
 62
     1
100
AcDbLine
 10
128.9342294362
 20
65.16132709279999
 30
0.0
 11
130.475233251
 21
66.7023309076
 31
0.0
  0
LINE
  5
29F
330
23D
100
AcDbEntity
  8
0
  6
Continuous
 62
     1
100
AcDbLine
 10
113.3052896603
 20
50.13578510350001
 30
0.0
 11
114.846293475
 21
51.67678891819999
 31
0.0
  0
LINE
  5
2A0
330
23D
100
AcDbEntity
  8
0
  6
Continuous
 62
     1
100
AcDbLine
 10
121.0103087342
 20
57.8408041774
 30
0.0
 11
122.037647469
 21
58.8681429122
 31
0.0
  0
LINE
  5
2A1
330
23D
100
AcDbEntity
  8
0
  6
Continuous
 62
     1
100
AcDbLine
 10
128.2016598698
 20
65.032155313
 30
0.0
 11
129.7426636846
 21
66.57315912779999
 31
0.0
  0
LINE
  5
2A2
330
23D
100
AcDbEntity
  8
0
  6
Continuous
 62
     1
100
AcDbLine
 10
112.5727200938
 20
50.0066133237
 30
0.0
 11
114.1137239086
 21
51.5476171384
 31
0.0
  0
LINE
  5
2A3
330
23D
100
AcDbEntity
  8
0
  6
Continuous
 62
     1
100
AcDbLine
 10
120.2777391677
 20
57.71163239759999
 30
0.0
 11
121.305077693
 21
58.7389709228
 31
0.0
  0
LINE
  5
2A4
330
23D
100
AcDbEntity
  8
0
  6
Continuous
 62
     1
100
AcDbLine
 10
127.4690903034
 20
64.9029835332
 30
0.0
 11
129.0100941181
 21
66.44398734800001
 31
0.0
  0
LINE
  5
2A5
330
23D
100
AcDbEntity
  8
0
  6
Continuous
 62
     1
100
AcDbLine
 10
112.0213993213
 20
50.05869033779999
 30
0.0
 11
113.3811543422
 21
51.41844535859999
 31
0.0
  0
LINE
  5
2A6
330
23D
100
AcDbEntity
  8
0
  6
Continuous
 62
     1
100
AcDbLine
 10
119.5451696013
 20
57.58246061770001
 30
0.0
 11
120.572507917
 21
58.6097989334
 31
0.0
  0
LINE
  5
2A7
330
23D
100
AcDbEntity
  8
0
  6
Continuous
 62
     1
100
AcDbLine
 10
126.7365207369
 20
64.77381175339999
 30
0.0
 11
128.2775245517
 21
66.3148155681
 31
0.0
  0
LINE
  5
2A8
330
23D
100
AcDbEntity
  8
0
  6
Continuous
 62
     1
100
AcDbLine
 10
111.9309522674
 20
50.5716410704
 30
0.0
 11
113.0099747549
 21
51.65066355789999
 31
0.0
  0
LINE
  5
2A9
330
23D
100
AcDbEntity
  8
0
  6
Continuous
 62
     1
100
AcDbLine
 10
118.8126000349
 20
57.4532888379
 30
0.0
 11
119.8399381409
 21
58.48062694399999
 31
0.0
  0
LINE
  5
2AA
330
23D
100
AcDbEntity
  8
0
  6
Continuous
 62
     1
100
AcDbLine
 10
126.0039511705
 20
64.64463997359999
 30
0.0
 11
127.5449549853
 21
66.1856437883
 31
0.0
  0
LINE
  5
2AB
330
23D
100
AcDbEntity
  8
0
  6
Continuous
 62
     1
100
AcDbLine
 10
111.8405052134
 20
51.0845918031
 30
0.0
 11
112.919527701
 21
52.1636142906
 31
0.0
  0
LINE
  5
2AC
330
23D
100
AcDbEntity
  8
0
  6
Continuous
 62
     1
100
AcDbLine
 10
118.0800304685
 20
57.32411705810001
 30
0.0
 11
119.1073683649
 21
58.3514549546
 31
0.0
  0
LINE
  5
2AD
330
23D
100
AcDbEntity
  8
0
  6
Continuous
 62
     1
100
AcDbLine
 10
125.2713816041
 20
64.5154681938
 30
0.0
 11
126.8123854189
 21
66.0564720085
 31
0.0
  0
LINE
  5
2AE
330
23D
100
AcDbEntity
  8
0
  6
Continuous
 62
     1
100
AcDbLine
 10
111.7500581595
 20
51.5975425358
 30
0.0
 11
112.829080647
 21
52.6765650233
 31
0.0
  0
LINE
  5
2AF
330
23D
100
AcDbEntity
  8
0
  6
Continuous
 62
     1
100
AcDbLine
 10
117.3474609021
 20
57.1949452783
 30
0.0
 11
118.3747985889
 21
58.2222829652
 31
0.0
  0
LINE
  5
2B0
330
23D
100
AcDbEntity
  8
0
  6
Continuous
 62
     1
100
AcDbLine
 10
124.5388120377
 20
64.386296414
 30
0.0
 11
126.0798158525
 21
65.9273002287
 31
0.0
  0
LINE
  5
2B1
330
23D
100
AcDbEntity
  8
0
  6
Continuous
 62
     1
100
AcDbLine
 10
111.6596111056
 20
52.1104932684
 30
0.0
 11
112.7386335931
 21
53.189515756
 31
0.0
  0
LINE
  5
2B2
330
23D
100
AcDbEntity
  8
0
  6
Continuous
 62
     1
100
AcDbLine
 10
116.6148913356
 20
57.0657734985
 30
0.0
 11
117.6422288129
 21
58.0931109757
 31
0.0
  0
LINE
  5
2B3
330
23D
100
AcDbEntity
  8
0
  6
Continuous
 62
     1
100
AcDbLine
 10
123.8062424713
 20
64.2571246342
 30
0.0
 11
125.347246286
 21
65.7981284489
 31
0.0
  0
LINE
  5
2B4
330
23D
100
AcDbEntity
  8
0
  6
Continuous
 62
     1
100
AcDbLine
 10
111.5691640516
 20
52.62344400109999
 30
0.0
 11
112.6481865391
 21
53.7024664886
 31
0.0
  0
LINE
  5
2B5
330
23D
100
AcDbEntity
  8
0
  6
Continuous
 62
     1
100
AcDbLine
 10
115.8823217692
 20
56.9366017187
 30
0.0
 11
116.9096590368
 21
57.9639389863
 31
0.0
  0
LINE
  5
2B6
330
23D
100
AcDbEntity
  8
0
  6
Continuous
 62
     1
100
AcDbLine
 10
123.0736729049
 20
64.1279528543
 30
0.0
 11
124.6146767196
 21
65.66895666909999
 31
0.0
  0
LINE
  5
2B7
330
23D
100
AcDbEntity
  8
0
  6
Continuous
 62
     1
100
AcDbLine
 10
111.4787169977
 20
53.1363947338
 30
0.0
 11
112.5577394852
 21
54.2154172213
 31
0.0
  0
LINE
  5
2B8
330
23D
100
AcDbEntity
  8
0
  6
Continuous
 62
     1
100
AcDbLine
 10
115.1497522028
 20
56.8074299389
 30
0.0
 11
116.1770892608
 21
57.83476699689999
 31
0.0
  0
LINE
  5
2B9
330
23D
100
AcDbEntity
  8
0
  6
Continuous
 62
     1
100
AcDbLine
 10
122.3411033384
 20
63.9987810745
 30
0.0
 11
123.8821071532
 21
65.53978488930001
 31
0.0
  0
LINE
  5
2BA
330
23D
100
AcDbEntity
  8
0
  6
Continuous
 62
     1
100
AcDbLine
 10
111.3882699437
 20
53.6493454664
 30
0.0
 11
112.4672924312
 21
54.728367954
 31
0.0
  0
LINE
  5
2BB
330
23D
100
AcDbEntity
  8
0
  6
Continuous
 62
     1
100
AcDbLine
 10
114.4171826364
 20
56.67825815909999
 30
0.0
 11
115.4445194848
 21
57.7055950075
 31
0.0
  0
LINE
  5
2BC
330
23D
100
AcDbEntity
  8
0
  6
Continuous
 62
     1
100
AcDbLine
 10
121.608533772
 20
63.8696092947
 30
0.0
 11
123.1495375868
 21
65.4106131095
 31
0.0
  0
LINE
  5
2BD
330
23D
100
AcDbEntity
  8
0
  6
Continuous
 62
     1
100
AcDbLine
 10
111.2978228898
 20
54.1622961991
 30
0.0
 11
112.3768453773
 21
55.24131868659999
 31
0.0
  0
LINE
  5
2BE
330
23D
100
AcDbEntity
  8
0
  6
Continuous
 62
     1
100
AcDbLine
 10
113.68461307
 20
56.5490863793
 30
0.0
 11
114.7119497087
 21
57.5764230181
 31
0.0
  0
LINE
  5
2BF
330
23D
100
AcDbEntity
  8
0
  6
Continuous
 62
     1
100
AcDbLine
 10
120.8759642056
 20
63.74043751489999
 30
0.0
 11
122.4169680204
 21
65.2814413297
 31
0.0
  0
LINE
  5
2C0
330
23D
100
AcDbEntity
  8
0
  6
Continuous
 62
     1
100
AcDbLine
 10
111.2073758358
 20
54.6752469318
 30
0.0
 11
112.2863983234
 21
55.7542694193
 31
0.0
  0
LINE
  5
2C1
330
23D
100
AcDbEntity
  8
0
  6
Continuous
 62
     1
100
AcDbLine
 10
112.9520435036
 20
56.41991459949999
 30
0.0
 11
113.9793799327
 21
57.4472510287
 31
0.0
  0
LINE
  5
2C2
330
23D
100
AcDbEntity
  8
0
  6
Continuous
 62
     1
100
AcDbLine
 10
120.1433946392
 20
63.6112657351
 30
0.0
 11
121.684398454
 21
65.1522695499
 31
0.0
  0
LINE
  5
2C3
330
23D
100
AcDbEntity
  8
0
  6
Continuous
 62
     1
100
AcDbLine
 10
111.1169287819
 20
55.1881976644
 30
0.0
 11
112.1959512694
 21
56.267220152
 31
0.0
  0
LINE
  5
2C4
330
23D
100
AcDbEntity
  8
0
  6
Continuous
 62
     1
100
AcDbLine
 10
112.2194739371
 20
56.2907428197
 30
0.0
 11
113.2468101567
 21
57.3180790392
 31
0.0
  0
LINE
  5
2C5
330
23D
100
AcDbEntity
  8
0
  6
Continuous
 62
     1
100
AcDbLine
 10
119.4108250728
 20
63.48209395529999
 30
0.0
 11
120.9518288875
 21
65.02309777010001
 31
0.0
  0
LINE
  5
2C6
330
23D
100
AcDbEntity
  8
0
  6
Continuous
 62
     1
100
AcDbLine
 10
111.0264817279
 20
55.7011483971
 30
0.0
 11
112.5142403807
 21
57.18890704979999
 31
0.0
  0
LINE
  5
2C7
330
23D
100
AcDbEntity
  8
0
  6
Continuous
 62
     1
100
AcDbLine
 10
118.6782555063
 20
63.35292217550001
 30
0.0
 11
120.2192593211
 21
64.89392599029999
 31
0.0
  0
LINE
  5
2C8
330
23D
100
AcDbEntity
  8
0
  6
Continuous
 62
     1
100
AcDbLine
 10
110.936034674
 20
56.21409912979999
 30
0.0
 11
112.0150571615
 21
57.2931216173
 31
0.0
  0
LINE
  5
2C9
330
23D
100
AcDbEntity
  8
0
  6
Continuous
 62
     1
100
AcDbLine
 10
117.9456859399
 20
63.22375039569999
 30
0.0
 11
119.4866897547
 21
64.7647542105
 31
0.0
  0
LINE
  5
2CA
330
23D
100
AcDbEntity
  8
0
  6
Continuous
 62
     1
100
AcDbLine
 10
110.8455876201
 20
56.7270498625
 30
0.0
 11
111.9246101076
 21
57.80607235
 31
0.0
  0
LINE
  5
2CB
330
23D
100
AcDbEntity
  8
0
  6
Continuous
 62
     1
100
AcDbLine
 10
117.2131163735
 20
63.09457861590001
 30
0.0
 11
118.7541201883
 21
64.6355824307
 31
0.0
  0
LINE
  5
2CC
330
23D
100
AcDbEntity
  8
0
  6
Continuous
 62
     1
100
AcDbLine
 10
110.7551405661
 20
57.2400005951
 30
0.0
 11
111.8341630536
 21
58.3190230826
 31
0.0
  0
LINE
  5
2CD
330
23D
100
AcDbEntity
  8
0
  6
Continuous
 62
     1
100
AcDbLine
 10
116.4805468071
 20
62.96540683609999
 30
0.0
 11
118.0215506219
 21
64.50641065090001
 31
0.0
  0
LINE
  5
2CE
330
23D
100
AcDbEntity
  8
0
  6
Continuous
 62
     1
100
AcDbLine
 10
110.6646935122
 20
57.7529513278
 30
0.0
 11
111.7437159997
 21
58.83197381529999
 31
0.0
  0
LINE
  5
2CF
330
23D
100
AcDbEntity
  8
0
  6
Continuous
 62
     1
100
AcDbLine
 10
115.7479772407
 20
62.8362350563
 30
0.0
 11
117.2889810555
 21
64.37723887109999
 31
0.0
  0
LINE
  5
2D0
330
23D
100
AcDbEntity
  8
0
  6
Continuous
 62
     1
100
AcDbLine
 10
110.5742464582
 20
58.2659020605
 30
0.0
 11
111.6532689457
 21
59.344924548
 31
0.0
  0
LINE
  5
2D1
330
23D
100
AcDbEntity
  8
0
  6
Continuous
 62
     1
100
AcDbLine
 10
115.0154076743
 20
62.7070632765
 30
0.0
 11
116.556411489
 21
64.2480670913
 31
0.0
  0
LINE
  5
2D2
330
23D
100
AcDbEntity
  8
0
  6
Continuous
 62
     1
100
AcDbLine
 10
110.4837994043
 20
58.7788527931
 30
0.0
 11
111.5628218918
 21
59.85787528060001
 31
0.0
  0
LINE
  5
2D3
330
23D
100
AcDbEntity
  8
0
  6
Continuous
 62
     1
100
AcDbLine
 10
114.2828381078
 20
62.57789149669999
 30
0.0
 11
115.8238419226
 21
64.11889531149999
 31
0.0
  0
LINE
  5
2D4
330
23D
100
AcDbEntity
  8
0
  6
Continuous
 62
     1
100
AcDbLine
 10
110.3933523503
 20
59.2918035258
 30
0.0
 11
111.4723748379
 21
60.37082601329999
 31
0.0
  0
LINE
  5
2D5
330
23D
100
AcDbEntity
  8
0
  6
Continuous
 62
     1
100
AcDbLine
 10
113.5502685414
 20
62.44871971689999
 30
0.0
 11
115.0912723562
 21
63.9897235317
 31
0.0
  0
LINE
  5
2D6
330
23D
100
AcDbEntity
  8
0
  6
Continuous
 62
     1
100
AcDbLine
 10
110.3029052964
 20
59.8047542585
 30
0.0
 11
111.3819277839
 21
60.883776746
 31
0.0
  0
LINE
  5
2D7
330
23D
100
AcDbEntity
  8
0
  6
Continuous
 62
     1
100
AcDbLine
 10
112.817698975
 20
62.31954793709999
 30
0.0
 11
114.3587027898
 21
63.8605517518
 31
0.0
  0
LINE
  5
2D8
330
23D
100
AcDbEntity
  8
0
  6
Continuous
 62
     1
100
AcDbLine
 10
110.2124582425
 20
60.31770499109999
 30
0.0
 11
111.29148073
 21
61.3967274787
 31
0.0
  0
LINE
  5
2D9
330
23D
100
AcDbEntity
  8
0
  6
Continuous
 62
     1
100
AcDbLine
 10
112.0851294086
 20
62.19037615729999
 30
0.0
 11
113.6261332234
 21
63.731379972
 31
0.0
  0
LINE
  5
2DA
330
23D
100
AcDbEntity
  8
0
  6
Continuous
 62
     1
100
AcDbLine
 10
110.1220111885
 20
60.8306557238
 30
0.0
 11
111.201033676
 21
61.9096782113
 31
0.0
  0
LINE
  5
2DB
330
23D
100
AcDbEntity
  8
0
  6
Continuous
 62
     1
100
AcDbLine
 10
111.3525598422
 20
62.0612043775
 30
0.0
 11
112.8935636569
 21
63.6022081922
 31
0.0
  0
LINE
  5
2DC
330
23D
100
AcDbEntity
  8
0
  6
Continuous
 62
     1
100
AcDbLine
 10
110.0315641346
 20
61.3436064565
 30
0.0
 11
112.1609940905
 21
63.47303641239999
 31
0.0
  0
LINE
  5
2DD
330
23D
100
AcDbEntity
  8
0
  6
Continuous
 62
     1
100
AcDbLine
 10
109.9411170806
 20
61.8565571891
 30
0.0
 11
111.4284245241
 21
63.3438646326
 31
0.0
  0
LINE
  5
2DE
330
23D
100
AcDbEntity
  8
0
  6
Continuous
 62
     1
100
AcDbLine
 10
109.8506700267
 20
62.3695079218
 30
0.0
 11
110.6958549577
 21
63.2146928528
 31
0.0
  0
LINE
  5
2DF
330
23D
100
AcDbEntity
  8
0
  6
Continuous
 62
     1
100
AcDbLine
 10
109.7602229727
 20
62.8824586545
 30
0.0
 11
109.9632853913
 21
63.085521073
 31
0.0
  0
ENDBLK
  5
2E0
330
23D
100
AcDbEntity
  8
0
  6
ByBlock
 62
     0
100
AcDbBlockEnd
  0
BLOCK
  5
2E1
330
23E
100
AcDbEntity
  8
0
  6
Continuous
 62
     2
100
AcDbBlockBegin
  2
L03-NOTE_SPECS_BAINS_BL0
 70
     0
 10
160.6665744185
 20
55.3333957601
 30
0.0
  3
L03-NOTE_SPECS_BAINS_BL0
  1

  0
TEXT
  5
2E2
330
23E
100
AcDbEntity
  8
0
  6
Continuous
 62
     2
100
AcDbText
 10
144.4187893423
 20
63.1068291512
 30
0.0
 40
0.5
  1
Infomations Techniques/Technical Infomations
 41
0.8282282282286493
 72
     5
 11
159.0113819349
 21
63.1068291512
 31
0.0
100
AcDbText
  0
TEXT
  5
2E3
330
23E
100
AcDbEntity
  8
0
  6
Continuous
 62
     2
100
AcDbText
 10
144.6665744185
 20
61.6667290935
 30
0.0
 40
0.6666666667
  1
NOMBRE DE JETS:     
 41
0.7951282050848596
 72
     5
 11
154.5110188629
 21
61.6667290935
 31
0.0
100
AcDbText
  0
TEXT
  5
2E4
330
23E
100
AcDbEntity
  8
0
  6
Continuous
 62
     2
100
AcDbText
 10
154.5110188629
 20
61.6667290935
 30
0.0
 40
0.6666666667
  1
35
 41
0.9470588235541194
 72
     5
 11
155.5332410852
 21
61.6667290935
 31
0.0
100
AcDbText
  0
TEXT
  5
2E5
330
23E
100
AcDbEntity
  8
0
  6
Continuous
 62
     2
100
AcDbText
 10
144.6665744185
 20
60.6667290935
 30
0.0
 40
0.6666666667
  1
 
 41
0.4543859649325198
 72
     5
 11
144.9406484926
 21
60.6667290935
 31
0.0
100
AcDbText
  0
TEXT
  5
2E6
330
23E
100
AcDbEntity
  8
0
  6
Continuous
 62
     2
100
AcDbText
 10
144.6665744185
 20
59.6667290935
 30
0.0
 40
0.6666666667
  1
NIVEAU D'EAU              GALLONS(US)        LITRES        GALLONS(UK)
 41
0.7326737696243262
 72
     5
 11
175.2295373815
 21
59.6667290935
 31
0.0
100
AcDbText
  0
TEXT
  5
2E7
330
23E
100
AcDbEntity
  8
0
  6
Continuous
 62
     2
100
AcDbText
 10
144.6665744185
 20
58.6667290935
 30
0.0
 40
0.6666666667
  1
PLEIN
 41
1.076090014011386
 72
     5
 11
147.3653398506
 21
58.6667290935
 31
0.0
100
AcDbText
  0
TEXT
  5
2E8
330
23E
100
AcDbEntity
  8
0
  6
Continuous
 62
     2
100
AcDbText
 10
144.6665744185
 20
57.6667290935
 30
0.0
 40
0.6666666667
  1
HAUT T.PLEIN
 41
0.9533333332923344
 72
     5
 11
151.0221299741
 21
57.6667290935
 31
0.0
100
AcDbText
  0
TEXT
  5
2E9
330
23E
100
AcDbEntity
  8
0
  6
Continuous
 62
     2
100
AcDbText
 10
144.6665744185
 20
56.6667290935
 30
0.0
 40
0.6666666667
  1
MILIEU T.PLEIN
 41
0.9753472221684196
 72
     5
 11
151.6023768876
 21
56.6667290935
 31
0.0
100
AcDbText
  0
TEXT
  5
2EA
330
23E
100
AcDbEntity
  8
0
  6
Continuous
 62
     2
100
AcDbText
 10
144.6665744185
 20
55.6667290935
 30
0.0
 40
0.6666666667
  1
BAS T.PLEIN
 41
0.945267489669402
 72
     5
 11
150.3381793568
 21
55.6667290935
 31
0.0
100
AcDbText
  0
TEXT
  5
2EB
330
23E
100
AcDbEntity
  8
0
  6
Continuous
 62
     2
100
AcDbText
 10
144.6665744185
 20
54.6667290935
 30
0.0
 40
0.6666666667
  1
3" EN BAS T.PLEIN
 41
0.8791712504189138
 72
     5
 11
153.123364542
 21
54.6667290935
 31
0.0
100
AcDbText
  0
TEXT
  5
2EC
330
23E
100
AcDbEntity
  8
0
  6
Continuous
 62
     2
100
AcDbText
 10
144.6665744185
 20
53.6667290935
 30
0.0
 40
0.6666666667
  1
 
 41
0.4543859649325198
 72
     5
 11
144.9406484926
 21
53.6667290935
 31
0.0
100
AcDbText
  0
TEXT
  5
2ED
330
23E
100
AcDbEntity
  8
0
  6
Continuous
 62
     2
100
AcDbText
 10
144.4664129129
 20
53.1199421686
 30
0.0
 40
0.5
  1
Legende/Legend
 41
0.8786122090482196
 72
     5
 11
149.7590055055
 21
53.1199421686
 31
0.0
100
AcDbText
  0
TEXT
  5
2EE
330
23E
100
AcDbEntity
  8
0
  6
Continuous
 62
     2
100
AcDbText
 10
150.995247857
 20
51.6086771909
 30
0.0
 40
0.6666666667
  1
ZONE DE ROBINETTERIE
 41
0.9557651991088162
 72
     5
 11
162.2520379804
 21
51.6086771909
 31
0.0
100
AcDbText
  0
TEXT
  5
2EF
330
23E
100
AcDbEntity
  8
0
  6
Continuous
 62
     2
100
AcDbText
 10
145.91552329
 20
50.1134326765
 30
0.0
 40
0.6666666667
  1
L   :  SYSTEME LED       DC   :  DOUBLE DOSSIER CHAUFFANT
 41
0.795242424203509
 72
     5
 11
173.6858936604
 21
50.1134326765
 31
0.0
100
AcDbText
  0
TEXT
  5
2F0
330
23E
100
AcDbEntity
  8
0
  6
Continuous
 62
     2
100
AcDbText
 10
145.91552329
 20
48.7800993432
 30
0.0
 40
0.6666666667
  1
C   :  CONTROLE
 41
0.8195121950846322
 72
     5
 11
153.3821899567
 21
48.7800993432
 31
0.0
100
AcDbText
  0
TEXT
  5
2F1
330
23E
100
AcDbEntity
  8
0
  6
Continuous
 62
     2
100
AcDbText
 10
145.91552329
 20
47.4467660099
 30
0.0
 40
0.6666666667
  1
T   :  MOTEUR
 41
0.7954116058934268
 72
     5
 11
152.152560327
 21
47.4467660099
 31
0.0
100
AcDbText
  0
TEXT
  5
2F2
330
23E
100
AcDbEntity
  8
0
  6
Continuous
 62
     2
100
AcDbText
 10
157.4992711178
 20
58.6667290935
 30
0.0
 40
0.6666666667
  1
67
 41
0.9470588234614572
 72
     5
 11
158.52149334
 21
58.6667290935
 31
0.0
100
AcDbText
  0
TEXT
  5
2F3
330
23E
100
AcDbEntity
  8
0
  6
Continuous
 62
     2
100
AcDbText
 10
157.4992711178
 20
57.6667290935
 30
0.0
 40
0.6666666667
  1
54
 41
0.9199999999339873
 72
     5
 11
158.52149334
 21
57.6667290935
 31
0.0
100
AcDbText
  0
TEXT
  5
2F4
330
23E
100
AcDbEntity
  8
0
  6
Continuous
 62
     2
100
AcDbText
 10
157.4992711178
 20
56.6667290935
 30
0.0
 40
0.6666666667
  1
53
 41
0.9470588234614575
 72
     5
 11
158.52149334
 21
56.6667290935
 31
0.0
100
AcDbText
  0
TEXT
  5
2F5
330
23E
100
AcDbEntity
  8
0
  6
Continuous
 62
     2
100
AcDbText
 10
157.4992711178
 20
55.6667290935
 30
0.0
 40
0.6666666667
  1
52
 41
0.9470588234614575
 72
     5
 11
158.52149334
 21
55.6667290935
 31
0.0
100
AcDbText
  0
TEXT
  5
2F6
330
23E
100
AcDbEntity
  8
0
  6
Continuous
 62
     2
100
AcDbText
 10
157.4992711178
 20
54.6667290935
 30
0.0
 40
0.6666666667
  1
40
 41
0.9470588234614575
 72
     5
 11
158.52149334
 21
54.6667290935
 31
0.0
100
AcDbText
  0
TEXT
  5
2F7
330
23E
100
AcDbEntity
  8
0
  6
Continuous
 62
     2
100
AcDbText
 10
164.4194770615
 20
58.68380849560001
 30
0.0
 40
0.6666666667
  1
253
 41
0.8944444443802735
 72
     5
 11
165.9528103948
 21
58.68380849560001
 31
0.0
100
AcDbText
  0
TEXT
  5
2F8
330
23E
100
AcDbEntity
  8
0
  6
Continuous
 62
     2
100
AcDbText
 10
164.4194770615
 20
57.6838084956
 30
0.0
 40
0.6666666667
  1
206
 41
0.9113207546515996
 72
     5
 11
165.9528103948
 21
57.6838084956
 31
0.0
100
AcDbText
  0
TEXT
  5
2F9
330
23E
100
AcDbEntity
  8
0
  6
Continuous
 62
     2
100
AcDbText
 10
164.4194770615
 20
56.6838084956
 30
0.0
 40
0.6666666667
  1
202
 41
0.8944444443802732
 72
     5
 11
165.9528103948
 21
56.6838084956
 31
0.0
100
AcDbText
  0
TEXT
  5
2FA
330
23E
100
AcDbEntity
  8
0
  6
Continuous
 62
     2
100
AcDbText
 10
164.4194770615
 20
55.6838084956
 30
0.0
 40
0.6666666667
  1
199
 41
0.985714285643567
 72
     5
 11
165.9528103948
 21
55.6838084956
 31
0.0
100
AcDbText
  0
TEXT
  5
2FB
330
23E
100
AcDbEntity
  8
0
  6
Continuous
 62
     2
100
AcDbText
 10
164.4194770615
 20
54.6838084956
 30
0.0
 40
0.6666666667
  1
150
 41
0.9659999999306958
 72
     5
 11
165.9528103948
 21
54.6838084956
 31
0.0
100
AcDbText
  0
TEXT
  5
2FC
330
23E
100
AcDbEntity
  8
0
  6
Continuous
 62
     2
100
AcDbText
 10
171.364115999
 20
58.6667290935
 30
0.0
 40
0.6666666667
  1
56
 41
0.9757575756875622
 72
     5
 11
172.3863382212
 21
58.6667290935
 31
0.0
100
AcDbText
  0
TEXT
  5
2FD
330
23E
100
AcDbEntity
  8
0
  6
Continuous
 62
     2
100
AcDbText
 10
171.364115999
 20
57.6667290935
 30
0.0
 40
0.6666666667
  1
45
 41
0.9470588234614575
 72
     5
 11
172.3863382212
 21
57.6667290935
 31
0.0
100
AcDbText
  0
TEXT
  5
2FE
330
23E
100
AcDbEntity
  8
0
  6
Continuous
 62
     2
100
AcDbText
 10
171.364115999
 20
56.6667290935
 30
0.0
 40
0.6666666667
  1
44
 41
0.9199999999339873
 72
     5
 11
172.3863382212
 21
56.6667290935
 31
0.0
100
AcDbText
  0
TEXT
  5
2FF
330
23E
100
AcDbEntity
  8
0
  6
Continuous
 62
     2
100
AcDbText
 10
171.364115999
 20
55.6667290935
 30
0.0
 40
0.6666666667
  1
44
 41
0.9199999999339873
 72
     5
 11
172.3863382212
 21
55.6667290935
 31
0.0
100
AcDbText
  0
TEXT
  5
300
330
23E
100
AcDbEntity
  8
0
  6
Continuous
 62
     2
100
AcDbText
 10
171.364115999
 20
54.6667290935
 30
0.0
 40
0.6666666667
  1
33
 41
0.9470588234614574
 72
     5
 11
172.3863382212
 21
54.6667290935
 31
0.0
100
AcDbText
  0
LINE
  5
301
330
23E
100
AcDbEntity
  8
0
  6
Continuous
 62
     7
100
AcDbLine
 10
143.9999077518
 20
64.00006242679999
 30
0.0
 11
143.9999077518
 21
46.6667290935
 31
0.0
  0
LINE
  5
302
330
23E
100
AcDbEntity
  8
0
  6
Continuous
 62
     7
100
AcDbLine
 10
143.9999077518
 20
64.00006242679999
 30
0.0
 11
177.3332410852
 21
64.00006242679999
 31
0.0
  0
LINE
  5
303
330
23E
100
AcDbEntity
  8
0
  6
Continuous
 62
     7
100
AcDbLine
 10
177.3332410852
 20
64.00006242679999
 30
0.0
 11
177.3332410852
 21
46.6667290935
 31
0.0
  0
LINE
  5
304
330
23E
100
AcDbEntity
  8
0
  6
Continuous
 62
     7
100
AcDbLine
 10
143.9999077518
 20
46.6667290935
 30
0.0
 11
177.3332410852
 21
46.6667290935
 31
0.0
  0
LINE
  5
305
330
23E
100
AcDbEntity
  8
0
  6
Continuous
 62
     7
100
AcDbLine
 10
145.3332410852
 20
54.00006242679999
 30
0.0
 11
175.9999077518
 21
54.00006242679999
 31
0.0
  0
LINE
  5
306
330
23E
100
AcDbEntity
  8
0
  6
Continuous
 62
     7
100
AcDbLine
 10
145.3332410852
 20
61.0000624268
 30
0.0
 11
175.9999077518
 21
61.0000624268
 31
0.0
  0
LINE
  5
307
330
23E
100
AcDbEntity
  8
0
  6
Continuous
 62
     7
100
AcDbLine
 10
144.8088143111
 20
52.3782269312
 30
0.0
 11
144.4397935688
 21
52.0092061888
 31
0.0
  0
LINE
  5
308
330
23E
100
AcDbEntity
  8
0
  6
Continuous
 62
     7
100
AcDbLine
 10
145.4754809778
 20
52.3782269312
 30
0.0
 11
144.6774651873
 21
51.58021114069999
 31
0.0
  0
LINE
  5
309
330
23E
100
AcDbEntity
  8
0
  6
Continuous
 62
     7
100
AcDbLine
 10
146.1421476444
 20
52.3782269312
 30
0.0
 11
145.344131854
 21
51.58021114069999
 31
0.0
  0
LINE
  5
30A
330
23E
100
AcDbEntity
  8
0
  6
Continuous
 62
     7
100
AcDbLine
 10
146.8088143111
 20
52.3782269312
 30
0.0
 11
146.0107985207
 21
51.58021114069999
 31
0.0
  0
LINE
  5
30B
330
23E
100
AcDbEntity
  8
0
  6
Continuous
 62
     7
100
AcDbLine
 10
147.4754809778
 20
52.3782269312
 30
0.0
 11
146.6774651873
 21
51.58021114069999
 31
0.0
  0
LINE
  5
30C
330
23E
100
AcDbEntity
  8
0
  6
Continuous
 62
     7
100
AcDbLine
 10
148.1421476444
 20
52.3782269312
 30
0.0
 11
147.344131854
 21
51.58021114069999
 31
0.0
  0
LINE
  5
30D
330
23E
100
AcDbEntity
  8
0
  6
Continuous
 62
     7
100
AcDbLine
 10
148.8088143111
 20
52.3782269312
 30
0.0
 11
148.0107985207
 21
51.58021114069999
 31
0.0
  0
LINE
  5
30E
330
23E
100
AcDbEntity
  8
0
  6
Continuous
 62
     7
100
AcDbLine
 10
149.4754809778
 20
52.3782269312
 30
0.0
 11
148.6774651873
 21
51.58021114069999
 31
0.0
  0
LINE
  5
30F
330
23E
100
AcDbEntity
  8
0
  6
Continuous
 62
     7
100
AcDbLine
 10
150.1421476444
 20
52.3782269312
 30
0.0
 11
149.344131854
 21
51.58021114069999
 31
0.0
  0
LINE
  5
310
330
23E
100
AcDbEntity
  8
0
  6
Continuous
 62
     7
100
AcDbLine
 10
150.5856350786
 20
52.15504769859999
 30
0.0
 11
150.0107985207
 21
51.58021114069999
 31
0.0
  0
ELLIPSE
  5
311
330
23E
100
AcDbEntity
  8
0
  6
Continuous
 62
     7
100
AcDbEllipse
 10
146.145310234
 20
50.4310101337
 30
0.0
 11
1.0473539356
 21
0.0
 31
0.0
210
0.0
220
0.0
230
1.0
 40
0.4938647983
 41
0.0
 42
6.283185307179586
  0
ELLIPSE
  5
312
330
23E
100
AcDbEntity
  8
0
  6
Continuous
 62
     7
100
AcDbEllipse
 10
146.145310234
 20
49.0976768004
 30
0.0
 11
1.0473539356
 21
0.0
 31
0.0
210
0.0
220
0.0
230
1.0
 40
0.4938647983
 41
0.0
 42
6.283185307179586
  0
ELLIPSE
  5
313
330
23E
100
AcDbEntity
  8
0
  6
Continuous
 62
     7
100
AcDbEllipse
 10
146.145310234
 20
47.7643434671
 30
0.0
 11
1.0473539356
 21
0.0
 31
0.0
210
0.0
220
0.0
230
1.0
 40
0.4938647983
 41
0.0
 42
6.283185307179586
  0
ELLIPSE
  5
314
330
23E
100
AcDbEntity
  8
0
  6
Continuous
 62
     7
100
AcDbEllipse
 10
157.1639458151
 20
50.4505314908
 30
0.0
 11
1.0473539356
 21
0.0
 31
0.0
210
0.0
220
0.0
230
1.0
 40
0.4938647983
 41
0.0
 42
6.283185307179586
  0
ENDBLK
  5
315
330
23E
100
AcDbEntity
  8
0
  6
ByBlock
 62
     0
100
AcDbBlockEnd
  0
ENDSEC
  0
SECTION
  2
ENTITIES
  0
LWPOLYLINE
  5
1528
330
221
100
AcDbEntity
  8
0
  6
Continuous
 62
     7
100
AcDbPolyline
 90
       44
 70
     0
 43
0.0
 10
23.2507025372
 20
79.0930301841
 10
23.2677690166
 20
78.20503915409999
 10
23.3182902635
 20
77.35221966170001
 10
23.3997189119
 20
76.5461915818
 10
23.5096204503
 20
75.7846141888
 10
23.6457165217
 20
75.06504495369999
 10
23.8059377418
 20
74.3849028229
 10
23.9886592333
 20
73.7408879099
 10
24.1928281689
 20
73.1292114644
 10
24.4179148599
 20
72.5461387453
 10
24.6637058405
 20
71.98853578970001
 10
24.9300459009
 20
71.45416697289999
 10
25.2170623413
 20
70.94096539829999
 10
25.5251885522
 20
70.4469976944
 10
25.8550933868
 20
69.97058138239999
 10
26.2076732383
 20
69.5102644584
 10
26.584073401
 20
69.0647794301
 10
26.9857374631
 20
68.63299092300001
 10
27.4146515018
 20
68.2136912988
 10
27.8731450239
 20
67.8058902391
 10
28.3637774231
 20
67.4089164097
 10
28.8895225947
 20
67.02225989909999
 10
29.4538556224
 20
66.6455561249
 10
30.06043790590001
 20
66.278823153
 10
30.7130525923
 20
65.9224494887
 10
31.4155850285
 20
65.5771469668
 10
32.17192986150001
 20
65.2439353764
 10
32.9842694784
 20
64.9247100008
 10
33.8520436346
 20
64.6221469524
 10
34.7746265424
 20
64.3383779695
 10
35.7532755137
 20
64.07455761140001
 10
36.7899145257
 20
63.8315072451
 10
37.8860935169
 20
63.6100146549
 10
39.0397533313
 20
63.41127469959999
 10
40.2468605516
 20
63.2361869167
 10
41.5038334951
 20
63.0849240584
 10
42.80923970119999
 20
62.9569301135
 10
44.16232166869999
 20
62.8513000457
 10
45.562423148
 20
62.7668937454
 10
47.0089785503
 20
62.7023294385
 10
48.5014980721
 20
62.6559508987
 10
50.03959500619999
 20
62.6258462284
 10
51.6229610612
 20
62.6097725839
 10
53.2386220609
 20
62.6051106605
  0
LWPOLYLINE
  5
1529
330
221
100
AcDbEntity
  8
0
  6
Continuous
 62
     7
100
AcDbPolyline
 90
       44
 70
     0
 43
0.0
 10
53.2386220609
 20
62.6051106605
 10
54.8532708126
 20
62.6097663308
 10
56.4367652573
 20
62.62583454689999
 10
57.974983431
 20
62.6559317222
 10
59.4676154972
 20
62.7023044054
 10
60.9142736964
 20
62.7668689629
 10
62.31447607829999
 20
62.85126898689999
 10
63.6676518594
 20
62.95689646279999
 10
64.9731398035
 20
63.0848951429
 10
66.2301845961
 20
63.23616362380001
 10
67.4373572267
 20
63.4112557625
 10
68.5910723942
 20
63.61000000979999
 10
69.687290528
 20
63.8314972563
 10
70.72396326109999
 20
64.0745549848
 10
71.7026414092
 20
64.3383842214
 10
72.62524468569999
 20
64.62216123420001
 10
73.49303222
 20
64.92473130109999
 10
74.3053789956
 20
65.24396236130001
 10
75.06172315319999
 20
65.57717683869999
 10
75.7642521267
 20
65.922480937
 10
76.4168675558
 20
66.2788584326
 10
77.02345866049999
 20
66.6456006988
 10
77.5878006997
 20
67.0223153256
 10
78.1135442865
 20
67.40897614489999
 10
78.60415580119999
 20
67.8059381389
 10
79.06260809239999
 20
68.21370543109999
 10
79.4914644557
 20
68.63294727669999
 10
79.8930585416
 20
69.06465243859999
 10
80.26938272210001
 20
69.5100300749
 10
80.62189454670001
 20
69.9702291544
 10
80.9517523817
 20
70.44653599979999
 10
81.25986183749999
 20
70.94042347600001
 10
81.54689143069999
 20
71.45358584100001
 10
81.8132628723
 20
71.9879483527
 10
82.05909284109999
 20
72.5455659996
 10
82.28421824459999
 20
73.12866139829999
 10
82.48842056129999
 20
73.74035508430001
 10
82.67116711199999
 20
74.38436600260001
 10
82.83140488939999
 20
75.064466768
 10
82.96751361890001
 20
75.7839537776
 10
83.0774305331
 20
76.545419433
 10
83.1588817059
 20
77.3513185685
 10
83.2094348292
 20
78.2040077022
 10
83.22654158449999
 20
79.0930301841
  0
LINE
  5
152A
330
221
100
AcDbEntity
  8
0
  6
Continuous
 62
     9
100
AcDbLine
 10
52.7174503082
 20
92.66591469780001
 30
0.0
 11
52.7168099688
 21
92.66550804149998
 31
0.0
  0
LINE
  5
152B
330
221
100
AcDbEntity
  8
0
  6
Continuous
 62
     9
100
AcDbLine
 10
52.71489189869999
 20
92.66307806209999
 30
0.0
 11
52.72401473390001
 21
92.6680014625
 31
0.0
  0
LINE
  5
152C
330
221
100
AcDbEntity
  8
0
  6
Continuous
 62
     9
100
AcDbLine
 10
52.7147818966
 20
92.66144014179999
 30
0.0
 11
52.7269745178
 21
92.6680202406
 31
0.0
  0
LINE
  5
152D
330
221
100
AcDbEntity
  8
0
  6
Continuous
 62
     9
100
AcDbLine
 10
52.71529264279999
 20
92.66013722629999
 30
0.0
 11
52.7293294553
 21
92.66771259589999
 31
0.0
  0
LINE
  5
152E
330
221
100
AcDbEntity
  8
0
  6
Continuous
 62
     9
100
AcDbLine
 10
52.7162404591
 20
92.6590701882
 30
0.0
 11
52.73140434630001
 21
92.66725381609999
 31
0.0
  0
LINE
  5
152F
330
221
100
AcDbEntity
  8
0
  6
Continuous
 62
     9
100
AcDbLine
 10
52.7175045147
 20
92.6581738177
 30
0.0
 11
52.73329927029999
 21
92.6666979119
 31
0.0
  0
LINE
  5
1530
330
221
100
AcDbEntity
  8
0
  6
Continuous
 62
     9
100
AcDbLine
 10
52.7189712401
 20
92.6573868238
 30
0.0
 11
52.7351184785
 21
92.66610114549999
 31
0.0
  0
LINE
  5
1531
330
221
100
AcDbEntity
  8
0
  6
Continuous
 62
     9
100
AcDbLine
 10
52.7181698709
 20
92.66628534979998
 30
0.0
 11
52.7174503082
 21
92.66591469780001
 31
0.0
  0
LINE
  5
1532
330
221
100
AcDbEntity
  8
0
  6
Continuous
 62
     9
100
AcDbLine
 10
52.7189793789
 20
92.66665503739998
 30
0.0
 11
52.7181698709
 21
92.66628534979998
 31
0.0
  0
LINE
  5
1533
330
221
100
AcDbEntity
  8
0
  6
Continuous
 62
     9
100
AcDbLine
 10
52.7198270095
 20
92.6669974003
 30
0.0
 11
52.7189793789
 21
92.66665503739998
 31
0.0
  0
LINE
  5
1534
330
221
100
AcDbEntity
  8
0
  6
Continuous
 62
     9
100
AcDbLine
 10
52.7207145496
 20
92.6673063305
 30
0.0
 11
52.7198270095
 21
92.6669974003
 31
0.0
  0
LINE
  5
1535
330
221
100
AcDbEntity
  8
0
  6
Continuous
 62
     9
100
AcDbLine
 10
52.7216449776
 20
92.6675753988
 30
0.0
 11
52.7207145496
 21
92.6673063305
 31
0.0
  0
LINE
  5
1536
330
221
100
AcDbEntity
  8
0
  6
Continuous
 62
     9
100
AcDbLine
 10
52.7160433486
 20
92.66486124889999
 30
0.0
 11
52.71561566149999
 21
92.66440508649999
 31
0.0
  0
LINE
  5
1537
330
221
100
AcDbEntity
  8
0
  6
Continuous
 62
     9
100
AcDbLine
 10
52.7164198086
 20
92.6651939677
 30
0.0
 11
52.7160433486
 21
92.66486124889999
 31
0.0
  0
LINE
  5
1538
330
221
100
AcDbEntity
  8
0
  6
Continuous
 62
     9
100
AcDbLine
 10
52.7168099688
 20
92.66550804149998
 30
0.0
 11
52.7164198086
 21
92.6651939677
 31
0.0
  0
LINE
  5
1539
330
221
100
AcDbEntity
  8
0
  6
Continuous
 62
     9
100
AcDbLine
 10
52.71561566149999
 20
92.66440508649999
 30
0.0
 11
52.7152725587
 21
92.6639270643
 31
0.0
  0
LINE
  5
153A
330
221
100
AcDbEntity
  8
0
  6
Continuous
 62
     9
100
AcDbLine
 10
52.7150122534
 20
92.66343393319999
 30
0.0
 11
52.71481449270001
 21
92.66284918389999
 31
0.0
  0
LINE
  5
153B
330
221
100
AcDbEntity
  8
0
  6
Continuous
 62
     9
100
AcDbLine
 10
52.7152725587
 20
92.6639270643
 30
0.0
 11
52.7150122534
 21
92.66343393319999
 31
0.0
  0
LINE
  5
153C
330
221
100
AcDbEntity
  8
0
  6
Continuous
 62
     7
100
AcDbLine
 10
51.2386220607
 20
91.83606197919999
 30
0.0
 11
51.2386220609
 21
91.85801478360001
 31
0.0
  0
LINE
  5
153D
330
221
100
AcDbEntity
  8
0
  6
Continuous
 62
     9
100
AcDbLine
 10
51.67612205890001
 20
91.62582490709999
 30
0.0
 11
51.67612205890001
 21
91.6311219045
 31
0.0
  0
LINE
  5
153E
330
221
100
AcDbEntity
  8
DEFAULT_1
  6
CENTER
 62
     7
100
AcDbLine
 10
53.2386220511
 20
90.704692293
 30
0.0
 11
53.2386220724
 21
93.21353412309999
 31
0.0
  0
LINE
  5
153F
330
221
100
AcDbEntity
  8
0
  6
Continuous
 62
     9
100
AcDbLine
 10
53.2386220609
 20
62.6681106605
 30
0.0
 11
53.2386220609
 21
62.6051106605
 31
0.0
  0
LINE
  5
1540
330
221
100
AcDbEntity
  8
DEFAULT_1
  6
CENTER
 62
     7
100
AcDbLine
 10
53.2386220609
 20
84.3430301841
 30
0.0
 11
53.2386220609
 21
82.2763635175
 31
0.0
  0
LINE
  5
1541
330
221
100
AcDbEntity
  8
DEFAULT_1
  6
CENTER
 62
     7
100
AcDbLine
 10
53.2386220609
 20
84.3430301841
 30
0.0
 11
53.2386220609
 21
86.1536887289
 31
0.0
  0
LINE
  5
1542
330
221
100
AcDbEntity
  8
DEFAULT_1
  6
CENTER
 62
     7
100
AcDbLine
 10
53.2386220609
 20
86.3086764886
 30
0.0
 11
53.2386220609
 21
86.40969685079999
 31
0.0
  0
LINE
  5
1543
330
221
100
AcDbEntity
  8
0
  6
Continuous
 62
     9
100
AcDbLine
 10
53.2386220609
 20
95.51794970780001
 30
0.0
 11
53.2386220609
 21
95.5809497078
 31
0.0
  0
LINE
  5
1544
330
221
100
AcDbEntity
  8
0
  6
Continuous
 62
     9
100
AcDbLine
 10
53.2386220609
 20
86.3086764886
 30
0.0
 11
53.2386220609
 21
86.1536887289
 31
0.0
  0
LINE
  5
1545
330
221
100
AcDbEntity
  8
0
  6
Continuous
 62
     9
100
AcDbLine
 10
83.1635415845
 20
79.0930301841
 30
0.0
 11
83.22654158449999
 21
79.0930301841
 31
0.0
  0
LINE
  5
1546
330
221
100
AcDbEntity
  8
0
  6
Continuous
 62
     9
100
AcDbLine
 10
54.55112206079999
 20
91.85435639709998
 30
0.0
 11
54.55112206079999
 21
91.8520862553
 31
0.0
  0
LINE
  5
1547
330
221
100
AcDbEntity
  8
0
  6
Continuous
 62
     9
100
AcDbLine
 10
54.80112205890001
 20
91.62582488039999
 30
0.0
 11
54.80112205890001
 21
91.63112187790002
 31
0.0
  0
LINE
  5
1548
330
221
100
AcDbEntity
  8
0
  6
Continuous
 62
     7
100
AcDbLine
 10
55.2386220609
 20
91.8580147495
 30
0.0
 11
55.23862206069999
 21
91.8360619451
 31
0.0
  0
LINE
  5
1549
330
221
100
AcDbEntity
  8
DEFAULT_1
  6
CENTER
 62
     7
100
AcDbLine
 10
56.7386220359
 20
80.8430301591
 30
0.0
 11
54.5469553692
 21
80.8430301591
 31
0.0
  0
LINE
  5
154A
330
221
100
AcDbEntity
  8
DEFAULT_1
  6
CENTER
 62
     7
100
AcDbLine
 10
56.7386220359
 20
80.8430301591
 30
0.0
 11
58.9302887025
 21
80.8430301591
 31
0.0
  0
LINE
  5
154B
330
221
100
AcDbEntity
  8
DEFAULT_1
  6
CENTER
 62
     7
100
AcDbLine
 10
56.7386220359
 20
80.8430301591
 30
0.0
 11
56.7386220359
 21
78.6513634924
 31
0.0
  0
LINE
  5
154C
330
221
100
AcDbEntity
  8
DEFAULT_1
  6
CENTER
 62
     7
100
AcDbLine
 10
56.7386220359
 20
80.8430301591
 30
0.0
 11
56.7386220359
 21
83.03469682579999
 31
0.0
  0
LINE
  5
154D
330
221
100
AcDbEntity
  8
DEFAULT_1
  6
CENTER
 62
     7
100
AcDbLine
 10
53.2386220609
 20
84.3430301841
 30
0.0
 11
51.17195539419999
 21
84.3430301841
 31
0.0
  0
LINE
  5
154E
330
221
100
AcDbEntity
  8
DEFAULT_1
  6
CENTER
 62
     7
100
AcDbLine
 10
53.2386220609
 20
84.3430301841
 30
0.0
 11
55.3052887275
 21
84.3430301841
 31
0.0
  0
LINE
  5
154F
330
221
100
AcDbEntity
  8
0
  6
Continuous
 62
     9
100
AcDbLine
 10
52.7223806233
 20
92.66774899120001
 30
0.0
 11
52.7216449776
 21
92.6675753988
 31
0.0
  0
LINE
  5
1550
330
221
100
AcDbEntity
  8
0
  6
Continuous
 62
     9
100
AcDbLine
 10
52.7231389042
 20
92.66789043690002
 30
0.0
 11
52.7223806233
 21
92.66774899120001
 31
0.0
  0
LINE
  5
1551
330
221
100
AcDbEntity
  8
0
  6
Continuous
 62
     9
100
AcDbLine
 10
52.7239174377
 20
92.66799427089999
 30
0.0
 11
52.7231389042
 21
92.66789043690002
 31
0.0
  0
LINE
  5
1552
330
221
100
AcDbEntity
  8
0
  6
Continuous
 62
     9
100
AcDbLine
 10
52.7248264217
 20
92.6680614576
 30
0.0
 11
52.7239174377
 21
92.66799427089999
 31
0.0
  0
LINE
  5
1553
330
221
100
AcDbEntity
  8
0
  6
Continuous
 62
     9
100
AcDbLine
 10
52.72574731899999
 20
92.66807656659999
 30
0.0
 11
52.7248264217
 21
92.6680614576
 31
0.0
  0
LINE
  5
1554
330
221
100
AcDbEntity
  8
0
  6
Continuous
 62
     7
100
AcDbLine
 10
54.80112205890001
 20
91.62582488039999
 30
0.0
 11
51.67612205890001
 21
91.62582490709999
 31
0.0
  0
LINE
  5
1555
330
221
100
AcDbEntity
  8
0
  6
Continuous
 62
     9
100
AcDbLine
 10
54.80112205890001
 20
91.63112187790002
 30
0.0
 11
51.67612205890001
 21
91.6311219045
 31
0.0
  0
LINE
  5
1556
330
221
100
AcDbEntity
  8
0
  6
Continuous
 62
     9
100
AcDbLine
 10
54.55112205939999
 20
91.6883614998
 30
0.0
 11
51.92612205939999
 21
91.6883615222
 31
0.0
  0
LINE
  5
1557
330
221
100
AcDbEntity
  8
0
  6
Continuous
 62
     9
100
AcDbLine
 10
54.55112205979999
 20
91.727539282
 30
0.0
 11
51.92612205979999
 21
91.72753930430001
 31
0.0
  0
LINE
  5
1558
330
221
100
AcDbEntity
  8
0
  6
Continuous
 62
     7
100
AcDbLine
 10
51.92612206079999
 20
91.8520862777
 30
0.0
 11
54.55112206079999
 21
91.8520862553
 31
0.0
  0
LINE
  5
1559
330
221
100
AcDbEntity
  8
0
  6
Continuous
 62
     9
100
AcDbLine
 10
51.92612206079999
 20
91.8543564195
 30
0.0
 11
54.55112206079999
 21
91.85435639709998
 31
0.0
  0
LINE
  5
155A
330
221
100
AcDbEntity
  8
0
  6
Continuous
 62
     9
100
AcDbLine
 10
51.6761220613
 20
91.91159604129998
 30
0.0
 11
54.8011220613
 21
91.91159601469999
 31
0.0
  0
LINE
  5
155B
330
221
100
AcDbEntity
  8
0
  6
Continuous
 62
     9
100
AcDbLine
 10
51.6761220621
 20
92.00301086639999
 30
0.0
 11
54.8011220621
 21
92.00301083979999
 31
0.0
  0
LINE
  5
155C
330
221
100
AcDbEntity
  8
0
  6
Continuous
 62
     7
100
AcDbLine
 10
51.6761220623
 20
92.02496367090001
 30
0.0
 11
54.8011220623
 21
92.02496364419999
 31
0.0
  0
LINE
  5
155D
330
221
100
AcDbEntity
  8
0
  6
Continuous
 62
     9
100
AcDbLine
 10
52.7266676207
 20
92.66804506280001
 30
0.0
 11
52.72574731899999
 21
92.66807656659999
 31
0.0
  0
LINE
  5
155E
330
221
100
AcDbEntity
  8
0
  6
Continuous
 62
     9
100
AcDbLine
 10
52.727577796
 20
92.66797144669999
 30
0.0
 11
52.7266676207
 21
92.66804506280001
 31
0.0
  0
LINE
  5
155F
330
221
100
AcDbEntity
  8
0
  6
Continuous
 62
     9
100
AcDbLine
 10
52.7288971929
 20
92.66779528249999
 30
0.0
 11
52.727577796
 21
92.66797144669999
 31
0.0
  0
LINE
  5
1560
330
221
100
AcDbEntity
  8
0
  6
Continuous
 62
     9
100
AcDbLine
 10
52.7301760846
 20
92.66755064580001
 30
0.0
 11
52.7288971929
 21
92.66779528249999
 31
0.0
  0
LINE
  5
1561
330
221
100
AcDbEntity
  8
0
  6
Continuous
 62
     9
100
AcDbLine
 10
52.7314198321
 20
92.6672500737
 30
0.0
 11
52.7301760846
 21
92.66755064580001
 31
0.0
  0
LINE
  5
1562
330
221
100
AcDbEntity
  8
0
  6
Continuous
 62
     9
100
AcDbLine
 10
52.7326349877
 20
92.66690642489999
 30
0.0
 11
52.7314198321
 21
92.6672500737
 31
0.0
  0
LINE
  5
1563
330
221
100
AcDbEntity
  8
0
  6
Continuous
 62
     9
100
AcDbLine
 10
52.7338281037
 20
92.66653191530002
 30
0.0
 11
52.7326349877
 21
92.66690642489999
 31
0.0
  0
LINE
  5
1564
330
221
100
AcDbEntity
  8
0
  6
Continuous
 62
     9
100
AcDbLine
 10
52.73500573239999
 20
92.6661394035
 30
0.0
 11
52.7338281037
 21
92.66653191530002
 31
0.0
  0
LINE
  5
1565
330
221
100
AcDbEntity
  8
0
  6
Continuous
 62
     9
100
AcDbLine
 10
52.73868813029999
 20
92.6648898594
 30
0.0
 11
52.73500573239999
 21
92.6661394035
 31
0.0
  0
LINE
  5
1566
330
221
100
AcDbEntity
  8
0
  6
Continuous
 62
     9
100
AcDbLine
 10
52.74115060739999
 20
92.6640157893
 30
0.0
 11
52.73868813029999
 21
92.6648898594
 31
0.0
  0
LINE
  5
1567
330
221
100
AcDbEntity
  8
0
  6
Continuous
 62
     9
100
AcDbLine
 10
52.7435612616
 20
92.66306746020001
 30
0.0
 11
52.74115060739999
 21
92.6640157893
 31
0.0
  0
LINE
  5
1568
330
221
100
AcDbEntity
  8
0
  6
Continuous
 62
     9
100
AcDbLine
 10
52.7459105624
 20
92.66206673190001
 30
0.0
 11
52.7435612616
 21
92.66306746020001
 31
0.0
  0
LWPOLYLINE
  5
1569
330
221
100
AcDbEntity
  8
0
  6
Continuous
 62
     7
100
AcDbPolyline
 90
       44
 70
     0
 43
0.0
 10
53.2386220609
 20
95.5809497078
 10
51.6239745758
 20
95.57629404389999
 10
50.0404813059
 20
95.56022588280001
 10
48.5022642554
 20
95.5301287394
 10
47.0096332734
 20
95.48375608889999
 10
45.5629760564
 20
95.41919173889999
 10
44.1627746439
 20
95.33479185379999
 10
42.8095997469
 20
95.22916454089999
 10
41.50411254109999
 20
95.10116608850001
 10
40.24706830289999
 20
94.94989789959999
 10
39.0398961461
 20
94.774806092
 10
37.886181441
 20
94.5760621948
 10
36.7899636853
 20
94.35456532329999
 10
35.7532911859
 20
94.11150798600001
 10
34.7746131803
 20
93.8476791639
 10
33.8520100181
 20
93.56390260139999
 10
32.9842225196
 20
93.261333
 10
32.1718756477
 20
92.94210238839999
 10
31.4155312912
 20
92.60888833709998
 10
30.713002106
 20
92.2635846732
 10
30.0603864743
 20
91.9072076319
 10
29.4537951881
 20
91.5404658507
 10
28.8894529482
 20
91.1637517183
 10
28.3637090813
 20
90.7770913555
 10
27.8730971571
 20
90.380129724
 10
27.4146442839
 20
89.9723626317
 10
26.9857871266
 20
89.5531207358
 10
26.5841920091
 20
89.1214151764
 10
26.2078665937
 20
88.6760367443
 10
25.8553535156
 20
88.2158366189
 10
25.52549459130001
 20
87.739528701
 10
25.217384346
 20
87.2456403774
 10
24.9303542824
 20
86.7324775359
 10
24.6639825753
 20
86.1981148385
 10
24.4181524406
 20
85.6404971745
 10
24.1930268951
 20
85.05740179840001
 10
23.9888244309
 20
84.44570810329999
 10
23.806077719
 20
83.80169709689999
 10
23.6458397666
 20
83.12159611570001
 10
23.5097308631
 20
82.4021087508
 10
23.3998137967
 20
81.6406426304
 10
23.3183625083
 20
80.83474295130001
 10
23.267809315
 20
79.9820532396
 10
23.2507025372
 20
79.0930301841
  0
LWPOLYLINE
  5
156A
330
221
100
AcDbEntity
  8
0
  6
Continuous
 62
     7
100
AcDbPolyline
 90
       44
 70
     0
 43
0.0
 10
83.22654158449999
 20
79.0930301841
 10
83.20947506379999
 20
79.98102227229999
 10
83.1589536887
 20
80.83384282270001
 10
83.07752482879999
 20
81.63987189370001
 10
82.96762301140001
 20
82.4014501389
 10
82.8315266205
 20
83.1210200275
 10
82.67130507780001
 20
83.80116256009999
 10
82.48858329249999
 20
84.445177627
 10
82.2844141088
 20
85.05685402700001
 10
82.0593272243
 20
85.63992655099999
 10
81.8135360852
 20
86.197529254
 10
81.54719582389999
 20
86.73189792669999
 10
81.2601790269
 20
87.24509962409999
 10
80.95205217510001
 20
87.7390678313
 10
80.62214642869999
 20
88.2154848919
 10
80.2695655303
 20
88.6758025577
 10
79.89316436840001
 20
89.12128809809999
 10
79.4914995359
 20
89.55307674309999
 10
79.0625849617
 20
89.9723762077
 10
78.60409107489999
 20
90.3801769334
 10
78.11345840040001
 20
90.7771503592
 10
77.5877129987
 20
91.16380644520001
 10
77.0233797699
 20
91.54050979049999
 10
76.41679729189999
 20
91.9072423453
 10
75.76418242479999
 20
92.26361559999999
 10
75.06164981479999
 20
92.60891772389999
 10
74.30530478729998
 20
92.94212893950001
 10
73.4929650788
 20
93.2613539159
 10
72.6251909572
 20
93.56391654760001
 10
71.702608157
 20
93.8476851261
 10
70.7239593261
 20
94.1115051034
 10
69.6873204883
 20
94.3545551
 10
68.59114175649999
 20
94.57604734440002
 10
67.43748234939999
 20
94.7747869902
 10
66.2303756868
 20
94.949874504
 10
64.9734034059
 20
95.10113712579999
 10
63.6679978871
 20
95.2291308216
 10
62.3149166582
 20
95.33476068929999
 10
60.9148159819
 20
95.419166894
 10
59.4682613788
 20
95.4837311178
 10
57.97574271680001
 20
95.53010952360001
 10
56.43764682829999
 20
95.560214199
 10
54.8542818865
 20
95.57628779229998
 10
53.2386220609
 20
95.5809497078
  0
ARC
  5
1590
330
221
100
AcDbEntity
  8
0
  6
Continuous
 62
     9
100
AcDbCircle
 10
46.9940942792
 20
79.0928340552
 30
0.0
 40
13.9786800736
100
AcDbArc
 50
178.1324057057
 51
179.9991961121
  0
ARC
  5
1591
330
221
100
AcDbEntity
  8
0
  6
Continuous
 62
     9
100
AcDbCircle
 10
59.50138706659999
 20
79.0938384489
 30
0.0
 40
13.9604429362
100
AcDbArc
 50
359.9966827586
 51
1.865970742299999
  0
ARC
  5
1592
330
221
100
AcDbEntity
  8
0
  6
Continuous
 62
     9
100
AcDbCircle
 10
46.8151901889
 20
79.10721076189999
 30
0.0
 40
11.9849625283
100
AcDbArc
 50
178.1827509191
 51
180.0754067074
  0
ARC
  5
1593
330
221
100
AcDbEntity
  8
0
  6
Continuous
 62
     9
100
AcDbCircle
 10
59.6724991209
 20
79.1081373881
 30
0.0
 40
11.9745198575
100
AcDbArc
 50
359.9200260386
 51
1.814364933999999
  0
ARC
  5
1594
330
221
100
AcDbEntity
  8
0
  6
Continuous
 62
     9
100
AcDbCircle
 10
66.04903896569999
 20
91.6182864667
 30
0.0
 40
11.2479380268
100
AcDbArc
 50
179.9613054884
 51
180.1384994734
  0
ARC
  5
1595
330
221
100
AcDbEntity
  8
0
  6
Continuous
 62
     9
100
AcDbCircle
 10
53.2412203003
 20
84.34199804729999
 30
0.0
 40
1.977283592299999
100
AcDbArc
 50
179.972803122
 51
180.8170764215
  0
ARC
  5
1596
330
221
100
AcDbEntity
  8
0
  6
Continuous
 62
     9
100
AcDbCircle
 10
53.236037353
 20
84.34199492100001
 30
0.0
 40
1.9772699911
100
AcDbArc
 50
359.1830087821
 51
0.0272827443
  0
CIRCLE
  5
1597
330
221
100
AcDbEntity
  8
DEFAULT_2
  6
HIDDEN
 62
     8
100
AcDbCircle
 10
56.7386220359
 20
80.8430301591
 30
0.0
 40
1.125
  0
CIRCLE
  5
1598
330
221
100
AcDbEntity
  8
0
  6
Continuous
 62
     7
100
AcDbCircle
 10
53.2386220609
 20
84.3430301841
 30
0.0
 40
1.0
  0
CIRCLE
  5
1599
330
221
100
AcDbEntity
  8
DEFAULT_2
  6
HIDDEN
 62
     8
100
AcDbCircle
 10
56.7386220359
 20
80.8430301591
 30
0.0
 40
0.9375
  0
SPLINE
  5
1635
330
221
100
AcDbEntity
  8
0
  6
Continuous
 62
     7
100
AcDbSpline
210
0.0
220
0.0
230
1.0
 70
     8
 71
     3
 72
    31
 73
    27
 74
     0
 42
0.0000001
 43
0.0000000001
 40
0.0
 40
0.0
 40
0.0
 40
0.0
 40
0.0988661562
 40
0.196854176
 40
0.2930913249
 40
0.386709314
 40
0.4768477505
 40
0.5626533845
 40
0.6432763278
 40
0.7178617331999999
 40
0.7855349282999999
 40
0.816501504
 40
0.8453927389
 40
0.8720841579
 40
0.8964470763999999
 40
0.9183505064
 40
0.9376662231999999
 40
0.9542787401
 40
0.9615447251999999
 40
0.9681066634
 40
0.9791172909
 40
0.9873899461
 40
0.9931306243999999
 40
0.9967197427
 40
0.9988348615999999
 40
1.0
 40
1.0
 40
1.0
 40
1.0
 10
54.55112206079999
 20
91.8520862553
 30
0.0
 10
54.55774086729999
 20
91.8520862553
 30
0.0
 10
54.57092099819999
 20
91.85184439389999
 30
0.0
 10
54.5905169251
 20
91.85075873909999
 30
0.0
 10
54.6097083026
 20
91.8489638884
 30
0.0
 10
54.6282932433
 20
91.84648227149999
 30
0.0
 10
54.64607089760001
 20
91.8433465634
 30
0.0
 10
54.66284052119999
 20
91.83960134879999
 30
0.0
 10
54.6784013411
 20
91.83530616899998
 30
0.0
 10
54.6925496432
 20
91.8305401932
 30
0.0
 10
54.7032924191
 20
91.82614415180001
 30
0.0
 10
54.7109963925
 20
91.8224593294
 30
0.0
 10
54.7161178461
 20
91.8197455103
 30
0.0
 10
54.7207309955
 20
91.81702788429999
 30
0.0
 10
54.7248125712
 20
91.81434106299999
 30
0.0
 10
54.7283430026
 20
91.81172667350001
 30
0.0
 10
54.7313088529
 20
91.80923395549999
 30
0.0
 10
54.7333918087
 20
91.807223965
 30
0.0
 10
54.7347707502
 20
91.80572268669999
 30
0.0
 10
54.73584420259999
 20
91.80445228569999
 30
0.0
 10
54.7368806827
 20
91.80306372670001
 30
0.0
 10
54.7377527195
 20
91.8016299976
 30
0.0
 10
54.73825850749999
 20
91.80056322350001
 30
0.0
 10
54.73851025810001
 20
91.7998376869
 30
0.0
 10
54.7386053767
 20
91.79938642360001
 30
0.0
 10
54.73862206039999
 20
91.7991668077
 30
0.0
 10
54.73862206039999
 20
91.7990888051
 30
0.0
  0
SPLINE
  5
1636
330
221
100
AcDbEntity
  8
0
  6
Continuous
 62
     7
100
AcDbSpline
210
0.0
220
0.0
230
1.0
 70
     8
 71
     3
 72
    31
 73
    27
 74
     0
 42
0.0000001
 43
0.0000000001
 40
0.0
 40
0.0
 40
0.0
 40
0.0
 40
0.0988661562
 40
0.196854176
 40
0.2930913249
 40
0.386709314
 40
0.4768477505
 40
0.5626533845
 40
0.6432763278
 40
0.7178617331999999
 40
0.7855349282999999
 40
0.816501504
 40
0.8453927389
 40
0.8720841579
 40
0.8964470763999999
 40
0.9183505064
 40
0.9376662231999999
 40
0.9542787401
 40
0.9615447251999999
 40
0.9681066634
 40
0.9791172909
 40
0.9873899461
 40
0.9931306243999999
 40
0.9967197427
 40
0.9988348615999999
 40
1.0
 40
1.0
 40
1.0
 40
1.0
 10
51.92612206079999
 20
91.8520862777
 30
0.0
 10
51.9195032544
 20
91.8520862777
 30
0.0
 10
51.9063231235
 20
91.8518444166
 30
0.0
 10
51.8867271966
 20
91.85075876209998
 30
0.0
 10
51.86753581899999
 20
91.8489639118
 30
0.0
 10
51.8489508782
 20
91.8464822952
 30
0.0
 10
51.8311732239
 20
91.84334658739999
 30
0.0
 10
51.81440360029999
 20
91.8396013731
 30
0.0
 10
51.7988427803
 20
91.8353061936
 30
0.0
 10
51.78469447810001
 20
91.830540218
 30
0.0
 10
51.7739517022
 20
91.82614417679999
 30
0.0
 10
51.7662477287
 20
91.82245935450001
 30
0.0
 10
51.761126275
 20
91.81974553549999
 30
0.0
 10
51.7565131256
 20
91.81702790950001
 30
0.0
 10
51.75243154979999
 20
91.81434108839999
 30
0.0
 10
51.74890111839999
 20
91.81172669889999
 30
0.0
 10
51.745935268
 20
91.809233981
 30
0.0
 10
51.7438523122
 20
91.80722399049999
 30
0.0
 10
51.74247337069999
 20
91.80572271219999
 30
0.0
 10
51.74139991829999
 20
91.80445231120001
 30
0.0
 10
51.7403634381
 20
91.80306375229999
 30
0.0
 10
51.7394914013
 20
91.80163002319998
 30
0.0
 10
51.7389856133
 20
91.80056324909999
 30
0.0
 10
51.7387338627
 20
91.79983771249998
 30
0.0
 10
51.738638744
 20
91.7993864492
 30
0.0
 10
51.73862206039999
 20
91.79916683329999
 30
0.0
 10
51.73862206039999
 20
91.79908883059999
 30
0.0
  0
SPLINE
  5
1637
330
221
100
AcDbEntity
  8
0
  6
Continuous
 62
     7
100
AcDbSpline
210
0.0
220
0.0
230
1.0
 70
     8
 71
     3
 72
    27
 73
    23
 74
     0
 42
0.0000001
 43
0.0000000001
 40
0.0
 40
0.0
 40
0.0
 40
0.0
 40
0.0768621057
 40
0.1531190854
 40
0.2281843595
 40
0.3015081695
 40
0.3725983354
 40
0.4410433479
 40
0.5065393546000001
 40
0.5689222962000001
 40
0.6282056090000001
 40
0.6846219611
 40
0.7386577535
 40
0.7910531139
 40
0.816935999
 40
0.8427551357999998
 40
0.8686133832999999
 40
0.8945893107999999
 40
0.9207278045
 40
0.9470344655999999
 40
0.9734803882999999
 40
1.0
 40
1.0
 40
1.0
 40
1.0
 10
51.67612205890001
 20
91.62582490709999
 30
0.0
 10
51.6625727277
 20
91.6258249072
 30
0.0
 10
51.6355776741
 20
91.62635494959998
 30
0.0
 10
51.5954134498
 20
91.62873725829999
 30
0.0
 10
51.55599865310001
 20
91.63268825080001
 30
0.0
 10
51.5176880729
 20
91.63818088110001
 30
0.0
 10
51.4808099863
 20
91.6451820844
 30
0.0
 10
51.4456585883
 20
91.65365858740001
 30
0.0
 10
51.4124850876
 20
91.66358592739999
 30
0.0
 10
51.3814905429
 20
91.67496252659999
 30
0.0
 10
51.3528236979
 20
91.68782960840001
 30
0.0
 10
51.3265887184
 20
91.70230099799999
 30
0.0
 10
51.3028865164
 20
91.71858811760001
 30
0.0
 10
51.2853041759
 20
91.7340275089
 30
0.0
 10
51.2728910335
 20
91.74756360569999
 30
0.0
 10
51.2644612252
 20
91.75834798389999
 30
0.0
 10
51.25697716520001
 20
91.76983142629998
 30
0.0
 10
51.2505637995
 20
91.78201270169999
 30
0.0
 10
51.2453631471
 20
91.7948474253
 30
0.0
 10
51.24151810979999
 20
91.80824082799999
 30
0.0
 10
51.239154146
 20
91.8220416419
 30
0.0
 10
51.2386220607
 20
91.83138707469998
 30
0.0
 10
51.2386220607
 20
91.83606197919999
 30
0.0
  0
SPLINE
  5
1638
330
221
100
AcDbEntity
  8
0
  6
Continuous
 62
     7
100
AcDbSpline
210
0.0
220
0.0
230
1.0
 70
     8
 71
     3
 72
    27
 73
    23
 74
     0
 42
0.0000001
 43
0.0000000001
 40
0.0
 40
0.0
 40
0.0
 40
0.0
 40
0.0768621057
 40
0.1531190854
 40
0.2281843595
 40
0.3015081695
 40
0.3725983354
 40
0.4410433479
 40
0.5065393546000001
 40
0.5689222962000001
 40
0.6282056090000001
 40
0.6846219611
 40
0.7386577535
 40
0.7910531139
 40
0.816935999
 40
0.8427551357999998
 40
0.8686133832999999
 40
0.8945893107999999
 40
0.9207278045
 40
0.9470344655999999
 40
0.9734803882999999
 40
1.0
 40
1.0
 40
1.0
 40
1.0
 10
54.80112205890001
 20
91.62582488039999
 30
0.0
 10
54.8146713901
 20
91.6258248803
 30
0.0
 10
54.8416664437
 20
91.62635492219999
 30
0.0
 10
54.881830668
 20
91.62873723030001
 30
0.0
 10
54.92124546479999
 20
91.63268822209998
 30
0.0
 10
54.9595560452
 20
91.6381808518
 30
0.0
 10
54.9964341318
 20
91.64518205440002
 30
0.0
 10
55.0315855299
 20
91.65365855679999
 30
0.0
 10
55.0647590309
 20
91.66358589629998
 30
0.0
 10
55.0957535758
 20
91.6749624949
 30
0.0
 10
55.124420421
 20
91.68782957620001
 30
0.0
 10
55.1506554007
 20
91.7023009654
 30
0.0
 10
55.174357603
 20
91.71858808459999
 30
0.0
 10
55.1919399438
 20
91.7340274756
 30
0.0
 10
55.2043530864
 20
91.74756357219999
 30
0.0
 10
55.21278289479999
 20
91.7583479503
 30
0.0
 10
55.220266955
 20
91.76983139249999
 30
0.0
 10
55.226680321
 20
91.7820126678
 30
0.0
 10
55.23188097350001
 20
91.7948473913
 30
0.0
 10
55.2357260111
 20
91.808240794
 30
0.0
 10
55.2380899751
 20
91.82204160780001
 30
0.0
 10
55.23862206069999
 20
91.83138704059999
 30
0.0
 10
55.23862206069999
 20
91.8360619451
 30
0.0
  0
SPLINE
  5
1639
330
221
100
AcDbEntity
  8
0
  6
Continuous
 62
     7
100
AcDbSpline
210
0.0
220
0.0
230
1.0
 70
     8
 71
     3
 72
    32
 73
    28
 74
     0
 42
0.0000001
 43
0.0000000001
 40
0.0
 40
0.0
 40
0.0
 40
0.0
 40
0.0164583349
 40
0.0331464657
 40
0.0502828072
 40
0.0680651648
 40
0.0866649118
 40
0.1062246368
 40
0.1268584974
 40
0.1486542518
 40
0.1716760712
 40
0.1959675266
 40
0.2215544043
 40
0.2484471993
 40
0.2766432474
 40
0.3061285149
 40
0.3368790904
 40
0.3688624265
 40
0.4020383801
 40
0.4363600901
 40
0.5082176587000001
 40
0.5839595249000001
 40
0.6630342027000001
 40
0.7448364318000001
 40
0.8287194859999999
 40
0.9140062806999999
 40
1.0
 40
1.0
 40
1.0
 40
1.0
 10
51.2386220609
 20
91.85801478360001
 30
0.0
 10
51.2386220609
 20
91.860751026
 30
0.0
 10
51.2389793495
 20
91.86626812719998
 30
0.0
 10
51.24058075149999
 20
91.87449413520001
 30
0.0
 10
51.2432414012
 20
91.88267240509999
 30
0.0
 10
51.2469503979
 20
91.89077969610002
 30
0.0
 10
51.2516946883
 20
91.89879725639999
 30
0.0
 10
51.2574597921
 20
91.90670716120001
 30
0.0
 10
51.2642299559
 20
91.91449242979999
 30
0.0
 10
51.2719879805
 20
91.92213630679999
 30
0.0
 10
51.2807149564
 20
91.9296221089
 30
0.0
 10
51.2903900381
 20
91.93693316760001
 30
0.0
 10
51.30099029850001
 20
91.94405289349999
 30
0.0
 10
51.3124906597
 20
91.95096487249999
 30
0.0
 10
51.324863883
 20
91.9576529703
 30
0.0
 10
51.3380805956
 20
91.9641014253
 30
0.0
 10
51.35210935319999
 20
91.97029494569999
 30
0.0
 10
51.3669166836
 20
91.9762187269
 30
0.0
 10
51.3824672783
 20
91.98185872759999
 30
0.0
 10
51.40448030209999
 20
91.9890926154
 30
0.0
 10
51.43361056979999
 20
91.9972878769
 30
0.0
 10
51.4703701897
 20
92.00565133069998
 30
0.0
 10
51.5091019306
 20
92.01260777829999
 30
0.0
 10
51.5494345672
 20
92.018089753
 30
0.0
 10
51.59098249479999
 20
92.0220439765
 30
0.0
 10
51.6333466078
 20
92.0244320049
 30
0.0
 10
51.6618253753
 20
92.02496367100001
 30
0.0
 10
51.6761220623
 20
92.02496367090001
 30
0.0
  0
SPLINE
  5
163A
330
221
100
AcDbEntity
  8
0
  6
Continuous
 62
     7
100
AcDbSpline
210
0.0
220
0.0
230
1.0
 70
     8
 71
     3
 72
    32
 73
    28
 74
     0
 42
0.0000001
 43
0.0000000001
 40
0.0
 40
0.0
 40
0.0
 40
0.0
 40
0.0164583349
 40
0.0331464657
 40
0.0502828072
 40
0.0680651648
 40
0.0866649118
 40
0.1062246368
 40
0.1268584974
 40
0.1486542518
 40
0.1716760712
 40
0.1959675266
 40
0.2215544043
 40
0.2484471993
 40
0.2766432474
 40
0.3061285149
 40
0.3368790904
 40
0.3688624265
 40
0.4020383801
 40
0.4363600901
 40
0.5082176587000001
 40
0.5839595249000001
 40
0.6630342027000001
 40
0.7448364318000001
 40
0.8287194859999999
 40
0.9140062806999999
 40
1.0
 40
1.0
 40
1.0
 40
1.0
 10
55.2386220609
 20
91.8580147495
 30
0.0
 10
55.2386220609
 20
91.8607509919
 30
0.0
 10
55.2382647724
 20
91.86626809309998
 30
0.0
 10
55.2366633706
 20
91.87449410110001
 30
0.0
 10
55.234002721
 20
91.8826723711
 30
0.0
 10
55.23029372439999
 20
91.89077966219999
 30
0.0
 10
55.2255494341
 20
91.89879722249999
 30
0.0
 10
55.21978433050001
 20
91.90670712739999
 30
0.0
 10
55.2130141669
 20
91.9144923962
 30
0.0
 10
55.2052561424
 20
91.92213627319999
 30
0.0
 10
55.1965291666
 20
91.92962207549999
 30
0.0
 10
55.186854085
 20
91.93693313430001
 30
0.0
 10
55.17625382479999
 20
91.94405286049999
 30
0.0
 10
55.1647534636
 20
91.95096483969999
 30
0.0
 10
55.1523802405
 20
91.9576529377
 30
0.0
 10
55.1391635279
 20
91.9641013929
 30
0.0
 10
55.1251347705
 20
91.9702949136
 30
0.0
 10
55.1103274401
 20
91.976218695
 30
0.0
 10
55.0947768456
 20
91.9818586959
 30
0.0
 10
55.07276382189999
 20
91.98909258409999
 30
0.0
 10
55.0436335543
 20
91.99728784620001
 30
0.0
 10
55.0068739345
 20
92.0056513005
 30
0.0
 10
54.9681421938
 20
92.0126077489
 30
0.0
 10
54.92780955729999
 20
92.0180897242
 30
0.0
 10
54.8862616298
 20
92.0220439484
 30
0.0
 10
54.84389751680001
 20
92.0244319775
 30
0.0
 10
54.8154187493
 20
92.0249636441
 30
0.0
 10
54.8011220623
 20
92.02496364419999
 30
0.0
  0
SPLINE
  5
163B
330
221
100
AcDbEntity
  8
0
  6
Continuous
 62
     9
100
AcDbSpline
210
0.0
220
0.0
230
1.0
 70
     8
 71
     3
 72
    32
 73
    28
 74
     0
 42
0.0000001
 43
0.0000000001
 40
0.0
 40
0.0
 40
0.0
 40
0.0
 40
0.0164583344
 40
0.0331464641
 40
0.0502828036
 40
0.0680651586
 40
0.0866649028
 40
0.1062246258
 40
0.1268584863
 40
0.1486542425
 40
0.1716760652
 40
0.1959675245
 40
0.2215544059
 40
0.248447204
 40
0.276643254
 40
0.3061285221999999
 40
0.3368790968999999
 40
0.3688624308
 40
0.4020383811000001
 40
0.4363600878
 40
0.5082176535000001
 40
0.5839595217
 40
0.6630342019
 40
0.7448364320000001
 40
0.8287194836000001
 40
0.9140062613999999
 40
1.0
 40
1.0
 40
1.0
 40
1.0
 10
51.2386220699
 20
91.83606197919999
 30
0.0
 10
51.2386220699
 20
91.8387982215
 30
0.0
 10
51.2389793578
 20
91.84431532239999
 30
0.0
 10
51.24058075709999
 20
91.8525413302
 30
0.0
 10
51.24324140319999
 20
91.8607196003
 30
0.0
 10
51.2469503962
 20
91.86882689169999
 30
0.0
 10
51.2516946832
 20
91.8768444526
 30
0.0
 10
51.2574597847
 20
91.88475435790001
 30
0.0
 10
51.2642299482
 20
91.8925396268
 30
0.0
 10
51.2719879742
 20
91.9001835036
 30
0.0
 10
51.2807149524
 20
91.90766930530001
 30
0.0
 10
51.2903900367
 20
91.91498036350001
 30
0.0
 10
51.3009902996
 20
91.9221000888
 30
0.0
 10
51.31249066289999
 20
91.92901206709999
 30
0.0
 10
51.3248638875
 20
91.9357001644
 30
0.0
 10
51.3380806006
 20
91.94214861899999
 30
0.0
 10
51.3521093577
 20
91.94834213940001
 30
0.0
 10
51.3669166869
 20
91.95426592089999
 30
0.0
 10
51.3824672796
 20
91.95990592239999
 30
0.0
 10
51.40448030129999
 20
91.96713981169999
 30
0.0
 10
51.43361056779999
 20
91.97533507450001
 30
0.0
 10
51.4703701882
 20
91.98369852739999
 30
0.0
 10
51.5091019301
 20
91.99065497399999
 30
0.0
 10
51.5494345668
 20
91.99613694780001
 30
0.0
 10
51.5909824913
 20
92.00009117090001
 30
0.0
 10
51.633346604
 20
92.00247920059998
 30
0.0
 10
51.6618253719
 20
92.00301086659999
 30
0.0
 10
51.6761220621
 20
92.00301086639999
 30
0.0
  0
SPLINE
  5
163C
330
221
100
AcDbEntity
  8
0
  6
Continuous
 62
     9
100
AcDbSpline
210
0.0
220
0.0
230
1.0
 70
     8
 71
     3
 72
    32
 73
    28
 74
     0
 42
0.0000001
 43
0.0000000001
 40
0.0
 40
0.0
 40
0.0
 40
0.0
 40
0.0859937386
 40
0.1712805164
 40
0.255163568
 40
0.3369657981
 40
0.4160404783
 40
0.4917823465
 40
0.5636399122000001
 40
0.5979616189
 40
0.6311375692
 40
0.6631209031000001
 40
0.6938714778000001
 40
0.723356746
 40
0.751552796
 40
0.7784455941
 40
0.8040324755
 40
0.8283239348
 40
0.8513457575
 40
0.8731415137
 40
0.8937753741999999
 40
0.9133350971999998
 40
0.9319348414
 40
0.9497171963999999
 40
0.9668535358999999
 40
0.9835416655999999
 40
1.0
 40
1.0
 40
1.0
 40
1.0
 10
54.8011220621
 20
92.00301083979999
 30
0.0
 10
54.8154187523
 20
92.0030108397
 30
0.0
 10
54.8438975202
 20
92.0024791732
 30
0.0
 10
54.8862616329
 20
92.0000911428
 30
0.0
 10
54.92780955729999
 20
91.99613691899999
 30
0.0
 10
54.9681421939
 20
91.99065494450001
 30
0.0
 10
55.0068739357
 20
91.98369849729999
 30
0.0
 10
55.0436335559
 20
91.97533504370001
 30
0.0
 10
55.0727638224
 20
91.9671397804
 30
0.0
 10
55.0947768439
 20
91.95990589069999
 30
0.0
 10
55.11032743649999
 20
91.95426588889999
 30
0.0
 10
55.1251347656
 20
91.94834210719999
 30
0.0
 10
55.1391635226
 20
91.9421485866
 30
0.0
 10
55.15238023560001
 20
91.9357001318
 30
0.0
 10
55.1647534601
 20
91.9290120343
 30
0.0
 10
55.1762538233
 20
91.9221000557
 30
0.0
 10
55.186854086
 20
91.91498033020002
 30
0.0
 10
55.1965291702
 20
91.907669272
 30
0.0
 10
55.2052561483
 20
91.90018347010001
 30
0.0
 10
55.2130141742
 20
91.8925395932
 30
0.0
 10
55.2197843375
 20
91.8847543242
 30
0.0
 10
55.2255494389
 20
91.8768444187
 30
0.0
 10
55.23029372579999
 20
91.86882685769999
 30
0.0
 10
55.23400271859999
 20
91.8607195663
 30
0.0
 10
55.23666336449999
 20
91.85254129609999
 30
0.0
 10
55.2382647638
 20
91.8443152883
 30
0.0
 10
55.2386220516
 20
91.83879818740001
 30
0.0
 10
55.23862205149999
 20
91.8360619451
 30
0.0
  0
SPLINE
  5
163D
330
221
100
AcDbEntity
  8
0
  6
Continuous
 62
     9
100
AcDbSpline
210
0.0
220
0.0
230
1.0
 70
     8
 71
     3
 72
    55
 73
    51
 74
     0
 42
0.0000001
 43
0.0000000001
 40
0.0
 40
0.0
 40
0.0
 40
0.0
 40
0.0429972386
 40
0.0856409299
 40
0.1275827822
 40
0.1684842205
 40
0.2080218678
 40
0.2458930946
 40
0.2818221611
 40
0.3155673407
 40
0.3315591334
 40
0.3469345399
 40
0.361677288
 40
0.3757754225
 40
0.3892219271
 40
0.4020154693000001
 40
0.4141612956000001
 40
0.4256722974000001
 40
0.436570259
 40
0.4468872679000001
 40
0.4566672047
 40
0.4659671499000001
 40
0.4748583982
 40
0.4834266365000001
 40
0.4917707679000001
 40
0.5
 40
0.5082292321000001
 40
0.5165733635000001
 40
0.5251416018000001
 40
0.5340328501000001
 40
0.5433327953
 40
0.5531127321
 40
0.5634297410000001
 40
0.5743277026
 40
0.5858387044
 40
0.5979845307
 40
0.6107780729
 40
0.6242245775000001
 40
0.638322712
 40
0.6530654601000001
 40
0.6684408666000001
 40
0.6844326593000001
 40
0.7181778389
 40
0.7541069054000001
 40
0.7919781322000001
 40
0.8315157794999999
 40
0.8724172177999999
 40
0.9143590701
 40
0.9570027613999998
 40
1.0
 40
1.0
 40
1.0
 40
1.0
 10
54.8011220613
 20
91.91159601469999
 30
0.0
 10
54.81313129010001
 20
91.91159601459998
 30
0.0
 10
54.8370534541
 20
91.91114941489999
 30
0.0
 10
54.8726393129
 20
91.9091434663
 30
0.0
 10
54.907539543
 20
91.90582192189999
 30
0.0
 10
54.94141902119999
 20
91.9012170677
 30
0.0
 10
54.9739534566
 20
91.89537364420001
 30
0.0
 10
55.004832324
 20
91.8883483511
 30
0.0
 10
55.03376033
 20
91.8802091875
 30
0.0
 10
55.05640468479999
 20
91.8724301151
 30
0.0
 10
55.07329271079999
 20
91.8656743526
 30
0.0
 10
55.0850768946
 20
91.86047170489999
 30
0.0
 10
55.09617892449999
 20
91.8550550245
 30
0.0
 10
55.1065724339
 20
91.84943701659999
 30
0.0
 10
55.1162327387
 20
91.84363095610001
 30
0.0
 10
55.1251369607
 20
91.8376503868
 30
0.0
 10
55.1332640329
 20
91.83150909850001
 30
0.0
 10
55.14059469479999
 20
91.82522102550001
 30
0.0
 10
55.1471114339
 20
91.8188001673
 30
0.0
 10
55.1527983676
 20
91.81226054209998
 30
0.0
 10
55.15764105069999
 20
91.80561621530001
 30
0.0
 10
55.16162625199999
 20
91.79888148519999
 30
0.0
 10
55.1647418087
 20
91.79207128799999
 30
0.0
 10
55.1669767561
 20
91.78520179999999
 30
0.0
 10
55.16832193649999
 20
91.778291025
 30
0.0
 10
55.1687710816
 20
91.7713589432
 30
0.0
 10
55.1683219364
 20
91.76442686139999
 30
0.0
 10
55.1669767559
 20
91.75751608639998
 30
0.0
 10
55.1647418084
 20
91.7506465984
 30
0.0
 10
55.16162625149999
 20
91.74383640120002
 30
0.0
 10
55.1576410501
 20
91.7371016713
 30
0.0
 10
55.15279836689999
 20
91.73045734450001
 30
0.0
 10
55.1471114331
 20
91.7239177194
 30
0.0
 10
55.14059469390001
 20
91.71749686129999
 30
0.0
 10
55.13326403189999
 20
91.7112087884
 30
0.0
 10
55.1251369596
 20
91.7050675003
 30
0.0
 10
55.11623273739999
 20
91.69908693120001
 30
0.0
 10
55.1065724326
 20
91.69328087089999
 30
0.0
 10
55.0961789231
 20
91.68766286310001
 30
0.0
 10
55.0850768931
 20
91.6822461828
 30
0.0
 10
55.0732927092
 20
91.67704353540001
 30
0.0
 10
55.05640468310001
 20
91.67028777309999
 30
0.0
 10
55.0337603282
 20
91.6625087012
 30
0.0
 10
55.004832322
 20
91.654369538
 30
0.0
 10
54.9739534545
 20
91.64734424549999
 30
0.0
 10
54.94141901899999
 20
91.64150082250001
 30
0.0
 10
54.9075395407
 20
91.6368959689
 30
0.0
 10
54.87263931060001
 20
91.633574425
 30
0.0
 10
54.8370534517
 20
91.63156847709998
 30
0.0
 10
54.8131312877
 20
91.63112187780001
 30
0.0
 10
54.80112205890001
 20
91.63112187790002
 30
0.0
  0
SPLINE
  5
163E
330
221
100
AcDbEntity
  8
0
  6
Continuous
 62
     9
100
AcDbSpline
210
0.0
220
0.0
230
1.0
 70
     8
 71
     3
 72
    55
 73
    51
 74
     0
 42
0.0000001
 43
0.0000000001
 40
0.0
 40
0.0
 40
0.0
 40
0.0
 40
0.0429972386
 40
0.0856409299
 40
0.1275827822
 40
0.1684842205
 40
0.2080218678
 40
0.2458930946
 40
0.2818221611
 40
0.3155673407
 40
0.3315591334
 40
0.3469345399
 40
0.361677288
 40
0.3757754225
 40
0.3892219271
 40
0.4020154693000001
 40
0.4141612956000001
 40
0.4256722974000001
 40
0.436570259
 40
0.4468872679000001
 40
0.4566672047
 40
0.4659671499000001
 40
0.4748583982
 40
0.4834266365000001
 40
0.4917707679000001
 40
0.5
 40
0.5082292321000001
 40
0.5165733635000001
 40
0.5251416018000001
 40
0.5340328501000001
 40
0.5433327953
 40
0.5531127321
 40
0.5634297410000001
 40
0.5743277026
 40
0.5858387044
 40
0.5979845307
 40
0.6107780729
 40
0.6242245775000001
 40
0.638322712
 40
0.6530654601000001
 40
0.6684408666000001
 40
0.6844326593000001
 40
0.7181778389
 40
0.7541069054000001
 40
0.7919781322000001
 40
0.8315157794999999
 40
0.8724172177999999
 40
0.9143590701
 40
0.9570027613999998
 40
1.0
 40
1.0
 40
1.0
 40
1.0
 10
51.67612205890001
 20
91.6311219045
 30
0.0
 10
51.6641128302
 20
91.63112190459999
 30
0.0
 10
51.64019066619999
 20
91.63156850440001
 30
0.0
 10
51.6046048074
 20
91.63357445290001
 30
0.0
 10
51.56970457729999
 20
91.6368959973
 30
0.0
 10
51.5358250991
 20
91.64150085160001
 30
0.0
 10
51.5032906637
 20
91.6473442751
 30
0.0
 10
51.4724117963
 20
91.65436956809999
 30
0.0
 10
51.44348379020001
 20
91.6625087318
 30
0.0
 10
51.4208394354
 20
91.67028780409999
 30
0.0
 10
51.40395140939999
 20
91.6770435667
 30
0.0
 10
51.3921672257
 20
91.68224621430001
 30
0.0
 10
51.38106519569999
 20
91.6876628948
 30
0.0
 10
51.3706716864
 20
91.69328090270001
 30
0.0
 10
51.3610113816
 20
91.6990869632
 30
0.0
 10
51.3521071595
 20
91.7050675325
 30
0.0
 10
51.34398008739999
 20
91.71120882069999
 30
0.0
 10
51.3366494255
 20
91.71749689370001
 30
0.0
 10
51.3301326864
 20
91.72391775200001
 30
0.0
 10
51.3244457527
 20
91.73045737709999
 30
0.0
 10
51.31960306959999
 20
91.73710170399999
 30
0.0
 10
51.3156178683
 20
91.743836434
 30
0.0
 10
51.3125023115
 20
91.75064663129999
 30
0.0
 10
51.3102673642
 20
91.75751611930001
 30
0.0
 10
51.3089221838
 20
91.7644268943
 30
0.0
 10
51.3084730387
 20
91.7713589761
 30
0.0
 10
51.3089221839
 20
91.77829105790001
 30
0.0
 10
51.31026736439999
 20
91.78520183280001
 30
0.0
 10
51.3125023119
 20
91.7920713208
 30
0.0
 10
51.3156178688
 20
91.79888151799998
 30
0.0
 10
51.3196030702
 20
91.80561624799999
 30
0.0
 10
51.3244457533
 20
91.81226057469999
 30
0.0
 10
51.3301326872
 20
91.81880019979999
 30
0.0
 10
51.3366494264
 20
91.82522105790001
 30
0.0
 10
51.3439800884
 20
91.8315091308
 30
0.0
 10
51.35210716069999
 20
91.837650419
 30
0.0
 10
51.36101138279999
 20
91.84363098809999
 30
0.0
 10
51.3706716877
 20
91.8494370484
 30
0.0
 10
51.3810651972
 20
91.85505505620001
 30
0.0
 10
51.3921672272
 20
91.8604717364
 30
0.0
 10
51.403951411
 20
91.8656743838
 30
0.0
 10
51.4208394372
 20
91.8724301461
 30
0.0
 10
51.44348379210001
 20
91.88020921809998
 30
0.0
 10
51.47241179819999
 20
91.8883483812
 30
0.0
 10
51.5032906658
 20
91.8953736737
 30
0.0
 10
51.5358251013
 20
91.9012170967
 30
0.0
 10
51.56970457959999
 20
91.90582195040001
 30
0.0
 10
51.6046048097
 20
91.90914349419999
 30
0.0
 10
51.64019066859999
 20
91.91114944209999
 30
0.0
 10
51.6641128326
 20
91.9115960415
 30
0.0
 10
51.6761220613
 20
91.91159604129998
 30
0.0
  0
SPLINE
  5
163F
330
221
100
AcDbEntity
  8
0
  6
Continuous
 62
     9
100
AcDbSpline
210
0.0
220
0.0
230
1.0
 70
     8
 71
     3
 72
    51
 73
    47
 74
     0
 42
0.0000001
 43
0.0000000001
 40
0.0
 40
0.0
 40
0.0
 40
0.0
 40
0.0429982969
 40
0.0856428401
 40
0.1275856256
 40
0.1684879783
 40
0.208026513
 40
0.2458985839
 40
0.2818284587
 40
0.3155743792
 40
0.3469374091
 40
0.375772647
 40
0.3892194504
 40
0.4020132822999999
 40
0.4141593816000001
 40
0.4256706335000001
 40
0.4365688351000001
 40
0.4468860786000001
 40
0.4566662413000001
 40
0.4659663946000001
 40
0.4748578374
 40
0.4834262653
 40
0.4917705836
 40
0.5
 40
0.5082294164
 40
0.5165737347000001
 40
0.5251421626
 40
0.5340336053
 40
0.5433337587000001
 40
0.5531139214000001
 40
0.5634311649
 40
0.5743293664
 40
0.5858406184
 40
0.5979867177
 40
0.6107805496000001
 40
0.6242273529000001
 40
0.6530625909000002
 40
0.6844256208
 40
0.7181715412000001
 40
0.7541014161000001
 40
0.791973487
 40
0.8315120217
 40
0.8724143744
 40
0.9143571598000001
 40
0.9570017030999999
 40
1.0
 40
1.0
 40
1.0
 40
1.0
 10
51.92612205939999
 20
91.6883615222
 30
0.0
 10
51.9190145406
 20
91.6883615222
 30
0.0
 10
51.9048565256
 20
91.6886258381
 30
0.0
 10
51.88379550869999
 20
91.68981302869999
 30
0.0
 10
51.8631402856
 20
91.6917788443
 30
0.0
 10
51.8430891746
 20
91.69450416690001
 30
0.0
 10
51.8238340685
 20
91.69796251479999
 30
0.0
 10
51.80555892800001
 20
91.70212034749999
 30
0.0
 10
51.7884378993
 20
91.70693738989999
 30
0.0
 10
51.7726328076
 20
91.71236741860001
 30
0.0
 10
51.75829350399999
 20
91.71835845870001
 30
0.0
 10
51.7474339553
 20
91.72389457559999
 30
0.0
 10
51.73962799189999
 20
91.7285856716
 30
0.0
 10
51.7343581391
 20
91.73212527809999
 30
0.0
 10
51.7295482393
 20
91.7357598945
 30
0.0
 10
51.72520968899999
 20
91.7394814162
 30
0.0
 10
51.7213528462
 20
91.7432815157
 30
0.0
 10
51.7179871065
 20
91.747151905
 30
0.0
 10
51.7151210208
 20
91.7510842583
 30
0.0
 10
51.7127624317
 20
91.75507011969999
 30
0.0
 10
51.71091853810001
 20
91.75910064700001
 30
0.0
 10
51.7095958179
 20
91.76316626229999
 30
0.0
 10
51.70879968779999
 20
91.7672563119
 30
0.0
 10
51.708533862
 20
91.7713589727
 30
0.0
 10
51.70879968779999
 20
91.77546163349999
 30
0.0
 10
51.709595818
 20
91.779551683
 30
0.0
 10
51.7109185383
 20
91.78361729829999
 30
0.0
 10
51.7127624319
 20
91.7876478256
 30
0.0
 10
51.7151210212
 20
91.7916336869
 30
0.0
 10
51.717987107
 20
91.7955660402
 30
0.0
 10
51.7213528467
 20
91.79943642940001
 30
0.0
 10
51.72520968949999
 20
91.80323652879998
 30
0.0
 10
51.7295482399
 20
91.8069580504
 30
0.0
 10
51.73435813979999
 20
91.8105926668
 30
0.0
 10
51.73962799259999
 20
91.8141322732
 30
0.0
 10
51.7474339561
 20
91.8188233691
 30
0.0
 10
51.75829350489999
 20
91.8243594858
 30
0.0
 10
51.7726328086
 20
91.83035052559999
 30
0.0
 10
51.7884379004
 20
91.8357805541
 30
0.0
 10
51.80555892920001
 20
91.84059759620001
 30
0.0
 10
51.8238340697
 20
91.84475542860001
 30
0.0
 10
51.84308917590001
 20
91.84821377620002
 30
0.0
 10
51.863140287
 20
91.8509390984
 30
0.0
 10
51.8837955101
 20
91.85290491359999
 30
0.0
 10
51.904856527
 20
91.85409210389998
 30
0.0
 10
51.91901454199999
 20
91.8543564195
 30
0.0
 10
51.92612206079999
 20
91.8543564195
 30
0.0
  0
SPLINE
  5
1640
330
221
100
AcDbEntity
  8
0
  6
Continuous
 62
     9
100
AcDbSpline
210
0.0
220
0.0
230
1.0
 70
     8
 71
     3
 72
    26
 73
    22
 74
     0
 42
0.0000001
 43
0.0000000001
 40
0.0
 40
0.0
 40
0.0
 40
0.0
 40
0.0164600035
 40
0.0331498266
 40
0.0502878976
 40
0.0680720476
 40
0.0866736879
 40
0.1062354013
 40
0.1486376631
 40
0.1959329634
 40
0.248401235
 40
0.3060758541
 40
0.3688063299
 40
0.4363030107000001
 40
0.5081678339
 40
0.5839173881000001
 40
0.6630000607
 40
0.7448105983
 40
0.8287021413999999
 40
0.9139971930999999
 40
1.0
 40
1.0
 40
1.0
 40
1.0
 10
54.73862206039999
 20
91.7990888051
 30
0.0
 10
54.73862206039999
 20
91.79791612969999
 30
0.0
 10
54.7384689311
 20
91.79555165729999
 30
0.0
 10
54.7377826118
 20
91.7920262285
 30
0.0
 10
54.73664233939999
 20
91.78852124850001
 30
0.0
 10
54.7350527767
 20
91.78504671809999
 30
0.0
 10
54.733019503
 20
91.78161051969999
 30
0.0
 10
54.7296341136
 20
91.77696624280001
 30
0.0
 10
54.72423774100001
 20
91.77130780330001
 30
0.0
 10
54.7162945127
 20
91.7649861832
 30
0.0
 10
54.7067869997
 20
91.75899930659999
 30
0.0
 10
54.69580239819999
 20
91.75339886000001
 30
0.0
 10
54.6834402186
 20
91.74823396459999
 30
0.0
 10
54.6698153492
 20
91.74355298309999
 30
0.0
 10
54.6550557824
 20
91.73940032389999
 30
0.0
 10
54.63930136750001
 20
91.7358160074
 30
0.0
 10
54.622702134
 20
91.73283465839999
 30
0.0
 10
54.6054166934
 20
91.73048525250001
 30
0.0
 10
54.5876104725
 20
91.72879057919999
 30
0.0
 10
54.5694544232
 20
91.72776714079999
 30
0.0
 10
54.5572492381
 20
91.72753928190001
 30
0.0
 10
54.55112205979999
 20
91.727539282
 30
0.0
  0
SPLINE
  5
1641
330
221
100
AcDbEntity
  8
0
  6
Continuous
 62
     9
100
AcDbSpline
210
0.0
220
0.0
230
1.0
 70
     8
 71
     3
 72
    51
 73
    47
 74
     0
 42
0.0000001
 43
0.0000000001
 40
0.0
 40
0.0
 40
0.0
 40
0.0
 40
0.0429982969
 40
0.0856428402
 40
0.1275856256
 40
0.1684879783
 40
0.208026513
 40
0.2458985839
 40
0.2818284588
 40
0.3155743792
 40
0.3469374091
 40
0.3757726471
 40
0.3892194504
 40
0.4020132822999999
 40
0.4141593816000001
 40
0.4256706336000001
 40
0.4365688351000001
 40
0.4468860786000001
 40
0.4566662413000001
 40
0.4659663947000001
 40
0.4748578374
 40
0.4834262653
 40
0.4917705836
 40
0.5
 40
0.5082294164
 40
0.5165737347000001
 40
0.5251421626
 40
0.5340336054
 40
0.5433337587000001
 40
0.5531139214000001
 40
0.5634311649
 40
0.5743293665
 40
0.5858406184
 40
0.5979867177
 40
0.6107805496000001
 40
0.6242273530000001
 40
0.6530625909000002
 40
0.6844256208
 40
0.7181715413
 40
0.7541014161000001
 40
0.791973487
 40
0.8315120217
 40
0.8724143744
 40
0.9143571598999999
 40
0.9570017030999999
 40
1.0
 40
1.0
 40
1.0
 40
1.0
 10
54.55112206079999
 20
91.85435639709998
 30
0.0
 10
54.5582295797
 20
91.85435639700001
 30
0.0
 10
54.5723875947
 20
91.8540920811
 30
0.0
 10
54.59344861159999
 20
91.85290489049998
 30
0.0
 10
54.6141038347
 20
91.850939075
 30
0.0
 10
54.6341549456
 20
91.8482137524
 30
0.0
 10
54.6534100518
 20
91.8447554045
 30
0.0
 10
54.6716851922
 20
91.8405975717
 30
0.0
 10
54.68880622100001
 20
91.83578052940001
 30
0.0
 10
54.7046113127
 20
91.83035050059999
 30
0.0
 10
54.7189506163
 20
91.8243594606
 30
0.0
 10
54.729810165
 20
91.8188233436
 30
0.0
 10
54.7376161284
 20
91.81413224759999
 30
0.0
 10
54.7428859812
 20
91.8105926411
 30
0.0
 10
54.747695881
 20
91.80695802469999
 30
0.0
 10
54.7520344313
 20
91.803236503
 30
0.0
 10
54.7558912741
 20
91.79943640350002
 30
0.0
 10
54.7592570137
 20
91.79556601420001
 30
0.0
 10
54.7621230995
 20
91.7916336609
 30
0.0
 10
54.7644816886
 20
91.78764779959999
 30
0.0
 10
54.7663255822
 20
91.78361727219998
 30
0.0
 10
54.7676483024
 20
91.77955165690001
 30
0.0
 10
54.7684444325
 20
91.7754616074
 30
0.0
 10
54.76871025819999
 20
91.77135894660001
 30
0.0
 10
54.7684444324
 20
91.76725628579999
 30
0.0
 10
54.76764830229999
 20
91.76316623629999
 30
0.0
 10
54.766325582
 20
91.75910062099999
 30
0.0
 10
54.76448168840001
 20
91.75507009370001
 30
0.0
 10
54.7621230991
 20
91.7510842323
 30
0.0
 10
54.7592570133
 20
91.74715187910001
 30
0.0
 10
54.7558912736
 20
91.74328148989999
 30
0.0
 10
54.7520344307
 20
91.73948139040001
 30
0.0
 10
54.7476958804
 20
91.73575986879999
 30
0.0
 10
54.7428859805
 20
91.73212525249999
 30
0.0
 10
54.7376161276
 20
91.72858564610001
 30
0.0
 10
54.7298101641
 20
91.72389455020001
 30
0.0
 10
54.71895061539999
 20
91.7183584334
 30
0.0
 10
54.7046113117
 20
91.71236739360001
 30
0.0
 10
54.68880621989999
 20
91.70693736510001
 30
0.0
 10
54.6716851911
 20
91.70212032309999
 30
0.0
 10
54.6534100506
 20
91.6979624907
 30
0.0
 10
54.6341549443
 20
91.69450414309999
 30
0.0
 10
54.6141038333
 20
91.69177882079999
 30
0.0
 10
54.5934486102
 20
91.6898130056
 30
0.0
 10
54.5723875933
 20
91.68862581540002
 30
0.0
 10
54.5582295783
 20
91.68836149969999
 30
0.0
 10
54.55112205939999
 20
91.6883614998
 30
0.0
  0
SPLINE
  5
1642
330
221
100
AcDbEntity
  8
0
  6
Continuous
 62
     9
100
AcDbSpline
210
0.0
220
0.0
230
1.0
 70
     8
 71
     3
 72
    26
 73
    22
 74
     0
 42
0.0000001
 43
0.0000000001
 40
0.0
 40
0.0
 40
0.0
 40
0.0
 40
0.0860028069
 40
0.1712978586
 40
0.2551894017
 40
0.3369999393
 40
0.4160826119
 40
0.4918321661
 40
0.5636969893
 40
0.6311936701
 40
0.6939241459000001
 40
0.751598765
 40
0.8040670366
 40
0.8513623368999999
 40
0.8937645986999999
 40
0.9133263120999998
 40
0.9319279523999998
 40
0.9497121023999998
 40
0.9668501733999999
 40
0.9835399965
 40
1.0
 40
1.0
 40
1.0
 40
1.0
 10
51.92612205979999
 20
91.72753930430001
 30
0.0
 10
51.9199948814
 20
91.7275393044
 30
0.0
 10
51.9077896963
 20
91.7277671635
 30
0.0
 10
51.889633647
 20
91.72879060219999
 30
0.0
 10
51.8718274262
 20
91.73048527579998
 30
0.0
 10
51.85454198569999
 20
91.73283468200001
 30
0.0
 10
51.8379427522
 20
91.7358160312
 30
0.0
 10
51.8221883373
 20
91.7394003481
 30
0.0
 10
51.80742877060001
 20
91.74355300749999
 30
0.0
 10
51.7938039013
 20
91.7482339893
 30
0.0
 10
51.7814417218
 20
91.75339888489999
 30
0.0
 10
51.77045712039999
 20
91.75899933169999
 30
0.0
 10
51.7609496075
 20
91.7649862084
 30
0.0
 10
51.7530063793
 20
91.7713078286
 30
0.0
 10
51.7476100067
 20
91.77696626819999
 30
0.0
 10
51.7442246174
 20
91.78161054510001
 30
0.0
 10
51.7421913438
 20
91.7850467436
 30
0.0
 10
51.7406017812
 20
91.78852127409999
 30
0.0
 10
51.73946150879999
 20
91.79202625409999
 30
0.0
 10
51.7387751896
 20
91.79555168280002
 30
0.0
 10
51.73862206039999
 20
91.79791615520001
 30
0.0
 10
51.73862206039999
 20
91.79908883059999
 30
0.0
  0
SPLINE
  5
1643
330
221
100
AcDbEntity
  8
0
  6
Continuous
 62
     7
100
AcDbSpline
210
0.0
220
0.0
230
1.0
 70
     8
 71
     3
 72
    42
 73
    38
 74
     0
 42
0.0000001
 43
0.0000000001
 40
0.0
 40
0.0
 40
0.0
 40
0.0
 40
0.0312489434
 40
0.0624970755
 40
0.0937441774
 40
0.1249898528
 40
0.1562338964
 40
0.1718593362
 40
0.1874846914
 40
0.2031099704
 40
0.2187351937
 40
0.2343603774
 40
0.2499855435
 40
0.265610716
 40
0.2812359198999999
 40
0.2968611739
 40
0.3124864942
 40
0.3281118991
 40
0.3437373934
 40
0.3749819795
 40
0.4062282074000001
 40
0.4374758734000001
 40
0.4687247179
 40
0.4999744960000001
 40
0.5312249628
 40
0.5624759375
 40
0.5937271754
 40
0.6249786233
 40
0.6562302365
 40
0.6874819651000001
 40
0.7187337787
 40
0.7499856603000001
 40
0.7812375948
 40
0.8124895698999999
 40
0.8749926364
 40
0.9374962115999998
 40
1.0
 40
1.0
 40
1.0
 40
1.0
 10
23.2606629335
 20
79.0930301841
 30
0.0
 10
23.2606629335
 20
79.499077505
 30
0.0
 10
23.2814330449
 20
80.3113605675
 30
0.0
 10
23.3828287935
 20
81.5259746755
 30
0.0
 10
23.5630361279
 20
82.73162906340001
 30
0.0
 10
23.8307868694
 20
83.9210400868
 30
0.0
 10
24.1338125062
 20
84.8912065456
 30
0.0
 10
24.4272248689
 20
85.64865798099999
 30
0.0
 10
24.6733642114
 20
86.2060703262
 30
0.0
 10
24.9458521547
 20
86.7510881139
 30
0.0
 10
25.2447234337
 20
87.2821092682
 30
0.0
 10
25.5697172155
 20
87.79756305620001
 30
0.0
 10
25.9202744441
 20
88.2959869593
 30
0.0
 10
26.2955480146
 20
88.77607584679999
 30
0.0
 10
26.6944265263
 20
89.2367341671
 30
0.0
 10
27.1155828431
 20
89.6771082461
 30
0.0
 10
27.5575199853
 20
90.0966062014
 30
0.0
 10
28.0186466662
 20
90.49490996280001
 30
0.0
 10
28.6567464197
 20
90.99755158689999
 30
0.0
 10
29.4943158799
 20
91.5732172493
 30
0.0
 10
30.5500627803
 20
92.1828274293
 30
0.0
 10
31.6457095347
 20
92.71711175860001
 30
0.0
 10
32.7720992877
 20
93.18267189129999
 30
0.0
 10
33.9219740873
 20
93.58640886149999
 30
0.0
 10
35.0896547877
 20
93.93498698260001
 30
0.0
 10
36.2707728751
 20
94.2345950766
 30
0.0
 10
37.4619880169
 20
94.49085518709999
 30
0.0
 10
38.6607597905
 20
94.70879381530002
 30
0.0
 10
39.8651584909
 20
94.89288382839999
 30
0.0
 10
41.0737187464
 20
95.0470951561
 30
0.0
 10
42.285328996
 20
95.1749544825
 30
0.0
 10
43.4991472296
 20
95.2796044411
 30
0.0
 10
44.714538919
 20
95.36386511180001
 30
0.0
 10
46.3365063072
 20
95.4524014719
 30
0.0
 10
48.3658391524
 20
95.52430001180001
 30
0.0
 10
50.80209031939999
 20
95.56489179059999
 30
0.0
 10
52.4264507329
 20
95.57098931149999
 30
0.0
 10
53.2386220609
 20
95.57098931149999
 30
0.0
  0
SPLINE
  5
1644
330
221
100
AcDbEntity
  8
0
  6
Continuous
 62
     7
100
AcDbSpline
210
0.0
220
0.0
230
1.0
 70
     8
 71
     3
 72
    42
 73
    38
 74
     0
 42
0.0000001
 43
0.0000000001
 40
0.0
 40
0.0
 40
0.0
 40
0.0
 40
0.0312489434
 40
0.0624970755
 40
0.0937441774
 40
0.1249898528
 40
0.1562338964
 40
0.1718593362
 40
0.1874846914
 40
0.2031099704
 40
0.2187351937
 40
0.2343603774
 40
0.2499855435
 40
0.265610716
 40
0.2812359198999999
 40
0.2968611739
 40
0.3124864942
 40
0.3281118991
 40
0.3437373934
 40
0.3749819795
 40
0.4062282074000001
 40
0.4374758734000001
 40
0.4687247179
 40
0.4999744960000001
 40
0.5312249628
 40
0.5624759375
 40
0.5937271754
 40
0.6249786233
 40
0.6562302365
 40
0.6874819651000001
 40
0.7187337787
 40
0.7499856603000001
 40
0.7812375948
 40
0.8124895698999999
 40
0.8749926364
 40
0.9374962115999998
 40
1.0
 40
1.0
 40
1.0
 40
1.0
 10
83.21658118829999
 20
79.0930301841
 30
0.0
 10
83.21658118829999
 20
78.6869828633
 30
0.0
 10
83.1958110769
 20
77.8746998007
 30
0.0
 10
83.0944153283
 20
76.66008569270001
 30
0.0
 10
82.9142079938
 20
75.45443130489999
 30
0.0
 10
82.64645725239999
 20
74.2650202815
 30
0.0
 10
82.34343161560001
 20
73.2948538226
 30
0.0
 10
82.05001925279999
 20
72.53740238729999
 30
0.0
 10
81.8038799103
 20
71.97999004199999
 30
0.0
 10
81.53139196700001
 20
71.43497225439999
 30
0.0
 10
81.23252068810002
 20
70.9039511001
 30
0.0
 10
80.9075269062
 20
70.388497312
 30
0.0
 10
80.55696967760001
 20
69.89007340890001
 30
0.0
 10
80.18169610719999
 20
69.4099845214
 30
0.0
 10
79.7828175955
 20
68.94932620109999
 30
0.0
 10
79.36166127869999
 20
68.5089521221
 30
0.0
 10
78.91972413640001
 20
68.0894541669
 30
0.0
 10
78.4585974556
 20
67.6911504055
 30
0.0
 10
77.8204977021
 20
67.1885087814
 30
0.0
 10
76.9829282419
 20
66.6128431189
 30
0.0
 10
75.9271813415
 20
66.00323293889999
 30
0.0
 10
74.83153458699999
 20
65.46894860970001
 30
0.0
 10
73.705144834
 20
65.003388477
 30
0.0
 10
72.5552700345
 20
64.5996515067
 30
0.0
 10
71.387589334
 20
64.2510733857
 30
0.0
 10
70.2064712466
 20
63.9514652916
 30
0.0
 10
69.01525610490001
 20
63.69520518109999
 30
0.0
 10
67.8164843313
 20
63.47726655289999
 30
0.0
 10
66.61208563079999
 20
63.29317653979999
 30
0.0
 10
65.40352537539999
 20
63.1389652121
 30
0.0
 10
64.19191512579999
 20
63.0111058858
 30
0.0
 10
62.9780968922
 20
62.9064559272
 30
0.0
 10
61.7627052028
 20
62.82219525649999
 30
0.0
 10
60.1407378146
 20
62.7336588964
 30
0.0
 10
58.1114049694
 20
62.6617603565
 30
0.0
 10
55.67515380229999
 20
62.6211685777
 30
0.0
 10
54.0507933888
 20
62.6150710567
 30
0.0
 10
53.2386220609
 20
62.6150710567
 30
0.0
  0
SPLINE
  5
1645
330
221
100
AcDbEntity
  8
0
  6
Continuous
 62
     9
100
AcDbSpline
210
0.0
220
0.0
230
1.0
 70
     8
 71
     3
 72
    64
 73
    60
 74
     0
 42
0.0000001
 43
0.0000000001
 40
0.0
 40
0.0
 40
0.0
 40
0.0
 40
0.0154360496
 40
0.0306560169
 40
0.0456377351
 40
0.0603551897
 40
0.0748199598
 40
0.0819762124
 40
0.0890975824
 40
0.096201514
 40
0.1033061737
 40
0.1104291149
 40
0.1175852689
 40
0.1320375933
 40
0.1467283494
 40
0.1541705529
 40
0.1616755329
 40
0.1768584892
 40
0.192242516
 40
0.2078023997
 40
0.2235077138
 40
0.2393371857
 40
0.2712812698
 40
0.303514286
 40
0.3359585595
 40
0.3685608946999999
 40
0.401287919
 40
0.4341138091
 40
0.4670176486
 40
0.4999951219
 40
0.5329726215
 40
0.5658764601000001
 40
0.5987023689000001
 40
0.6314294240000001
 40
0.6640317558
 40
0.6964761564000001
 40
0.7287091726999999
 40
0.7606533307
 40
0.7764828632
 40
0.7921882495999999
 40
0.8077482218
 40
0.823132322
 40
0.8383153389
 40
0.8458203921999999
 40
0.8532627293
 40
0.8679537885999998
 40
0.8824058665999999
 40
0.8895618370999999
 40
0.8966848346999999
 40
0.903789899
 40
0.9108940776
 40
0.9180151253
 40
0.9251710527
 40
0.9396363285999999
 40
0.9543530231999998
 40
0.9693351193999999
 40
0.984557603
 40
0.9922617744
 40
1.0
 40
1.0
 40
1.0
 40
1.0
 10
71.6470083235
 20
79.0914232506
 30
0.0
 10
71.6467607553
 20
78.85795805649999
 30
0.0
 10
71.63359707069999
 20
78.39415891299999
 30
0.0
 10
71.5687541526
 20
77.7063927448
 30
0.0
 10
71.45287052
 20
77.0361440506
 30
0.0
 10
71.2797395532
 20
76.38995236079999
 30
0.0
 10
71.08244028060001
 20
75.8756378156
 30
0.0
 10
70.8916731977
 20
75.484764677
 30
0.0
 10
70.73253772840001
 20
75.2030013638
 30
0.0
 10
70.55675731859999
 20
74.9322440985
 30
0.0
 10
70.3646214535
 20
74.6728089075
 30
0.0
 10
70.1564394473
 20
74.4250308406
 30
0.0
 10
69.85747125340001
 20
74.1093658252
 30
0.0
 10
69.4459813979
 20
73.7441023404
 30
0.0
 10
68.9957458029
 20
73.4209181009
 30
0.0
 10
68.61479464129999
 20
73.1844550993
 30
0.0
 10
68.21783793439999
 20
72.96039542399999
 30
0.0
 10
67.7003747984
 20
72.7065699091
 30
0.0
 10
67.0549235028
 20
72.44071727640001
 30
0.0
 10
66.3882339603
 20
72.2088209554
 30
0.0
 10
65.70493567069999
 20
72.00685364449999
 30
0.0
 10
64.77361613159999
 20
71.7726649016
 30
0.0
 10
63.5853303912
 20
71.5395940706
 30
0.0
 10
62.13805073060001
 20
71.3338785871
 30
0.0
 10
60.6739125351
 20
71.1855171862
 30
0.0
 10
59.1985557207
 20
71.0821591721
 30
0.0
 10
57.71544561129999
 20
71.0140030081
 30
0.0
 10
56.22682295029999
 20
70.97294049670001
 30
0.0
 10
54.734010695
 20
70.95256566899999
 30
0.0
 10
53.2387961085
 20
70.94755858870001
 30
0.0
 10
51.7435815382
 20
70.9525640009
 30
0.0
 10
50.2507685527
 20
70.9729332433
 30
0.0
 10
48.76214499439999
 20
71.0139907482
 30
0.0
 10
47.2790340477
 20
71.08214246979999
 30
0.0
 10
45.8036739933
 20
71.1854886235
 30
0.0
 10
44.33953331829999
 20
71.33384113149999
 30
0.0
 10
42.8922453808
 20
71.5395212782
 30
0.0
 10
41.70395731969999
 20
71.7725917857
 30
0.0
 10
40.77263153789999
 20
72.0067678044
 30
0.0
 10
40.0893257979
 20
72.20872158819999
 30
0.0
 10
39.4226270364
 20
72.4406020217
 30
0.0
 10
38.7771649617
 20
72.7064372814
 30
0.0
 10
38.25969140690001
 20
72.96024854649999
 30
0.0
 10
37.8627233031
 20
73.1842962204
 30
0.0
 10
37.4817561088
 20
73.42074791609999
 30
0.0
 10
37.03150072590001
 20
73.7439091913
 30
0.0
 10
36.6199926177
 20
74.1091495206
 30
0.0
 10
36.3210145217
 20
74.4247974414
 30
0.0
 10
36.1128193624
 20
74.6725698961
 30
0.0
 10
35.9206629823
 20
74.9320030753
 30
0.0
 10
35.7448601764
 20
75.20275165699999
 30
0.0
 10
35.5857070514
 20
75.4844980898
 30
0.0
 10
35.3949227793
 20
75.8753610264
 30
0.0
 10
35.1976144134
 20
76.3896604197
 30
0.0
 10
35.0244126545
 20
77.03583975749999
 30
0.0
 10
34.9085382887
 20
77.70610859930001
 30
0.0
 10
34.8546353952
 20
78.2774409214
 30
0.0
 10
34.833825318
 20
78.74082242580001
 30
0.0
 10
34.8303514352
 20
78.97439927489999
 30
0.0
 10
34.8302342869
 20
79.09143740970001
 30
0.0
  0
SPLINE
  5
1646
330
221
100
AcDbEntity
  8
0
  6
Continuous
 62
     9
100
AcDbSpline
210
0.0
220
0.0
230
1.0
 70
     8
 71
     3
 72
    31
 73
    27
 74
     0
 42
0.0000001
 43
0.0000000001
 40
0.0
 40
0.0
 40
0.0
 40
0.0
 40
0.0663022856
 40
0.1323638087
 40
0.1981612617
 40
0.2636899383
 40
0.3289334836
 40
0.3938479158
 40
0.4583443019
 40
0.5222800491
 40
0.5539804692
 40
0.5854485798
 40
0.6166421317000001
 40
0.6475026999999999
 40
0.677983832
 40
0.7080210261
 40
0.7375607341000001
 40
0.7666053421
 40
0.7952289873999999
 40
0.8236044815999999
 40
0.8519774934
 40
0.8806246153
 40
0.9097220541999998
 40
0.9393325024999999
 40
0.9694414676
 40
1.0
 40
1.0
 40
1.0
 40
1.0
 10
53.2386220609
 20
87.2931095756
 30
0.0
 10
52.7463804269
 20
87.2931095772
 30
0.0
 10
51.7636622958
 20
87.28119643129998
 30
0.0
 10
50.29312454140001
 20
87.23597835760001
 30
0.0
 10
48.8289493788
 20
87.17427347
 30
0.0
 10
47.3717342668
 20
87.0938356235
 30
0.0
 10
45.92283191819999
 20
86.98557061309999
 30
0.0
 10
44.4849097109
 20
86.8387387119
 30
0.0
 10
43.06279418539999
 20
86.6408204684
 30
0.0
 10
41.8938804592
 20
86.42008052420001
 30
0.0
 10
40.97608416809999
 20
86.19993735319999
 30
0.0
 10
40.3013507082
 20
86.01073813010001
 30
0.0
 10
39.6414042984
 20
85.79412173260001
 30
0.0
 10
39.00027702
 20
85.5463036555
 30
0.0
 10
38.3829347572
 20
85.26383977180001
 30
0.0
 10
37.7955573661
 20
84.9430642837
 30
0.0
 10
37.2454575812
 20
84.58053062319999
 30
0.0
 10
36.7406235604
 20
84.1733405963
 30
0.0
 10
36.2888399162
 20
83.71975836469999
 30
0.0
 10
35.8966985318
 20
83.2198310515
 30
0.0
 10
35.5684413419
 20
82.67559244510001
 30
0.0
 10
35.3052011062
 20
82.0913959085
 30
0.0
 10
35.1045100101
 20
81.4734803478
 30
0.0
 10
34.9621020115
 20
80.8287375797
 30
0.0
 10
34.8722432244
 20
80.1639035224
 30
0.0
 10
34.84380406400001
 20
79.71402097569999
 30
0.0
 10
34.8362538465
 20
79.48727389390001
 30
0.0
  0
SPLINE
  5
1647
330
221
100
AcDbEntity
  8
0
  6
Continuous
 62
     9
100
AcDbSpline
210
0.0
220
0.0
230
1.0
 70
     8
 71
     3
 72
    53
 73
    49
 74
     0
 42
0.0000001
 43
0.0000000001
 40
0.0
 40
0.0
 40
0.0
 40
0.0
 40
0.0156249315
 40
0.0312479559
 40
0.0468825876
 40
0.0625187292
 40
0.0781435269
 40
0.0937662126
 40
0.1093887286
 40
0.1250107882
 40
0.1406334845
 40
0.1562548763
 40
0.1718760152
 40
0.1875046543
 40
0.20313925
 40
0.2187691193
 40
0.2500146801
 40
0.2812626218
 40
0.3125108341
 40
0.3437596688
 40
0.3750075961
 40
0.4062556504
 40
0.4375039661
 40
0.4687513167000001
 40
0.4999999668
 40
0.5312486174000001
 40
0.5624959692
 40
0.5937442854000001
 40
0.6249923388000001
 40
0.656240268
 40
0.6874891006999999
 40
0.7187373094
 40
0.7499852497
 40
0.7812308092000001
 40
0.7968606841
 40
0.8124952755
 40
0.828123914
 40
0.8437450499
 40
0.8593664279999998
 40
0.8749891411
 40
0.890611245
 40
0.9062337144
 40
0.9218564010999999
 40
0.9374811981
 40
0.9531166849999999
 40
0.9687519967
 40
0.9843758809
 40
1.0
 40
1.0
 40
1.0
 40
1.0
 10
23.6136220726
 20
79.093030183
 30
0.0
 10
23.6136220728
 20
79.4932719625
 30
0.0
 10
23.63407801
 20
80.29390190169999
 30
0.0
 10
23.7341828304
 20
81.4913850045
 30
0.0
 10
23.9127556617
 20
82.6802314452
 30
0.0
 10
24.1781012577
 20
83.8530535788
 30
0.0
 10
24.5388688487
 20
85.0001058566
 30
0.0
 10
25.0017983669
 20
86.10979992249999
 30
0.0
 10
25.5706459491
 20
87.16928976069999
 30
0.0
 10
26.2442356475
 20
88.1656013219
 30
0.0
 10
27.0162781272
 20
89.08763793510001
 30
0.0
 10
27.8764499819
 20
89.92779493559998
 30
0.0
 10
28.8121925416
 20
90.68271465450001
 30
0.0
 10
29.8099509869
 20
91.35357729110001
 30
0.0
 10
30.8567934722
 20
91.9448642032
 30
0.0
 10
32.3031092459
 20
92.63439427629998
 30
0.0
 10
34.18451325199999
 20
93.32891452709999
 30
0.0
 10
36.5068900363
 20
93.94864419870001
 30
0.0
 10
38.8667341608
 20
94.40157784070001
 30
0.0
 10
41.24716393639999
 20
94.72449391819999
 30
0.0
 10
43.6388003756
 20
94.94610571459999
 30
0.0
 10
46.0361701755
 20
95.0891859853
 30
0.0
 10
48.4361938755
 20
95.17280852399998
 30
0.0
 10
50.8372821883
 20
95.21224916200001
 30
0.0
 10
53.2386221016
 20
95.22092080790001
 30
0.0
 10
55.63996204409999
 20
95.2122491587
 30
0.0
 10
58.0410504141
 20
95.17280852330001
 30
0.0
 10
60.4410741339
 20
95.08918600600001
 30
0.0
 10
62.8384439723
 20
94.94610570379999
 30
0.0
 10
65.23008038170001
 20
94.7244938917
 30
0.0
 10
67.61051007279999
 20
94.4015778784
 30
0.0
 10
69.9703539943
 20
93.94864415249999
 30
0.0
 10
72.2927306464
 20
93.32891457509999
 30
0.0
 10
74.17413462649999
 20
92.63439406859999
 30
0.0
 10
75.6204505612
 20
91.9448643635
 30
0.0
 10
76.66729312840001
 20
91.3535774808
 30
0.0
 10
77.6650504526
 20
90.6827135276
 30
0.0
 10
78.60079305620001
 20
89.9277947805
 30
0.0
 10
79.4609675409
 20
89.08764042660001
 30
0.0
 10
80.23300925159999
 20
88.1656011659
 30
0.0
 10
80.9065928925
 20
87.16928529049999
 30
0.0
 10
81.47544685699999
 20
86.10979951999999
 30
0.0
 10
81.938378823
 20
85.0001063829
 30
0.0
 10
82.2991239177
 20
83.85306696669999
 30
0.0
 10
82.564537719
 20
82.6802572323
 30
0.0
 10
82.7430202484
 20
81.4913763888
 30
0.0
 10
82.8432876387
 20
80.29388738660001
 30
0.0
 10
82.86362209720001
 20
79.49325115339999
 30
0.0
 10
82.86362209720001
 20
79.09303018420001
 30
0.0
  0
SPLINE
  5
1648
330
221
100
AcDbEntity
  8
0
  6
Continuous
 62
     9
100
AcDbSpline
210
0.0
220
0.0
230
1.0
 70
     8
 71
     3
 72
    53
 73
    49
 74
     0
 42
0.0000001
 43
0.0000000001
 40
0.0
 40
0.0
 40
0.0
 40
0.0
 40
0.0156241164
 40
0.0312480052
 40
0.0468833412
 40
0.0625187957
 40
0.0781435931
 40
0.0937662789
 40
0.109388739
 40
0.1250108507
 40
0.1406335684
 40
0.1562549412
 40
0.1718760751
 40
0.1875047193
 40
0.2031393145
 40
0.2187691839
 40
0.2500147442
 40
0.2812626863
 40
0.3125108978
 40
0.3437597328
 40
0.3750076607
 40
0.406255714
 40
0.4375040299000001
 40
0.4687513813000001
 40
0.5000000319
 40
0.5312486825000001
 40
0.5624960339000001
 40
0.5937443499000001
 40
0.6249924031000001
 40
0.6562403308000001
 40
0.6874891659000001
 40
0.7187373777000001
 40
0.7499853193000002
 40
0.7812308799
 40
0.7968607495000001
 40
0.8124953443999999
 40
0.8281239835999999
 40
0.8437451234999999
 40
0.8593665155
 40
0.8749892112999999
 40
0.8906112709
 40
0.9062337875
 40
0.9218564733999999
 40
0.9374812706
 40
0.9531174120999999
 40
0.968752044
 40
0.9843750683999999
 40
1.0
 40
1.0
 40
1.0
 40
1.0
 10
82.86362209720001
 20
79.09303018420001
 30
0.0
 10
82.86362209720001
 20
78.6928092852
 30
0.0
 10
82.8432904005
 20
77.8921730292
 30
0.0
 10
82.74302261619999
 20
76.6946829285
 30
0.0
 10
82.5645239522
 20
75.5058050099
 30
0.0
 10
82.29912725850001
 20
74.3329918238
 30
0.0
 10
81.93837785060001
 20
73.18595416329999
 30
0.0
 10
81.47544686000001
 20
72.07626121979998
 30
0.0
 10
80.90659454819999
 20
71.0167744954
 30
0.0
 10
80.2330095998
 20
70.0204593634
 30
0.0
 10
79.4609676078
 20
69.0984201854
 30
0.0
 10
78.6007935764
 20
68.25826547609999
 30
0.0
 10
77.6650510642
 20
67.50334665609999
 30
0.0
 10
76.66729335560001
 20
66.83248293
 30
0.0
 10
75.6204506034
 20
66.2411962054
 30
0.0
 10
74.1741349064
 20
65.5516660767
 30
0.0
 10
72.2927308899
 20
64.8571458303
 30
0.0
 10
69.97035413289999
 20
64.2374161865
 30
0.0
 10
67.61051002489999
 20
63.7844825031
 30
0.0
 10
65.2300802445
 20
63.46156649810001
 30
0.0
 10
62.83844382499999
 20
63.2399546516
 30
0.0
 10
60.44107403739999
 20
63.0968743605
 30
0.0
 10
58.041050346
 20
63.0132518463
 30
0.0
 10
55.6399620017
 20
62.97381120909999
 30
0.0
 10
53.2386220651
 20
62.9651395568
 30
0.0
 10
50.83728212850001
 20
62.97381120399999
 30
0.0
 10
48.4361937833
 20
63.0132518437
 30
0.0
 10
46.03617009079999
 20
63.0968743759
 30
0.0
 10
43.63880030759999
 20
63.2399546589
 30
0.0
 10
41.24716388369999
 20
63.46156644869999
 30
0.0
 10
38.8667341078
 20
63.7844825177
 30
0.0
 10
36.5068900017
 20
64.2374161776
 30
0.0
 10
34.1845132389
 20
64.8571458292
 30
0.0
 10
32.30310925139999
 20
65.5516661148
 30
0.0
 10
30.856793477
 20
66.2411961351
 30
0.0
 10
29.8099510379
 20
66.8324831024
 30
0.0
 10
28.8121925935
 20
67.5033457375
 30
0.0
 10
27.8764499559
 20
68.2582654058
 30
0.0
 10
27.0162780806
 20
69.0984224101
 30
0.0
 10
26.2442356633
 20
70.0204590603
 30
0.0
 10
25.5706459935
 20
71.01677063449999
 30
0.0
 10
25.0017983049
 20
72.07626043000001
 30
0.0
 10
24.5388686993
 20
73.18595447299999
 30
0.0
 10
24.1781013494
 20
74.3330068146
 30
0.0
 10
23.9127557848
 20
75.50582893079999
 30
0.0
 10
23.7341828433
 20
76.69467535619999
 30
0.0
 10
23.6340780347
 20
77.8921584645
 30
0.0
 10
23.6136220723
 20
78.6927884034
 30
0.0
 10
23.6136220726
 20
79.093030183
 30
0.0
  0
SPLINE
  5
1649
330
221
100
AcDbEntity
  8
0
  6
Continuous
 62
     9
100
AcDbSpline
210
0.0
220
0.0
230
1.0
 70
     8
 71
     3
 72
    35
 73
    31
 74
     0
 42
0.0000001
 43
0.0000000001
 40
0.0
 40
0.0
 40
0.0
 40
0.0
 40
0.0625059108
 40
0.1250117701
 40
0.1875174402
 40
0.25002247
 40
0.2812758817
 40
0.3125292739
 40
0.343782615
 40
0.3750358942
 40
0.4062890696000001
 40
0.4375420487
 40
0.4687947064
 40
0.5000468962
 40
0.5312984161
 40
0.5625490812000001
 40
0.5937986392
 40
0.6250468364000001
 40
0.6562934487
 40
0.6875384393
 40
0.7187820268000001
 40
0.7500247484
 40
0.7812673777
 40
0.8125106915000001
 40
0.8437552857
 40
0.8750014512999999
 40
0.9062491963999999
 40
0.9374983856
 40
0.9687486512000001
 40
1.0
 40
1.0
 40
1.0
 40
1.0
 10
53.2386220609
 20
62.6681106605
 30
0.0
 10
54.04903954619999
 20
62.6681104735
 30
0.0
 10
55.66989121329999
 20
62.6741827755
 30
0.0
 10
58.1009045505
 20
62.714577935
 30
0.0
 10
60.53080078229999
 20
62.8004464946
 30
0.0
 10
62.55343455550001
 20
62.92335787409999
 30
0.0
 10
64.1683957529
 20
63.0621535719
 30
0.0
 10
65.37745114589999
 20
63.189350198
 30
0.0
 10
66.5834826184
 20
63.3427555906
 30
0.0
 10
67.7853903231
 20
63.52587936009999
 30
0.0
 10
68.9817209984
 20
63.7426688735
 30
0.0
 10
70.1705600112
 20
63.9975763253
 30
0.0
 10
71.34938659470001
 20
64.2956100943
 30
0.0
 10
72.5148878361
 20
64.6423692219
 30
0.0
 10
73.6627254743
 20
65.0440339856
 30
0.0
 10
74.7872608932
 20
65.5072641112
 30
0.0
 10
75.88126038670001
 20
66.03896107229999
 30
0.0
 10
76.9356469324
 20
66.645805626
 30
0.0
 10
77.9394305593
 20
67.333504841
 30
0.0
 10
78.8800049819
 20
68.10575529729999
 30
0.0
 10
79.74402375869999
 20
68.96307419060001
 30
0.0
 10
80.51891497060001
 20
69.9018859333
 30
0.0
 10
81.1947468722
 20
70.9143672291
 30
0.0
 10
81.76579533279999
 20
71.9893310751
 30
0.0
 10
82.2311640256
 20
73.11389888259999
 30
0.0
 10
82.5942849778
 20
74.2752987299
 30
0.0
 10
82.8616863981
 20
75.4621775395
 30
0.0
 10
83.04159959880001
 20
76.6652457068
 30
0.0
 10
83.14281468389999
 20
77.87728239279999
 30
0.0
 10
83.16354137479999
 20
78.6878422714
 30
0.0
 10
83.1635415845
 20
79.0930301841
 30
0.0
  0
SPLINE
  5
164A
330
221
100
AcDbEntity
  8
0
  6
Continuous
 62
     9
100
AcDbSpline
210
0.0
220
0.0
230
1.0
 70
     8
 71
     3
 72
    36
 73
    32
 74
     0
 42
0.0000001
 43
0.0000000001
 40
0.0
 40
0.0
 40
0.0
 40
0.0
 40
0.0312511596
 40
0.062501177
 40
0.0937501322
 40
0.1249976643
 40
0.1562436301
 40
0.187488049
 40
0.2187312164
 40
0.2499737393
 40
0.2812164122
 40
0.3124599845
 40
0.3437049842
 40
0.3749516261
 40
0.4061998766
 40
0.4374494814000001
 40
0.4687002382000001
 40
0.4999518163000001
 40
0.531204056
 40
0.5624567764
 40
0.5937098143
 40
0.6249630358
 40
0.6562163557
 40
0.6874697097000001
 40
0.7187230366
 40
0.7499763908000001
 40
0.7812297717
 40
0.8124830538999999
 40
0.8749886304
 40
0.9374943165999999
 40
1.0
 40
1.0
 40
1.0
 40
1.0
 10
23.3137025372
 20
79.0930301841
 30
0.0
 10
23.3137027584
 20
78.6878440424
 30
0.0
 10
23.3344292554
 20
77.877288471
 30
0.0
 10
23.4356433135
 20
76.6652583986
 30
0.0
 10
23.6155541828
 20
75.4621969439
 30
0.0
 10
23.8829526743
 20
74.27532398949999
 30
0.0
 10
24.2460696771
 20
73.1139287859
 30
0.0
 10
24.7114337009
 20
71.98936417600001
 30
0.0
 10
25.2824772225
 20
70.91440170750001
 30
0.0
 10
25.9583044431
 20
69.9019195492
 30
0.0
 10
26.7331920873
 20
68.9631050615
 30
0.0
 10
27.5972089638
 20
68.10578232350001
 30
0.0
 10
28.5377830122
 20
67.3335276777
 30
0.0
 10
29.5415675884
 20
66.6458240755
 30
0.0
 10
30.5959561971
 20
66.03897561610001
 30
0.0
 10
31.6899587663
 20
65.50727454629999
 30
0.0
 10
32.8144982708
 20
65.04404222819999
 30
0.0
 10
33.96233972570001
 20
64.6423743916
 30
0.0
 10
35.127844555
 20
64.29561234409999
 30
0.0
 10
36.3066750048
 20
63.9975764127
 30
0.0
 10
37.4955179686
 20
63.7426672579
 30
0.0
 10
38.6918525921
 20
63.5258772002
 30
0.0
 10
39.8937639289
 20
63.342755562
 30
0.0
 10
41.099798026
 20
63.1893531633
 30
0.0
 10
42.30885246649999
 20
63.0621544966
 30
0.0
 10
43.52009431659999
 20
62.9580423743
 30
0.0
 10
44.7328943862
 20
62.87421962939999
 30
0.0
 10
46.3513881349
 20
62.786118035
 30
0.0
 10
48.37635656229999
 20
62.71458281920001
 30
0.0
 10
50.8073539148
 20
62.6741812579
 30
0.0
 10
52.4282061587
 20
62.6681103698
 30
0.0
 10
53.2386220609
 20
62.6681106605
 30
0.0
  0
SPLINE
  5
164B
330
221
100
AcDbEntity
  8
0
  6
Continuous
 62
     9
100
AcDbSpline
210
0.0
220
0.0
230
1.0
 70
     8
 71
     3
 72
    35
 73
    31
 74
     0
 42
0.0000001
 43
0.0000000001
 40
0.0
 40
0.0
 40
0.0
 40
0.0
 40
0.062505912
 40
0.1250117731
 40
0.187517444
 40
0.2500224737
 40
0.2812758858
 40
0.3125292777
 40
0.3437826185
 40
0.3750358977
 40
0.4062890731000001
 40
0.4375420522
 40
0.4687947097
 40
0.5000468995000001
 40
0.5312984196000001
 40
0.5625490841
 40
0.5937986422
 40
0.625046839
 40
0.6562934509
 40
0.6875384412000001
 40
0.7187820282999999
 40
0.7500247495
 40
0.7812673784000001
 40
0.812510692
 40
0.8437552862
 40
0.8750014516
 40
0.9062491965999999
 40
0.9374983858
 40
0.9687486512000001
 40
1.0
 40
1.0
 40
1.0
 40
1.0
 10
53.2386220609
 20
95.51794970780001
 30
0.0
 10
52.42820456
 20
95.51794989639999
 30
0.0
 10
50.8073528546
 20
95.51187759559999
 30
0.0
 10
48.37633946899999
 20
95.4714824428
 30
0.0
 10
45.94644320229999
 20
95.38561391540001
 30
0.0
 10
43.9238094185
 20
95.26270247020001
 30
0.0
 10
42.3088482162
 20
95.12390682680001
 30
0.0
 10
41.09979283309999
 20
94.99671013770001
 30
0.0
 10
39.8937613721
 20
94.8433047293
 30
0.0
 10
38.69185367
 20
94.6601809631
 30
0.0
 10
37.4955229925
 20
94.4433914594
 30
0.0
 10
36.3066839819
 20
94.1884840045
 30
0.0
 10
35.1278574031
 20
93.8904502267
 30
0.0
 10
33.9623561619
 20
93.54369109930001
 30
0.0
 10
32.814518525
 20
93.14202634590001
 30
0.0
 10
31.6899831188
 20
92.6787962016
 30
0.0
 10
30.5959836359
 20
92.14709924610001
 30
0.0
 10
29.5415971043
 20
91.54025468589999
 30
0.0
 10
28.537813492
 20
90.85255547530001
 30
0.0
 10
27.5972390848
 20
90.0803050222
 30
0.0
 10
26.7332203239
 20
89.2229861336
 30
0.0
 10
25.958329127
 20
88.28417439809999
 30
0.0
 10
25.2824972353
 20
87.2716931106
 30
0.0
 10
24.7114487801
 20
86.1967292719
 30
0.0
 10
24.246080091
 20
85.0721614691
 30
0.0
 10
23.8829591414
 20
83.9107616261
 30
0.0
 10
23.6155577217
 20
82.72388282029998
 30
0.0
 10
23.4356445228
 20
81.52081465569999
 30
0.0
 10
23.3344294377
 20
80.3087779726
 30
0.0
 10
23.3137027469
 20
79.4982180958
 30
0.0
 10
23.3137025372
 20
79.0930301841
 30
0.0
  0
SPLINE
  5
164C
330
221
100
AcDbEntity
  8
0
  6
Continuous
 62
     9
100
AcDbSpline
210
0.0
220
0.0
230
1.0
 70
     8
 71
     3
 72
    36
 73
    32
 74
     0
 42
0.0000001
 43
0.0000000001
 40
0.0
 40
0.0
 40
0.0
 40
0.0
 40
0.0312511596
 40
0.0625011767
 40
0.0937501317
 40
0.1249976634
 40
0.156243629
 40
0.1874880474
 40
0.2187312144
 40
0.2499737369
 40
0.2812164095
 40
0.3124599817
 40
0.3437049813000001
 40
0.3749516229999999
 40
0.4061998733
 40
0.4374494783
 40
0.4687002347
 40
0.4999518127000001
 40
0.5312040526000001
 40
0.562456773
 40
0.5937098108
 40
0.6249630321000001
 40
0.6562163519
 40
0.6874697066
 40
0.7187230337
 40
0.7499763873000001
 40
0.7812297687000001
 40
0.8124830512
 40
0.8749886283
 40
0.9374943156
 40
1.0
 40
1.0
 40
1.0
 40
1.0
 10
83.1635415845
 20
79.0930301841
 30
0.0
 10
83.16354136340001
 20
79.4982163252
 30
0.0
 10
83.14281486649999
 20
80.30877189299999
 30
0.0
 10
83.0416008091
 20
81.52080195800001
 30
0.0
 10
82.86168994310001
 20
82.72386340279998
 30
0.0
 10
82.59429145570001
 20
83.91073634600001
 30
0.0
 10
82.23117445939999
 20
85.07213153770001
 30
0.0
 10
81.7658104452
 20
86.19669613540001
 30
0.0
 10
81.19476693699999
 20
87.27165859290002
 30
0.0
 10
80.51893973289999
 20
88.2841407457
 30
0.0
 10
79.74405210399999
 20
89.2229552334
 30
0.0
 10
78.8800352392
 20
90.08027797469999
 30
0.0
 10
77.93946120130001
 20
90.852532624
 30
0.0
 10
76.9356766339
 20
91.54023622629999
 30
0.0
 10
75.8812880353
 20
92.14708469709998
 30
0.0
 10
74.7872854705
 20
92.6787857645
 30
0.0
 10
73.66274597659999
 20
93.14201809830001
 30
0.0
 10
72.5149045278
 20
93.5436859408
 30
0.0
 10
71.34939969680001
 20
93.89044798649999
 30
0.0
 10
70.1705692467
 20
94.18848391879999
 30
0.0
 10
68.9817262886
 20
94.4433930822
 30
0.0
 10
67.78539167329999
 20
94.66018315680001
 30
0.0
 10
66.58348033580001
 20
94.8433048242
 30
0.0
 10
65.3774462222
 20
94.99670718129999
 30
0.0
 10
64.1683917743
 20
95.1239058086
 30
0.0
 10
62.95714993069999
 20
95.2280180267
 30
0.0
 10
61.74434985529999
 20
95.3118407418
 30
0.0
 10
60.12585608649999
 20
95.39994227440001
 30
0.0
 10
58.1008876339
 20
95.47147753129999
 30
0.0
 10
55.66989024649999
 20
95.51187910969998
 30
0.0
 10
54.049037975
 20
95.5179500006
 30
0.0
 10
53.2386220609
 20
95.51794970780001
 30
0.0
  0
SPLINE
  5
164D
330
221
100
AcDbEntity
  8
0
  6
Continuous
 62
     9
100
AcDbSpline
210
0.0
220
0.0
230
1.0
 70
     8
 71
     3
 72
    56
 73
    52
 74
     0
 42
0.0000001
 43
0.0000000001
 40
0.0
 40
0.0
 40
0.0
 40
0.0
 40
0.0158154759
 40
0.0318468055
 40
0.0481164901
 40
0.0646499765
 40
0.0814354222
 40
0.0984128659
 40
0.1154573133
 40
0.132428927
 40
0.1492199105
 40
0.1657722072
 40
0.182070632
 40
0.1981332574
 40
0.2139940282
 40
0.2296809934
 40
0.2452225654
 40
0.2606445063
 40
0.2759663703
 40
0.2912038014
 40
0.3214688706
 40
0.3515245286999999
 40
0.3814227628
 40
0.4111970295000001
 40
0.4408729105
 40
0.4704711197
 40
0.4999979107
 40
0.5295246748000001
 40
0.5591228814
 40
0.588798743
 40
0.618572983
 40
0.6484712149
 40
0.6785267488
 40
0.708791821
 40
0.7393472162000001
 40
0.7547695459
 40
0.7703107516
 40
0.7859976385
 40
0.8018582873000001
 40
0.817920892
 40
0.8342191201
 40
0.8507710870999998
 40
0.8675622848000001
 40
0.8845339669999999
 40
0.9015777592
 40
0.9185558415
 40
0.9353407681999998
 40
0.9518750137999999
 40
0.9681442045999999
 40
0.9841812312999998
 40
1.0
 40
1.0
 40
1.0
 40
1.0
 10
73.4618298732
 20
79.093030184
 30
0.0
 10
73.4618922746
 20
78.8231174407
 30
0.0
 10
73.4470942663
 20
78.2794398707
 30
0.0
 10
73.37148439579999
 20
77.46109449249999
 30
0.0
 10
73.231378404
 20
76.63855706159999
 30
0.0
 10
73.014796924
 20
75.8190869062
 30
0.0
 10
72.710545178
 20
75.0146066362
 30
0.0
 10
72.3119861775
 20
74.2422100408
 30
0.0
 10
71.82051717020001
 20
73.5213208595
 30
0.0
 10
71.24729958659999
 20
72.8679809651
 30
0.0
 10
70.6093133566
 20
72.29065350399999
 30
0.0
 10
69.92444111180001
 20
71.78967255749999
 30
0.0
 10
69.2078397195
 20
71.3595839857
 30
0.0
 10
68.47072457979999
 20
70.99201490670001
 30
0.0
 10
67.7206196005
 20
70.67835495930001
 30
0.0
 10
66.9624632781
 20
70.41072062659999
 30
0.0
 10
66.1995250954
 20
70.18223167010001
 30
0.0
 10
65.43389678359999
 20
69.9870550885
 30
0.0
 10
64.6669319084
 20
69.8203225017
 30
0.0
 10
63.6460783093
 20
69.6314281151
 30
0.0
 10
62.3692491424
 20
69.44732476029999
 30
0.0
 10
60.8373289697
 20
69.2897085906
 30
0.0
 10
59.3096716483
 20
69.18083821409999
 30
0.0
 10
57.7863810489
 20
69.1094159692
 30
0.0
 10
56.26718980979999
 20
69.06647799569999
 30
0.0
 10
54.7517933075
 20
69.0451244952
 30
0.0
 10
53.23882246180001
 20
69.03981673859999
 30
0.0
 10
51.7258517081
 20
69.0451215944
 30
0.0
 10
50.2104558178
 20
69.06647101119999
 30
0.0
 10
48.69126583439999
 20
69.109399826
 30
0.0
 10
47.1679730777
 20
69.1808111119
 30
0.0
 10
45.640326895
 20
69.2896708187
 30
0.0
 10
44.108373415
 20
69.44728472459999
 30
0.0
 10
42.5728179134
 20
69.6686315916
 30
0.0
 10
41.29574387579999
 20
69.92280871689999
 30
0.0
 10
40.27808350059999
 20
70.18198215179999
 30
0.0
 10
39.5151886911
 20
70.4106284935
 30
0.0
 10
38.7570214497
 20
70.6781916691
 30
0.0
 10
38.0069129571
 20
70.9918377347
 30
0.0
 10
37.2697891441
 20
71.3593748647
 30
0.0
 10
36.553179244
 20
71.7894309716
 30
0.0
 10
35.8682810326
 20
72.29036620479999
 30
0.0
 10
35.2302590973
 20
72.8676544134
 30
0.0
 10
34.6570223317
 20
73.5209682989
 30
0.0
 10
34.1654932027
 20
74.2418161886
 30
0.0
 10
33.7668846456
 20
75.01417826779999
 30
0.0
 10
33.4625838852
 20
75.81865575350001
 30
0.0
 10
33.24595421610001
 20
76.63810919789999
 30
0.0
 10
33.1058026438
 20
77.46074233839999
 30
0.0
 10
33.0301503582
 20
78.2792296555
 30
0.0
 10
33.0153413692
 20
78.82306124660001
 30
0.0
 10
33.0154138758
 20
79.0930301837
 30
0.0
  0
SPLINE
  5
164E
330
221
100
AcDbEntity
  8
0
  6
Continuous
 62
     9
100
AcDbSpline
210
0.0
220
0.0
230
1.0
 70
     8
 71
     3
 72
    35
 73
    31
 74
     0
 42
0.0000001
 43
0.0000000001
 40
0.0
 40
0.0
 40
0.0
 40
0.0
 40
0.0159345802
 40
0.031948112
 40
0.0480929416
 40
0.0643503359
 40
0.0972429838
 40
0.1306489882
 40
0.1475352621
 40
0.1645166085
 40
0.1986423903
 40
0.2327632294
 40
0.2666327838
 40
0.3000811464
 40
0.3330349731
 40
0.3654919734000001
 40
0.3975062205
 40
0.4291395823000001
 40
0.4604476462
 40
0.4914854875
 40
0.5222946398000001
 40
0.5529095694000001
 40
0.5833609514
 40
0.643858335
 40
0.7039371216000001
 40
0.7636867973000001
 40
0.8231525656
 40
0.8823528264
 40
0.9412944690999999
 40
1.0
 40
1.0
 40
1.0
 40
1.0
 10
73.4544272338
 20
79.5484124803
 30
0.0
 10
73.45006435350001
 20
79.68177332119999
 30
0.0
 10
73.4373147765
 20
79.94904641979999
 30
0.0
 10
73.40498043770001
 20
80.350536717
 30
0.0
 10
73.358263459
 20
80.75335619369999
 30
0.0
 10
73.2745337815
 20
81.2937814038
 30
0.0
 10
73.12631951890001
 20
81.9699661019
 30
0.0
 10
72.9125206767
 20
82.63429720479999
 30
0.0
 10
72.69721439680001
 20
83.1551479704
 30
0.0
 10
72.4503566114
 20
83.6684973016
 30
0.0
 10
72.0846335299
 20
84.2835089411
 30
0.0
 10
71.56082560289999
 20
84.9619537949
 30
0.0
 10
70.96512250100001
 20
85.5700722437
 30
0.0
 10
70.31466862640001
 20
86.10338976680001
 30
0.0
 10
69.62572004560001
 20
86.5643840355
 30
0.0
 10
68.91118660630001
 20
86.9597771917
 30
0.0
 10
68.1802815241
 20
87.29795555229999
 30
0.0
 10
67.4390328831
 20
87.5868642982
 30
0.0
 10
66.6915265767
 20
87.83389452239999
 30
0.0
 10
65.9403451548
 20
88.04500778129998
 30
0.0
 10
65.1872786271
 20
88.22559357560001
 30
0.0
 10
64.433465176
 20
88.3800182395
 30
0.0
 10
63.4305760232
 20
88.5551062923
 30
0.0
 10
62.1770103043
 20
88.7257833531
 30
0.0
 10
60.6738112121
 20
88.87172450580001
 30
0.0
 10
59.1756285851
 20
88.97210263620001
 30
0.0
 10
57.6829487635
 20
89.03741008270001
 30
0.0
 10
56.1961508902
 20
89.0760888642
 30
0.0
 10
54.7153615861
 20
89.09475715840001
 30
0.0
 10
53.730207492
 20
89.0978124757
 30
0.0
 10
53.23862206680001
 20
89.0978124773
 30
0.0
  0
SPLINE
  5
164F
330
221
100
AcDbEntity
  8
0
  6
Continuous
 62
     9
100
AcDbSpline
210
0.0
220
0.0
230
1.0
 70
     8
 71
     3
 72
    31
 73
    27
 74
     0
 42
0.0000001
 43
0.0000000001
 40
0.0
 40
0.0
 40
0.0
 40
0.0
 40
0.0587073397
 40
0.1176507454
 40
0.1768527746
 40
0.236320226
 40
0.2960715967
 40
0.3561521506
 40
0.4166514584000001
 40
0.4777125948
 40
0.5085241036000001
 40
0.5395616892000001
 40
0.5708707309000002
 40
0.6025049820000001
 40
0.6345202017
 40
0.6669781488000001
 40
0.6999326127
 40
0.733382071
 40
0.7672531012999999
 40
0.8013744193
 40
0.8355010137
 40
0.8693566368
 40
0.9027632643
 40
0.9356574795999998
 40
0.9680531848000001
 40
1.0
 40
1.0
 40
1.0
 40
1.0
 10
53.23862206680001
 20
89.0978124991
 30
0.0
 10
52.7470363193
 20
89.0978125007
 30
0.0
 10
51.761882055
 20
89.09475708749999
 30
0.0
 10
50.28109255229999
 20
89.07608774619999
 30
0.0
 10
48.7942964247
 20
89.03740885439999
 30
0.0
 10
47.30161654699999
 20
88.97209873260001
 30
0.0
 10
45.80344435669999
 20
88.87171587190001
 30
0.0
 10
44.3002165605
 20
88.72576604029999
 30
0.0
 10
42.7927035172
 20
88.52057011819999
 30
0.0
 10
41.5379370833
 20
88.28495800389999
 30
0.0
 10
40.5368716051
 20
88.04512915930001
 30
0.0
 10
39.7857331846
 20
87.83384037200001
 30
0.0
 10
39.0382183427
 20
87.5868783711
 30
0.0
 10
38.2969792675
 20
87.29794072770001
 30
0.0
 10
37.5660723311
 20
86.95977055280001
 30
0.0
 10
36.8515430317
 20
86.5643752903
 30
0.0
 10
36.16259534090001
 20
86.1033861806
 30
0.0
 10
35.5121347239
 20
85.5700697486
 30
0.0
 10
34.916440598
 20
84.96195709149999
 30
0.0
 10
34.39261637179999
 20
84.28347666029999
 30
0.0
 10
33.9545524892
 20
83.5468577902
 30
0.0
 10
33.6083099434
 20
82.76970087509999
 30
0.0
 10
33.3509363067
 20
81.96998655719999
 30
0.0
 10
33.1737743838
 20
81.16164467
 30
0.0
 10
33.0653949639
 20
80.3539102102
 30
0.0
 10
33.031581626
 20
79.81576149670001
 30
0.0
 10
33.0228390917
 20
79.5483978256
 30
0.0
  0
SPLINE
  5
1650
330
221
100
AcDbEntity
  8
0
  6
Continuous
 62
     9
100
AcDbSpline
210
0.0
220
0.0
230
1.0
 70
     8
 71
     3
 72
    21
 73
    17
 74
     0
 42
0.0000001
 43
0.0000000001
 40
0.0
 40
0.0
 40
0.0
 40
0.0
 40
0.062519841
 40
0.1250387176
 40
0.1875581051
 40
0.250077393
 40
0.3749643476
 40
0.4998502568000001
 40
0.5623691360000001
 40
0.6248878831
 40
0.6874065624
 40
0.7499253444000001
 40
0.8124444745999998
 40
0.8749640670999999
 40
0.9374832009999998
 40
1.0
 40
1.0
 40
1.0
 40
1.0
 10
51.2639369308
 20
84.3429366145
 30
0.0
 10
51.2639677242
 20
84.4074297823
 30
0.0
 10
51.2703504564
 20
84.5365022926
 30
0.0
 10
51.29882193850001
 20
84.7281693112
 30
0.0
 10
51.34595352199999
 20
84.9161574572
 30
0.0
 10
51.4329934878
 20
85.15920198139999
 30
0.0
 10
51.5860325686
 20
85.44520320149999
 30
0.0
 10
51.7922098793
 20
85.69563633580001
 30
0.0
 10
51.9839229693
 20
85.8685382232
 30
0.0
 10
52.1399741388
 20
85.98346998409999
 30
0.0
 10
52.30663509359999
 20
86.0823590576
 30
0.0
 10
52.48227426399999
 20
86.1642544787
 30
0.0
 10
52.6651067066
 20
86.22848274270001
 30
0.0
 10
52.8533150871
 20
86.27463147559998
 30
0.0
 10
53.0450636403
 20
86.30247040790001
 30
0.0
 10
53.1741320238
 20
86.3086763739
 30
0.0
 10
53.2386220609
 20
86.3086764886
 30
0.0
  0
LINE
  5
1651
330
221
100
AcDbEntity
  8
0
  6
Continuous
 62
     9
100
AcDbLine
 10
54.8011220697
 20
92.04881348609999
 30
0.0
 11
51.6761220657
 21
92.0488135209
 31
0.0
  0
SPLINE
  5
1652
330
221
100
AcDbEntity
  8
0
  6
Continuous
 62
     9
100
AcDbSpline
210
0.0
220
0.0
230
1.0
 70
     8
 71
     3
 72
    23
 73
    19
 74
     0
 42
0.0000001
 43
0.0000000001
 40
0.0
 40
0.0
 40
0.0
 40
0.0
 40
0.0594475193
 40
0.110452209
 40
0.1539239903
 40
0.1917106118
 40
0.2093945099
 40
0.226807931
 40
0.244414418
 40
0.2626584607
 40
0.3024791672
 40
0.3487664491
 40
0.4028853033
 40
0.4654309352000001
 40
0.5366098070000001
 40
0.6161214601000001
 40
0.7972327799
 40
1.0
 40
1.0
 40
1.0
 40
1.0
 10
55.2005129726
 20
91.74322783459999
 30
0.0
 10
55.21340805689999
 20
91.7497636949
 30
0.0
 10
55.2367660763
 20
91.76319502069999
 30
0.0
 10
55.2662908113
 20
91.7864835868
 30
0.0
 10
55.2873758746
 20
91.81111873090001
 30
0.0
 10
55.2978328172
 20
91.8332395616
 30
0.0
 10
55.3011331067
 20
91.85073831569999
 30
0.0
 10
55.3012833824
 20
91.8636215497
 30
0.0
 10
55.2991520531
 20
91.8764635041
 30
0.0
 10
55.29314370149999
 20
91.89393723610001
 30
0.0
 10
55.27935667600001
 20
91.91565536010001
 30
0.0
 10
55.2547775955
 20
91.939587933
 30
0.0
 10
55.2219848051
 20
91.96209590069999
 30
0.0
 10
55.18120741699999
 20
91.9829024152
 30
0.0
 10
55.13276481800001
 20
92.00161598100001
 30
0.0
 10
55.05523361739999
 20
92.0242491495
 30
0.0
 10
54.9438625181
 20
92.04359872319999
 30
0.0
 10
54.850432393
 20
92.04881348569999
 30
0.0
 10
54.8011220697
 20
92.04881348609999
 30
0.0
  0
SPLINE
  5
1653
330
221
100
AcDbEntity
  8
0
  6
Continuous
 62
     9
100
AcDbSpline
210
0.0
220
0.0
230
1.0
 70
     8
 71
     3
 72
    23
 73
    19
 74
     0
 42
0.0000001
 43
0.0000000001
 40
0.0
 40
0.0
 40
0.0
 40
0.0
 40
0.2024507871
 40
0.3834463793
 40
0.4629661309000001
 40
0.5341843285
 40
0.5967894101
 40
0.6509758168000001
 40
0.697327677
 40
0.7372021251000001
 40
0.7554676187
 40
0.7730917969
 40
0.7905196961
 40
0.8082158681999999
 40
0.8460236274999999
 40
0.8895155738999999
 40
0.9405396452999999
 40
1.0
 40
1.0
 40
1.0
 40
1.0
 10
51.6761220657
 20
92.0488135209
 30
0.0
 10
51.62688935430001
 20
92.04881351870001
 30
0.0
 10
51.5335659208
 20
92.04361286580001
 30
0.0
 10
51.4222944758
 20
92.0243086319
 30
0.0
 10
51.3447708665
 20
92.0017135149
 30
0.0
 10
51.2962947933
 20
91.98301678540001
 30
0.0
 10
51.255468405
 20
91.9622190865
 30
0.0
 10
51.2226189571
 20
91.93971258879999
 30
0.0
 10
51.1979837437
 20
91.91577377749998
 30
0.0
 10
51.1841527457
 20
91.89404355
 30
0.0
 10
51.1781153545
 20
91.8765560928
 30
0.0
 10
51.1759664845
 20
91.86370387969999
 30
0.0
 10
51.17610332029999
 20
91.8508096641
 30
0.0
 10
51.1793907861
 20
91.83329663809999
 30
0.0
 10
51.18984091819999
 20
91.81115731330001
 30
0.0
 10
51.2109288117
 20
91.7865048242
 30
0.0
 10
51.2404613331
 20
91.76320587760001
 30
0.0
 10
51.2638253235
 20
91.7497698805
 30
0.0
 10
51.2767228264
 20
91.74323231610001
 30
0.0
  0
SPLINE
  5
1654
330
221
100
AcDbEntity
  8
0
  6
Continuous
 62
     9
100
AcDbSpline
210
0.0
220
0.0
230
1.0
 70
     8
 71
     3
 72
    21
 73
    17
 74
     0
 42
0.0000001
 43
0.0000000001
 40
0.0
 40
0.0
 40
0.0
 40
0.0
 40
0.0625200099
 40
0.1250390525
 40
0.1875584245
 40
0.250077209
 40
0.3125956704
 40
0.3751140965999999
 40
0.4376326373
 40
0.5001513469
 40
0.6250368911999999
 40
0.7499234546000001
 40
0.8124425372000001
 40
0.8749617812
 40
0.9374804185
 40
1.0
 40
1.0
 40
1.0
 40
1.0
 10
53.2386220609
 20
86.3086764886
 30
0.0
 10
53.3031154018
 20
86.30867632780001
 30
0.0
 10
53.4321870147
 20
86.30247030200001
 30
0.0
 10
53.62393836569999
 20
86.27462980370001
 30
0.0
 10
53.8121457667
 20
86.22848016069999
 30
0.0
 10
53.99497718500001
 20
86.16425172700001
 30
0.0
 10
54.170614612
 20
86.08235489889999
 30
0.0
 10
54.3372748212
 20
85.9834662835
 30
0.0
 10
54.493325164
 20
85.86853447660001
 30
0.0
 10
54.68503679859999
 20
85.6956321894
 30
0.0
 10
54.8912131092
 20
85.44519959490001
 30
0.0
 10
55.0442511869
 20
85.15919901949999
 30
0.0
 10
55.13129075680001
 20
84.9161552037
 30
0.0
 10
55.1784219547
 20
84.7281676196
 30
0.0
 10
55.2068935159
 20
84.53650131279999
 30
0.0
 10
55.2132762155
 20
84.40742933660001
 30
0.0
 10
55.2133071199
 20
84.342936445
 30
0.0
  0
SPLINE
  5
1655
330
221
100
AcDbEntity
  8
0
  6
Continuous
 62
     9
100
AcDbSpline
210
0.0
220
0.0
230
1.0
 70
     8
 71
     3
 72
    13
 73
     9
 74
     0
 42
0.0000001
 43
0.0000000001
 40
0.0
 40
0.0
 40
0.0
 40
0.0
 40
0.2567538533
 40
0.4998288141
 40
0.7429671186000001
 40
0.8689536923
 40
0.9337809012999999
 40
1.0
 40
1.0
 40
1.0
 40
1.0
 10
54.8011358199
 20
92.16910273579999
 30
0.0
 10
54.53368157319999
 20
92.16926701879998
 30
0.0
 10
54.0130219746
 20
92.16948743139999
 30
0.0
 10
53.23909103600001
 20
92.169457936
 30
0.0
 10
52.6013772313
 20
92.1694624236
 30
0.0
 10
52.1493398055
 20
92.16937245450001
 30
0.0
 10
51.8815948892
 20
92.169239552
 30
0.0
 10
51.7450871135
 20
92.1691765535
 30
0.0
 10
51.6761083147
 20
92.16910280329999
 30
0.0
  0
LINE
  5
1656
330
221
100
AcDbEntity
  8
0
  6
Continuous
 62
     9
100
AcDbLine
 10
51.6761083147
 20
92.16910280329999
 30
0.0
 11
51.6761220657
 21
92.0488135209
 31
0.0
  0
SPLINE
  5
1657
330
221
100
AcDbEntity
  8
0
  6
Continuous
 62
     9
100
AcDbSpline
210
0.0
220
0.0
230
1.0
 70
     8
 71
     3
 72
    33
 73
    29
 74
     0
 42
0.0000001
 43
0.0000000001
 40
0.0
 40
0.0
 40
0.0
 40
0.0
 40
0.0743396733
 40
0.1508939262
 40
0.2282314182
 40
0.2660485033
 40
0.3024425152
 40
0.3368022182
 40
0.3687769132
 40
0.3981255507
 40
0.4247100925
 40
0.4485320960000001
 40
0.4698081849000001
 40
0.4889854812
 40
0.5068079236000001
 40
0.5243050382
 40
0.5425491343
 40
0.5623044689
 40
0.5840193927000001
 40
0.6079302670000001
 40
0.6342645636
 40
0.6631618326
 40
0.6946126875000001
 40
0.7284842887
 40
0.7644187771
 40
0.8408254548999998
 40
0.9205770503
 40
1.0
 40
1.0
 40
1.0
 40
1.0
 10
51.6761083147
 20
92.16910280329999
 30
0.0
 10
51.6336922664
 20
92.1690574533
 30
0.0
 10
51.5475596975
 20
92.16571687650001
 30
0.0
 10
51.4181209977
 20
92.15028007479999
 30
0.0
 10
51.3108666617
 20
92.12783342239999
 30
0.0
 10
51.2278829829
 20
92.1033896486
 30
0.0
 10
51.1695287434
 20
92.082481448
 30
0.0
 10
51.1157163184
 20
92.0591296061
 30
0.0
 10
51.0673379628
 20
92.0337034341
 30
0.0
 10
51.025096937
 20
92.00651585180001
 30
0.0
 10
50.9895897513
 20
91.97788089559999
 30
0.0
 10
50.96139711310001
 20
91.94804046680001
 30
0.0
 10
50.9408891626
 20
91.91737854839999
 30
0.0
 10
50.9284830361
 20
91.88620658899999
 30
0.0
 10
50.9246641279
 20
91.8549378045
 30
0.0
 10
50.92990774859999
 20
91.82441034780001
 30
0.0
 10
50.94338353979999
 20
91.79541913860001
 30
0.0
 10
50.9641871074
 20
91.7681724736
 30
0.0
 10
50.99165480709999
 20
91.74272068729999
 30
0.0
 10
51.0253590627
 20
91.71909675129999
 30
0.0
 10
51.0650203185
 20
91.6973557578
 30
0.0
 10
51.1103732495
 20
91.6774973965
 30
0.0
 10
51.16106183229999
 20
91.65948049729999
 30
0.0
 10
51.2165613805
 20
91.64332753389999
 30
0.0
 10
51.2977558635
 20
91.6240454903
 30
0.0
 10
51.4060021511
 20
91.6059889475
 30
0.0
 10
51.53994629319999
 20
91.5937051458
 30
0.0
 10
51.63079392130001
 20
91.59103777389999
 30
0.0
 10
51.67611032569999
 20
91.5910971757
 30
0.0
  0
LINE
  5
1658
330
221
100
AcDbEntity
  8
0
  6
Continuous
 62
     9
100
AcDbLine
 10
51.67611032569999
 20
91.5910971757
 30
0.0
 11
51.676113195
 21
91.62588277679999
 31
0.0
  0
SPLINE
  5
1659
330
221
100
AcDbEntity
  8
0
  6
Continuous
 62
     9
100
AcDbSpline
210
0.0
220
0.0
230
1.0
 70
     8
 71
     3
 72
    11
 73
     7
 74
     0
 42
0.0000001
 43
0.0000000001
 40
0.0
 40
0.0
 40
0.0
 40
0.0
 40
0.2536732103
 40
0.4853537148
 40
0.7256884091
 40
1.0
 40
1.0
 40
1.0
 40
1.0
 10
51.67611032569999
 20
91.5910971757
 30
0.0
 10
51.9403550334
 20
91.5914435542
 30
0.0
 10
52.4459357986
 20
91.5915643826
 30
0.0
 10
53.20186691359999
 20
91.5916424677
 30
0.0
 10
53.9792965556
 20
91.59160133549999
 30
0.0
 10
54.51539054779999
 20
91.591397632
 30
0.0
 10
54.8011338009
 20
91.5910971695
 30
0.0
  0
SPLINE
  5
165A
330
221
100
AcDbEntity
  8
0
  6
Continuous
 62
     9
100
AcDbSpline
210
0.0
220
0.0
230
1.0
 70
     8
 71
     3
 72
    34
 73
    30
 74
     0
 42
0.0000001
 43
0.0000000001
 40
0.0
 40
0.0
 40
0.0
 40
0.0
 40
0.0845175317
 40
0.1677126088
 40
0.2459841374
 40
0.2822022755
 40
0.3159118044
 40
0.3467903436
 40
0.3748289097
 40
0.4001535756
 40
0.4230092335000001
 40
0.4437046682
 40
0.4625317864000001
 40
0.4800174969
 40
0.4970244822
 40
0.5146210564000001
 40
0.533698024
 40
0.5440004343
 40
0.5548772067000001
 40
0.5784839866000001
 40
0.6047186337000001
 40
0.6335716224
 40
0.6649114867
 40
0.6985303973
 40
0.7341396389
 40
0.7712578382
 40
0.8478625604999999
 40
0.9247184804999999
 40
1.0
 40
1.0
 40
1.0
 40
1.0
 10
54.8011338009
 20
91.5910971695
 30
0.0
 10
54.8493626043
 20
91.59107188770001
 30
0.0
 10
54.945096433
 20
91.5940421168
 30
0.0
 10
55.08491339479999
 20
91.6076299138
 30
0.0
 10
55.1961436845
 20
91.62735917639999
 30
0.0
 10
55.27817446
 20
91.64804660819999
 30
0.0
 10
55.3331525151
 20
91.66508048409999
 30
0.0
 10
55.382586482
 20
91.68390973940001
 30
0.0
 10
55.42611173810001
 20
91.70445141530001
 30
0.0
 10
55.4635833496
 20
91.72668799469999
 30
0.0
 10
55.4949156768
 20
91.7505896811
 30
0.0
 10
55.52000056539999
 20
91.7760499287
 30
0.0
 10
55.5384507584
 20
91.8031130858
 30
0.0
 10
55.54956154390001
 20
91.83178053610001
 30
0.0
 10
55.55256169779999
 20
91.86174790749999
 30
0.0
 10
55.54698125289999
 20
91.8922284079
 30
0.0
 10
55.53592245459999
 20
91.9168886279
 30
0.0
 10
55.52360259949999
 20
91.9363034144
 30
0.0
 10
55.5080343892
 20
91.9566100757
 30
0.0
 10
55.48366913239999
 20
91.98143228419999
 30
0.0
 10
55.4482876628
 20
92.00923380010001
 30
0.0
 10
55.40654125919999
 20
92.0356267632
 30
0.0
 10
55.3589925439
 20
92.0603364029
 30
0.0
 10
55.3062461919
 20
92.08305797100001
 30
0.0
 10
55.2490492414
 20
92.10344811639998
 30
0.0
 10
55.1672619561
 20
92.12749884819999
 30
0.0
 10
55.0606811635
 20
92.15005015
 30
0.0
 10
54.93094539760001
 20
92.165624991
 30
0.0
 10
54.8440942089
 20
92.1690692667
 30
0.0
 10
54.8011358199
 20
92.16910273579999
 30
0.0
  0
LINE
  5
165B
330
221
100
AcDbEntity
  8
0
  6
Continuous
 62
     9
100
AcDbLine
 10
54.8011358199
 20
92.16910273579999
 30
0.0
 11
54.8011220697
 21
92.04881348609999
 31
0.0
  0
SPLINE
  5
165C
330
221
100
AcDbEntity
  8
0
  6
Continuous
 62
     9
100
AcDbSpline
210
0.0
220
0.0
230
1.0
 70
     8
 71
     3
 72
    31
 73
    27
 74
     0
 42
0.0000001
 43
0.0000000001
 40
0.0
 40
0.0
 40
0.0
 40
0.0
 40
0.0305605257
 40
0.0606679139
 40
0.0902790727
 40
0.1193760755
 40
0.1480235559
 40
0.1763963518
 40
0.2047712433
 40
0.2333953657999999
 40
0.2624400578
 40
0.2919794632
 40
0.3220166334
 40
0.3524977452
 40
0.3833583328
 40
0.414551873
 40
0.4460198264
 40
0.4777201060000001
 40
0.5416560162
 40
0.6061522527000001
 40
0.6710666734000001
 40
0.7363101188
 40
0.8018387006000001
 40
0.8676361423000001
 40
0.9336976634
 40
1.0
 40
1.0
 40
1.0
 40
1.0
 10
71.6410141929
 20
79.4872668023
 30
0.0
 10
71.63346471109999
 20
79.71402918619999
 30
0.0
 10
71.60499260209999
 20
80.1639132294
 30
0.0
 10
71.515170212
 20
80.8287614724
 30
0.0
 10
71.3727488058
 20
81.473493634
 30
0.0
 10
71.1720666521
 20
82.0914177018
 30
0.0
 10
70.90882785859999
 20
82.67561441679999
 30
0.0
 10
70.58057432449999
 20
83.21985272659999
 30
0.0
 10
70.18843083029999
 20
83.719777206
 30
0.0
 10
69.7366427792
 20
84.17335611529999
 30
0.0
 10
69.23181046979999
 20
84.5805531333
 30
0.0
 10
68.6817114375
 20
84.943087769
 30
0.0
 10
68.09433242359999
 20
85.26385757760001
 30
0.0
 10
67.476991036
 20
85.5463261044
 30
0.0
 10
66.83586167209999
 20
85.7941428704
 30
0.0
 10
66.17591436169999
 20
86.01075732940001
 30
0.0
 10
65.5011825403
 20
86.19995909200001
 30
0.0
 10
64.5833851295
 20
86.42010261729998
 30
0.0
 10
63.41446582069999
 20
86.6408199416
 30
0.0
 10
61.9923501239
 20
86.8387579668
 30
0.0
 10
60.55442383569999
 20
86.9855626646
 30
0.0
 10
59.1055209792
 20
87.09383717260001
 30
0.0
 10
57.6483040718
 20
87.17427188309999
 30
0.0
 10
56.18412669489999
 20
87.2359764057
 30
0.0
 10
54.71358560149999
 20
87.28119401529999
 30
0.0
 10
53.730865094
 20
87.29310933489999
 30
0.0
 10
53.2386220609
 20
87.29310933649999
 30
0.0
  0
SPLINE
  5
165D
330
221
100
AcDbEntity
  8
0
  6
Continuous
 62
     9
100
AcDbSpline
210
0.0
220
0.0
230
1.0
 70
     8
 71
     3
 72
    33
 73
    29
 74
     0
 42
0.0000001
 43
0.0000000001
 40
0.0
 40
0.0
 40
0.0
 40
0.0
 40
0.0312642948
 40
0.0625279998
 40
0.0937918991
 40
0.1250557122
 40
0.1875091549
 40
0.2499627327
 40
0.2812265714
 40
0.3124904178
 40
0.3437542738
 40
0.3750181407
 40
0.4062820224000001
 40
0.4375459131000001
 40
0.5000001505000001
 40
0.5624543892000001
 40
0.5937182868000001
 40
0.62498217
 40
0.6562460441
 40
0.6875099033
 40
0.7187737557
 40
0.7500375988
 40
0.8124911823000001
 40
0.8749446273
 40
0.9062084446
 40
0.9374723130999999
 40
0.9687358468999999
 40
1.0
 40
1.0
 40
1.0
 40
1.0
 10
51.26413776159999
 20
84.3138016067
 30
0.0
 10
51.2650467112
 20
84.2498330095
 30
0.0
 10
51.2730980379
 20
84.12189736589999
 30
0.0
 10
51.30376602470001
 20
83.93215104760001
 30
0.0
 10
51.3527561611
 20
83.7462548717
 30
0.0
 10
51.4417873008
 20
83.50614772490001
 30
0.0
 10
51.5963633602
 20
83.2239840115
 30
0.0
 10
51.8027240349
 20
82.97715972250001
 30
0.0
 10
51.99379232710001
 20
82.80665775299999
 30
0.0
 10
52.1489716155
 20
82.69319003079999
 30
0.0
 10
52.3144257056
 20
82.59534070329999
 30
0.0
 10
52.4885944481
 20
82.51400980979999
 30
0.0
 10
52.6698475893
 20
82.44995888549999
 30
0.0
 10
52.9184277138
 20
82.38842809399999
 30
0.0
 10
53.23862299279999
 20
82.35721015919999
 30
0.0
 10
53.5588182593
 20
82.38842839430001
 30
0.0
 10
53.80739833899999
 20
82.4499594447
 30
0.0
 10
53.9886514598
 20
82.51401052369999
 30
0.0
 10
54.1628201345
 20
82.5953416247
 30
0.0
 10
54.32827414689999
 20
82.6931911447
 30
0.0
 10
54.4834533703
 20
82.8066590048
 30
0.0
 10
54.6745214813
 20
82.97716122789999
 30
0.0
 10
54.8808819467
 20
83.2239857239
 30
0.0
 10
55.035457682
 20
83.5061496466
 30
0.0
 10
55.12448857649999
 20
83.74625682660001
 30
0.0
 10
55.1734784621
 20
83.93215265470001
 30
0.0
 10
55.2041460991
 20
84.1218983047
 30
0.0
 10
55.2121974962
 20
84.24983330569999
 30
0.0
 10
55.2131063338
 20
84.31380161449999
 30
0.0
  0
ENDSEC
  0
SECTION
  2
OBJECTS
  0
DICTIONARY
  5
C
330
0
100
AcDbDictionary
281
     1
  3
ACAD_CIP_PREVIOUS_PRODUCT_INFO
350
1704
  3
ACAD_COLOR
350
1698
  3
ACAD_DETAILVIEWSTYLE
350
16B1
  3
ACAD_GROUP
350
D
  3
ACAD_IMAGE_DICT
350
165F
  3
ACAD_IMAGE_VARS
350
1660
  3
ACAD_LAYOUT
350
1A
  3
ACAD_MATERIAL
350
1666
  3
ACAD_MLEADERSTYLE
350
16AD
  3
ACAD_MLINESTYLE
350
17
  3
ACAD_PLOTSETTINGS
350
19
  3
ACAD_PLOTSTYLENAME
350
E
  3
ACAD_SCALELIST
350
169B
  3
ACAD_SECTIONVIEWSTYLE
350
16AF
  3
ACAD_TABLESTYLE
350
1699
  3
ACAD_VISUALSTYLE
350
167F
  3
ACDB_RECOMPOSE_DATA
350
1814
  3
AcDbVariableDictionary
350
16F6
  3
DWGPROPS
350
1815
  0
DICTIONARY
  5
16B7
330
8
100
AcDbDictionary
280
     1
281
     1
  0
DICTIONARY
  5
1707
330
10
100
AcDbDictionary
280
     1
281
     1
  3
ADSK_XREC_LAYER_RECONCILED
360
1708
  0
DICTIONARY
  5
1709
330
1FA
100
AcDbDictionary
280
     1
281
     1
  3
ADSK_XREC_LAYER_RECONCILED
360
170A
  0
DICTIONARY
  5
170B
330
1FB
100
AcDbDictionary
280
     1
281
     1
  3
ADSK_XREC_LAYER_RECONCILED
360
170C
  0
DICTIONARY
  5
170D
330
1FC
100
AcDbDictionary
280
     1
281
     1
  3
ADSK_XREC_LAYER_RECONCILED
360
170E
  0
DICTIONARY
  5
170F
330
1FD
100
AcDbDictionary
280
     1
281
     1
  3
ADSK_XREC_LAYER_RECONCILED
360
1710
  0
DICTIONARY
  5
1711
330
1FE
100
AcDbDictionary
280
     1
281
     1
  3
ADSK_XREC_LAYER_RECONCILED
360
1712
  0
DICTIONARY
  5
1713
330
1FF
100
AcDbDictionary
280
     1
281
     1
  3
ADSK_XREC_LAYER_RECONCILED
360
1714
  0
DICTIONARY
  5
1715
330
200
100
AcDbDictionary
280
     1
281
     1
  3
ADSK_XREC_LAYER_RECONCILED
360
1716
  0
DICTIONARY
  5
1717
330
201
100
AcDbDictionary
280
     1
281
     1
  3
ADSK_XREC_LAYER_RECONCILED
360
1718
  0
DICTIONARY
  5
1719
330
202
100
AcDbDictionary
280
     1
281
     1
  3
ADSK_XREC_LAYER_RECONCILED
360
171A
  0
DICTIONARY
  5
171B
330
203
100
AcDbDictionary
280
     1
281
     1
  3
ADSK_XREC_LAYER_RECONCILED
360
171C
  0
DICTIONARY
  5
171D
330
204
100
AcDbDictionary
280
     1
281
     1
  3
ADSK_XREC_LAYER_RECONCILED
360
171E
  0
DICTIONARY
  5
171F
330
205
100
AcDbDictionary
280
     1
281
     1
  3
ADSK_XREC_LAYER_RECONCILED
360
1720
  0
DICTIONARY
  5
1721
330
206
100
AcDbDictionary
280
     1
281
     1
  3
ADSK_XREC_LAYER_RECONCILED
360
1722
  0
DICTIONARY
  5
1723
330
207
100
AcDbDictionary
280
     1
281
     1
  3
ADSK_XREC_LAYER_RECONCILED
360
1724
  0
DICTIONARY
  5
1725
330
208
100
AcDbDictionary
280
     1
281
     1
  3
ADSK_XREC_LAYER_RECONCILED
360
1726
  0
DICTIONARY
  5
1727
330
209
100
AcDbDictionary
280
     1
281
     1
  3
ADSK_XREC_LAYER_RECONCILED
360
1728
  0
DICTIONARY
  5
1729
330
20A
100
AcDbDictionary
280
     1
281
     1
  3
ADSK_XREC_LAYER_RECONCILED
360
172A
  0
DICTIONARY
  5
172B
330
20B
100
AcDbDictionary
280
     1
281
     1
  3
ADSK_XREC_LAYER_RECONCILED
360
172C
  0
DICTIONARY
  5
172D
330
20C
100
AcDbDictionary
280
     1
281
     1
  3
ADSK_XREC_LAYER_RECONCILED
360
172E
  0
DICTIONARY
  5
172F
330
20D
100
AcDbDictionary
280
     1
281
     1
  3
ADSK_XREC_LAYER_RECONCILED
360
1730
  0
DICTIONARY
  5
1731
330
20E
100
AcDbDictionary
280
     1
281
     1
  3
ADSK_XREC_LAYER_RECONCILED
360
1732
  0
DICTIONARY
  5
1733
330
20F
100
AcDbDictionary
280
     1
281
     1
  3
ADSK_XREC_LAYER_RECONCILED
360
1734
  0
DICTIONARY
  5
1735
330
210
100
AcDbDictionary
280
     1
281
     1
  3
ADSK_XREC_LAYER_RECONCILED
360
1736
  0
DICTIONARY
  5
1737
330
211
100
AcDbDictionary
280
     1
281
     1
  3
ADSK_XREC_LAYER_RECONCILED
360
1738
  0
DICTIONARY
  5
1739
330
212
100
AcDbDictionary
280
     1
281
     1
  3
ADSK_XREC_LAYER_RECONCILED
360
173A
  0
DICTIONARY
  5
173B
330
213
100
AcDbDictionary
280
     1
281
     1
  3
ADSK_XREC_LAYER_RECONCILED
360
173C
  0
DICTIONARY
  5
173D
330
214
100
AcDbDictionary
280
     1
281
     1
  3
ADSK_XREC_LAYER_RECONCILED
360
173E
  0
DICTIONARY
  5
173F
330
215
100
AcDbDictionary
280
     1
281
     1
  3
ADSK_XREC_LAYER_RECONCILED
360
1740
  0
DICTIONARY
  5
1741
330
216
100
AcDbDictionary
280
     1
281
     1
  3
ADSK_XREC_LAYER_RECONCILED
360
1742
  0
DICTIONARY
  5
1743
330
217
100
AcDbDictionary
280
     1
281
     1
  3
ADSK_XREC_LAYER_RECONCILED
360
1744
  0
DICTIONARY
  5
1745
330
218
100
AcDbDictionary
280
     1
281
     1
  3
ADSK_XREC_LAYER_RECONCILED
360
1746
  0
DICTIONARY
  5
1747
330
219
100
AcDbDictionary
280
     1
281
     1
  3
ADSK_XREC_LAYER_RECONCILED
360
1748
  0
XRECORD
  5
1704
102
{ACAD_REACTORS
330
C
102
}
330
C
100
AcDbXrecord
280
     1
300
ACDLT
300
2018
300
ACDLT_F_S
  0
DICTIONARY
  5
1698
102
{ACAD_REACTORS
330
C
102
}
330
C
100
AcDbDictionary
281
     1
  0
DICTIONARY
  5
16B1
102
{ACAD_REACTORS
330
C
102
}
330
C
100
AcDbDictionary
281
     1
  3
Imperial24
350
16B2
  0
DICTIONARY
  5
D
102
{ACAD_REACTORS
330
C
102
}
330
C
100
AcDbDictionary
281
     1
  0
DICTIONARY
  5
165F
330
C
100
AcDbDictionary
281
     1
  3
VIBE-6033-D-SPECS-INTERNES_img_1
350
1663
  0
RASTERVARIABLES
  5
1660
330
C
100
AcDbRasterVariables
 90
        0
 70
     0
 71
     1
 72
     5
  0
DICTIONARY
  5
1A
102
{ACAD_REACTORS
330
C
102
}
330
C
100
AcDbDictionary
281
     1
  3
Layout1
350
1662
  3
Model
350
1661
  0
DICTIONARY
  5
1666
102
{ACAD_REACTORS
330
C
102
}
330
C
100
AcDbDictionary
281
     1
  3
ByBlock
350
166F
  3
ByLayer
350
1667
  3
Global
350
1677
  0
DICTIONARY
  5
16AD
102
{ACAD_REACTORS
330
C
102
}
330
C
100
AcDbDictionary
281
     1
  3
Standard
350
16AE
  0
DICTIONARY
  5
17
102
{ACAD_REACTORS
330
C
102
}
330
C
100
AcDbDictionary
281
     1
  3
Standard
350
18
  0
DICTIONARY
  5
19
102
{ACAD_REACTORS
330
C
102
}
330
C
100
AcDbDictionary
281
     1
  0
ACDBDICTIONARYWDFLT
  5
E
102
{ACAD_REACTORS
330
C
102
}
330
C
100
AcDbDictionary
281
     1
  3
Normal
350
F
100
AcDbDictionaryWithDefault
340
F
  0
DICTIONARY
  5
169B
102
{ACAD_REACTORS
330
C
102
}
330
C
100
AcDbDictionary
281
     1
  3
A0
350
169C
  3
A1
350
169D
  3
A2
350
169E
  3
A3
350
169F
  3
A4
350
16A0
  3
A5
350
16A1
  3
A6
350
16A2
  3
A7
350
16A3
  3
A8
350
16A4
  3
A9
350
16A5
  3
B0
350
16A6
  3
B1
350
16A7
  3
B2
350
16A8
  3
B3
350
16A9
  3
B4
350
16AA
  3
B5
350
16AB
  3
B6
350
16AC
  0
DICTIONARY
  5
16AF
102
{ACAD_REACTORS
330
C
102
}
330
C
100
AcDbDictionary
281
     1
  3
Imperial24
350
16B0
  0
DICTIONARY
  5
1699
102
{ACAD_REACTORS
330
C
102
}
330
C
100
AcDbDictionary
281
     1
  3
Standard
350
169A
  0
DICTIONARY
  5
167F
102
{ACAD_REACTORS
330
C
102
}
330
C
100
AcDbDictionary
281
     1
  3
2dWireframe
350
1685
  3
Basic
350
1684
  3
Brighten
350
168B
  3
ColorChange
350
168F
  3
Conceptual
350
1688
  3
Dim
350
168A
  3
EdgeColorOff
350
1697
  3
Facepattern
350
168E
  3
Flat
350
1680
  3
FlatWithEdges
350
1681
  3
Gouraud
350
1682
  3
GouraudWithEdges
350
1683
  3
Hidden
350
1687
  3
JitterOff
350
1695
  3
Linepattern
350
168D
  3
OverhangOff
350
1696
  3
Realistic
350
1689
  3
Shaded
350
1694
  3
Shaded with edges
350
1693
  3
Shades of Gray
350
1690
  3
Sketchy
350
1691
  3
Thicken
350
168C
  3
Wireframe
350
1686
  3
X-Ray
350
1692
  0
XRECORD
  5
1814
102
{ACAD_REACTORS
330
C
102
}
330
C
100
AcDbXrecord
280
     1
 90
        1
330
169A
  0
DICTIONARY
  5
16F6
102
{ACAD_REACTORS
330
C
102
}
330
C
100
AcDbDictionary
281
     1
  3
CANNOSCALE
350
16FB
  3
CMLEADERSTYLE
350
16F8
  3
CTABLESTYLE
350
16F7
  3
CVIEWDETAILSTYLE
350
16F9
  3
CVIEWSECTIONSTYLE
350
16FA
  3
DIMASSOC
350
16FE
  3
INDEXCTL
350
16FD
  3
SORTENTS
350
16FC
  3
XCLIPFRAME
350
1812
  0
XRECORD
  5
1815
102
{ACAD_REACTORS
330
C
102
}
330
C
100
AcDbXrecord
280
     1
  1
DWGPROPS COOKIE
  2

  3

  4

  6

  7

  8
guillaumes
  9

300
=
301
=
302
=
303
=
304
=
305
=
306
=
307
=
308
=
309
=
 40
0.0013888888888889
 41
2458459.541111111
 42
2458465.481539352
  1

 90
        0
  0
XRECORD
  5
1708
102
{ACAD_REACTORS
330
1707
102
}
330
1707
100
AcDbXrecord
280
     1
290
     1
  0
XRECORD
  5
170A
102
{ACAD_REACTORS
330
1709
102
}
330
1709
100
AcDbXrecord
280
     1
290
     1
  0
XRECORD
  5
170C
102
{ACAD_REACTORS
330
170B
102
}
330
170B
100
AcDbXrecord
280
     1
290
     1
  0
XRECORD
  5
170E
102
{ACAD_REACTORS
330
170D
102
}
330
170D
100
AcDbXrecord
280
     1
290
     1
  0
XRECORD
  5
1710
102
{ACAD_REACTORS
330
170F
102
}
330
170F
100
AcDbXrecord
280
     1
290
     1
  0
XRECORD
  5
1712
102
{ACAD_REACTORS
330
1711
102
}
330
1711
100
AcDbXrecord
280
     1
290
     1
  0
XRECORD
  5
1714
102
{ACAD_REACTORS
330
1713
102
}
330
1713
100
AcDbXrecord
280
     1
290
     1
  0
XRECORD
  5
1716
102
{ACAD_REACTORS
330
1715
102
}
330
1715
100
AcDbXrecord
280
     1
290
     1
  0
XRECORD
  5
1718
102
{ACAD_REACTORS
330
1717
102
}
330
1717
100
AcDbXrecord
280
     1
290
     1
  0
XRECORD
  5
171A
102
{ACAD_REACTORS
330
1719
102
}
330
1719
100
AcDbXrecord
280
     1
290
     1
  0
XRECORD
  5
171C
102
{ACAD_REACTORS
330
171B
102
}
330
171B
100
AcDbXrecord
280
     1
290
     1
  0
XRECORD
  5
171E
102
{ACAD_REACTORS
330
171D
102
}
330
171D
100
AcDbXrecord
280
     1
290
     1
  0
XRECORD
  5
1720
102
{ACAD_REACTORS
330
171F
102
}
330
171F
100
AcDbXrecord
280
     1
290
     1
  0
XRECORD
  5
1722
102
{ACAD_REACTORS
330
1721
102
}
330
1721
100
AcDbXrecord
280
     1
290
     1
  0
XRECORD
  5
1724
102
{ACAD_REACTORS
330
1723
102
}
330
1723
100
AcDbXrecord
280
     1
290
     1
  0
XRECORD
  5
1726
102
{ACAD_REACTORS
330
1725
102
}
330
1725
100
AcDbXrecord
280
     1
290
     1
  0
XRECORD
  5
1728
102
{ACAD_REACTORS
330
1727
102
}
330
1727
100
AcDbXrecord
280
     1
290
     1
  0
XRECORD
  5
172A
102
{ACAD_REACTORS
330
1729
102
}
330
1729
100
AcDbXrecord
280
     1
290
     1
  0
XRECORD
  5
172C
102
{ACAD_REACTORS
330
172B
102
}
330
172B
100
AcDbXrecord
280
     1
290
     1
  0
XRECORD
  5
172E
102
{ACAD_REACTORS
330
172D
102
}
330
172D
100
AcDbXrecord
280
     1
290
     1
  0
XRECORD
  5
1730
102
{ACAD_REACTORS
330
172F
102
}
330
172F
100
AcDbXrecord
280
     1
290
     1
  0
XRECORD
  5
1732
102
{ACAD_REACTORS
330
1731
102
}
330
1731
100
AcDbXrecord
280
     1
290
     1
  0
XRECORD
  5
1734
102
{ACAD_REACTORS
330
1733
102
}
330
1733
100
AcDbXrecord
280
     1
290
     1
  0
XRECORD
  5
1736
102
{ACAD_REACTORS
330
1735
102
}
330
1735
100
AcDbXrecord
280
     1
290
     1
  0
XRECORD
  5
1738
102
{ACAD_REACTORS
330
1737
102
}
330
1737
100
AcDbXrecord
280
     1
290
     1
  0
XRECORD
  5
173A
102
{ACAD_REACTORS
330
1739
102
}
330
1739
100
AcDbXrecord
280
     1
290
     1
  0
XRECORD
  5
173C
102
{ACAD_REACTORS
330
173B
102
}
330
173B
100
AcDbXrecord
280
     1
290
     1
  0
XRECORD
  5
173E
102
{ACAD_REACTORS
330
173D
102
}
330
173D
100
AcDbXrecord
280
     1
290
     1
  0
XRECORD
  5
1740
102
{ACAD_REACTORS
330
173F
102
}
330
173F
100
AcDbXrecord
280
     1
290
     1
  0
XRECORD
  5
1742
102
{ACAD_REACTORS
330
1741
102
}
330
1741
100
AcDbXrecord
280
     1
290
     1
  0
XRECORD
  5
1744
102
{ACAD_REACTORS
330
1743
102
}
330
1743
100
AcDbXrecord
280
     1
290
     1
  0
XRECORD
  5
1746
102
{ACAD_REACTORS
330
1745
102
}
330
1745
100
AcDbXrecord
280
     1
290
     1
  0
XRECORD
  5
1748
102
{ACAD_REACTORS
330
1747
102
}
330
1747
100
AcDbXrecord
280
     1
290
     1
  0
ACDBDETAILVIEWSTYLE
  5
16B2
102
{ACAD_XDICTIONARY
360
1850
102
}
102
{ACAD_REACTORS
330
16B1
102
}
330
16B1
100
AcDbModelDocViewStyle
 70
     0
  3
Imperial24
290
     0
100
AcDbDetailViewStyle
 70
     0
 71
     0
 90
        3
 71
     1
340
11
 40
0.24
340
0
 40
0.24
300

 40
0.36
280
     3
 71
     2
340
16
 90
       25
 71
     3
340
11
 40
0.24
 90
        1
 40
0.75
 90
        1
300
%<\AcVar ViewType \f "%tc1">% %<\AcVar ViewDetailId>%\PSCALE %<\AcVar ViewScale \f "%sn">%
 71
     4
340
16
 90
       25
340
16
 90
       25
280
     0
  0
IMAGEDEF
  5
1663
102
{ACAD_REACTORS
330
165F
102
}
330
165F
100
AcDbRasterImageDef
 90
        0
  1
VIBE-6033-D-SPECS-INTERNES_img_1.png
 10
6902.0
 20
5784.0
 11
0.0066666667
 21
0.0066666667
280
     1
281
     0
  0
LAYOUT
  5
1662
102
{ACAD_XDICTIONARY
360
1818
102
}
102
{ACAD_REACTORS
330
1A
102
}
330
1A
100
AcDbPlotSettings
  1

  2
none_device
  4
ANSI_B_(17.00_x_11.00_Inches)
  6

 40
0.0
 41
0.0
 42
0.0
 43
0.0
 44
431.8
 45
279.4
 46
0.0
 47
0.0
 48
0.0
 49
0.0
140
0.0
141
0.0
142
1.0
143
1.0
 70
     0
 72
     0
 73
     0
 74
     0
  7

 75
     0
147
1.0
148
0.0
149
0.0
100
AcDbLayout
  1
Layout1
 70
     1
 71
     1
 10
0.0
 20
0.0
 11
12.0
 21
9.0
 12
0.0
 22
0.0
 32
0.0
 14
1.000000000000000E+20
 24
1.000000000000000E+20
 34
1.000000000000000E+20
 15
-1.000000000000000E+20
 25
-1.000000000000000E+20
 35
-1.000000000000000E+20
146
0.0
 13
0.0
 23
0.0
 33
0.0
 16
1.0
 26
0.0
 36
0.0
 17
0.0
 27
1.0
 37
0.0
 76
     0
330
222
  0
LAYOUT
  5
1661
102
{ACAD_XDICTIONARY
360
1816
102
}
102
{ACAD_REACTORS
330
1A
102
}
330
1A
100
AcDbPlotSettings
  1

  2
none_device
  4
ANSI_B_(17.00_x_11.00_Inches)
  6

 40
0.0
 41
0.0
 42
0.0
 43
0.0
 44
431.8
 45
279.4
 46
0.0
 47
0.0
 48
0.0
 49
0.0
140
0.0
141
0.0
142
1.0
143
1.0
 70
  1024
 72
     0
 73
     0
 74
     0
  7

 75
     0
147
1.0
148
0.0
149
0.0
100
AcDbLayout
  1
Model
 70
     0
 71
     0
 10
0.0
 20
0.0
 11
17.0
 21
11.0
 12
0.0
 22
0.0
 32
0.0
 14
0.0
 24
0.0
 34
0.0
 15
0.0
 25
0.0
 35
0.0
146
0.0
 13
0.0
 23
0.0
 33
0.0
 16
1.0
 26
0.0
 36
0.0
 17
0.0
 27
1.0
 37
0.0
 76
     0
330
221
331
1F4
  0
MATERIAL
  5
166F
102
{ACAD_XDICTIONARY
360
1670
102
}
102
{ACAD_REACTORS
330
1666
102
}
330
1666
100
AcDbMaterial
  1
ByBlock
 72
     0
 43
0.0208333333333333
 43
0.0
 43
0.0
 43
0.0
 43
0.0
 43
0.0208333333333333
 43
0.0
 43
0.0
 43
0.0
 43
0.0
 43
1.0
 43
0.0
 43
0.0
 43
0.0
 43
0.0
 43
1.0
 77
     0
 47
0.0208333333333333
 47
0.0
 47
0.0
 47
0.0
 47
0.0
 47
0.0208333333333333
 47
0.0
 47
0.0
 47
0.0
 47
0.0
 47
1.0
 47
0.0
 47
0.0
 47
0.0
 47
0.0
 47
1.0
171
     0
 49
0.0208333333333333
 49
0.0
 49
0.0
 49
0.0
 49
0.0
 49
0.0208333333333333
 49
0.0
 49
0.0
 49
0.0
 49
0.0
 49
1.0
 49
0.0
 49
0.0
 49
0.0
 49
0.0
 49
1.0
175
     0
142
0.0208333333333333
142
0.0
142
0.0
142
0.0
142
0.0
142
0.0208333333333333
142
0.0
142
0.0
142
0.0
142
0.0
142
1.0
142
0.0
142
0.0
142
0.0
142
0.0
142
1.0
179
     0
144
0.0208333333333333
144
0.0
144
0.0
144
0.0
144
0.0
144
0.0208333333333333
144
0.0
144
0.0
144
0.0
144
0.0
144
1.0
144
0.0
144
0.0
144
0.0
144
0.0
144
1.0
147
0.0208333333333333
147
0.0
147
0.0
147
0.0
147
0.0
147
0.0208333333333333
147
0.0
147
0.0
147
0.0
147
0.0
147
1.0
147
0.0
147
0.0
147
0.0
147
0.0
147
1.0
  0
MATERIAL
  5
1667
102
{ACAD_XDICTIONARY
360
1668
102
}
102
{ACAD_REACTORS
330
1666
102
}
330
1666
100
AcDbMaterial
  1
ByLayer
 72
     0
 43
0.0208333333333333
 43
0.0
 43
0.0
 43
0.0
 43
0.0
 43
0.0208333333333333
 43
0.0
 43
0.0
 43
0.0
 43
0.0
 43
1.0
 43
0.0
 43
0.0
 43
0.0
 43
0.0
 43
1.0
 77
     0
 47
0.0208333333333333
 47
0.0
 47
0.0
 47
0.0
 47
0.0
 47
0.0208333333333333
 47
0.0
 47
0.0
 47
0.0
 47
0.0
 47
1.0
 47
0.0
 47
0.0
 47
0.0
 47
0.0
 47
1.0
171
     0
 49
0.0208333333333333
 49
0.0
 49
0.0
 49
0.0
 49
0.0
 49
0.0208333333333333
 49
0.0
 49
0.0
 49
0.0
 49
0.0
 49
1.0
 49
0.0
 49
0.0
 49
0.0
 49
0.0
 49
1.0
175
     0
142
0.0208333333333333
142
0.0
142
0.0
142
0.0
142
0.0
142
0.0208333333333333
142
0.0
142
0.0
142
0.0
142
0.0
142
1.0
142
0.0
142
0.0
142
0.0
142
0.0
142
1.0
179
     0
144
0.0208333333333333
144
0.0
144
0.0
144
0.0
144
0.0
144
0.0208333333333333
144
0.0
144
0.0
144
0.0
144
0.0
144
1.0
144
0.0
144
0.0
144
0.0
144
0.0
144
1.0
147
0.0208333333333333
147
0.0
147
0.0
147
0.0
147
0.0
147
0.0208333333333333
147
0.0
147
0.0
147
0.0
147
0.0
147
1.0
147
0.0
147
0.0
147
0.0
147
0.0
147
1.0
  0
MATERIAL
  5
1677
102
{ACAD_XDICTIONARY
360
1678
102
}
102
{ACAD_REACTORS
330
1666
102
}
330
1666
100
AcDbMaterial
  1
Global
 72
     0
 43
0.0208333333333333
 43
0.0
 43
0.0
 43
0.0
 43
0.0
 43
0.0208333333333333
 43
0.0
 43
0.0
 43
0.0
 43
0.0
 43
1.0
 43
0.0
 43
0.0
 43
0.0
 43
0.0
 43
1.0
 77
     0
 47
0.0208333333333333
 47
0.0
 47
0.0
 47
0.0
 47
0.0
 47
0.0208333333333333
 47
0.0
 47
0.0
 47
0.0
 47
0.0
 47
1.0
 47
0.0
 47
0.0
 47
0.0
 47
0.0
 47
1.0
171
     0
 49
0.0208333333333333
 49
0.0
 49
0.0
 49
0.0
 49
0.0
 49
0.0208333333333333
 49
0.0
 49
0.0
 49
0.0
 49
0.0
 49
1.0
 49
0.0
 49
0.0
 49
0.0
 49
0.0
 49
1.0
175
     0
142
0.0208333333333333
142
0.0
142
0.0
142
0.0
142
0.0
142
0.0208333333333333
142
0.0
142
0.0
142
0.0
142
0.0
142
1.0
142
0.0
142
0.0
142
0.0
142
0.0
142
1.0
179
     0
144
0.0208333333333333
144
0.0
144
0.0
144
0.0
144
0.0
144
0.0208333333333333
144
0.0
144
0.0
144
0.0
144
0.0
144
1.0
144
0.0
144
0.0
144
0.0
144
0.0
144
1.0
147
0.0208333333333333
147
0.0
147
0.0
147
0.0
147
0.0
147
0.0208333333333333
147
0.0
147
0.0
147
0.0
147
0.0
147
1.0
147
0.0
147
0.0
147
0.0
147
0.0
147
1.0
  0
MLEADERSTYLE
  5
16AE
102
{ACAD_REACTORS
330
16AD
102
}
330
16AD
100
AcDbMLeaderStyle
170
     2
171
     1
172
     0
 90
        2
 40
0.0
 41
0.0
173
     1
 91
-1056964608
340
14
 92
       -2
290
     1
 42
0.09
291
     1
 43
0.36
  3
Standard
 44
0.18
300

342
11
174
     1
178
     6
175
     1
176
     0
 93
-1056964608
 45
0.18
292
     0
297
     0
 46
0.18
 94
-1056964608
 47
1.0
 49
1.0
140
1.0
293
     1
141
0.0
294
     1
177
     0
142
1.0
295
     0
296
     0
143
0.125
1001
ACAD_MLEADERVER
1070
     2
  0
MLINESTYLE
  5
18
102
{ACAD_REACTORS
330
17
102
}
330
17
100
AcDbMlineStyle
  2
STANDARD
 70
     0
  3

 62
   256
 51
90.0
 52
90.0
 71
     2
 49
0.5
 62
   256
  6
BYLAYER
 49
-0.5
 62
   256
  6
BYLAYER
  0
ACDBPLACEHOLDER
  5
F
102
{ACAD_REACTORS
330
E
102
}
330
E
  0
SCALE
  5
169C
102
{ACAD_REACTORS
330
169B
102
}
330
169B
100
AcDbScale
 70
     0
300
1:1
140
1.0
141
1.0
290
     1
  0
SCALE
  5
169D
102
{ACAD_REACTORS
330
169B
102
}
330
169B
100
AcDbScale
 70
     0
300
1/128" = 1'-0"
140
0.0078125
141
12.0
290
     0
  0
SCALE
  5
169E
102
{ACAD_REACTORS
330
169B
102
}
330
169B
100
AcDbScale
 70
     0
300
1/64" = 1'-0"
140
0.015625
141
12.0
290
     0
  0
SCALE
  5
169F
102
{ACAD_REACTORS
330
169B
102
}
330
169B
100
AcDbScale
 70
     0
300
1/32" = 1'-0"
140
0.03125
141
12.0
290
     0
  0
SCALE
  5
16A0
102
{ACAD_REACTORS
330
169B
102
}
330
169B
100
AcDbScale
 70
     0
300
1/16" = 1'-0"
140
0.0625
141
12.0
290
     0
  0
SCALE
  5
16A1
102
{ACAD_REACTORS
330
169B
102
}
330
169B
100
AcDbScale
 70
     0
300
3/32" = 1'-0"
140
0.09375
141
12.0
290
     0
  0
SCALE
  5
16A2
102
{ACAD_REACTORS
330
169B
102
}
330
169B
100
AcDbScale
 70
     0
300
1/8" = 1'-0"
140
0.125
141
12.0
290
     0
  0
SCALE
  5
16A3
102
{ACAD_REACTORS
330
169B
102
}
330
169B
100
AcDbScale
 70
     0
300
3/16" = 1'-0"
140
0.1875
141
12.0
290
     0
  0
SCALE
  5
16A4
102
{ACAD_REACTORS
330
169B
102
}
330
169B
100
AcDbScale
 70
     0
300
1/4" = 1'-0"
140
0.25
141
12.0
290
     0
  0
SCALE
  5
16A5
102
{ACAD_REACTORS
330
169B
102
}
330
169B
100
AcDbScale
 70
     0
300
3/8" = 1'-0"
140
0.375
141
12.0
290
     0
  0
SCALE
  5
16A6
102
{ACAD_REACTORS
330
169B
102
}
330
169B
100
AcDbScale
 70
     0
300
1/2" = 1'-0"
140
0.5
141
12.0
290
     0
  0
SCALE
  5
16A7
102
{ACAD_REACTORS
330
169B
102
}
330
169B
100
AcDbScale
 70
     0
300
3/4" = 1'-0"
140
0.75
141
12.0
290
     0
  0
SCALE
  5
16A8
102
{ACAD_REACTORS
330
169B
102
}
330
169B
100
AcDbScale
 70
     0
300
1" = 1'-0"
140
1.0
141
12.0
290
     0
  0
SCALE
  5
16A9
102
{ACAD_REACTORS
330
169B
102
}
330
169B
100
AcDbScale
 70
     0
300
1-1/2" = 1'-0"
140
1.5
141
12.0
290
     0
  0
SCALE
  5
16AA
102
{ACAD_REACTORS
330
169B
102
}
330
169B
100
AcDbScale
 70
     0
300
3" = 1'-0"
140
3.0
141
12.0
290
     0
  0
SCALE
  5
16AB
102
{ACAD_REACTORS
330
169B
102
}
330
169B
100
AcDbScale
 70
     0
300
6" = 1'-0"
140
6.0
141
12.0
290
     0
  0
SCALE
  5
16AC
102
{ACAD_REACTORS
330
169B
102
}
330
169B
100
AcDbScale
 70
     0
300
1'-0" = 1'-0"
140
12.0
141
12.0
290
     0
  0
ACDBSECTIONVIEWSTYLE
  5
16B0
102
{ACAD_XDICTIONARY
360
184E
102
}
102
{ACAD_REACTORS
330
16AF
102
}
330
16AF
100
AcDbModelDocViewStyle
 70
     0
  3
Imperial24
290
     0
100
AcDbSectionViewStyle
 70
     0
 71
     0
 90
       78
 71
     1
340
11
 40
0.24
340
0
340
0
 40
0.24
300
I, O, Q, S, X, Z
 40
0.48
 90
        3
 40
0.18
 90
        1
 71
     2
340
16
 90
       25
340
16
 90
       50
 40
0.24
 40
0.0
 40
0.24
 71
     3
340
11
 40
0.24
 90
        1
 40
0.75
 90
        1
300
%<\AcVar ViewType \f "%tc1">% %<\AcVar ViewSectionStartId>%-%<\AcVar ViewSectionEndId>%\PSCALE %<\AcVar ViewScale \f "%sn">%
 71
     4
300
ANSI31
 40
1.0
 90
        0
290
     0
290
     0
 90
        6
 40
0.0
 40
1.570796326794896
 40
0.2617993877991494
 40
1.308996938995747
 40
-0.2617993877991494
 40
1.832595714594046
  0
TABLESTYLE
  5
169A
102
{ACAD_XDICTIONARY
360
16B4
102
}
102
{ACAD_REACTORS
330
1699
102
}
330
1699
100
AcDbTableStyle
  3
Standard
 70
     0
 71
     0
 40
0.06
 41
0.06
280
     0
281
     0
  7
STANDARD
140
0.18
170
     2
 62
     0
 63
     7
283
     0
274
    -2
284
     1
 64
     0
275
    -2
285
     1
 65
     0
276
    -2
286
     1
 66
     0
277
    -2
287
     1
 67
     0
278
    -2
288
     1
 68
     0
279
    -2
289
     1
 69
     0
  7
STANDARD
140
0.25
170
     5
 62
     0
 63
     7
283
     0
274
    -2
284
     1
 64
     0
275
    -2
285
     1
 65
     0
276
    -2
286
     1
 66
     0
277
    -2
287
     1
 67
     0
278
    -2
288
     1
 68
     0
279
    -2
289
     1
 69
     0
  7
STANDARD
140
0.18
170
     5
 62
     0
 63
     7
283
     0
274
    -2
284
     1
 64
     0
275
    -2
285
     1
 65
     0
276
    -2
286
     1
 66
     0
277
    -2
287
     1
 67
     0
278
    -2
288
     1
 68
     0
279
    -2
289
     1
 69
     0
  0
VISUALSTYLE
  5
1685
102
{ACAD_XDICTIONARY
360
1827
102
}
102
{ACAD_REACTORS
330
167F
102
}
330
167F
100
AcDbVisualStyle
  2
2dWireframe
 70
     4
 71
     0
 72
     2
 73
     0
 90
        0
 40
-0.6
 41
-30.0
 62
     5
 63
     7
 74
     1
 91
        4
 64
     7
 65
   257
 75
     1
175
     1
 42
1.0
 92
        0
 66
   257
 43
1.0
 76
     1
 77
     6
 78
     2
 67
     7
 79
     5
170
     0
171
     0
290
     0
174
     0
 93
        1
 44
0.0
173
     0
291
     0
 45
0.0
1001
ACAD
1000
AcDbSavedByObjectVersion
1070
     0
  0
VISUALSTYLE
  5
1684
102
{ACAD_XDICTIONARY
360
1825
102
}
102
{ACAD_REACTORS
330
167F
102
}
330
167F
100
AcDbVisualStyle
  2
Basic
 70
     7
 71
     1
 72
     0
 73
     1
 90
        0
 40
-0.6
 41
-30.0
 62
     5
 63
     7
 74
     0
 91
        4
 64
     7
 65
   257
 75
     1
175
     1
 42
1.0
 92
        8
 66
     7
 43
1.0
 76
     1
 77
     6
 78
     2
 67
     7
 79
     5
170
     0
171
     0
290
     0
174
     0
 93
        1
 44
0.0
173
     0
291
     1
 45
0.0
1001
ACAD
1000
AcDbSavedByObjectVersion
1070
     0
  0
VISUALSTYLE
  5
168B
102
{ACAD_XDICTIONARY
360
1833
102
}
102
{ACAD_REACTORS
330
167F
102
}
330
167F
100
AcDbVisualStyle
  2
Brighten
 70
    12
 71
     2
 72
     2
 73
     0
 90
        0
 40
-0.6
 41
-30.0
 62
     5
 63
     7
 74
     1
 91
        4
 64
     7
 65
   257
 75
     1
175
     1
 42
1.0
 92
        8
 66
     7
 43
1.0
 76
     1
 77
     6
 78
     2
 67
     7
 79
     5
170
     0
171
     0
290
     0
174
     0
 93
        1
 44
50.0
173
     0
291
     1
 45
0.0
1001
ACAD
1000
AcDbSavedByObjectVersion
1070
     0
  0
VISUALSTYLE
  5
168F
102
{ACAD_XDICTIONARY
360
183B
102
}
102
{ACAD_REACTORS
330
167F
102
}
330
167F
100
AcDbVisualStyle
  2
ColorChange
 70
    16
 71
     2
 72
     2
 73
     3
 90
        0
 40
-0.6
 41
-30.0
 62
     5
 63
     8
 74
     1
 91
        4
 64
     7
 65
   257
 75
     1
175
     1
 42
1.0
 92
        8
 66
     8
 43
1.0
 76
     1
 77
     6
 78
     2
 67
     7
 79
     5
170
     0
171
     0
290
     0
174
     0
 93
        1
 44
0.0
173
     0
291
     1
 45
0.0
1001
ACAD
1000
AcDbSavedByObjectVersion
1070
     0
  0
VISUALSTYLE
  5
1688
102
{ACAD_XDICTIONARY
360
182D
102
}
102
{ACAD_REACTORS
330
167F
102
}
330
167F
100
AcDbVisualStyle
  2
Conceptual
 70
     9
 71
     3
 72
     2
 73
     0
 90
        0
 40
-0.6
 41
-30.0
 62
     5
 63
     7
 74
     2
 91
        2
 64
     7
 65
   257
 75
     1
175
     1
 42
179.0
 92
        8
 66
     7
 43
1.0
 76
     1
 77
     6
 78
     2
 67
     7
 79
     3
170
     0
171
     0
290
     0
174
     0
 93
        1
 44
0.0
173
     0
291
     0
 45
0.0
1001
ACAD
1000
AcDbSavedByObjectVersion
1070
     0
  0
VISUALSTYLE
  5
168A
102
{ACAD_XDICTIONARY
360
1831
102
}
102
{ACAD_REACTORS
330
167F
102
}
330
167F
100
AcDbVisualStyle
  2
Dim
 70
    11
 71
     2
 72
     2
 73
     0
 90
        0
 40
-0.6
 41
-30.0
 62
     5
 63
     7
 74
     1
 91
        4
 64
     7
 65
   257
 75
     1
175
     1
 42
1.0
 92
        8
 66
     7
 43
1.0
 76
     1
 77
     6
 78
     2
 67
     7
 79
     5
170
     0
171
     0
290
     0
174
     0
 93
        1
 44
-50.0
173
     0
291
     1
 45
0.0
1001
ACAD
1000
AcDbSavedByObjectVersion
1070
     0
  0
VISUALSTYLE
  5
1697
102
{ACAD_XDICTIONARY
360
184B
102
}
102
{ACAD_REACTORS
330
167F
102
}
330
167F
100
AcDbVisualStyle
  2
EdgeColorOff
 70
    22
 71
     2
 72
     2
 73
     0
 90
        0
 40
-0.6
 41
-30.0
 62
     5
 63
     7
 74
     1
 91
        4
 64
     7
 65
   257
 75
     1
175
     1
 42
1.0
 92
        8
 66
     7
 43
1.0
 76
     1
 77
     6
 78
     2
 67
     7
 79
     5
170
     0
171
     0
290
     0
174
     0
 93
        1
 44
0.0
173
     0
291
     1
 45
0.0
1001
ACAD
1000
AcDbSavedByObjectVersion
1070
     0
  0
VISUALSTYLE
  5
168E
102
{ACAD_XDICTIONARY
360
1839
102
}
102
{ACAD_REACTORS
330
167F
102
}
330
167F
100
AcDbVisualStyle
  2
Facepattern
 70
    15
 71
     2
 72
     2
 73
     0
 90
        0
 40
-0.6
 41
-30.0
 62
     5
 63
     7
 74
     1
 91
        4
 64
     7
 65
   257
 75
     1
175
     1
 42
1.0
 92
        8
 66
     7
 43
1.0
 76
     1
 77
     6
 78
     2
 67
     7
 79
     5
170
     0
171
     0
290
     0
174
     0
 93
        1
 44
0.0
173
     0
291
     1
 45
0.0
1001
ACAD
1000
AcDbSavedByObjectVersion
1070
     0
  0
VISUALSTYLE
  5
1680
102
{ACAD_XDICTIONARY
360
181D
102
}
102
{ACAD_REACTORS
330
167F
102
}
330
167F
100
AcDbVisualStyle
  2
Flat
 70
     0
 71
     2
 72
     1
 73
     1
 90
        2
 40
-0.6
 41
30.0
 62
     5
 63
     7
 74
     0
 91
        0
 64
     7
 65
   257
 75
     1
175
     1
 42
1.0
 92
        8
 66
     7
 43
1.0
 76
     1
 77
     6
 78
     2
 67
     7
 79
     5
170
     0
171
     0
290
     0
174
     0
 93
       13
 44
0.0
173
     0
291
     1
 45
0.0
1001
ACAD
1000
AcDbSavedByObjectVersion
1070
     0
  0
VISUALSTYLE
  5
1681
102
{ACAD_XDICTIONARY
360
181F
102
}
102
{ACAD_REACTORS
330
167F
102
}
330
167F
100
AcDbVisualStyle
  2
FlatWithEdges
 70
     1
 71
     2
 72
     1
 73
     1
 90
        2
 40
-0.6
 41
30.0
 62
     5
 63
     7
 74
     1
 91
        0
 64
     7
 65
   257
 75
     1
175
     1
 42
1.0
 92
        0
 66
   257
 43
1.0
 76
     1
 77
     6
 78
     2
 67
     7
 79
     5
170
     0
171
     0
290
     0
174
     0
 93
       13
 44
0.0
173
     0
291
     1
 45
0.0
1001
ACAD
1000
AcDbSavedByObjectVersion
1070
     0
  0
VISUALSTYLE
  5
1682
102
{ACAD_XDICTIONARY
360
1821
102
}
102
{ACAD_REACTORS
330
167F
102
}
330
167F
100
AcDbVisualStyle
  2
Gouraud
 70
     2
 71
     2
 72
     2
 73
     1
 90
        2
 40
-0.6
 41
30.0
 62
     5
 63
     7
 74
     0
 91
        0
 64
     7
 65
   257
 75
     1
175
     1
 42
1.0
 92
        0
 66
     7
 43
1.0
 76
     1
 77
     6
 78
     2
 67
     7
 79
     5
170
     0
171
     0
290
     0
174
     0
 93
       13
 44
0.0
173
     0
291
     1
 45
0.0
1001
ACAD
1000
AcDbSavedByObjectVersion
1070
     0
  0
VISUALSTYLE
  5
1683
102
{ACAD_XDICTIONARY
360
1823
102
}
102
{ACAD_REACTORS
330
167F
102
}
330
167F
100
AcDbVisualStyle
  2
GouraudWithEdges
 70
     3
 71
     2
 72
     2
 73
     1
 90
        2
 40
-0.6
 41
30.0
 62
     5
 63
     7
 74
     1
 91
        0
 64
     7
 65
   257
 75
     1
175
     1
 42
1.0
 92
        0
 66
   257
 43
1.0
 76
     1
 77
     6
 78
     2
 67
     7
 79
     5
170
     0
171
     0
290
     0
174
     0
 93
       13
 44
0.0
173
     0
291
     1
 45
0.0
1001
ACAD
1000
AcDbSavedByObjectVersion
1070
     0
  0
VISUALSTYLE
  5
1687
102
{ACAD_XDICTIONARY
360
182B
102
}
102
{ACAD_REACTORS
330
167F
102
}
330
167F
100
AcDbVisualStyle
  2
Hidden
 70
     6
 71
     1
 72
     2
 73
     2
 90
        0
 40
-0.6
 41
-30.0
 62
     5
 63
     7
 74
     2
 91
        2
 64
     7
 65
   257
 75
     2
175
     1
 42
40.0
 92
        0
 66
   257
 43
1.0
 76
     1
 77
     6
 78
     2
 67
     7
 79
     3
170
     0
171
     0
290
     0
174
     0
 93
        1
 44
0.0
173
     0
291
     0
 45
0.0
1001
ACAD
1000
AcDbSavedByObjectVersion
1070
     0
  0
VISUALSTYLE
  5
1695
102
{ACAD_XDICTIONARY
360
1847
102
}
102
{ACAD_REACTORS
330
167F
102
}
330
167F
100
AcDbVisualStyle
  2
JitterOff
 70
    20
 71
     2
 72
     2
 73
     0
 90
        0
 40
-0.6
 41
-30.0
 62
     5
 63
     7
 74
     1
 91
        4
 64
     7
 65
   257
 75
     1
175
     1
 42
1.0
 92
       10
 66
     7
 43
1.0
 76
     1
 77
     6
 78
     2
 67
     7
 79
     5
170
     0
171
     0
290
     0
174
     0
 93
        1
 44
0.0
173
     0
291
     1
 45
0.0
1001
ACAD
1000
AcDbSavedByObjectVersion
1070
     0
  0
VISUALSTYLE
  5
168D
102
{ACAD_XDICTIONARY
360
1837
102
}
102
{ACAD_REACTORS
330
167F
102
}
330
167F
100
AcDbVisualStyle
  2
Linepattern
 70
    14
 71
     2
 72
     2
 73
     0
 90
        0
 40
-0.6
 41
-30.0
 62
     5
 63
     7
 74
     1
 91
        4
 64
     7
 65
   257
 75
     7
175
     7
 42
1.0
 92
        8
 66
     7
 43
1.0
 76
     1
 77
     6
 78
     2
 67
     7
 79
     5
170
     0
171
     0
290
     0
174
     0
 93
        1
 44
0.0
173
     0
291
     1
 45
0.0
1001
ACAD
1000
AcDbSavedByObjectVersion
1070
     0
  0
VISUALSTYLE
  5
1696
102
{ACAD_XDICTIONARY
360
1849
102
}
102
{ACAD_REACTORS
330
167F
102
}
330
167F
100
AcDbVisualStyle
  2
OverhangOff
 70
    21
 71
     2
 72
     2
 73
     0
 90
        0
 40
-0.6
 41
-30.0
 62
     5
 63
     7
 74
     1
 91
        4
 64
     7
 65
   257
 75
     1
175
     1
 42
1.0
 92
        9
 66
     7
 43
1.0
 76
     1
 77
     6
 78
     2
 67
     7
 79
     5
170
     0
171
     0
290
     0
174
     0
 93
        1
 44
0.0
173
     0
291
     1
 45
0.0
1001
ACAD
1000
AcDbSavedByObjectVersion
1070
     0
  0
VISUALSTYLE
  5
1689
102
{ACAD_XDICTIONARY
360
182F
102
}
102
{ACAD_REACTORS
330
167F
102
}
330
167F
100
AcDbVisualStyle
  2
Realistic
 70
     8
 71
     2
 72
     2
 73
     0
 90
        2
 40
-0.6
 41
30.0
 62
     5
 63
     7
 74
     0
 91
        0
 64
     7
 65
   257
 75
     1
175
     1
 42
1.0
 92
        8
 66
   257
 43
1.0
 76
     1
 77
     6
 78
     2
 67
     7
 79
     3
170
     0
171
     0
290
     0
174
     0
 93
       13
 44
0.0
173
     0
291
     0
 45
0.0
1001
ACAD
1000
AcDbSavedByObjectVersion
1070
     0
  0
VISUALSTYLE
  5
1694
102
{ACAD_XDICTIONARY
360
1845
102
}
102
{ACAD_REACTORS
330
167F
102
}
330
167F
100
AcDbVisualStyle
  2
Shaded
 70
    27
 71
     2
 72
     2
 73
     1
 90
        2
 40
-0.6
 41
30.0
 62
     5
 63
     7
 74
     0
 91
        4
 64
     7
 65
   257
 75
     1
175
     1
 42
1.0
 92
        8
 66
   257
 43
1.0
 76
     1
 77
     6
 78
     2
 67
     8
 79
     3
170
     0
171
     0
290
     0
174
     0
 93
        5
 44
0.0
173
     0
291
     0
 45
0.0
1001
ACAD
1000
AcDbSavedByObjectVersion
1070
     0
  0
VISUALSTYLE
  5
1693
102
{ACAD_XDICTIONARY
360
1843
102
}
102
{ACAD_REACTORS
330
167F
102
}
330
167F
100
AcDbVisualStyle
  2
Shaded with edges
 70
    26
 71
     2
 72
     2
 73
     1
 90
        2
 40
-0.6
 41
30.0
 62
     5
 63
     7
 74
     1
 91
        2
 64
     7
 65
   257
 75
     2
175
     1
 42
1.0
 92
        8
 66
   257
 43
1.0
 76
     1
 77
     6
 78
     2
 67
     7
 79
     3
170
     0
171
     0
290
     0
174
     0
 93
        5
 44
0.0
173
     0
291
     0
 45
0.0
1001
ACAD
1000
AcDbSavedByObjectVersion
1070
     0
  0
VISUALSTYLE
  5
1690
102
{ACAD_XDICTIONARY
360
183D
102
}
102
{ACAD_REACTORS
330
167F
102
}
330
167F
100
AcDbVisualStyle
  2
Shades of Gray
 70
    23
 71
     2
 72
     2
 73
     3
 90
        0
 40
-0.6
 41
-30.0
 62
     5
 63
     7
 74
     2
 91
        2
 64
     7
 65
     7
 75
     1
175
     1
 42
40.0
 92
        8
 66
     7
 43
1.0
 76
     1
 77
     6
 78
     2
 67
     7
 79
     3
170
     0
171
     0
290
     0
174
     0
 93
        1
 44
0.0
173
     0
291
     0
 45
0.0
1001
ACAD
1000
AcDbSavedByObjectVersion
1070
     0
  0
VISUALSTYLE
  5
1691
102
{ACAD_XDICTIONARY
360
183F
102
}
102
{ACAD_REACTORS
330
167F
102
}
330
167F
100
AcDbVisualStyle
  2
Sketchy
 70
    24
 71
     1
 72
     2
 73
     2
 90
        0
 40
-0.6
 41
-30.0
 62
     5
 63
     7
 74
     2
 91
        2
 64
     7
 65
     7
 75
     1
175
     1
 42
40.0
 92
       11
 66
     7
 43
1.0
 76
     1
 77
     6
 78
     2
 67
     7
 79
     6
170
     0
171
     0
290
     0
174
     0
 93
        1
 44
0.0
173
     0
291
     0
 45
0.0
1001
ACAD
1000
AcDbSavedByObjectVersion
1070
     0
  0
VISUALSTYLE
  5
168C
102
{ACAD_XDICTIONARY
360
1835
102
}
102
{ACAD_REACTORS
330
167F
102
}
330
167F
100
AcDbVisualStyle
  2
Thicken
 70
    13
 71
     2
 72
     2
 73
     0
 90
        0
 40
-0.6
 41
-30.0
 62
     5
 63
     7
 74
     1
 91
        4
 64
     7
 65
   257
 75
     1
175
     1
 42
1.0
 92
       12
 66
     7
 43
1.0
 76
     1
 77
     6
 78
     2
 67
     7
 79
     5
170
     0
171
     0
290
     0
174
     0
 93
        1
 44
0.0
173
     0
291
     1
 45
0.0
1001
ACAD
1000
AcDbSavedByObjectVersion
1070
     0
  0
VISUALSTYLE
  5
1686
102
{ACAD_XDICTIONARY
360
1829
102
}
102
{ACAD_REACTORS
330
167F
102
}
330
167F
100
AcDbVisualStyle
  2
Wireframe
 70
     5
 71
     0
 72
     2
 73
     0
 90
        0
 40
-0.6
 41
-30.0
 62
     5
 63
     7
 74
     1
 91
        4
 64
     7
 65
   257
 75
     1
175
     1
 42
1.0
 92
        0
 66
   257
 43
1.0
 76
     1
 77
     6
 78
     2
 67
     7
 79
     3
170
     0
171
     0
290
     0
174
     0
 93
        1
 44
0.0
173
     0
291
     0
 45
0.0
1001
ACAD
1000
AcDbSavedByObjectVersion
1070
     0
  0
VISUALSTYLE
  5
1692
102
{ACAD_XDICTIONARY
360
1841
102
}
102
{ACAD_REACTORS
330
167F
102
}
330
167F
100
AcDbVisualStyle
  2
X-Ray
 70
    25
 71
     2
 72
     2
 73
     1
 90
        1
 40
0.5
 41
-30.0
 62
     5
 63
     7
 74
     1
 91
        0
 64
     7
 65
   257
 75
     1
175
     1
 42
1.0
 92
        8
 66
     7
 43
1.0
 76
     1
 77
     6
 78
     2
 67
     7
 79
     3
170
     0
171
     0
290
     0
174
     0
 93
       13
 44
0.0
173
     0
291
     0
 45
0.0
1001
ACAD
1000
AcDbSavedByObjectVersion
1070
     0
  0
DICTIONARYVAR
  5
16FB
102
{ACAD_REACTORS
330
16F6
102
}
330
16F6
100
DictionaryVariables
280
     0
  1
1:1
  0
DICTIONARYVAR
  5
16F8
102
{ACAD_REACTORS
330
16F6
102
}
330
16F6
100
DictionaryVariables
280
     0
  1
STANDARD
  0
DICTIONARYVAR
  5
16F7
102
{ACAD_REACTORS
330
16F6
102
}
330
16F6
100
DictionaryVariables
280
     0
  1
STANDARD
  0
DICTIONARYVAR
  5
16F9
102
{ACAD_REACTORS
330
16F6
102
}
330
16F6
100
DictionaryVariables
280
     0
  1
Imperial24
  0
DICTIONARYVAR
  5
16FA
102
{ACAD_REACTORS
330
16F6
102
}
330
16F6
100
DictionaryVariables
280
     0
  1
Imperial24
  0
DICTIONARYVAR
  5
16FE
102
{ACAD_REACTORS
330
16F6
102
}
330
16F6
100
DictionaryVariables
280
     0
  1
1
  0
DICTIONARYVAR
  5
16FD
102
{ACAD_REACTORS
330
16F6
102
}
330
16F6
100
DictionaryVariables
280
     0
  1
0
  0
DICTIONARYVAR
  5
16FC
102
{ACAD_REACTORS
330
16F6
102
}
330
16F6
100
DictionaryVariables
280
     0
  1
127
  0
DICTIONARYVAR
  5
1812
102
{ACAD_REACTORS
330
16F6
102
}
330
16F6
100
DictionaryVariables
280
     0
  1
2
  0
DICTIONARY
  5
1850
330
16B2
100
AcDbDictionary
280
     1
281
     1
  3
ACAD_XREC_ROUNDTRIP
360
1851
  0
DICTIONARY
  5
1818
330
1662
100
AcDbDictionary
280
     1
281
     1
  3
ACAD_XREC_ROUNDTRIP
360
1819
  0
DICTIONARY
  5
1816
330
1661
100
AcDbDictionary
280
     1
281
     1
  3
ACAD_XREC_ROUNDTRIP
360
1817
  0
DICTIONARY
  5
1670
330
166F
100
AcDbDictionary
280
     1
281
     1
  3
ACAD_XREC_ROUNDTRIP
360
181B
  3
BUMPTILE
360
1672
  3
DIFFUSETILE
360
1671
  3
OPACITYTILE
360
1675
  3
REFLECTIONTILE
360
1674
  3
REFRACTIONTILE
360
1676
  3
SPECULARTILE
360
1673
  0
DICTIONARY
  5
1668
330
1667
100
AcDbDictionary
280
     1
281
     1
  3
ACAD_XREC_ROUNDTRIP
360
181A
  3
BUMPTILE
360
166A
  3
DIFFUSETILE
360
1669
  3
OPACITYTILE
360
166D
  3
REFLECTIONTILE
360
166C
  3
REFRACTIONTILE
360
166E
  3
SPECULARTILE
360
166B
  0
DICTIONARY
  5
1678
330
1677
100
AcDbDictionary
280
     1
281
     1
  3
ACAD_XREC_ROUNDTRIP
360
181C
  3
BUMPTILE
360
167A
  3
DIFFUSETILE
360
1679
  3
OPACITYTILE
360
167D
  3
REFLECTIONTILE
360
167C
  3
REFRACTIONTILE
360
167E
  3
SPECULARTILE
360
167B
  0
DICTIONARY
  5
184E
330
16B0
100
AcDbDictionary
280
     1
281
     1
  3
ACAD_XREC_ROUNDTRIP
360
184F
  0
DICTIONARY
  5
16B4
330
169A
100
AcDbDictionary
280
     1
281
     1
  3
ACAD_ROUNDTRIP_2008_TABLESTYLE_CELLSTYLEMAP
360
1813
  3
ACAD_XREC_ROUNDTRIP
360
184D
  0
DICTIONARY
  5
1827
330
1685
100
AcDbDictionary
280
     1
281
     1
  3
ACAD_XREC_ROUNDTRIP
360
1828
  0
DICTIONARY
  5
1825
330
1684
100
AcDbDictionary
280
     1
281
     1
  3
ACAD_XREC_ROUNDTRIP
360
1826
  0
DICTIONARY
  5
1833
330
168B
100
AcDbDictionary
280
     1
281
     1
  3
ACAD_XREC_ROUNDTRIP
360
1834
  0
DICTIONARY
  5
183B
330
168F
100
AcDbDictionary
280
     1
281
     1
  3
ACAD_XREC_ROUNDTRIP
360
183C
  0
DICTIONARY
  5
182D
330
1688
100
AcDbDictionary
280
     1
281
     1
  3
ACAD_XREC_ROUNDTRIP
360
182E
  0
DICTIONARY
  5
1831
330
168A
100
AcDbDictionary
280
     1
281
     1
  3
ACAD_XREC_ROUNDTRIP
360
1832
  0
DICTIONARY
  5
184B
330
1697
100
AcDbDictionary
280
     1
281
     1
  3
ACAD_XREC_ROUNDTRIP
360
184C
  0
DICTIONARY
  5
1839
330
168E
100
AcDbDictionary
280
     1
281
     1
  3
ACAD_XREC_ROUNDTRIP
360
183A
  0
DICTIONARY
  5
181D
330
1680
100
AcDbDictionary
280
     1
281
     1
  3
ACAD_XREC_ROUNDTRIP
360
181E
  0
DICTIONARY
  5
181F
330
1681
100
AcDbDictionary
280
     1
281
     1
  3
ACAD_XREC_ROUNDTRIP
360
1820
  0
DICTIONARY
  5
1821
330
1682
100
AcDbDictionary
280
     1
281
     1
  3
ACAD_XREC_ROUNDTRIP
360
1822
  0
DICTIONARY
  5
1823
330
1683
100
AcDbDictionary
280
     1
281
     1
  3
ACAD_XREC_ROUNDTRIP
360
1824
  0
DICTIONARY
  5
182B
330
1687
100
AcDbDictionary
280
     1
281
     1
  3
ACAD_XREC_ROUNDTRIP
360
182C
  0
DICTIONARY
  5
1847
330
1695
100
AcDbDictionary
280
     1
281
     1
  3
ACAD_XREC_ROUNDTRIP
360
1848
  0
DICTIONARY
  5
1837
330
168D
100
AcDbDictionary
280
     1
281
     1
  3
ACAD_XREC_ROUNDTRIP
360
1838
  0
DICTIONARY
  5
1849
330
1696
100
AcDbDictionary
280
     1
281
     1
  3
ACAD_XREC_ROUNDTRIP
360
184A
  0
DICTIONARY
  5
182F
330
1689
100
AcDbDictionary
280
     1
281
     1
  3
ACAD_XREC_ROUNDTRIP
360
1830
  0
DICTIONARY
  5
1845
330
1694
100
AcDbDictionary
280
     1
281
     1
  3
ACAD_XREC_ROUNDTRIP
360
1846
  0
DICTIONARY
  5
1843
330
1693
100
AcDbDictionary
280
     1
281
     1
  3
ACAD_XREC_ROUNDTRIP
360
1844
  0
DICTIONARY
  5
183D
330
1690
100
AcDbDictionary
280
     1
281
     1
  3
ACAD_XREC_ROUNDTRIP
360
183E
  0
DICTIONARY
  5
183F
330
1691
100
AcDbDictionary
280
     1
281
     1
  3
ACAD_XREC_ROUNDTRIP
360
1840
  0
DICTIONARY
  5
1835
330
168C
100
AcDbDictionary
280
     1
281
     1
  3
ACAD_XREC_ROUNDTRIP
360
1836
  0
DICTIONARY
  5
1829
330
1686
100
AcDbDictionary
280
     1
281
     1
  3
ACAD_XREC_ROUNDTRIP
360
182A
  0
DICTIONARY
  5
1841
330
1692
100
AcDbDictionary
280
     1
281
     1
  3
ACAD_XREC_ROUNDTRIP
360
1842
  0
XRECORD
  5
1851
102
{ACAD_REACTORS
330
1850
102
}
330
1850
100
AcDbXrecord
280
     1
102
DISPLAYNAME
  1
Imperial24
102
FLAGS
 90
        0
  0
XRECORD
  5
1819
102
{ACAD_REACTORS
330
1818
102
}
330
1818
100
AcDbXrecord
280
     1
102
SHADEPLOT
 70
     0
102
SHADEPLOTRESLEVEL
 70
     2
102
SHADEPLOTCUSTOMDPI
 70
   300
  0
XRECORD
  5
1817
102
{ACAD_REACTORS
330
1816
102
}
330
1816
100
AcDbXrecord
280
     1
102
SHADEPLOT
 70
     0
102
SHADEPLOTRESLEVEL
 70
     2
102
SHADEPLOTCUSTOMDPI
 70
   300
  0
XRECORD
  5
181B
102
{ACAD_REACTORS
330
1670
102
}
330
1670
100
AcDbXrecord
280
     1
102
MATERIAL
148
0.0
149
0.0
149
0.0
 93
        0
 94
      127
282
     0
 72
     0
 77
     0
171
     0
175
     0
179
     0
273
     0
  0
XRECORD
  5
1672
102
{ACAD_REACTORS
330
1670
102
}
330
1670
100
AcDbXrecord
280
     1
270
     1
271
     1
  0
XRECORD
  5
1671
102
{ACAD_REACTORS
330
1670
102
}
330
1670
100
AcDbXrecord
280
     1
270
     1
271
     1
  0
XRECORD
  5
1675
102
{ACAD_REACTORS
330
1670
102
}
330
1670
100
AcDbXrecord
280
     1
270
     1
271
     1
  0
XRECORD
  5
1674
102
{ACAD_REACTORS
330
1670
102
}
330
1670
100
AcDbXrecord
280
     1
270
     1
271
     1
  0
XRECORD
  5
1676
102
{ACAD_REACTORS
330
1670
102
}
330
1670
100
AcDbXrecord
280
     1
270
     1
271
     1
  0
XRECORD
  5
1673
102
{ACAD_REACTORS
330
1670
102
}
330
1670
100
AcDbXrecord
280
     1
270
     1
271
     1
  0
XRECORD
  5
181A
102
{ACAD_REACTORS
330
1668
102
}
330
1668
100
AcDbXrecord
280
     1
102
MATERIAL
148
0.0
149
0.0
149
0.0
 93
        0
 94
      127
282
     0
 72
     0
 77
     0
171
     0
175
     0
179
     0
273
     0
  0
XRECORD
  5
166A
102
{ACAD_REACTORS
330
1668
102
}
330
1668
100
AcDbXrecord
280
     1
270
     1
271
     1
  0
XRECORD
  5
1669
102
{ACAD_REACTORS
330
1668
102
}
330
1668
100
AcDbXrecord
280
     1
270
     1
271
     1
  0
XRECORD
  5
166D
102
{ACAD_REACTORS
330
1668
102
}
330
1668
100
AcDbXrecord
280
     1
270
     1
271
     1
  0
XRECORD
  5
166C
102
{ACAD_REACTORS
330
1668
102
}
330
1668
100
AcDbXrecord
280
     1
270
     1
271
     1
  0
XRECORD
  5
166E
102
{ACAD_REACTORS
330
1668
102
}
330
1668
100
AcDbXrecord
280
     1
270
     1
271
     1
  0
XRECORD
  5
166B
102
{ACAD_REACTORS
330
1668
102
}
330
1668
100
AcDbXrecord
280
     1
270
     1
271
     1
  0
XRECORD
  5
181C
102
{ACAD_REACTORS
330
1678
102
}
330
1678
100
AcDbXrecord
280
     1
102
MATERIAL
148
0.0
149
0.0
149
0.0
 93
        0
 94
      127
282
     0
 72
     0
 77
     0
171
     0
175
     0
179
     0
273
     0
  0
XRECORD
  5
167A
102
{ACAD_REACTORS
330
1678
102
}
330
1678
100
AcDbXrecord
280
     1
270
     1
271
     1
  0
XRECORD
  5
1679
102
{ACAD_REACTORS
330
1678
102
}
330
1678
100
AcDbXrecord
280
     1
270
     1
271
     1
  0
XRECORD
  5
167D
102
{ACAD_REACTORS
330
1678
102
}
330
1678
100
AcDbXrecord
280
     1
270
     1
271
     1
  0
XRECORD
  5
167C
102
{ACAD_REACTORS
330
1678
102
}
330
1678
100
AcDbXrecord
280
     1
270
     1
271
     1
  0
XRECORD
  5
167E
102
{ACAD_REACTORS
330
1678
102
}
330
1678
100
AcDbXrecord
280
     1
270
     1
271
     1
  0
XRECORD
  5
167B
102
{ACAD_REACTORS
330
1678
102
}
330
1678
100
AcDbXrecord
280
     1
270
     1
271
     1
  0
XRECORD
  5
184F
102
{ACAD_REACTORS
330
184E
102
}
330
184E
100
AcDbXrecord
280
     1
102
DISPLAYNAME
  1
Imperial24
102
FLAGS
 90
        0
  0
CELLSTYLEMAP
  5
1813
102
{ACAD_REACTORS
330
16B4
102
}
330
16B4
100
AcDbCellStyleMap
 90
        3
300
CELLSTYLE
  1
TABLEFORMAT_BEGIN
 90
        5
170
     1
 91
        0
 92
    32768
 62
   257
 93
        1
300
CONTENTFORMAT
  1
CONTENTFORMAT_BEGIN
 90
        0
 91
        0
 92
      512
 93
        0
300

 40
0.0
140
1.0
 94
        5
 62
     0
340
11
144
0.25
309
CONTENTFORMAT_END
171
     0
 94
        0
309
TABLEFORMAT_END
  1
CELLSTYLE_BEGIN
 90
        1
 91
        1
300
_TITLE
309
CELLSTYLE_END
300
CELLSTYLE
  1
TABLEFORMAT_BEGIN
 90
        5
170
     1
 91
        0
 92
        0
 62
   257
 93
        1
300
CONTENTFORMAT
  1
CONTENTFORMAT_BEGIN
 90
        0
 91
        0
 92
      512
 93
        0
300

 40
0.0
140
1.0
 94
        5
 62
     0
340
11
144
0.18
309
CONTENTFORMAT_END
171
     0
 94
        0
309
TABLEFORMAT_END
  1
CELLSTYLE_BEGIN
 90
        2
 91
        1
300
_HEADER
309
CELLSTYLE_END
300
CELLSTYLE
  1
TABLEFORMAT_BEGIN
 90
        5
170
     1
 91
        0
 92
        0
 62
   257
 93
        1
300
CONTENTFORMAT
  1
CONTENTFORMAT_BEGIN
 90
        0
 91
        0
 92
      512
 93
        0
300

 40
0.0
140
1.0
 94
        2
 62
     0
340
11
144
0.18
309
CONTENTFORMAT_END
171
     0
 94
        0
309
TABLEFORMAT_END
  1
CELLSTYLE_BEGIN
 90
        3
 91
        2
300
_DATA
309
CELLSTYLE_END
  0
XRECORD
  5
184D
102
{ACAD_REACTORS
330
16B4
102
}
330
16B4
100
AcDbXrecord
280
     1
102
ACAD_ROUNDTRIP_PRE2007_TABLESTYLE
 90
      512
 91
        0
  1

 92
      512
 93
        0
  2

 94
      512
 95
        0
  3

  0
XRECORD
  5
1828
102
{ACAD_REACTORS
330
1827
102
}
330
1827
100
AcDbXrecord
280
     1
102
RTVSPost2010Prop28
280
     1
102
RTVSPost2010PropOp28
 70
     1
102
RTVSPost2010Prop29
280
     1
102
RTVSPost2010PropOp29
 70
     1
102
RTVSPost2010Prop30
280
     0
102
RTVSPost2010PropOp30
 70
     1
102
RTVSPost2010Prop31
280
     0
102
RTVSPost2010PropOp31
 70
     1
102
RTVSPost2010Prop32
280
     0
102
RTVSPost2010PropOp32
 70
     1
102
RTVSPost2010Prop33
280
     0
102
RTVSPost2010PropOp33
 70
     1
102
RTVSPost2010Prop34
280
     0
102
RTVSPost2010PropOp34
 70
     1
102
RTVSPost2010Prop35
280
     0
102
RTVSPost2010PropOp35
 70
     1
102
RTVSPost2010Prop36
280
     0
102
RTVSPost2010PropOp36
 70
     1
102
RTVSPost2010Prop37
 90
       50
102
RTVSPost2010PropOp37
 70
     1
102
RTVSPost2010Prop38
140
0.0
102
RTVSPost2010PropOp38
 70
     1
102
RTVSPost2010Prop39
140
1.0
102
RTVSPost2010PropOp39
 70
     1
102
RTVSPost2010Prop40
 90
        0
102
RTVSPost2010PropOp40
 70
     1
102
RTVSPost2010Prop41ColorIndex
 90
       18
102
RTVSPost2010Prop41ColorRGB
 90
        0
102
RTVSPost2010PropOp41
 70
     1
102
RTVSPost2010Prop42
 90
       50
102
RTVSPost2010PropOp42
 70
     1
102
RTVSPost2010Prop43
 90
        3
102
RTVSPost2010PropOp43
 70
     1
102
RTVSPost2010Prop44ColorIndex
 90
        5
102
RTVSPost2010Prop44ColorRGB
 90
      255
102
RTVSPost2010PropOp44
 70
     1
102
RTVSPost2010Prop45
280
     0
102
RTVSPost2010PropOp45
 70
     1
102
RTVSPost2010Prop46
 90
       50
102
RTVSPost2010PropOp46
 70
     1
102
RTVSPost2010Prop47
 90
       50
102
RTVSPost2010PropOp47
 70
     1
102
RTVSPost2010Prop48
 90
       50
102
RTVSPost2010PropOp48
 70
     1
102
RTVSPost2010Prop49
280
     0
102
RTVSPost2010PropOp49
 70
     1
102
RTVSPost2010Prop50
 90
       50
102
RTVSPost2010PropOp50
 70
     1
102
RTVSPost2010Prop51ColorIndex
 90
      256
102
RTVSPost2010Prop51ColorRGB
 90
-16777216
102
RTVSPost2010PropOp51
 70
     0
102
RTVSPost2010Prop52
140
1.0
102
RTVSPost2010PropOp52
 70
     0
102
RTVSPost2010Prop53
 90
        2
102
RTVSPost2010PropOp53
 70
     1
102
RTVSPost2010Prop54
  1
strokes_ogs.tif
102
RTVSPost2010PropOp54
 70
     1
102
RTVSPost2010Prop55
280
     0
102
RTVSPost2010PropOp55
 70
     1
102
RTVSPost2010Prop56
140
1.0
102
RTVSPost2010PropOp56
 70
     1
102
RTVSPost2010Prop57
140
1.0
102
RTVSPost2010PropOp57
 70
     1
102
RTVSPropertyOp0
 70
     1
102
RTVSPropertyOp1
 70
     1
102
RTVSPropertyOp2
 70
     1
102
RTVSPropertyOp3
 70
     1
102
RTVSPropertyOp4
 70
     1
102
RTVSPropertyOp5
 70
     1
102
RTVSPropertyOp6
 70
     1
102
RTVSPropertyOp7
 70
     1
102
RTVSPropertyOp8
 70
     1
102
RTVSPropertyOp9
 70
     1
102
RTVSPropertyOp10
 70
     1
102
RTVSPropertyOp11
 70
     1
102
RTVSPropertyOp12
 70
     1
102
RTVSPropertyOp13
 70
     1
102
RTVSPropertyOp14
 70
     1
102
RTVSPropertyOp15
 70
     1
102
RTVSPropertyOp16
 70
     1
102
RTVSPropertyOp17
 70
     1
102
RTVSPropertyOp18
 70
     1
102
RTVSPropertyOp19
 70
     1
102
RTVSPropertyOp20
 70
     1
102
RTVSPropertyOp21
 70
     1
102
RTVSPropertyOp22
 70
     1
102
RTVSPropertyOp23
 70
     1
102
RTVSPropertyOp24
 70
     1
102
RTVSPropertyOp25
 70
     1
102
RTVSPropertyOp26
 70
     1
102
RTVSPropertyOp27
 70
     1
102
RTVSPropertyOp28
 70
     1
102
RTVSPropertyOp29
 70
     1
102
RTVSPropertyOp30
 70
     1
102
RTVSPropertyOp31
 70
     1
102
RTVSPropertyOp32
 70
     1
102
RTVSPropertyOp33
 70
     1
102
RTVSPropertyOp34
 70
     1
102
RTVSPropertyOp35
 70
     1
102
RTVSPropertyOp36
 70
     1
102
RTVSPropertyOp37
 70
     1
102
RTVSPropertyOp38
 70
     1
102
RTVSPropertyOp39
 70
     1
102
RTVSPropertyOp40
 70
     1
102
RTVSPropertyOp41
 70
     1
102
RTVSPropertyOp42
 70
     1
102
RTVSPropertyOp43
 70
     1
102
RTVSPropertyOp44
 70
     1
102
RTVSPropertyOp45
 70
     1
102
RTVSPropertyOp46
 70
     1
102
RTVSPropertyOp47
 70
     1
102
RTVSPropertyOp48
 70
     1
102
RTVSPropertyOp49
 70
     1
102
RTVSPropertyOp50
 70
     1
102
RTVSPropertyOp51
 70
     0
102
RTVSPropertyOp52
 70
     0
102
RTVSPropertyOp53
 70
     1
102
RTVSPropertyOp54
 70
     1
102
RTVSPropertyOp55
 70
     1
102
RTVSPropertyOp56
 70
     1
102
RTVSPropertyOp57
 70
     1
102
RTVSPropertyOp58
 70
     1
102
RTVSPropertyOp59
 70
     1
102
RTVSPropertyOp60
 70
     1
102
RTVSPropertyOp61
 70
     1
102
RTVSPropertyOp62
 70
     1
  0
XRECORD
  5
1826
102
{ACAD_REACTORS
330
1825
102
}
330
1825
100
AcDbXrecord
280
     1
102
RTVSPost2010Prop28
280
     0
102
RTVSPost2010PropOp28
 70
     1
102
RTVSPost2010Prop29
280
     1
102
RTVSPost2010PropOp29
 70
     1
102
RTVSPost2010Prop30
280
     1
102
RTVSPost2010PropOp30
 70
     1
102
RTVSPost2010Prop31
280
     0
102
RTVSPost2010PropOp31
 70
     1
102
RTVSPost2010Prop32
280
     0
102
RTVSPost2010PropOp32
 70
     1
102
RTVSPost2010Prop33
280
     0
102
RTVSPost2010PropOp33
 70
     1
102
RTVSPost2010Prop34
280
     0
102
RTVSPost2010PropOp34
 70
     1
102
RTVSPost2010Prop35
280
     0
102
RTVSPost2010PropOp35
 70
     1
102
RTVSPost2010Prop36
280
     0
102
RTVSPost2010PropOp36
 70
     1
102
RTVSPost2010Prop37
 90
       50
102
RTVSPost2010PropOp37
 70
     1
102
RTVSPost2010Prop38
140
0.0
102
RTVSPost2010PropOp38
 70
     1
102
RTVSPost2010Prop39
140
1.0
102
RTVSPost2010PropOp39
 70
     1
102
RTVSPost2010Prop40
 90
        0
102
RTVSPost2010PropOp40
 70
     1
102
RTVSPost2010Prop41ColorIndex
 90
       18
102
RTVSPost2010Prop41ColorRGB
 90
        0
102
RTVSPost2010PropOp41
 70
     1
102
RTVSPost2010Prop42
 90
       50
102
RTVSPost2010PropOp42
 70
     1
102
RTVSPost2010Prop43
 90
        3
102
RTVSPost2010PropOp43
 70
     1
102
RTVSPost2010Prop44ColorIndex
 90
        5
102
RTVSPost2010Prop44ColorRGB
 90
      255
102
RTVSPost2010PropOp44
 70
     1
102
RTVSPost2010Prop45
280
     0
102
RTVSPost2010PropOp45
 70
     1
102
RTVSPost2010Prop46
 90
       50
102
RTVSPost2010PropOp46
 70
     1
102
RTVSPost2010Prop47
 90
       50
102
RTVSPost2010PropOp47
 70
     1
102
RTVSPost2010Prop48
 90
       50
102
RTVSPost2010PropOp48
 70
     1
102
RTVSPost2010Prop49
280
     0
102
RTVSPost2010PropOp49
 70
     1
102
RTVSPost2010Prop50
 90
       50
102
RTVSPost2010PropOp50
 70
     1
102
RTVSPost2010Prop51ColorIndex
 90
      256
102
RTVSPost2010Prop51ColorRGB
 90
-16777216
102
RTVSPost2010PropOp51
 70
     0
102
RTVSPost2010Prop52
140
1.0
102
RTVSPost2010PropOp52
 70
     0
102
RTVSPost2010Prop53
 90
        2
102
RTVSPost2010PropOp53
 70
     1
102
RTVSPost2010Prop54
  1
strokes_ogs.tif
102
RTVSPost2010PropOp54
 70
     1
102
RTVSPost2010Prop55
280
     0
102
RTVSPost2010PropOp55
 70
     1
102
RTVSPost2010Prop56
140
1.0
102
RTVSPost2010PropOp56
 70
     1
102
RTVSPost2010Prop57
140
1.0
102
RTVSPost2010PropOp57
 70
     1
102
RTVSPropertyOp0
 70
     1
102
RTVSPropertyOp1
 70
     1
102
RTVSPropertyOp2
 70
     1
102
RTVSPropertyOp3
 70
     1
102
RTVSPropertyOp4
 70
     1
102
RTVSPropertyOp5
 70
     1
102
RTVSPropertyOp6
 70
     1
102
RTVSPropertyOp7
 70
     1
102
RTVSPropertyOp8
 70
     1
102
RTVSPropertyOp9
 70
     1
102
RTVSPropertyOp10
 70
     1
102
RTVSPropertyOp11
 70
     1
102
RTVSPropertyOp12
 70
     1
102
RTVSPropertyOp13
 70
     1
102
RTVSPropertyOp14
 70
     1
102
RTVSPropertyOp15
 70
     1
102
RTVSPropertyOp16
 70
     1
102
RTVSPropertyOp17
 70
     1
102
RTVSPropertyOp18
 70
     1
102
RTVSPropertyOp19
 70
     1
102
RTVSPropertyOp20
 70
     1
102
RTVSPropertyOp21
 70
     1
102
RTVSPropertyOp22
 70
     1
102
RTVSPropertyOp23
 70
     1
102
RTVSPropertyOp24
 70
     1
102
RTVSPropertyOp25
 70
     1
102
RTVSPropertyOp26
 70
     1
102
RTVSPropertyOp27
 70
     1
102
RTVSPropertyOp28
 70
     1
102
RTVSPropertyOp29
 70
     1
102
RTVSPropertyOp30
 70
     1
102
RTVSPropertyOp31
 70
     1
102
RTVSPropertyOp32
 70
     1
102
RTVSPropertyOp33
 70
     1
102
RTVSPropertyOp34
 70
     1
102
RTVSPropertyOp35
 70
     1
102
RTVSPropertyOp36
 70
     1
102
RTVSPropertyOp37
 70
     1
102
RTVSPropertyOp38
 70
     1
102
RTVSPropertyOp39
 70
     1
102
RTVSPropertyOp40
 70
     1
102
RTVSPropertyOp41
 70
     1
102
RTVSPropertyOp42
 70
     1
102
RTVSPropertyOp43
 70
     1
102
RTVSPropertyOp44
 70
     1
102
RTVSPropertyOp45
 70
     1
102
RTVSPropertyOp46
 70
     1
102
RTVSPropertyOp47
 70
     1
102
RTVSPropertyOp48
 70
     1
102
RTVSPropertyOp49
 70
     1
102
RTVSPropertyOp50
 70
     1
102
RTVSPropertyOp51
 70
     0
102
RTVSPropertyOp52
 70
     0
102
RTVSPropertyOp53
 70
     1
102
RTVSPropertyOp54
 70
     1
102
RTVSPropertyOp55
 70
     1
102
RTVSPropertyOp56
 70
     1
102
RTVSPropertyOp57
 70
     1
102
RTVSPropertyOp58
 70
     1
102
RTVSPropertyOp59
 70
     1
102
RTVSPropertyOp60
 70
     1
102
RTVSPropertyOp61
 70
     1
102
RTVSPropertyOp62
 70
     1
  0
XRECORD
  5
1834
102
{ACAD_REACTORS
330
1833
102
}
330
1833
100
AcDbXrecord
280
     1
102
RTVSPost2010Prop28
280
     0
102
RTVSPost2010PropOp28
 70
     1
102
RTVSPost2010Prop29
280
     1
102
RTVSPost2010PropOp29
 70
     1
102
RTVSPost2010Prop30
280
     1
102
RTVSPost2010PropOp30
 70
     1
102
RTVSPost2010Prop31
280
     0
102
RTVSPost2010PropOp31
 70
     1
102
RTVSPost2010Prop32
280
     0
102
RTVSPost2010PropOp32
 70
     1
102
RTVSPost2010Prop33
280
     0
102
RTVSPost2010PropOp33
 70
     1
102
RTVSPost2010Prop34
280
     0
102
RTVSPost2010PropOp34
 70
     1
102
RTVSPost2010Prop35
280
     0
102
RTVSPost2010PropOp35
 70
     1
102
RTVSPost2010Prop36
280
     0
102
RTVSPost2010PropOp36
 70
     1
102
RTVSPost2010Prop37
 90
       50
102
RTVSPost2010PropOp37
 70
     1
102
RTVSPost2010Prop38
140
0.0
102
RTVSPost2010PropOp38
 70
     1
102
RTVSPost2010Prop39
140
1.0
102
RTVSPost2010PropOp39
 70
     1
102
RTVSPost2010Prop40
 90
        0
102
RTVSPost2010PropOp40
 70
     1
102
RTVSPost2010Prop41ColorIndex
 90
       18
102
RTVSPost2010Prop41ColorRGB
 90
        0
102
RTVSPost2010PropOp41
 70
     1
102
RTVSPost2010Prop42
 90
       50
102
RTVSPost2010PropOp42
 70
     1
102
RTVSPost2010Prop43
 90
        3
102
RTVSPost2010PropOp43
 70
     1
102
RTVSPost2010Prop44ColorIndex
 90
        5
102
RTVSPost2010Prop44ColorRGB
 90
      255
102
RTVSPost2010PropOp44
 70
     1
102
RTVSPost2010Prop45
280
     0
102
RTVSPost2010PropOp45
 70
     1
102
RTVSPost2010Prop46
 90
       50
102
RTVSPost2010PropOp46
 70
     1
102
RTVSPost2010Prop47
 90
       50
102
RTVSPost2010PropOp47
 70
     1
102
RTVSPost2010Prop48
 90
       50
102
RTVSPost2010PropOp48
 70
     1
102
RTVSPost2010Prop49
280
     0
102
RTVSPost2010PropOp49
 70
     1
102
RTVSPost2010Prop50
 90
       50
102
RTVSPost2010PropOp50
 70
     1
102
RTVSPost2010Prop51ColorIndex
 90
      256
102
RTVSPost2010Prop51ColorRGB
 90
-16777216
102
RTVSPost2010PropOp51
 70
     0
102
RTVSPost2010Prop52
140
1.0
102
RTVSPost2010PropOp52
 70
     0
102
RTVSPost2010Prop53
 90
        2
102
RTVSPost2010PropOp53
 70
     1
102
RTVSPost2010Prop54
  1
strokes_ogs.tif
102
RTVSPost2010PropOp54
 70
     1
102
RTVSPost2010Prop55
280
     0
102
RTVSPost2010PropOp55
 70
     1
102
RTVSPost2010Prop56
140
1.0
102
RTVSPost2010PropOp56
 70
     1
102
RTVSPost2010Prop57
140
1.0
102
RTVSPost2010PropOp57
 70
     1
102
RTVSPropertyOp0
 70
     1
102
RTVSPropertyOp1
 70
     1
102
RTVSPropertyOp2
 70
     1
102
RTVSPropertyOp3
 70
     1
102
RTVSPropertyOp4
 70
     1
102
RTVSPropertyOp5
 70
     1
102
RTVSPropertyOp6
 70
     1
102
RTVSPropertyOp7
 70
     1
102
RTVSPropertyOp8
 70
     1
102
RTVSPropertyOp9
 70
     1
102
RTVSPropertyOp10
 70
     1
102
RTVSPropertyOp11
 70
     1
102
RTVSPropertyOp12
 70
     1
102
RTVSPropertyOp13
 70
     1
102
RTVSPropertyOp14
 70
     1
102
RTVSPropertyOp15
 70
     1
102
RTVSPropertyOp16
 70
     1
102
RTVSPropertyOp17
 70
     1
102
RTVSPropertyOp18
 70
     1
102
RTVSPropertyOp19
 70
     1
102
RTVSPropertyOp20
 70
     1
102
RTVSPropertyOp21
 70
     1
102
RTVSPropertyOp22
 70
     1
102
RTVSPropertyOp23
 70
     1
102
RTVSPropertyOp24
 70
     1
102
RTVSPropertyOp25
 70
     1
102
RTVSPropertyOp26
 70
     1
102
RTVSPropertyOp27
 70
     1
102
RTVSPropertyOp28
 70
     1
102
RTVSPropertyOp29
 70
     1
102
RTVSPropertyOp30
 70
     1
102
RTVSPropertyOp31
 70
     1
102
RTVSPropertyOp32
 70
     1
102
RTVSPropertyOp33
 70
     1
102
RTVSPropertyOp34
 70
     1
102
RTVSPropertyOp35
 70
     1
102
RTVSPropertyOp36
 70
     1
102
RTVSPropertyOp37
 70
     1
102
RTVSPropertyOp38
 70
     1
102
RTVSPropertyOp39
 70
     1
102
RTVSPropertyOp40
 70
     1
102
RTVSPropertyOp41
 70
     1
102
RTVSPropertyOp42
 70
     1
102
RTVSPropertyOp43
 70
     1
102
RTVSPropertyOp44
 70
     1
102
RTVSPropertyOp45
 70
     1
102
RTVSPropertyOp46
 70
     1
102
RTVSPropertyOp47
 70
     1
102
RTVSPropertyOp48
 70
     1
102
RTVSPropertyOp49
 70
     1
102
RTVSPropertyOp50
 70
     1
102
RTVSPropertyOp51
 70
     0
102
RTVSPropertyOp52
 70
     0
102
RTVSPropertyOp53
 70
     1
102
RTVSPropertyOp54
 70
     1
102
RTVSPropertyOp55
 70
     1
102
RTVSPropertyOp56
 70
     1
102
RTVSPropertyOp57
 70
     1
102
RTVSPropertyOp58
 70
     1
102
RTVSPropertyOp59
 70
     1
102
RTVSPropertyOp60
 70
     1
102
RTVSPropertyOp61
 70
     1
102
RTVSPropertyOp62
 70
     1
  0
XRECORD
  5
183C
102
{ACAD_REACTORS
330
183B
102
}
330
183B
100
AcDbXrecord
280
     1
102
RTVSPost2010Prop28
280
     0
102
RTVSPost2010PropOp28
 70
     1
102
RTVSPost2010Prop29
280
     1
102
RTVSPost2010PropOp29
 70
     1
102
RTVSPost2010Prop30
280
     1
102
RTVSPost2010PropOp30
 70
     1
102
RTVSPost2010Prop31
280
     0
102
RTVSPost2010PropOp31
 70
     1
102
RTVSPost2010Prop32
280
     0
102
RTVSPost2010PropOp32
 70
     1
102
RTVSPost2010Prop33
280
     0
102
RTVSPost2010PropOp33
 70
     1
102
RTVSPost2010Prop34
280
     0
102
RTVSPost2010PropOp34
 70
     1
102
RTVSPost2010Prop35
280
     0
102
RTVSPost2010PropOp35
 70
     1
102
RTVSPost2010Prop36
280
     0
102
RTVSPost2010PropOp36
 70
     1
102
RTVSPost2010Prop37
 90
       50
102
RTVSPost2010PropOp37
 70
     1
102
RTVSPost2010Prop38
140
0.0
102
RTVSPost2010PropOp38
 70
     1
102
RTVSPost2010Prop39
140
1.0
102
RTVSPost2010PropOp39
 70
     1
102
RTVSPost2010Prop40
 90
        0
102
RTVSPost2010PropOp40
 70
     1
102
RTVSPost2010Prop41ColorIndex
 90
       18
102
RTVSPost2010Prop41ColorRGB
 90
        0
102
RTVSPost2010PropOp41
 70
     1
102
RTVSPost2010Prop42
 90
       50
102
RTVSPost2010PropOp42
 70
     1
102
RTVSPost2010Prop43
 90
        3
102
RTVSPost2010PropOp43
 70
     1
102
RTVSPost2010Prop44ColorIndex
 90
        5
102
RTVSPost2010Prop44ColorRGB
 90
      255
102
RTVSPost2010PropOp44
 70
     1
102
RTVSPost2010Prop45
280
     0
102
RTVSPost2010PropOp45
 70
     1
102
RTVSPost2010Prop46
 90
       50
102
RTVSPost2010PropOp46
 70
     1
102
RTVSPost2010Prop47
 90
       50
102
RTVSPost2010PropOp47
 70
     1
102
RTVSPost2010Prop48
 90
       50
102
RTVSPost2010PropOp48
 70
     1
102
RTVSPost2010Prop49
280
     0
102
RTVSPost2010PropOp49
 70
     1
102
RTVSPost2010Prop50
 90
       50
102
RTVSPost2010PropOp50
 70
     1
102
RTVSPost2010Prop51ColorIndex
 90
      256
102
RTVSPost2010Prop51ColorRGB
 90
-16777216
102
RTVSPost2010PropOp51
 70
     0
102
RTVSPost2010Prop52
140
1.0
102
RTVSPost2010PropOp52
 70
     0
102
RTVSPost2010Prop53
 90
        2
102
RTVSPost2010PropOp53
 70
     1
102
RTVSPost2010Prop54
  1
strokes_ogs.tif
102
RTVSPost2010PropOp54
 70
     1
102
RTVSPost2010Prop55
280
     0
102
RTVSPost2010PropOp55
 70
     1
102
RTVSPost2010Prop56
140
1.0
102
RTVSPost2010PropOp56
 70
     1
102
RTVSPost2010Prop57
140
1.0
102
RTVSPost2010PropOp57
 70
     1
102
RTVSPropertyOp0
 70
     1
102
RTVSPropertyOp1
 70
     1
102
RTVSPropertyOp2
 70
     1
102
RTVSPropertyOp3
 70
     1
102
RTVSPropertyOp4
 70
     1
102
RTVSPropertyOp5
 70
     1
102
RTVSPropertyOp6
 70
     1
102
RTVSPropertyOp7
 70
     1
102
RTVSPropertyOp8
 70
     1
102
RTVSPropertyOp9
 70
     1
102
RTVSPropertyOp10
 70
     1
102
RTVSPropertyOp11
 70
     1
102
RTVSPropertyOp12
 70
     1
102
RTVSPropertyOp13
 70
     1
102
RTVSPropertyOp14
 70
     1
102
RTVSPropertyOp15
 70
     1
102
RTVSPropertyOp16
 70
     1
102
RTVSPropertyOp17
 70
     1
102
RTVSPropertyOp18
 70
     1
102
RTVSPropertyOp19
 70
     1
102
RTVSPropertyOp20
 70
     1
102
RTVSPropertyOp21
 70
     1
102
RTVSPropertyOp22
 70
     1
102
RTVSPropertyOp23
 70
     1
102
RTVSPropertyOp24
 70
     1
102
RTVSPropertyOp25
 70
     1
102
RTVSPropertyOp26
 70
     1
102
RTVSPropertyOp27
 70
     1
102
RTVSPropertyOp28
 70
     1
102
RTVSPropertyOp29
 70
     1
102
RTVSPropertyOp30
 70
     1
102
RTVSPropertyOp31
 70
     1
102
RTVSPropertyOp32
 70
     1
102
RTVSPropertyOp33
 70
     1
102
RTVSPropertyOp34
 70
     1
102
RTVSPropertyOp35
 70
     1
102
RTVSPropertyOp36
 70
     1
102
RTVSPropertyOp37
 70
     1
102
RTVSPropertyOp38
 70
     1
102
RTVSPropertyOp39
 70
     1
102
RTVSPropertyOp40
 70
     1
102
RTVSPropertyOp41
 70
     1
102
RTVSPropertyOp42
 70
     1
102
RTVSPropertyOp43
 70
     1
102
RTVSPropertyOp44
 70
     1
102
RTVSPropertyOp45
 70
     1
102
RTVSPropertyOp46
 70
     1
102
RTVSPropertyOp47
 70
     1
102
RTVSPropertyOp48
 70
     1
102
RTVSPropertyOp49
 70
     1
102
RTVSPropertyOp50
 70
     1
102
RTVSPropertyOp51
 70
     0
102
RTVSPropertyOp52
 70
     0
102
RTVSPropertyOp53
 70
     1
102
RTVSPropertyOp54
 70
     1
102
RTVSPropertyOp55
 70
     1
102
RTVSPropertyOp56
 70
     1
102
RTVSPropertyOp57
 70
     1
102
RTVSPropertyOp58
 70
     1
102
RTVSPropertyOp59
 70
     1
102
RTVSPropertyOp60
 70
     1
102
RTVSPropertyOp61
 70
     1
102
RTVSPropertyOp62
 70
     1
  0
XRECORD
  5
182E
102
{ACAD_REACTORS
330
182D
102
}
330
182D
100
AcDbXrecord
280
     1
102
RTVSPost2010Prop28
280
     0
102
RTVSPost2010PropOp28
 70
     1
102
RTVSPost2010Prop29
280
     1
102
RTVSPost2010PropOp29
 70
     1
102
RTVSPost2010Prop30
280
     1
102
RTVSPost2010PropOp30
 70
     1
102
RTVSPost2010Prop31
280
     0
102
RTVSPost2010PropOp31
 70
     1
102
RTVSPost2010Prop32
280
     0
102
RTVSPost2010PropOp32
 70
     1
102
RTVSPost2010Prop33
280
     0
102
RTVSPost2010PropOp33
 70
     1
102
RTVSPost2010Prop34
280
     0
102
RTVSPost2010PropOp34
 70
     1
102
RTVSPost2010Prop35
280
     0
102
RTVSPost2010PropOp35
 70
     1
102
RTVSPost2010Prop36
280
     0
102
RTVSPost2010PropOp36
 70
     1
102
RTVSPost2010Prop37
 90
       50
102
RTVSPost2010PropOp37
 70
     1
102
RTVSPost2010Prop38
140
0.0
102
RTVSPost2010PropOp38
 70
     1
102
RTVSPost2010Prop39
140
1.0
102
RTVSPost2010PropOp39
 70
     1
102
RTVSPost2010Prop40
 90
        0
102
RTVSPost2010PropOp40
 70
     1
102
RTVSPost2010Prop41ColorIndex
 90
       18
102
RTVSPost2010Prop41ColorRGB
 90
        0
102
RTVSPost2010PropOp41
 70
     1
102
RTVSPost2010Prop42
 90
       50
102
RTVSPost2010PropOp42
 70
     1
102
RTVSPost2010Prop43
 90
        3
102
RTVSPost2010PropOp43
 70
     1
102
RTVSPost2010Prop44ColorIndex
 90
        5
102
RTVSPost2010Prop44ColorRGB
 90
      255
102
RTVSPost2010PropOp44
 70
     1
102
RTVSPost2010Prop45
280
     0
102
RTVSPost2010PropOp45
 70
     1
102
RTVSPost2010Prop46
 90
       50
102
RTVSPost2010PropOp46
 70
     1
102
RTVSPost2010Prop47
 90
       50
102
RTVSPost2010PropOp47
 70
     1
102
RTVSPost2010Prop48
 90
       50
102
RTVSPost2010PropOp48
 70
     1
102
RTVSPost2010Prop49
280
     0
102
RTVSPost2010PropOp49
 70
     1
102
RTVSPost2010Prop50
 90
       50
102
RTVSPost2010PropOp50
 70
     1
102
RTVSPost2010Prop51ColorIndex
 90
      256
102
RTVSPost2010Prop51ColorRGB
 90
-16777216
102
RTVSPost2010PropOp51
 70
     0
102
RTVSPost2010Prop52
140
1.0
102
RTVSPost2010PropOp52
 70
     0
102
RTVSPost2010Prop53
 90
        2
102
RTVSPost2010PropOp53
 70
     1
102
RTVSPost2010Prop54
  1
strokes_ogs.tif
102
RTVSPost2010PropOp54
 70
     1
102
RTVSPost2010Prop55
280
     0
102
RTVSPost2010PropOp55
 70
     1
102
RTVSPost2010Prop56
140
1.0
102
RTVSPost2010PropOp56
 70
     1
102
RTVSPost2010Prop57
140
1.0
102
RTVSPost2010PropOp57
 70
     1
102
RTVSPropertyOp0
 70
     1
102
RTVSPropertyOp1
 70
     1
102
RTVSPropertyOp2
 70
     1
102
RTVSPropertyOp3
 70
     1
102
RTVSPropertyOp4
 70
     1
102
RTVSPropertyOp5
 70
     1
102
RTVSPropertyOp6
 70
     1
102
RTVSPropertyOp7
 70
     1
102
RTVSPropertyOp8
 70
     1
102
RTVSPropertyOp9
 70
     1
102
RTVSPropertyOp10
 70
     1
102
RTVSPropertyOp11
 70
     1
102
RTVSPropertyOp12
 70
     1
102
RTVSPropertyOp13
 70
     1
102
RTVSPropertyOp14
 70
     1
102
RTVSPropertyOp15
 70
     1
102
RTVSPropertyOp16
 70
     1
102
RTVSPropertyOp17
 70
     1
102
RTVSPropertyOp18
 70
     1
102
RTVSPropertyOp19
 70
     1
102
RTVSPropertyOp20
 70
     1
102
RTVSPropertyOp21
 70
     1
102
RTVSPropertyOp22
 70
     1
102
RTVSPropertyOp23
 70
     1
102
RTVSPropertyOp24
 70
     1
102
RTVSPropertyOp25
 70
     1
102
RTVSPropertyOp26
 70
     1
102
RTVSPropertyOp27
 70
     1
102
RTVSPropertyOp28
 70
     1
102
RTVSPropertyOp29
 70
     1
102
RTVSPropertyOp30
 70
     1
102
RTVSPropertyOp31
 70
     1
102
RTVSPropertyOp32
 70
     1
102
RTVSPropertyOp33
 70
     1
102
RTVSPropertyOp34
 70
     1
102
RTVSPropertyOp35
 70
     1
102
RTVSPropertyOp36
 70
     1
102
RTVSPropertyOp37
 70
     1
102
RTVSPropertyOp38
 70
     1
102
RTVSPropertyOp39
 70
     1
102
RTVSPropertyOp40
 70
     1
102
RTVSPropertyOp41
 70
     1
102
RTVSPropertyOp42
 70
     1
102
RTVSPropertyOp43
 70
     1
102
RTVSPropertyOp44
 70
     1
102
RTVSPropertyOp45
 70
     1
102
RTVSPropertyOp46
 70
     1
102
RTVSPropertyOp47
 70
     1
102
RTVSPropertyOp48
 70
     1
102
RTVSPropertyOp49
 70
     1
102
RTVSPropertyOp50
 70
     1
102
RTVSPropertyOp51
 70
     0
102
RTVSPropertyOp52
 70
     0
102
RTVSPropertyOp53
 70
     1
102
RTVSPropertyOp54
 70
     1
102
RTVSPropertyOp55
 70
     1
102
RTVSPropertyOp56
 70
     1
102
RTVSPropertyOp57
 70
     1
102
RTVSPropertyOp58
 70
     1
102
RTVSPropertyOp59
 70
     1
102
RTVSPropertyOp60
 70
     1
102
RTVSPropertyOp61
 70
     1
102
RTVSPropertyOp62
 70
     1
  0
XRECORD
  5
1832
102
{ACAD_REACTORS
330
1831
102
}
330
1831
100
AcDbXrecord
280
     1
102
RTVSPost2010Prop28
280
     0
102
RTVSPost2010PropOp28
 70
     1
102
RTVSPost2010Prop29
280
     1
102
RTVSPost2010PropOp29
 70
     1
102
RTVSPost2010Prop30
280
     1
102
RTVSPost2010PropOp30
 70
     1
102
RTVSPost2010Prop31
280
     0
102
RTVSPost2010PropOp31
 70
     1
102
RTVSPost2010Prop32
280
     0
102
RTVSPost2010PropOp32
 70
     1
102
RTVSPost2010Prop33
280
     0
102
RTVSPost2010PropOp33
 70
     1
102
RTVSPost2010Prop34
280
     0
102
RTVSPost2010PropOp34
 70
     1
102
RTVSPost2010Prop35
280
     0
102
RTVSPost2010PropOp35
 70
     1
102
RTVSPost2010Prop36
280
     0
102
RTVSPost2010PropOp36
 70
     1
102
RTVSPost2010Prop37
 90
       50
102
RTVSPost2010PropOp37
 70
     1
102
RTVSPost2010Prop38
140
0.0
102
RTVSPost2010PropOp38
 70
     1
102
RTVSPost2010Prop39
140
1.0
102
RTVSPost2010PropOp39
 70
     1
102
RTVSPost2010Prop40
 90
        0
102
RTVSPost2010PropOp40
 70
     1
102
RTVSPost2010Prop41ColorIndex
 90
       18
102
RTVSPost2010Prop41ColorRGB
 90
        0
102
RTVSPost2010PropOp41
 70
     1
102
RTVSPost2010Prop42
 90
       50
102
RTVSPost2010PropOp42
 70
     1
102
RTVSPost2010Prop43
 90
        3
102
RTVSPost2010PropOp43
 70
     1
102
RTVSPost2010Prop44ColorIndex
 90
        5
102
RTVSPost2010Prop44ColorRGB
 90
      255
102
RTVSPost2010PropOp44
 70
     1
102
RTVSPost2010Prop45
280
     0
102
RTVSPost2010PropOp45
 70
     1
102
RTVSPost2010Prop46
 90
       50
102
RTVSPost2010PropOp46
 70
     1
102
RTVSPost2010Prop47
 90
       50
102
RTVSPost2010PropOp47
 70
     1
102
RTVSPost2010Prop48
 90
       50
102
RTVSPost2010PropOp48
 70
     1
102
RTVSPost2010Prop49
280
     0
102
RTVSPost2010PropOp49
 70
     1
102
RTVSPost2010Prop50
 90
       50
102
RTVSPost2010PropOp50
 70
     1
102
RTVSPost2010Prop51ColorIndex
 90
      256
102
RTVSPost2010Prop51ColorRGB
 90
-16777216
102
RTVSPost2010PropOp51
 70
     0
102
RTVSPost2010Prop52
140
1.0
102
RTVSPost2010PropOp52
 70
     0
102
RTVSPost2010Prop53
 90
        2
102
RTVSPost2010PropOp53
 70
     1
102
RTVSPost2010Prop54
  1
strokes_ogs.tif
102
RTVSPost2010PropOp54
 70
     1
102
RTVSPost2010Prop55
280
     0
102
RTVSPost2010PropOp55
 70
     1
102
RTVSPost2010Prop56
140
1.0
102
RTVSPost2010PropOp56
 70
     1
102
RTVSPost2010Prop57
140
1.0
102
RTVSPost2010PropOp57
 70
     1
102
RTVSPropertyOp0
 70
     1
102
RTVSPropertyOp1
 70
     1
102
RTVSPropertyOp2
 70
     1
102
RTVSPropertyOp3
 70
     1
102
RTVSPropertyOp4
 70
     1
102
RTVSPropertyOp5
 70
     1
102
RTVSPropertyOp6
 70
     1
102
RTVSPropertyOp7
 70
     1
102
RTVSPropertyOp8
 70
     1
102
RTVSPropertyOp9
 70
     1
102
RTVSPropertyOp10
 70
     1
102
RTVSPropertyOp11
 70
     1
102
RTVSPropertyOp12
 70
     1
102
RTVSPropertyOp13
 70
     1
102
RTVSPropertyOp14
 70
     1
102
RTVSPropertyOp15
 70
     1
102
RTVSPropertyOp16
 70
     1
102
RTVSPropertyOp17
 70
     1
102
RTVSPropertyOp18
 70
     1
102
RTVSPropertyOp19
 70
     1
102
RTVSPropertyOp20
 70
     1
102
RTVSPropertyOp21
 70
     1
102
RTVSPropertyOp22
 70
     1
102
RTVSPropertyOp23
 70
     1
102
RTVSPropertyOp24
 70
     1
102
RTVSPropertyOp25
 70
     1
102
RTVSPropertyOp26
 70
     1
102
RTVSPropertyOp27
 70
     1
102
RTVSPropertyOp28
 70
     1
102
RTVSPropertyOp29
 70
     1
102
RTVSPropertyOp30
 70
     1
102
RTVSPropertyOp31
 70
     1
102
RTVSPropertyOp32
 70
     1
102
RTVSPropertyOp33
 70
     1
102
RTVSPropertyOp34
 70
     1
102
RTVSPropertyOp35
 70
     1
102
RTVSPropertyOp36
 70
     1
102
RTVSPropertyOp37
 70
     1
102
RTVSPropertyOp38
 70
     1
102
RTVSPropertyOp39
 70
     1
102
RTVSPropertyOp40
 70
     1
102
RTVSPropertyOp41
 70
     1
102
RTVSPropertyOp42
 70
     1
102
RTVSPropertyOp43
 70
     1
102
RTVSPropertyOp44
 70
     1
102
RTVSPropertyOp45
 70
     1
102
RTVSPropertyOp46
 70
     1
102
RTVSPropertyOp47
 70
     1
102
RTVSPropertyOp48
 70
     1
102
RTVSPropertyOp49
 70
     1
102
RTVSPropertyOp50
 70
     1
102
RTVSPropertyOp51
 70
     0
102
RTVSPropertyOp52
 70
     0
102
RTVSPropertyOp53
 70
     1
102
RTVSPropertyOp54
 70
     1
102
RTVSPropertyOp55
 70
     1
102
RTVSPropertyOp56
 70
     1
102
RTVSPropertyOp57
 70
     1
102
RTVSPropertyOp58
 70
     1
102
RTVSPropertyOp59
 70
     1
102
RTVSPropertyOp60
 70
     1
102
RTVSPropertyOp61
 70
     1
102
RTVSPropertyOp62
 70
     1
  0
XRECORD
  5
184C
102
{ACAD_REACTORS
330
184B
102
}
330
184B
100
AcDbXrecord
280
     1
102
RTVSPost2010Prop28
280
     0
102
RTVSPost2010PropOp28
 70
     1
102
RTVSPost2010Prop29
280
     1
102
RTVSPost2010PropOp29
 70
     1
102
RTVSPost2010Prop30
280
     1
102
RTVSPost2010PropOp30
 70
     1
102
RTVSPost2010Prop31
280
     0
102
RTVSPost2010PropOp31
 70
     1
102
RTVSPost2010Prop32
280
     0
102
RTVSPost2010PropOp32
 70
     1
102
RTVSPost2010Prop33
280
     0
102
RTVSPost2010PropOp33
 70
     1
102
RTVSPost2010Prop34
280
     0
102
RTVSPost2010PropOp34
 70
     1
102
RTVSPost2010Prop35
280
     0
102
RTVSPost2010PropOp35
 70
     1
102
RTVSPost2010Prop36
280
     0
102
RTVSPost2010PropOp36
 70
     1
102
RTVSPost2010Prop37
 90
       50
102
RTVSPost2010PropOp37
 70
     0
102
RTVSPost2010Prop38
140
0.0
102
RTVSPost2010PropOp38
 70
     0
102
RTVSPost2010Prop39
140
1.0
102
RTVSPost2010PropOp39
 70
     0
102
RTVSPost2010Prop40
 90
        0
102
RTVSPost2010PropOp40
 70
     0
102
RTVSPost2010Prop41ColorIndex
 90
       18
102
RTVSPost2010Prop41ColorRGB
 90
        0
102
RTVSPost2010PropOp41
 70
     0
102
RTVSPost2010Prop42
 90
       50
102
RTVSPost2010PropOp42
 70
     0
102
RTVSPost2010Prop43
 90
        3
102
RTVSPost2010PropOp43
 70
     0
102
RTVSPost2010Prop44ColorIndex
 90
        5
102
RTVSPost2010Prop44ColorRGB
 90
      255
102
RTVSPost2010PropOp44
 70
     0
102
RTVSPost2010Prop45
280
     0
102
RTVSPost2010PropOp45
 70
     1
102
RTVSPost2010Prop46
 90
       50
102
RTVSPost2010PropOp46
 70
     0
102
RTVSPost2010Prop47
 90
       50
102
RTVSPost2010PropOp47
 70
     0
102
RTVSPost2010Prop48
 90
       50
102
RTVSPost2010PropOp48
 70
     0
102
RTVSPost2010Prop49
280
     0
102
RTVSPost2010PropOp49
 70
     1
102
RTVSPost2010Prop50
 90
       50
102
RTVSPost2010PropOp50
 70
     0
102
RTVSPost2010Prop51ColorIndex
 90
      256
102
RTVSPost2010Prop51ColorRGB
 90
-16777216
102
RTVSPost2010PropOp51
 70
     0
102
RTVSPost2010Prop52
140
1.0
102
RTVSPost2010PropOp52
 70
     0
102
RTVSPost2010Prop53
 90
        2
102
RTVSPost2010PropOp53
 70
     0
102
RTVSPost2010Prop54
  1
strokes_ogs.tif
102
RTVSPost2010PropOp54
 70
     0
102
RTVSPost2010Prop55
280
     0
102
RTVSPost2010PropOp55
 70
     1
102
RTVSPost2010Prop56
140
1.0
102
RTVSPost2010PropOp56
 70
     0
102
RTVSPost2010Prop57
140
1.0
102
RTVSPost2010PropOp57
 70
     0
102
RTVSPropertyOp0
 70
     0
102
RTVSPropertyOp1
 70
     0
102
RTVSPropertyOp2
 70
     0
102
RTVSPropertyOp3
 70
     0
102
RTVSPropertyOp4
 70
     0
102
RTVSPropertyOp5
 70
     0
102
RTVSPropertyOp6
 70
     0
102
RTVSPropertyOp7
 70
     0
102
RTVSPropertyOp8
 70
     0
102
RTVSPropertyOp9
 70
     0
102
RTVSPropertyOp10
 70
     0
102
RTVSPropertyOp11
 70
     0
102
RTVSPropertyOp12
 70
     0
102
RTVSPropertyOp13
 70
     0
102
RTVSPropertyOp14
 70
     2
102
RTVSPropertyOp15
 70
     0
102
RTVSPropertyOp16
 70
     0
102
RTVSPropertyOp17
 70
     0
102
RTVSPropertyOp18
 70
     0
102
RTVSPropertyOp19
 70
     0
102
RTVSPropertyOp20
 70
     0
102
RTVSPropertyOp21
 70
     0
102
RTVSPropertyOp22
 70
     0
102
RTVSPropertyOp23
 70
     0
102
RTVSPropertyOp24
 70
     0
102
RTVSPropertyOp25
 70
     0
102
RTVSPropertyOp26
 70
     0
102
RTVSPropertyOp27
 70
     0
102
RTVSPropertyOp28
 70
     1
102
RTVSPropertyOp29
 70
     1
102
RTVSPropertyOp30
 70
     1
102
RTVSPropertyOp31
 70
     1
102
RTVSPropertyOp32
 70
     1
102
RTVSPropertyOp33
 70
     1
102
RTVSPropertyOp34
 70
     1
102
RTVSPropertyOp35
 70
     1
102
RTVSPropertyOp36
 70
     1
102
RTVSPropertyOp37
 70
     0
102
RTVSPropertyOp38
 70
     0
102
RTVSPropertyOp39
 70
     0
102
RTVSPropertyOp40
 70
     0
102
RTVSPropertyOp41
 70
     0
102
RTVSPropertyOp42
 70
     0
102
RTVSPropertyOp43
 70
     0
102
RTVSPropertyOp44
 70
     0
102
RTVSPropertyOp45
 70
     1
102
RTVSPropertyOp46
 70
     0
102
RTVSPropertyOp47
 70
     0
102
RTVSPropertyOp48
 70
     0
102
RTVSPropertyOp49
 70
     1
102
RTVSPropertyOp50
 70
     0
102
RTVSPropertyOp51
 70
     0
102
RTVSPropertyOp52
 70
     0
102
RTVSPropertyOp53
 70
     0
102
RTVSPropertyOp54
 70
     0
102
RTVSPropertyOp55
 70
     1
102
RTVSPropertyOp56
 70
     0
102
RTVSPropertyOp57
 70
     0
102
RTVSPropertyOp58
 70
     0
102
RTVSPropertyOp59
 70
     0
102
RTVSPropertyOp60
 70
     0
102
RTVSPropertyOp61
 70
     0
102
RTVSPropertyOp62
 70
     0
  0
XRECORD
  5
183A
102
{ACAD_REACTORS
330
1839
102
}
330
1839
100
AcDbXrecord
280
     1
102
RTVSPost2010Prop28
280
     0
102
RTVSPost2010PropOp28
 70
     1
102
RTVSPost2010Prop29
280
     1
102
RTVSPost2010PropOp29
 70
     1
102
RTVSPost2010Prop30
280
     1
102
RTVSPost2010PropOp30
 70
     1
102
RTVSPost2010Prop31
280
     0
102
RTVSPost2010PropOp31
 70
     1
102
RTVSPost2010Prop32
280
     0
102
RTVSPost2010PropOp32
 70
     1
102
RTVSPost2010Prop33
280
     0
102
RTVSPost2010PropOp33
 70
     1
102
RTVSPost2010Prop34
280
     0
102
RTVSPost2010PropOp34
 70
     1
102
RTVSPost2010Prop35
280
     0
102
RTVSPost2010PropOp35
 70
     1
102
RTVSPost2010Prop36
280
     0
102
RTVSPost2010PropOp36
 70
     1
102
RTVSPost2010Prop37
 90
       50
102
RTVSPost2010PropOp37
 70
     1
102
RTVSPost2010Prop38
140
0.0
102
RTVSPost2010PropOp38
 70
     1
102
RTVSPost2010Prop39
140
1.0
102
RTVSPost2010PropOp39
 70
     1
102
RTVSPost2010Prop40
 90
        0
102
RTVSPost2010PropOp40
 70
     1
102
RTVSPost2010Prop41ColorIndex
 90
       18
102
RTVSPost2010Prop41ColorRGB
 90
        0
102
RTVSPost2010PropOp41
 70
     1
102
RTVSPost2010Prop42
 90
       50
102
RTVSPost2010PropOp42
 70
     1
102
RTVSPost2010Prop43
 90
        3
102
RTVSPost2010PropOp43
 70
     1
102
RTVSPost2010Prop44ColorIndex
 90
        5
102
RTVSPost2010Prop44ColorRGB
 90
      255
102
RTVSPost2010PropOp44
 70
     1
102
RTVSPost2010Prop45
280
     0
102
RTVSPost2010PropOp45
 70
     1
102
RTVSPost2010Prop46
 90
       50
102
RTVSPost2010PropOp46
 70
     1
102
RTVSPost2010Prop47
 90
       50
102
RTVSPost2010PropOp47
 70
     1
102
RTVSPost2010Prop48
 90
       50
102
RTVSPost2010PropOp48
 70
     1
102
RTVSPost2010Prop49
280
     0
102
RTVSPost2010PropOp49
 70
     1
102
RTVSPost2010Prop50
 90
       50
102
RTVSPost2010PropOp50
 70
     1
102
RTVSPost2010Prop51ColorIndex
 90
      256
102
RTVSPost2010Prop51ColorRGB
 90
-16777216
102
RTVSPost2010PropOp51
 70
     0
102
RTVSPost2010Prop52
140
1.0
102
RTVSPost2010PropOp52
 70
     0
102
RTVSPost2010Prop53
 90
        2
102
RTVSPost2010PropOp53
 70
     1
102
RTVSPost2010Prop54
  1
strokes_ogs.tif
102
RTVSPost2010PropOp54
 70
     1
102
RTVSPost2010Prop55
280
     0
102
RTVSPost2010PropOp55
 70
     1
102
RTVSPost2010Prop56
140
1.0
102
RTVSPost2010PropOp56
 70
     1
102
RTVSPost2010Prop57
140
1.0
102
RTVSPost2010PropOp57
 70
     1
102
RTVSPropertyOp0
 70
     1
102
RTVSPropertyOp1
 70
     1
102
RTVSPropertyOp2
 70
     1
102
RTVSPropertyOp3
 70
     1
102
RTVSPropertyOp4
 70
     1
102
RTVSPropertyOp5
 70
     1
102
RTVSPropertyOp6
 70
     1
102
RTVSPropertyOp7
 70
     1
102
RTVSPropertyOp8
 70
     1
102
RTVSPropertyOp9
 70
     1
102
RTVSPropertyOp10
 70
     1
102
RTVSPropertyOp11
 70
     1
102
RTVSPropertyOp12
 70
     1
102
RTVSPropertyOp13
 70
     1
102
RTVSPropertyOp14
 70
     1
102
RTVSPropertyOp15
 70
     1
102
RTVSPropertyOp16
 70
     1
102
RTVSPropertyOp17
 70
     1
102
RTVSPropertyOp18
 70
     1
102
RTVSPropertyOp19
 70
     1
102
RTVSPropertyOp20
 70
     1
102
RTVSPropertyOp21
 70
     1
102
RTVSPropertyOp22
 70
     1
102
RTVSPropertyOp23
 70
     1
102
RTVSPropertyOp24
 70
     1
102
RTVSPropertyOp25
 70
     1
102
RTVSPropertyOp26
 70
     1
102
RTVSPropertyOp27
 70
     1
102
RTVSPropertyOp28
 70
     1
102
RTVSPropertyOp29
 70
     1
102
RTVSPropertyOp30
 70
     1
102
RTVSPropertyOp31
 70
     1
102
RTVSPropertyOp32
 70
     1
102
RTVSPropertyOp33
 70
     1
102
RTVSPropertyOp34
 70
     1
102
RTVSPropertyOp35
 70
     1
102
RTVSPropertyOp36
 70
     1
102
RTVSPropertyOp37
 70
     1
102
RTVSPropertyOp38
 70
     1
102
RTVSPropertyOp39
 70
     1
102
RTVSPropertyOp40
 70
     1
102
RTVSPropertyOp41
 70
     1
102
RTVSPropertyOp42
 70
     1
102
RTVSPropertyOp43
 70
     1
102
RTVSPropertyOp44
 70
     1
102
RTVSPropertyOp45
 70
     1
102
RTVSPropertyOp46
 70
     1
102
RTVSPropertyOp47
 70
     1
102
RTVSPropertyOp48
 70
     1
102
RTVSPropertyOp49
 70
     1
102
RTVSPropertyOp50
 70
     1
102
RTVSPropertyOp51
 70
     0
102
RTVSPropertyOp52
 70
     0
102
RTVSPropertyOp53
 70
     1
102
RTVSPropertyOp54
 70
     1
102
RTVSPropertyOp55
 70
     1
102
RTVSPropertyOp56
 70
     1
102
RTVSPropertyOp57
 70
     1
102
RTVSPropertyOp58
 70
     1
102
RTVSPropertyOp59
 70
     1
102
RTVSPropertyOp60
 70
     1
102
RTVSPropertyOp61
 70
     1
102
RTVSPropertyOp62
 70
     1
  0
XRECORD
  5
181E
102
{ACAD_REACTORS
330
181D
102
}
330
181D
100
AcDbXrecord
280
     1
102
RTVSPost2010Prop28
280
     0
102
RTVSPost2010PropOp28
 70
     1
102
RTVSPost2010Prop29
280
     1
102
RTVSPost2010PropOp29
 70
     1
102
RTVSPost2010Prop30
280
     1
102
RTVSPost2010PropOp30
 70
     1
102
RTVSPost2010Prop31
280
     0
102
RTVSPost2010PropOp31
 70
     1
102
RTVSPost2010Prop32
280
     0
102
RTVSPost2010PropOp32
 70
     1
102
RTVSPost2010Prop33
280
     0
102
RTVSPost2010PropOp33
 70
     1
102
RTVSPost2010Prop34
280
     0
102
RTVSPost2010PropOp34
 70
     1
102
RTVSPost2010Prop35
280
     0
102
RTVSPost2010PropOp35
 70
     1
102
RTVSPost2010Prop36
280
     0
102
RTVSPost2010PropOp36
 70
     1
102
RTVSPost2010Prop37
 90
       50
102
RTVSPost2010PropOp37
 70
     1
102
RTVSPost2010Prop38
140
0.0
102
RTVSPost2010PropOp38
 70
     1
102
RTVSPost2010Prop39
140
1.0
102
RTVSPost2010PropOp39
 70
     1
102
RTVSPost2010Prop40
 90
        0
102
RTVSPost2010PropOp40
 70
     1
102
RTVSPost2010Prop41ColorIndex
 90
       18
102
RTVSPost2010Prop41ColorRGB
 90
        0
102
RTVSPost2010PropOp41
 70
     1
102
RTVSPost2010Prop42
 90
       50
102
RTVSPost2010PropOp42
 70
     1
102
RTVSPost2010Prop43
 90
        3
102
RTVSPost2010PropOp43
 70
     1
102
RTVSPost2010Prop44ColorIndex
 90
        5
102
RTVSPost2010Prop44ColorRGB
 90
      255
102
RTVSPost2010PropOp44
 70
     1
102
RTVSPost2010Prop45
280
     0
102
RTVSPost2010PropOp45
 70
     1
102
RTVSPost2010Prop46
 90
       50
102
RTVSPost2010PropOp46
 70
     1
102
RTVSPost2010Prop47
 90
       50
102
RTVSPost2010PropOp47
 70
     1
102
RTVSPost2010Prop48
 90
       50
102
RTVSPost2010PropOp48
 70
     1
102
RTVSPost2010Prop49
280
     0
102
RTVSPost2010PropOp49
 70
     1
102
RTVSPost2010Prop50
 90
       50
102
RTVSPost2010PropOp50
 70
     1
102
RTVSPost2010Prop51ColorIndex
 90
      256
102
RTVSPost2010Prop51ColorRGB
 90
-16777216
102
RTVSPost2010PropOp51
 70
     0
102
RTVSPost2010Prop52
140
1.0
102
RTVSPost2010PropOp52
 70
     0
102
RTVSPost2010Prop53
 90
        2
102
RTVSPost2010PropOp53
 70
     1
102
RTVSPost2010Prop54
  1
strokes_ogs.tif
102
RTVSPost2010PropOp54
 70
     1
102
RTVSPost2010Prop55
280
     0
102
RTVSPost2010PropOp55
 70
     1
102
RTVSPost2010Prop56
140
1.0
102
RTVSPost2010PropOp56
 70
     1
102
RTVSPost2010Prop57
140
1.0
102
RTVSPost2010PropOp57
 70
     1
102
RTVSPropertyOp0
 70
     1
102
RTVSPropertyOp1
 70
     1
102
RTVSPropertyOp2
 70
     1
102
RTVSPropertyOp3
 70
     1
102
RTVSPropertyOp4
 70
     1
102
RTVSPropertyOp5
 70
     1
102
RTVSPropertyOp6
 70
     1
102
RTVSPropertyOp7
 70
     1
102
RTVSPropertyOp8
 70
     1
102
RTVSPropertyOp9
 70
     1
102
RTVSPropertyOp10
 70
     1
102
RTVSPropertyOp11
 70
     1
102
RTVSPropertyOp12
 70
     1
102
RTVSPropertyOp13
 70
     1
102
RTVSPropertyOp14
 70
     1
102
RTVSPropertyOp15
 70
     1
102
RTVSPropertyOp16
 70
     1
102
RTVSPropertyOp17
 70
     1
102
RTVSPropertyOp18
 70
     1
102
RTVSPropertyOp19
 70
     1
102
RTVSPropertyOp20
 70
     1
102
RTVSPropertyOp21
 70
     1
102
RTVSPropertyOp22
 70
     1
102
RTVSPropertyOp23
 70
     1
102
RTVSPropertyOp24
 70
     1
102
RTVSPropertyOp25
 70
     1
102
RTVSPropertyOp26
 70
     1
102
RTVSPropertyOp27
 70
     1
102
RTVSPropertyOp28
 70
     1
102
RTVSPropertyOp29
 70
     1
102
RTVSPropertyOp30
 70
     1
102
RTVSPropertyOp31
 70
     1
102
RTVSPropertyOp32
 70
     1
102
RTVSPropertyOp33
 70
     1
102
RTVSPropertyOp34
 70
     1
102
RTVSPropertyOp35
 70
     1
102
RTVSPropertyOp36
 70
     1
102
RTVSPropertyOp37
 70
     1
102
RTVSPropertyOp38
 70
     1
102
RTVSPropertyOp39
 70
     1
102
RTVSPropertyOp40
 70
     1
102
RTVSPropertyOp41
 70
     1
102
RTVSPropertyOp42
 70
     1
102
RTVSPropertyOp43
 70
     1
102
RTVSPropertyOp44
 70
     1
102
RTVSPropertyOp45
 70
     1
102
RTVSPropertyOp46
 70
     1
102
RTVSPropertyOp47
 70
     1
102
RTVSPropertyOp48
 70
     1
102
RTVSPropertyOp49
 70
     1
102
RTVSPropertyOp50
 70
     1
102
RTVSPropertyOp51
 70
     0
102
RTVSPropertyOp52
 70
     0
102
RTVSPropertyOp53
 70
     1
102
RTVSPropertyOp54
 70
     1
102
RTVSPropertyOp55
 70
     1
102
RTVSPropertyOp56
 70
     1
102
RTVSPropertyOp57
 70
     1
102
RTVSPropertyOp58
 70
     1
102
RTVSPropertyOp59
 70
     1
102
RTVSPropertyOp60
 70
     1
102
RTVSPropertyOp61
 70
     1
102
RTVSPropertyOp62
 70
     1
  0
XRECORD
  5
1820
102
{ACAD_REACTORS
330
181F
102
}
330
181F
100
AcDbXrecord
280
     1
102
RTVSPost2010Prop28
280
     0
102
RTVSPost2010PropOp28
 70
     1
102
RTVSPost2010Prop29
280
     1
102
RTVSPost2010PropOp29
 70
     1
102
RTVSPost2010Prop30
280
     1
102
RTVSPost2010PropOp30
 70
     1
102
RTVSPost2010Prop31
280
     0
102
RTVSPost2010PropOp31
 70
     1
102
RTVSPost2010Prop32
280
     0
102
RTVSPost2010PropOp32
 70
     1
102
RTVSPost2010Prop33
280
     0
102
RTVSPost2010PropOp33
 70
     1
102
RTVSPost2010Prop34
280
     0
102
RTVSPost2010PropOp34
 70
     1
102
RTVSPost2010Prop35
280
     0
102
RTVSPost2010PropOp35
 70
     1
102
RTVSPost2010Prop36
280
     0
102
RTVSPost2010PropOp36
 70
     1
102
RTVSPost2010Prop37
 90
       50
102
RTVSPost2010PropOp37
 70
     1
102
RTVSPost2010Prop38
140
0.0
102
RTVSPost2010PropOp38
 70
     1
102
RTVSPost2010Prop39
140
1.0
102
RTVSPost2010PropOp39
 70
     1
102
RTVSPost2010Prop40
 90
        0
102
RTVSPost2010PropOp40
 70
     1
102
RTVSPost2010Prop41ColorIndex
 90
       18
102
RTVSPost2010Prop41ColorRGB
 90
        0
102
RTVSPost2010PropOp41
 70
     1
102
RTVSPost2010Prop42
 90
       50
102
RTVSPost2010PropOp42
 70
     1
102
RTVSPost2010Prop43
 90
        3
102
RTVSPost2010PropOp43
 70
     1
102
RTVSPost2010Prop44ColorIndex
 90
        5
102
RTVSPost2010Prop44ColorRGB
 90
      255
102
RTVSPost2010PropOp44
 70
     1
102
RTVSPost2010Prop45
280
     0
102
RTVSPost2010PropOp45
 70
     1
102
RTVSPost2010Prop46
 90
       50
102
RTVSPost2010PropOp46
 70
     1
102
RTVSPost2010Prop47
 90
       50
102
RTVSPost2010PropOp47
 70
     1
102
RTVSPost2010Prop48
 90
       50
102
RTVSPost2010PropOp48
 70
     1
102
RTVSPost2010Prop49
280
     0
102
RTVSPost2010PropOp49
 70
     1
102
RTVSPost2010Prop50
 90
       50
102
RTVSPost2010PropOp50
 70
     1
102
RTVSPost2010Prop51ColorIndex
 90
      256
102
RTVSPost2010Prop51ColorRGB
 90
-16777216
102
RTVSPost2010PropOp51
 70
     0
102
RTVSPost2010Prop52
140
1.0
102
RTVSPost2010PropOp52
 70
     0
102
RTVSPost2010Prop53
 90
        2
102
RTVSPost2010PropOp53
 70
     1
102
RTVSPost2010Prop54
  1
strokes_ogs.tif
102
RTVSPost2010PropOp54
 70
     1
102
RTVSPost2010Prop55
280
     0
102
RTVSPost2010PropOp55
 70
     1
102
RTVSPost2010Prop56
140
1.0
102
RTVSPost2010PropOp56
 70
     1
102
RTVSPost2010Prop57
140
1.0
102
RTVSPost2010PropOp57
 70
     1
102
RTVSPropertyOp0
 70
     1
102
RTVSPropertyOp1
 70
     1
102
RTVSPropertyOp2
 70
     1
102
RTVSPropertyOp3
 70
     1
102
RTVSPropertyOp4
 70
     1
102
RTVSPropertyOp5
 70
     1
102
RTVSPropertyOp6
 70
     1
102
RTVSPropertyOp7
 70
     1
102
RTVSPropertyOp8
 70
     1
102
RTVSPropertyOp9
 70
     1
102
RTVSPropertyOp10
 70
     1
102
RTVSPropertyOp11
 70
     1
102
RTVSPropertyOp12
 70
     1
102
RTVSPropertyOp13
 70
     1
102
RTVSPropertyOp14
 70
     1
102
RTVSPropertyOp15
 70
     1
102
RTVSPropertyOp16
 70
     1
102
RTVSPropertyOp17
 70
     1
102
RTVSPropertyOp18
 70
     1
102
RTVSPropertyOp19
 70
     1
102
RTVSPropertyOp20
 70
     1
102
RTVSPropertyOp21
 70
     1
102
RTVSPropertyOp22
 70
     1
102
RTVSPropertyOp23
 70
     1
102
RTVSPropertyOp24
 70
     1
102
RTVSPropertyOp25
 70
     1
102
RTVSPropertyOp26
 70
     1
102
RTVSPropertyOp27
 70
     1
102
RTVSPropertyOp28
 70
     1
102
RTVSPropertyOp29
 70
     1
102
RTVSPropertyOp30
 70
     1
102
RTVSPropertyOp31
 70
     1
102
RTVSPropertyOp32
 70
     1
102
RTVSPropertyOp33
 70
     1
102
RTVSPropertyOp34
 70
     1
102
RTVSPropertyOp35
 70
     1
102
RTVSPropertyOp36
 70
     1
102
RTVSPropertyOp37
 70
     1
102
RTVSPropertyOp38
 70
     1
102
RTVSPropertyOp39
 70
     1
102
RTVSPropertyOp40
 70
     1
102
RTVSPropertyOp41
 70
     1
102
RTVSPropertyOp42
 70
     1
102
RTVSPropertyOp43
 70
     1
102
RTVSPropertyOp44
 70
     1
102
RTVSPropertyOp45
 70
     1
102
RTVSPropertyOp46
 70
     1
102
RTVSPropertyOp47
 70
     1
102
RTVSPropertyOp48
 70
     1
102
RTVSPropertyOp49
 70
     1
102
RTVSPropertyOp50
 70
     1
102
RTVSPropertyOp51
 70
     0
102
RTVSPropertyOp52
 70
     0
102
RTVSPropertyOp53
 70
     1
102
RTVSPropertyOp54
 70
     1
102
RTVSPropertyOp55
 70
     1
102
RTVSPropertyOp56
 70
     1
102
RTVSPropertyOp57
 70
     1
102
RTVSPropertyOp58
 70
     1
102
RTVSPropertyOp59
 70
     1
102
RTVSPropertyOp60
 70
     1
102
RTVSPropertyOp61
 70
     1
102
RTVSPropertyOp62
 70
     1
  0
XRECORD
  5
1822
102
{ACAD_REACTORS
330
1821
102
}
330
1821
100
AcDbXrecord
280
     1
102
RTVSPost2010Prop28
280
     0
102
RTVSPost2010PropOp28
 70
     1
102
RTVSPost2010Prop29
280
     1
102
RTVSPost2010PropOp29
 70
     1
102
RTVSPost2010Prop30
280
     1
102
RTVSPost2010PropOp30
 70
     1
102
RTVSPost2010Prop31
280
     0
102
RTVSPost2010PropOp31
 70
     1
102
RTVSPost2010Prop32
280
     0
102
RTVSPost2010PropOp32
 70
     1
102
RTVSPost2010Prop33
280
     0
102
RTVSPost2010PropOp33
 70
     1
102
RTVSPost2010Prop34
280
     0
102
RTVSPost2010PropOp34
 70
     1
102
RTVSPost2010Prop35
280
     0
102
RTVSPost2010PropOp35
 70
     1
102
RTVSPost2010Prop36
280
     0
102
RTVSPost2010PropOp36
 70
     1
102
RTVSPost2010Prop37
 90
       50
102
RTVSPost2010PropOp37
 70
     1
102
RTVSPost2010Prop38
140
0.0
102
RTVSPost2010PropOp38
 70
     1
102
RTVSPost2010Prop39
140
1.0
102
RTVSPost2010PropOp39
 70
     1
102
RTVSPost2010Prop40
 90
        0
102
RTVSPost2010PropOp40
 70
     1
102
RTVSPost2010Prop41ColorIndex
 90
       18
102
RTVSPost2010Prop41ColorRGB
 90
        0
102
RTVSPost2010PropOp41
 70
     1
102
RTVSPost2010Prop42
 90
       50
102
RTVSPost2010PropOp42
 70
     1
102
RTVSPost2010Prop43
 90
        3
102
RTVSPost2010PropOp43
 70
     1
102
RTVSPost2010Prop44ColorIndex
 90
        5
102
RTVSPost2010Prop44ColorRGB
 90
      255
102
RTVSPost2010PropOp44
 70
     1
102
RTVSPost2010Prop45
280
     0
102
RTVSPost2010PropOp45
 70
     1
102
RTVSPost2010Prop46
 90
       50
102
RTVSPost2010PropOp46
 70
     1
102
RTVSPost2010Prop47
 90
       50
102
RTVSPost2010PropOp47
 70
     1
102
RTVSPost2010Prop48
 90
       50
102
RTVSPost2010PropOp48
 70
     1
102
RTVSPost2010Prop49
280
     0
102
RTVSPost2010PropOp49
 70
     1
102
RTVSPost2010Prop50
 90
       50
102
RTVSPost2010PropOp50
 70
     1
102
RTVSPost2010Prop51ColorIndex
 90
      256
102
RTVSPost2010Prop51ColorRGB
 90
-16777216
102
RTVSPost2010PropOp51
 70
     0
102
RTVSPost2010Prop52
140
1.0
102
RTVSPost2010PropOp52
 70
     0
102
RTVSPost2010Prop53
 90
        2
102
RTVSPost2010PropOp53
 70
     1
102
RTVSPost2010Prop54
  1
strokes_ogs.tif
102
RTVSPost2010PropOp54
 70
     1
102
RTVSPost2010Prop55
280
     0
102
RTVSPost2010PropOp55
 70
     1
102
RTVSPost2010Prop56
140
1.0
102
RTVSPost2010PropOp56
 70
     1
102
RTVSPost2010Prop57
140
1.0
102
RTVSPost2010PropOp57
 70
     1
102
RTVSPropertyOp0
 70
     1
102
RTVSPropertyOp1
 70
     1
102
RTVSPropertyOp2
 70
     1
102
RTVSPropertyOp3
 70
     1
102
RTVSPropertyOp4
 70
     1
102
RTVSPropertyOp5
 70
     1
102
RTVSPropertyOp6
 70
     1
102
RTVSPropertyOp7
 70
     1
102
RTVSPropertyOp8
 70
     1
102
RTVSPropertyOp9
 70
     1
102
RTVSPropertyOp10
 70
     1
102
RTVSPropertyOp11
 70
     1
102
RTVSPropertyOp12
 70
     1
102
RTVSPropertyOp13
 70
     1
102
RTVSPropertyOp14
 70
     1
102
RTVSPropertyOp15
 70
     1
102
RTVSPropertyOp16
 70
     1
102
RTVSPropertyOp17
 70
     1
102
RTVSPropertyOp18
 70
     1
102
RTVSPropertyOp19
 70
     1
102
RTVSPropertyOp20
 70
     1
102
RTVSPropertyOp21
 70
     1
102
RTVSPropertyOp22
 70
     1
102
RTVSPropertyOp23
 70
     1
102
RTVSPropertyOp24
 70
     1
102
RTVSPropertyOp25
 70
     1
102
RTVSPropertyOp26
 70
     1
102
RTVSPropertyOp27
 70
     1
102
RTVSPropertyOp28
 70
     1
102
RTVSPropertyOp29
 70
     1
102
RTVSPropertyOp30
 70
     1
102
RTVSPropertyOp31
 70
     1
102
RTVSPropertyOp32
 70
     1
102
RTVSPropertyOp33
 70
     1
102
RTVSPropertyOp34
 70
     1
102
RTVSPropertyOp35
 70
     1
102
RTVSPropertyOp36
 70
     1
102
RTVSPropertyOp37
 70
     1
102
RTVSPropertyOp38
 70
     1
102
RTVSPropertyOp39
 70
     1
102
RTVSPropertyOp40
 70
     1
102
RTVSPropertyOp41
 70
     1
102
RTVSPropertyOp42
 70
     1
102
RTVSPropertyOp43
 70
     1
102
RTVSPropertyOp44
 70
     1
102
RTVSPropertyOp45
 70
     1
102
RTVSPropertyOp46
 70
     1
102
RTVSPropertyOp47
 70
     1
102
RTVSPropertyOp48
 70
     1
102
RTVSPropertyOp49
 70
     1
102
RTVSPropertyOp50
 70
     1
102
RTVSPropertyOp51
 70
     0
102
RTVSPropertyOp52
 70
     0
102
RTVSPropertyOp53
 70
     1
102
RTVSPropertyOp54
 70
     1
102
RTVSPropertyOp55
 70
     1
102
RTVSPropertyOp56
 70
     1
102
RTVSPropertyOp57
 70
     1
102
RTVSPropertyOp58
 70
     1
102
RTVSPropertyOp59
 70
     1
102
RTVSPropertyOp60
 70
     1
102
RTVSPropertyOp61
 70
     1
102
RTVSPropertyOp62
 70
     1
  0
XRECORD
  5
1824
102
{ACAD_REACTORS
330
1823
102
}
330
1823
100
AcDbXrecord
280
     1
102
RTVSPost2010Prop28
280
     0
102
RTVSPost2010PropOp28
 70
     1
102
RTVSPost2010Prop29
280
     1
102
RTVSPost2010PropOp29
 70
     1
102
RTVSPost2010Prop30
280
     1
102
RTVSPost2010PropOp30
 70
     1
102
RTVSPost2010Prop31
280
     0
102
RTVSPost2010PropOp31
 70
     1
102
RTVSPost2010Prop32
280
     0
102
RTVSPost2010PropOp32
 70
     1
102
RTVSPost2010Prop33
280
     0
102
RTVSPost2010PropOp33
 70
     1
102
RTVSPost2010Prop34
280
     0
102
RTVSPost2010PropOp34
 70
     1
102
RTVSPost2010Prop35
280
     0
102
RTVSPost2010PropOp35
 70
     1
102
RTVSPost2010Prop36
280
     0
102
RTVSPost2010PropOp36
 70
     1
102
RTVSPost2010Prop37
 90
       50
102
RTVSPost2010PropOp37
 70
     1
102
RTVSPost2010Prop38
140
0.0
102
RTVSPost2010PropOp38
 70
     1
102
RTVSPost2010Prop39
140
1.0
102
RTVSPost2010PropOp39
 70
     1
102
RTVSPost2010Prop40
 90
        0
102
RTVSPost2010PropOp40
 70
     1
102
RTVSPost2010Prop41ColorIndex
 90
       18
102
RTVSPost2010Prop41ColorRGB
 90
        0
102
RTVSPost2010PropOp41
 70
     1
102
RTVSPost2010Prop42
 90
       50
102
RTVSPost2010PropOp42
 70
     1
102
RTVSPost2010Prop43
 90
        3
102
RTVSPost2010PropOp43
 70
     1
102
RTVSPost2010Prop44ColorIndex
 90
        5
102
RTVSPost2010Prop44ColorRGB
 90
      255
102
RTVSPost2010PropOp44
 70
     1
102
RTVSPost2010Prop45
280
     0
102
RTVSPost2010PropOp45
 70
     1
102
RTVSPost2010Prop46
 90
       50
102
RTVSPost2010PropOp46
 70
     1
102
RTVSPost2010Prop47
 90
       50
102
RTVSPost2010PropOp47
 70
     1
102
RTVSPost2010Prop48
 90
       50
102
RTVSPost2010PropOp48
 70
     1
102
RTVSPost2010Prop49
280
     0
102
RTVSPost2010PropOp49
 70
     1
102
RTVSPost2010Prop50
 90
       50
102
RTVSPost2010PropOp50
 70
     1
102
RTVSPost2010Prop51ColorIndex
 90
      256
102
RTVSPost2010Prop51ColorRGB
 90
-16777216
102
RTVSPost2010PropOp51
 70
     0
102
RTVSPost2010Prop52
140
1.0
102
RTVSPost2010PropOp52
 70
     0
102
RTVSPost2010Prop53
 90
        2
102
RTVSPost2010PropOp53
 70
     1
102
RTVSPost2010Prop54
  1
strokes_ogs.tif
102
RTVSPost2010PropOp54
 70
     1
102
RTVSPost2010Prop55
280
     0
102
RTVSPost2010PropOp55
 70
     1
102
RTVSPost2010Prop56
140
1.0
102
RTVSPost2010PropOp56
 70
     1
102
RTVSPost2010Prop57
140
1.0
102
RTVSPost2010PropOp57
 70
     1
102
RTVSPropertyOp0
 70
     1
102
RTVSPropertyOp1
 70
     1
102
RTVSPropertyOp2
 70
     1
102
RTVSPropertyOp3
 70
     1
102
RTVSPropertyOp4
 70
     1
102
RTVSPropertyOp5
 70
     1
102
RTVSPropertyOp6
 70
     1
102
RTVSPropertyOp7
 70
     1
102
RTVSPropertyOp8
 70
     1
102
RTVSPropertyOp9
 70
     1
102
RTVSPropertyOp10
 70
     1
102
RTVSPropertyOp11
 70
     1
102
RTVSPropertyOp12
 70
     1
102
RTVSPropertyOp13
 70
     1
102
RTVSPropertyOp14
 70
     1
102
RTVSPropertyOp15
 70
     1
102
RTVSPropertyOp16
 70
     1
102
RTVSPropertyOp17
 70
     1
102
RTVSPropertyOp18
 70
     1
102
RTVSPropertyOp19
 70
     1
102
RTVSPropertyOp20
 70
     1
102
RTVSPropertyOp21
 70
     1
102
RTVSPropertyOp22
 70
     1
102
RTVSPropertyOp23
 70
     1
102
RTVSPropertyOp24
 70
     1
102
RTVSPropertyOp25
 70
     1
102
RTVSPropertyOp26
 70
     1
102
RTVSPropertyOp27
 70
     1
102
RTVSPropertyOp28
 70
     1
102
RTVSPropertyOp29
 70
     1
102
RTVSPropertyOp30
 70
     1
102
RTVSPropertyOp31
 70
     1
102
RTVSPropertyOp32
 70
     1
102
RTVSPropertyOp33
 70
     1
102
RTVSPropertyOp34
 70
     1
102
RTVSPropertyOp35
 70
     1
102
RTVSPropertyOp36
 70
     1
102
RTVSPropertyOp37
 70
     1
102
RTVSPropertyOp38
 70
     1
102
RTVSPropertyOp39
 70
     1
102
RTVSPropertyOp40
 70
     1
102
RTVSPropertyOp41
 70
     1
102
RTVSPropertyOp42
 70
     1
102
RTVSPropertyOp43
 70
     1
102
RTVSPropertyOp44
 70
     1
102
RTVSPropertyOp45
 70
     1
102
RTVSPropertyOp46
 70
     1
102
RTVSPropertyOp47
 70
     1
102
RTVSPropertyOp48
 70
     1
102
RTVSPropertyOp49
 70
     1
102
RTVSPropertyOp50
 70
     1
102
RTVSPropertyOp51
 70
     0
102
RTVSPropertyOp52
 70
     0
102
RTVSPropertyOp53
 70
     1
102
RTVSPropertyOp54
 70
     1
102
RTVSPropertyOp55
 70
     1
102
RTVSPropertyOp56
 70
     1
102
RTVSPropertyOp57
 70
     1
102
RTVSPropertyOp58
 70
     1
102
RTVSPropertyOp59
 70
     1
102
RTVSPropertyOp60
 70
     1
102
RTVSPropertyOp61
 70
     1
102
RTVSPropertyOp62
 70
     1
  0
XRECORD
  5
182C
102
{ACAD_REACTORS
330
182B
102
}
330
182B
100
AcDbXrecord
280
     1
102
RTVSPost2010Prop28
280
     0
102
RTVSPost2010PropOp28
 70
     1
102
RTVSPost2010Prop29
280
     1
102
RTVSPost2010PropOp29
 70
     1
102
RTVSPost2010Prop30
280
     1
102
RTVSPost2010PropOp30
 70
     1
102
RTVSPost2010Prop31
280
     0
102
RTVSPost2010PropOp31
 70
     1
102
RTVSPost2010Prop32
280
     0
102
RTVSPost2010PropOp32
 70
     1
102
RTVSPost2010Prop33
280
     0
102
RTVSPost2010PropOp33
 70
     1
102
RTVSPost2010Prop34
280
     0
102
RTVSPost2010PropOp34
 70
     1
102
RTVSPost2010Prop35
280
     0
102
RTVSPost2010PropOp35
 70
     1
102
RTVSPost2010Prop36
280
     0
102
RTVSPost2010PropOp36
 70
     1
102
RTVSPost2010Prop37
 90
       50
102
RTVSPost2010PropOp37
 70
     1
102
RTVSPost2010Prop38
140
0.0
102
RTVSPost2010PropOp38
 70
     1
102
RTVSPost2010Prop39
140
1.0
102
RTVSPost2010PropOp39
 70
     1
102
RTVSPost2010Prop40
 90
        0
102
RTVSPost2010PropOp40
 70
     1
102
RTVSPost2010Prop41ColorIndex
 90
       18
102
RTVSPost2010Prop41ColorRGB
 90
        0
102
RTVSPost2010PropOp41
 70
     1
102
RTVSPost2010Prop42
 90
       50
102
RTVSPost2010PropOp42
 70
     1
102
RTVSPost2010Prop43
 90
        3
102
RTVSPost2010PropOp43
 70
     1
102
RTVSPost2010Prop44ColorIndex
 90
        5
102
RTVSPost2010Prop44ColorRGB
 90
      255
102
RTVSPost2010PropOp44
 70
     1
102
RTVSPost2010Prop45
280
     0
102
RTVSPost2010PropOp45
 70
     1
102
RTVSPost2010Prop46
 90
       50
102
RTVSPost2010PropOp46
 70
     1
102
RTVSPost2010Prop47
 90
       50
102
RTVSPost2010PropOp47
 70
     1
102
RTVSPost2010Prop48
 90
       50
102
RTVSPost2010PropOp48
 70
     1
102
RTVSPost2010Prop49
280
     0
102
RTVSPost2010PropOp49
 70
     1
102
RTVSPost2010Prop50
 90
       50
102
RTVSPost2010PropOp50
 70
     1
102
RTVSPost2010Prop51ColorIndex
 90
      256
102
RTVSPost2010Prop51ColorRGB
 90
-16777216
102
RTVSPost2010PropOp51
 70
     0
102
RTVSPost2010Prop52
140
1.0
102
RTVSPost2010PropOp52
 70
     0
102
RTVSPost2010Prop53
 90
        2
102
RTVSPost2010PropOp53
 70
     1
102
RTVSPost2010Prop54
  1
strokes_ogs.tif
102
RTVSPost2010PropOp54
 70
     1
102
RTVSPost2010Prop55
280
     0
102
RTVSPost2010PropOp55
 70
     1
102
RTVSPost2010Prop56
140
1.0
102
RTVSPost2010PropOp56
 70
     1
102
RTVSPost2010Prop57
140
1.0
102
RTVSPost2010PropOp57
 70
     1
102
RTVSPropertyOp0
 70
     1
102
RTVSPropertyOp1
 70
     1
102
RTVSPropertyOp2
 70
     1
102
RTVSPropertyOp3
 70
     1
102
RTVSPropertyOp4
 70
     1
102
RTVSPropertyOp5
 70
     1
102
RTVSPropertyOp6
 70
     1
102
RTVSPropertyOp7
 70
     1
102
RTVSPropertyOp8
 70
     1
102
RTVSPropertyOp9
 70
     1
102
RTVSPropertyOp10
 70
     1
102
RTVSPropertyOp11
 70
     1
102
RTVSPropertyOp12
 70
     1
102
RTVSPropertyOp13
 70
     1
102
RTVSPropertyOp14
 70
     1
102
RTVSPropertyOp15
 70
     1
102
RTVSPropertyOp16
 70
     1
102
RTVSPropertyOp17
 70
     1
102
RTVSPropertyOp18
 70
     1
102
RTVSPropertyOp19
 70
     1
102
RTVSPropertyOp20
 70
     1
102
RTVSPropertyOp21
 70
     1
102
RTVSPropertyOp22
 70
     1
102
RTVSPropertyOp23
 70
     1
102
RTVSPropertyOp24
 70
     1
102
RTVSPropertyOp25
 70
     1
102
RTVSPropertyOp26
 70
     1
102
RTVSPropertyOp27
 70
     1
102
RTVSPropertyOp28
 70
     1
102
RTVSPropertyOp29
 70
     1
102
RTVSPropertyOp30
 70
     1
102
RTVSPropertyOp31
 70
     1
102
RTVSPropertyOp32
 70
     1
102
RTVSPropertyOp33
 70
     1
102
RTVSPropertyOp34
 70
     1
102
RTVSPropertyOp35
 70
     1
102
RTVSPropertyOp36
 70
     1
102
RTVSPropertyOp37
 70
     1
102
RTVSPropertyOp38
 70
     1
102
RTVSPropertyOp39
 70
     1
102
RTVSPropertyOp40
 70
     1
102
RTVSPropertyOp41
 70
     1
102
RTVSPropertyOp42
 70
     1
102
RTVSPropertyOp43
 70
     1
102
RTVSPropertyOp44
 70
     1
102
RTVSPropertyOp45
 70
     1
102
RTVSPropertyOp46
 70
     1
102
RTVSPropertyOp47
 70
     1
102
RTVSPropertyOp48
 70
     1
102
RTVSPropertyOp49
 70
     1
102
RTVSPropertyOp50
 70
     1
102
RTVSPropertyOp51
 70
     0
102
RTVSPropertyOp52
 70
     0
102
RTVSPropertyOp53
 70
     1
102
RTVSPropertyOp54
 70
     1
102
RTVSPropertyOp55
 70
     1
102
RTVSPropertyOp56
 70
     1
102
RTVSPropertyOp57
 70
     1
102
RTVSPropertyOp58
 70
     1
102
RTVSPropertyOp59
 70
     1
102
RTVSPropertyOp60
 70
     1
102
RTVSPropertyOp61
 70
     1
102
RTVSPropertyOp62
 70
     1
  0
XRECORD
  5
1848
102
{ACAD_REACTORS
330
1847
102
}
330
1847
100
AcDbXrecord
280
     1
102
RTVSPost2010Prop28
280
     0
102
RTVSPost2010PropOp28
 70
     1
102
RTVSPost2010Prop29
280
     1
102
RTVSPost2010PropOp29
 70
     1
102
RTVSPost2010Prop30
280
     1
102
RTVSPost2010PropOp30
 70
     1
102
RTVSPost2010Prop31
280
     0
102
RTVSPost2010PropOp31
 70
     1
102
RTVSPost2010Prop32
280
     0
102
RTVSPost2010PropOp32
 70
     1
102
RTVSPost2010Prop33
280
     0
102
RTVSPost2010PropOp33
 70
     1
102
RTVSPost2010Prop34
280
     0
102
RTVSPost2010PropOp34
 70
     1
102
RTVSPost2010Prop35
280
     0
102
RTVSPost2010PropOp35
 70
     1
102
RTVSPost2010Prop36
280
     0
102
RTVSPost2010PropOp36
 70
     1
102
RTVSPost2010Prop37
 90
       50
102
RTVSPost2010PropOp37
 70
     0
102
RTVSPost2010Prop38
140
0.0
102
RTVSPost2010PropOp38
 70
     0
102
RTVSPost2010Prop39
140
1.0
102
RTVSPost2010PropOp39
 70
     0
102
RTVSPost2010Prop40
 90
        0
102
RTVSPost2010PropOp40
 70
     0
102
RTVSPost2010Prop41ColorIndex
 90
       18
102
RTVSPost2010Prop41ColorRGB
 90
        0
102
RTVSPost2010PropOp41
 70
     0
102
RTVSPost2010Prop42
 90
       50
102
RTVSPost2010PropOp42
 70
     0
102
RTVSPost2010Prop43
 90
        3
102
RTVSPost2010PropOp43
 70
     0
102
RTVSPost2010Prop44ColorIndex
 90
        5
102
RTVSPost2010Prop44ColorRGB
 90
      255
102
RTVSPost2010PropOp44
 70
     0
102
RTVSPost2010Prop45
280
     0
102
RTVSPost2010PropOp45
 70
     1
102
RTVSPost2010Prop46
 90
       50
102
RTVSPost2010PropOp46
 70
     0
102
RTVSPost2010Prop47
 90
       50
102
RTVSPost2010PropOp47
 70
     0
102
RTVSPost2010Prop48
 90
       50
102
RTVSPost2010PropOp48
 70
     0
102
RTVSPost2010Prop49
280
     0
102
RTVSPost2010PropOp49
 70
     1
102
RTVSPost2010Prop50
 90
       50
102
RTVSPost2010PropOp50
 70
     0
102
RTVSPost2010Prop51ColorIndex
 90
      256
102
RTVSPost2010Prop51ColorRGB
 90
-16777216
102
RTVSPost2010PropOp51
 70
     0
102
RTVSPost2010Prop52
140
1.0
102
RTVSPost2010PropOp52
 70
     0
102
RTVSPost2010Prop53
 90
        2
102
RTVSPost2010PropOp53
 70
     0
102
RTVSPost2010Prop54
  1
strokes_ogs.tif
102
RTVSPost2010PropOp54
 70
     0
102
RTVSPost2010Prop55
280
     0
102
RTVSPost2010PropOp55
 70
     1
102
RTVSPost2010Prop56
140
1.0
102
RTVSPost2010PropOp56
 70
     0
102
RTVSPost2010Prop57
140
1.0
102
RTVSPost2010PropOp57
 70
     0
102
RTVSPropertyOp0
 70
     0
102
RTVSPropertyOp1
 70
     0
102
RTVSPropertyOp2
 70
     0
102
RTVSPropertyOp3
 70
     0
102
RTVSPropertyOp4
 70
     0
102
RTVSPropertyOp5
 70
     0
102
RTVSPropertyOp6
 70
     0
102
RTVSPropertyOp7
 70
     0
102
RTVSPropertyOp8
 70
     0
102
RTVSPropertyOp9
 70
     0
102
RTVSPropertyOp10
 70
     0
102
RTVSPropertyOp11
 70
     0
102
RTVSPropertyOp12
 70
     0
102
RTVSPropertyOp13
 70
     0
102
RTVSPropertyOp14
 70
     2
102
RTVSPropertyOp15
 70
     0
102
RTVSPropertyOp16
 70
     0
102
RTVSPropertyOp17
 70
     0
102
RTVSPropertyOp18
 70
     0
102
RTVSPropertyOp19
 70
     0
102
RTVSPropertyOp20
 70
     0
102
RTVSPropertyOp21
 70
     0
102
RTVSPropertyOp22
 70
     0
102
RTVSPropertyOp23
 70
     0
102
RTVSPropertyOp24
 70
     0
102
RTVSPropertyOp25
 70
     0
102
RTVSPropertyOp26
 70
     0
102
RTVSPropertyOp27
 70
     0
102
RTVSPropertyOp28
 70
     1
102
RTVSPropertyOp29
 70
     1
102
RTVSPropertyOp30
 70
     1
102
RTVSPropertyOp31
 70
     1
102
RTVSPropertyOp32
 70
     1
102
RTVSPropertyOp33
 70
     1
102
RTVSPropertyOp34
 70
     1
102
RTVSPropertyOp35
 70
     1
102
RTVSPropertyOp36
 70
     1
102
RTVSPropertyOp37
 70
     0
102
RTVSPropertyOp38
 70
     0
102
RTVSPropertyOp39
 70
     0
102
RTVSPropertyOp40
 70
     0
102
RTVSPropertyOp41
 70
     0
102
RTVSPropertyOp42
 70
     0
102
RTVSPropertyOp43
 70
     0
102
RTVSPropertyOp44
 70
     0
102
RTVSPropertyOp45
 70
     1
102
RTVSPropertyOp46
 70
     0
102
RTVSPropertyOp47
 70
     0
102
RTVSPropertyOp48
 70
     0
102
RTVSPropertyOp49
 70
     1
102
RTVSPropertyOp50
 70
     0
102
RTVSPropertyOp51
 70
     0
102
RTVSPropertyOp52
 70
     0
102
RTVSPropertyOp53
 70
     0
102
RTVSPropertyOp54
 70
     0
102
RTVSPropertyOp55
 70
     1
102
RTVSPropertyOp56
 70
     0
102
RTVSPropertyOp57
 70
     0
102
RTVSPropertyOp58
 70
     0
102
RTVSPropertyOp59
 70
     0
102
RTVSPropertyOp60
 70
     0
102
RTVSPropertyOp61
 70
     0
102
RTVSPropertyOp62
 70
     0
  0
XRECORD
  5
1838
102
{ACAD_REACTORS
330
1837
102
}
330
1837
100
AcDbXrecord
280
     1
102
RTVSPost2010Prop28
280
     0
102
RTVSPost2010PropOp28
 70
     1
102
RTVSPost2010Prop29
280
     1
102
RTVSPost2010PropOp29
 70
     1
102
RTVSPost2010Prop30
280
     1
102
RTVSPost2010PropOp30
 70
     1
102
RTVSPost2010Prop31
280
     0
102
RTVSPost2010PropOp31
 70
     1
102
RTVSPost2010Prop32
280
     0
102
RTVSPost2010PropOp32
 70
     1
102
RTVSPost2010Prop33
280
     0
102
RTVSPost2010PropOp33
 70
     1
102
RTVSPost2010Prop34
280
     0
102
RTVSPost2010PropOp34
 70
     1
102
RTVSPost2010Prop35
280
     0
102
RTVSPost2010PropOp35
 70
     1
102
RTVSPost2010Prop36
280
     0
102
RTVSPost2010PropOp36
 70
     1
102
RTVSPost2010Prop37
 90
       50
102
RTVSPost2010PropOp37
 70
     1
102
RTVSPost2010Prop38
140
0.0
102
RTVSPost2010PropOp38
 70
     1
102
RTVSPost2010Prop39
140
1.0
102
RTVSPost2010PropOp39
 70
     1
102
RTVSPost2010Prop40
 90
        0
102
RTVSPost2010PropOp40
 70
     1
102
RTVSPost2010Prop41ColorIndex
 90
       18
102
RTVSPost2010Prop41ColorRGB
 90
        0
102
RTVSPost2010PropOp41
 70
     1
102
RTVSPost2010Prop42
 90
       50
102
RTVSPost2010PropOp42
 70
     1
102
RTVSPost2010Prop43
 90
        3
102
RTVSPost2010PropOp43
 70
     1
102
RTVSPost2010Prop44ColorIndex
 90
        5
102
RTVSPost2010Prop44ColorRGB
 90
      255
102
RTVSPost2010PropOp44
 70
     1
102
RTVSPost2010Prop45
280
     0
102
RTVSPost2010PropOp45
 70
     1
102
RTVSPost2010Prop46
 90
       50
102
RTVSPost2010PropOp46
 70
     1
102
RTVSPost2010Prop47
 90
       50
102
RTVSPost2010PropOp47
 70
     1
102
RTVSPost2010Prop48
 90
       50
102
RTVSPost2010PropOp48
 70
     1
102
RTVSPost2010Prop49
280
     0
102
RTVSPost2010PropOp49
 70
     1
102
RTVSPost2010Prop50
 90
       50
102
RTVSPost2010PropOp50
 70
     1
102
RTVSPost2010Prop51ColorIndex
 90
      256
102
RTVSPost2010Prop51ColorRGB
 90
-16777216
102
RTVSPost2010PropOp51
 70
     0
102
RTVSPost2010Prop52
140
1.0
102
RTVSPost2010PropOp52
 70
     0
102
RTVSPost2010Prop53
 90
        2
102
RTVSPost2010PropOp53
 70
     1
102
RTVSPost2010Prop54
  1
strokes_ogs.tif
102
RTVSPost2010PropOp54
 70
     1
102
RTVSPost2010Prop55
280
     0
102
RTVSPost2010PropOp55
 70
     1
102
RTVSPost2010Prop56
140
1.0
102
RTVSPost2010PropOp56
 70
     1
102
RTVSPost2010Prop57
140
1.0
102
RTVSPost2010PropOp57
 70
     1
102
RTVSPropertyOp0
 70
     1
102
RTVSPropertyOp1
 70
     1
102
RTVSPropertyOp2
 70
     1
102
RTVSPropertyOp3
 70
     1
102
RTVSPropertyOp4
 70
     1
102
RTVSPropertyOp5
 70
     1
102
RTVSPropertyOp6
 70
     1
102
RTVSPropertyOp7
 70
     1
102
RTVSPropertyOp8
 70
     1
102
RTVSPropertyOp9
 70
     1
102
RTVSPropertyOp10
 70
     1
102
RTVSPropertyOp11
 70
     1
102
RTVSPropertyOp12
 70
     1
102
RTVSPropertyOp13
 70
     1
102
RTVSPropertyOp14
 70
     1
102
RTVSPropertyOp15
 70
     1
102
RTVSPropertyOp16
 70
     1
102
RTVSPropertyOp17
 70
     1
102
RTVSPropertyOp18
 70
     1
102
RTVSPropertyOp19
 70
     1
102
RTVSPropertyOp20
 70
     1
102
RTVSPropertyOp21
 70
     1
102
RTVSPropertyOp22
 70
     1
102
RTVSPropertyOp23
 70
     1
102
RTVSPropertyOp24
 70
     1
102
RTVSPropertyOp25
 70
     1
102
RTVSPropertyOp26
 70
     1
102
RTVSPropertyOp27
 70
     1
102
RTVSPropertyOp28
 70
     1
102
RTVSPropertyOp29
 70
     1
102
RTVSPropertyOp30
 70
     1
102
RTVSPropertyOp31
 70
     1
102
RTVSPropertyOp32
 70
     1
102
RTVSPropertyOp33
 70
     1
102
RTVSPropertyOp34
 70
     1
102
RTVSPropertyOp35
 70
     1
102
RTVSPropertyOp36
 70
     1
102
RTVSPropertyOp37
 70
     1
102
RTVSPropertyOp38
 70
     1
102
RTVSPropertyOp39
 70
     1
102
RTVSPropertyOp40
 70
     1
102
RTVSPropertyOp41
 70
     1
102
RTVSPropertyOp42
 70
     1
102
RTVSPropertyOp43
 70
     1
102
RTVSPropertyOp44
 70
     1
102
RTVSPropertyOp45
 70
     1
102
RTVSPropertyOp46
 70
     1
102
RTVSPropertyOp47
 70
     1
102
RTVSPropertyOp48
 70
     1
102
RTVSPropertyOp49
 70
     1
102
RTVSPropertyOp50
 70
     1
102
RTVSPropertyOp51
 70
     0
102
RTVSPropertyOp52
 70
     0
102
RTVSPropertyOp53
 70
     1
102
RTVSPropertyOp54
 70
     1
102
RTVSPropertyOp55
 70
     1
102
RTVSPropertyOp56
 70
     1
102
RTVSPropertyOp57
 70
     1
102
RTVSPropertyOp58
 70
     1
102
RTVSPropertyOp59
 70
     1
102
RTVSPropertyOp60
 70
     1
102
RTVSPropertyOp61
 70
     1
102
RTVSPropertyOp62
 70
     1
  0
XRECORD
  5
184A
102
{ACAD_REACTORS
330
1849
102
}
330
1849
100
AcDbXrecord
280
     1
102
RTVSPost2010Prop28
280
     0
102
RTVSPost2010PropOp28
 70
     1
102
RTVSPost2010Prop29
280
     1
102
RTVSPost2010PropOp29
 70
     1
102
RTVSPost2010Prop30
280
     1
102
RTVSPost2010PropOp30
 70
     1
102
RTVSPost2010Prop31
280
     0
102
RTVSPost2010PropOp31
 70
     1
102
RTVSPost2010Prop32
280
     0
102
RTVSPost2010PropOp32
 70
     1
102
RTVSPost2010Prop33
280
     0
102
RTVSPost2010PropOp33
 70
     1
102
RTVSPost2010Prop34
280
     0
102
RTVSPost2010PropOp34
 70
     1
102
RTVSPost2010Prop35
280
     0
102
RTVSPost2010PropOp35
 70
     1
102
RTVSPost2010Prop36
280
     0
102
RTVSPost2010PropOp36
 70
     1
102
RTVSPost2010Prop37
 90
       50
102
RTVSPost2010PropOp37
 70
     0
102
RTVSPost2010Prop38
140
0.0
102
RTVSPost2010PropOp38
 70
     0
102
RTVSPost2010Prop39
140
1.0
102
RTVSPost2010PropOp39
 70
     0
102
RTVSPost2010Prop40
 90
        0
102
RTVSPost2010PropOp40
 70
     0
102
RTVSPost2010Prop41ColorIndex
 90
       18
102
RTVSPost2010Prop41ColorRGB
 90
        0
102
RTVSPost2010PropOp41
 70
     0
102
RTVSPost2010Prop42
 90
       50
102
RTVSPost2010PropOp42
 70
     0
102
RTVSPost2010Prop43
 90
        3
102
RTVSPost2010PropOp43
 70
     0
102
RTVSPost2010Prop44ColorIndex
 90
        5
102
RTVSPost2010Prop44ColorRGB
 90
      255
102
RTVSPost2010PropOp44
 70
     0
102
RTVSPost2010Prop45
280
     0
102
RTVSPost2010PropOp45
 70
     1
102
RTVSPost2010Prop46
 90
       50
102
RTVSPost2010PropOp46
 70
     0
102
RTVSPost2010Prop47
 90
       50
102
RTVSPost2010PropOp47
 70
     0
102
RTVSPost2010Prop48
 90
       50
102
RTVSPost2010PropOp48
 70
     0
102
RTVSPost2010Prop49
280
     0
102
RTVSPost2010PropOp49
 70
     1
102
RTVSPost2010Prop50
 90
       50
102
RTVSPost2010PropOp50
 70
     0
102
RTVSPost2010Prop51ColorIndex
 90
      256
102
RTVSPost2010Prop51ColorRGB
 90
-16777216
102
RTVSPost2010PropOp51
 70
     0
102
RTVSPost2010Prop52
140
1.0
102
RTVSPost2010PropOp52
 70
     0
102
RTVSPost2010Prop53
 90
        2
102
RTVSPost2010PropOp53
 70
     0
102
RTVSPost2010Prop54
  1
strokes_ogs.tif
102
RTVSPost2010PropOp54
 70
     0
102
RTVSPost2010Prop55
280
     0
102
RTVSPost2010PropOp55
 70
     1
102
RTVSPost2010Prop56
140
1.0
102
RTVSPost2010PropOp56
 70
     0
102
RTVSPost2010Prop57
140
1.0
102
RTVSPost2010PropOp57
 70
     0
102
RTVSPropertyOp0
 70
     0
102
RTVSPropertyOp1
 70
     0
102
RTVSPropertyOp2
 70
     0
102
RTVSPropertyOp3
 70
     0
102
RTVSPropertyOp4
 70
     0
102
RTVSPropertyOp5
 70
     0
102
RTVSPropertyOp6
 70
     0
102
RTVSPropertyOp7
 70
     0
102
RTVSPropertyOp8
 70
     0
102
RTVSPropertyOp9
 70
     0
102
RTVSPropertyOp10
 70
     0
102
RTVSPropertyOp11
 70
     0
102
RTVSPropertyOp12
 70
     0
102
RTVSPropertyOp13
 70
     0
102
RTVSPropertyOp14
 70
     2
102
RTVSPropertyOp15
 70
     0
102
RTVSPropertyOp16
 70
     0
102
RTVSPropertyOp17
 70
     0
102
RTVSPropertyOp18
 70
     0
102
RTVSPropertyOp19
 70
     0
102
RTVSPropertyOp20
 70
     0
102
RTVSPropertyOp21
 70
     0
102
RTVSPropertyOp22
 70
     0
102
RTVSPropertyOp23
 70
     0
102
RTVSPropertyOp24
 70
     0
102
RTVSPropertyOp25
 70
     0
102
RTVSPropertyOp26
 70
     0
102
RTVSPropertyOp27
 70
     0
102
RTVSPropertyOp28
 70
     1
102
RTVSPropertyOp29
 70
     1
102
RTVSPropertyOp30
 70
     1
102
RTVSPropertyOp31
 70
     1
102
RTVSPropertyOp32
 70
     1
102
RTVSPropertyOp33
 70
     1
102
RTVSPropertyOp34
 70
     1
102
RTVSPropertyOp35
 70
     1
102
RTVSPropertyOp36
 70
     1
102
RTVSPropertyOp37
 70
     0
102
RTVSPropertyOp38
 70
     0
102
RTVSPropertyOp39
 70
     0
102
RTVSPropertyOp40
 70
     0
102
RTVSPropertyOp41
 70
     0
102
RTVSPropertyOp42
 70
     0
102
RTVSPropertyOp43
 70
     0
102
RTVSPropertyOp44
 70
     0
102
RTVSPropertyOp45
 70
     1
102
RTVSPropertyOp46
 70
     0
102
RTVSPropertyOp47
 70
     0
102
RTVSPropertyOp48
 70
     0
102
RTVSPropertyOp49
 70
     1
102
RTVSPropertyOp50
 70
     0
102
RTVSPropertyOp51
 70
     0
102
RTVSPropertyOp52
 70
     0
102
RTVSPropertyOp53
 70
     0
102
RTVSPropertyOp54
 70
     0
102
RTVSPropertyOp55
 70
     1
102
RTVSPropertyOp56
 70
     0
102
RTVSPropertyOp57
 70
     0
102
RTVSPropertyOp58
 70
     0
102
RTVSPropertyOp59
 70
     0
102
RTVSPropertyOp60
 70
     0
102
RTVSPropertyOp61
 70
     0
102
RTVSPropertyOp62
 70
     0
  0
XRECORD
  5
1830
102
{ACAD_REACTORS
330
182F
102
}
330
182F
100
AcDbXrecord
280
     1
102
RTVSPost2010Prop28
280
     0
102
RTVSPost2010PropOp28
 70
     1
102
RTVSPost2010Prop29
280
     1
102
RTVSPost2010PropOp29
 70
     1
102
RTVSPost2010Prop30
280
     1
102
RTVSPost2010PropOp30
 70
     1
102
RTVSPost2010Prop31
280
     0
102
RTVSPost2010PropOp31
 70
     1
102
RTVSPost2010Prop32
280
     0
102
RTVSPost2010PropOp32
 70
     1
102
RTVSPost2010Prop33
280
     0
102
RTVSPost2010PropOp33
 70
     1
102
RTVSPost2010Prop34
280
     0
102
RTVSPost2010PropOp34
 70
     1
102
RTVSPost2010Prop35
280
     0
102
RTVSPost2010PropOp35
 70
     1
102
RTVSPost2010Prop36
280
     0
102
RTVSPost2010PropOp36
 70
     1
102
RTVSPost2010Prop37
 90
       50
102
RTVSPost2010PropOp37
 70
     1
102
RTVSPost2010Prop38
140
0.0
102
RTVSPost2010PropOp38
 70
     1
102
RTVSPost2010Prop39
140
1.0
102
RTVSPost2010PropOp39
 70
     1
102
RTVSPost2010Prop40
 90
        0
102
RTVSPost2010PropOp40
 70
     1
102
RTVSPost2010Prop41ColorIndex
 90
       18
102
RTVSPost2010Prop41ColorRGB
 90
        0
102
RTVSPost2010PropOp41
 70
     1
102
RTVSPost2010Prop42
 90
       50
102
RTVSPost2010PropOp42
 70
     1
102
RTVSPost2010Prop43
 90
        3
102
RTVSPost2010PropOp43
 70
     1
102
RTVSPost2010Prop44ColorIndex
 90
        5
102
RTVSPost2010Prop44ColorRGB
 90
      255
102
RTVSPost2010PropOp44
 70
     1
102
RTVSPost2010Prop45
280
     0
102
RTVSPost2010PropOp45
 70
     1
102
RTVSPost2010Prop46
 90
       50
102
RTVSPost2010PropOp46
 70
     1
102
RTVSPost2010Prop47
 90
       50
102
RTVSPost2010PropOp47
 70
     1
102
RTVSPost2010Prop48
 90
       50
102
RTVSPost2010PropOp48
 70
     1
102
RTVSPost2010Prop49
280
     0
102
RTVSPost2010PropOp49
 70
     1
102
RTVSPost2010Prop50
 90
       50
102
RTVSPost2010PropOp50
 70
     1
102
RTVSPost2010Prop51ColorIndex
 90
      256
102
RTVSPost2010Prop51ColorRGB
 90
-16777216
102
RTVSPost2010PropOp51
 70
     0
102
RTVSPost2010Prop52
140
1.0
102
RTVSPost2010PropOp52
 70
     0
102
RTVSPost2010Prop53
 90
        2
102
RTVSPost2010PropOp53
 70
     1
102
RTVSPost2010Prop54
  1
strokes_ogs.tif
102
RTVSPost2010PropOp54
 70
     1
102
RTVSPost2010Prop55
280
     0
102
RTVSPost2010PropOp55
 70
     1
102
RTVSPost2010Prop56
140
1.0
102
RTVSPost2010PropOp56
 70
     1
102
RTVSPost2010Prop57
140
1.0
102
RTVSPost2010PropOp57
 70
     1
102
RTVSPropertyOp0
 70
     1
102
RTVSPropertyOp1
 70
     1
102
RTVSPropertyOp2
 70
     1
102
RTVSPropertyOp3
 70
     1
102
RTVSPropertyOp4
 70
     1
102
RTVSPropertyOp5
 70
     1
102
RTVSPropertyOp6
 70
     1
102
RTVSPropertyOp7
 70
     1
102
RTVSPropertyOp8
 70
     1
102
RTVSPropertyOp9
 70
     1
102
RTVSPropertyOp10
 70
     1
102
RTVSPropertyOp11
 70
     1
102
RTVSPropertyOp12
 70
     1
102
RTVSPropertyOp13
 70
     1
102
RTVSPropertyOp14
 70
     1
102
RTVSPropertyOp15
 70
     1
102
RTVSPropertyOp16
 70
     1
102
RTVSPropertyOp17
 70
     1
102
RTVSPropertyOp18
 70
     1
102
RTVSPropertyOp19
 70
     1
102
RTVSPropertyOp20
 70
     1
102
RTVSPropertyOp21
 70
     1
102
RTVSPropertyOp22
 70
     1
102
RTVSPropertyOp23
 70
     1
102
RTVSPropertyOp24
 70
     1
102
RTVSPropertyOp25
 70
     1
102
RTVSPropertyOp26
 70
     1
102
RTVSPropertyOp27
 70
     1
102
RTVSPropertyOp28
 70
     1
102
RTVSPropertyOp29
 70
     1
102
RTVSPropertyOp30
 70
     1
102
RTVSPropertyOp31
 70
     1
102
RTVSPropertyOp32
 70
     1
102
RTVSPropertyOp33
 70
     1
102
RTVSPropertyOp34
 70
     1
102
RTVSPropertyOp35
 70
     1
102
RTVSPropertyOp36
 70
     1
102
RTVSPropertyOp37
 70
     1
102
RTVSPropertyOp38
 70
     1
102
RTVSPropertyOp39
 70
     1
102
RTVSPropertyOp40
 70
     1
102
RTVSPropertyOp41
 70
     1
102
RTVSPropertyOp42
 70
     1
102
RTVSPropertyOp43
 70
     1
102
RTVSPropertyOp44
 70
     1
102
RTVSPropertyOp45
 70
     1
102
RTVSPropertyOp46
 70
     1
102
RTVSPropertyOp47
 70
     1
102
RTVSPropertyOp48
 70
     1
102
RTVSPropertyOp49
 70
     1
102
RTVSPropertyOp50
 70
     1
102
RTVSPropertyOp51
 70
     0
102
RTVSPropertyOp52
 70
     0
102
RTVSPropertyOp53
 70
     1
102
RTVSPropertyOp54
 70
     1
102
RTVSPropertyOp55
 70
     1
102
RTVSPropertyOp56
 70
     1
102
RTVSPropertyOp57
 70
     1
102
RTVSPropertyOp58
 70
     1
102
RTVSPropertyOp59
 70
     1
102
RTVSPropertyOp60
 70
     1
102
RTVSPropertyOp61
 70
     1
102
RTVSPropertyOp62
 70
     1
  0
XRECORD
  5
1846
102
{ACAD_REACTORS
330
1845
102
}
330
1845
100
AcDbXrecord
280
     1
102
RTVSPost2010Prop28
280
     0
102
RTVSPost2010PropOp28
 70
     1
102
RTVSPost2010Prop29
280
     1
102
RTVSPost2010PropOp29
 70
     1
102
RTVSPost2010Prop30
280
     1
102
RTVSPost2010PropOp30
 70
     1
102
RTVSPost2010Prop31
280
     0
102
RTVSPost2010PropOp31
 70
     1
102
RTVSPost2010Prop32
280
     0
102
RTVSPost2010PropOp32
 70
     1
102
RTVSPost2010Prop33
280
     0
102
RTVSPost2010PropOp33
 70
     1
102
RTVSPost2010Prop34
280
     0
102
RTVSPost2010PropOp34
 70
     1
102
RTVSPost2010Prop35
280
     0
102
RTVSPost2010PropOp35
 70
     1
102
RTVSPost2010Prop36
280
     0
102
RTVSPost2010PropOp36
 70
     1
102
RTVSPost2010Prop37
 90
       50
102
RTVSPost2010PropOp37
 70
     1
102
RTVSPost2010Prop38
140
0.0
102
RTVSPost2010PropOp38
 70
     1
102
RTVSPost2010Prop39
140
1.0
102
RTVSPost2010PropOp39
 70
     1
102
RTVSPost2010Prop40
 90
        0
102
RTVSPost2010PropOp40
 70
     1
102
RTVSPost2010Prop41ColorIndex
 90
       18
102
RTVSPost2010Prop41ColorRGB
 90
        0
102
RTVSPost2010PropOp41
 70
     1
102
RTVSPost2010Prop42
 90
       50
102
RTVSPost2010PropOp42
 70
     1
102
RTVSPost2010Prop43
 90
        3
102
RTVSPost2010PropOp43
 70
     1
102
RTVSPost2010Prop44ColorIndex
 90
        5
102
RTVSPost2010Prop44ColorRGB
 90
      255
102
RTVSPost2010PropOp44
 70
     1
102
RTVSPost2010Prop45
280
     0
102
RTVSPost2010PropOp45
 70
     1
102
RTVSPost2010Prop46
 90
       50
102
RTVSPost2010PropOp46
 70
     1
102
RTVSPost2010Prop47
 90
       50
102
RTVSPost2010PropOp47
 70
     1
102
RTVSPost2010Prop48
 90
       50
102
RTVSPost2010PropOp48
 70
     1
102
RTVSPost2010Prop49
280
     0
102
RTVSPost2010PropOp49
 70
     1
102
RTVSPost2010Prop50
 90
       50
102
RTVSPost2010PropOp50
 70
     1
102
RTVSPost2010Prop51ColorIndex
 90
      256
102
RTVSPost2010Prop51ColorRGB
 90
-16777216
102
RTVSPost2010PropOp51
 70
     0
102
RTVSPost2010Prop52
140
1.0
102
RTVSPost2010PropOp52
 70
     0
102
RTVSPost2010Prop53
 90
        2
102
RTVSPost2010PropOp53
 70
     1
102
RTVSPost2010Prop54
  1
strokes_ogs.tif
102
RTVSPost2010PropOp54
 70
     1
102
RTVSPost2010Prop55
280
     0
102
RTVSPost2010PropOp55
 70
     1
102
RTVSPost2010Prop56
140
1.0
102
RTVSPost2010PropOp56
 70
     1
102
RTVSPost2010Prop57
140
1.0
102
RTVSPost2010PropOp57
 70
     1
102
RTVSPropertyOp0
 70
     1
102
RTVSPropertyOp1
 70
     1
102
RTVSPropertyOp2
 70
     1
102
RTVSPropertyOp3
 70
     1
102
RTVSPropertyOp4
 70
     1
102
RTVSPropertyOp5
 70
     1
102
RTVSPropertyOp6
 70
     1
102
RTVSPropertyOp7
 70
     1
102
RTVSPropertyOp8
 70
     1
102
RTVSPropertyOp9
 70
     1
102
RTVSPropertyOp10
 70
     1
102
RTVSPropertyOp11
 70
     1
102
RTVSPropertyOp12
 70
     1
102
RTVSPropertyOp13
 70
     1
102
RTVSPropertyOp14
 70
     1
102
RTVSPropertyOp15
 70
     1
102
RTVSPropertyOp16
 70
     1
102
RTVSPropertyOp17
 70
     1
102
RTVSPropertyOp18
 70
     1
102
RTVSPropertyOp19
 70
     1
102
RTVSPropertyOp20
 70
     1
102
RTVSPropertyOp21
 70
     1
102
RTVSPropertyOp22
 70
     1
102
RTVSPropertyOp23
 70
     1
102
RTVSPropertyOp24
 70
     1
102
RTVSPropertyOp25
 70
     1
102
RTVSPropertyOp26
 70
     1
102
RTVSPropertyOp27
 70
     1
102
RTVSPropertyOp28
 70
     1
102
RTVSPropertyOp29
 70
     1
102
RTVSPropertyOp30
 70
     1
102
RTVSPropertyOp31
 70
     1
102
RTVSPropertyOp32
 70
     1
102
RTVSPropertyOp33
 70
     1
102
RTVSPropertyOp34
 70
     1
102
RTVSPropertyOp35
 70
     1
102
RTVSPropertyOp36
 70
     1
102
RTVSPropertyOp37
 70
     1
102
RTVSPropertyOp38
 70
     1
102
RTVSPropertyOp39
 70
     1
102
RTVSPropertyOp40
 70
     1
102
RTVSPropertyOp41
 70
     1
102
RTVSPropertyOp42
 70
     1
102
RTVSPropertyOp43
 70
     1
102
RTVSPropertyOp44
 70
     1
102
RTVSPropertyOp45
 70
     1
102
RTVSPropertyOp46
 70
     1
102
RTVSPropertyOp47
 70
     1
102
RTVSPropertyOp48
 70
     1
102
RTVSPropertyOp49
 70
     1
102
RTVSPropertyOp50
 70
     1
102
RTVSPropertyOp51
 70
     0
102
RTVSPropertyOp52
 70
     0
102
RTVSPropertyOp53
 70
     1
102
RTVSPropertyOp54
 70
     1
102
RTVSPropertyOp55
 70
     1
102
RTVSPropertyOp56
 70
     1
102
RTVSPropertyOp57
 70
     1
102
RTVSPropertyOp58
 70
     1
102
RTVSPropertyOp59
 70
     1
102
RTVSPropertyOp60
 70
     1
102
RTVSPropertyOp61
 70
     1
102
RTVSPropertyOp62
 70
     1
  0
XRECORD
  5
1844
102
{ACAD_REACTORS
330
1843
102
}
330
1843
100
AcDbXrecord
280
     1
102
RTVSPost2010Prop28
280
     0
102
RTVSPost2010PropOp28
 70
     1
102
RTVSPost2010Prop29
280
     1
102
RTVSPost2010PropOp29
 70
     1
102
RTVSPost2010Prop30
280
     1
102
RTVSPost2010PropOp30
 70
     1
102
RTVSPost2010Prop31
280
     0
102
RTVSPost2010PropOp31
 70
     1
102
RTVSPost2010Prop32
280
     0
102
RTVSPost2010PropOp32
 70
     1
102
RTVSPost2010Prop33
280
     0
102
RTVSPost2010PropOp33
 70
     1
102
RTVSPost2010Prop34
280
     0
102
RTVSPost2010PropOp34
 70
     1
102
RTVSPost2010Prop35
280
     0
102
RTVSPost2010PropOp35
 70
     1
102
RTVSPost2010Prop36
280
     0
102
RTVSPost2010PropOp36
 70
     1
102
RTVSPost2010Prop37
 90
       50
102
RTVSPost2010PropOp37
 70
     1
102
RTVSPost2010Prop38
140
0.0
102
RTVSPost2010PropOp38
 70
     1
102
RTVSPost2010Prop39
140
1.0
102
RTVSPost2010PropOp39
 70
     1
102
RTVSPost2010Prop40
 90
        0
102
RTVSPost2010PropOp40
 70
     1
102
RTVSPost2010Prop41ColorIndex
 90
       18
102
RTVSPost2010Prop41ColorRGB
 90
        0
102
RTVSPost2010PropOp41
 70
     1
102
RTVSPost2010Prop42
 90
       50
102
RTVSPost2010PropOp42
 70
     1
102
RTVSPost2010Prop43
 90
        3
102
RTVSPost2010PropOp43
 70
     1
102
RTVSPost2010Prop44ColorIndex
 90
        5
102
RTVSPost2010Prop44ColorRGB
 90
      255
102
RTVSPost2010PropOp44
 70
     1
102
RTVSPost2010Prop45
280
     0
102
RTVSPost2010PropOp45
 70
     1
102
RTVSPost2010Prop46
 90
       50
102
RTVSPost2010PropOp46
 70
     1
102
RTVSPost2010Prop47
 90
       50
102
RTVSPost2010PropOp47
 70
     1
102
RTVSPost2010Prop48
 90
       50
102
RTVSPost2010PropOp48
 70
     1
102
RTVSPost2010Prop49
280
     0
102
RTVSPost2010PropOp49
 70
     1
102
RTVSPost2010Prop50
 90
       50
102
RTVSPost2010PropOp50
 70
     1
102
RTVSPost2010Prop51ColorIndex
 90
      256
102
RTVSPost2010Prop51ColorRGB
 90
-16777216
102
RTVSPost2010PropOp51
 70
     0
102
RTVSPost2010Prop52
140
1.0
102
RTVSPost2010PropOp52
 70
     0
102
RTVSPost2010Prop53
 90
        2
102
RTVSPost2010PropOp53
 70
     1
102
RTVSPost2010Prop54
  1
strokes_ogs.tif
102
RTVSPost2010PropOp54
 70
     1
102
RTVSPost2010Prop55
280
     0
102
RTVSPost2010PropOp55
 70
     1
102
RTVSPost2010Prop56
140
1.0
102
RTVSPost2010PropOp56
 70
     1
102
RTVSPost2010Prop57
140
1.0
102
RTVSPost2010PropOp57
 70
     1
102
RTVSPropertyOp0
 70
     1
102
RTVSPropertyOp1
 70
     1
102
RTVSPropertyOp2
 70
     1
102
RTVSPropertyOp3
 70
     1
102
RTVSPropertyOp4
 70
     1
102
RTVSPropertyOp5
 70
     1
102
RTVSPropertyOp6
 70
     1
102
RTVSPropertyOp7
 70
     1
102
RTVSPropertyOp8
 70
     1
102
RTVSPropertyOp9
 70
     1
102
RTVSPropertyOp10
 70
     1
102
RTVSPropertyOp11
 70
     1
102
RTVSPropertyOp12
 70
     1
102
RTVSPropertyOp13
 70
     1
102
RTVSPropertyOp14
 70
     1
102
RTVSPropertyOp15
 70
     1
102
RTVSPropertyOp16
 70
     1
102
RTVSPropertyOp17
 70
     1
102
RTVSPropertyOp18
 70
     1
102
RTVSPropertyOp19
 70
     1
102
RTVSPropertyOp20
 70
     1
102
RTVSPropertyOp21
 70
     1
102
RTVSPropertyOp22
 70
     1
102
RTVSPropertyOp23
 70
     1
102
RTVSPropertyOp24
 70
     1
102
RTVSPropertyOp25
 70
     1
102
RTVSPropertyOp26
 70
     1
102
RTVSPropertyOp27
 70
     1
102
RTVSPropertyOp28
 70
     1
102
RTVSPropertyOp29
 70
     1
102
RTVSPropertyOp30
 70
     1
102
RTVSPropertyOp31
 70
     1
102
RTVSPropertyOp32
 70
     1
102
RTVSPropertyOp33
 70
     1
102
RTVSPropertyOp34
 70
     1
102
RTVSPropertyOp35
 70
     1
102
RTVSPropertyOp36
 70
     1
102
RTVSPropertyOp37
 70
     1
102
RTVSPropertyOp38
 70
     1
102
RTVSPropertyOp39
 70
     1
102
RTVSPropertyOp40
 70
     1
102
RTVSPropertyOp41
 70
     1
102
RTVSPropertyOp42
 70
     1
102
RTVSPropertyOp43
 70
     1
102
RTVSPropertyOp44
 70
     1
102
RTVSPropertyOp45
 70
     1
102
RTVSPropertyOp46
 70
     1
102
RTVSPropertyOp47
 70
     1
102
RTVSPropertyOp48
 70
     1
102
RTVSPropertyOp49
 70
     1
102
RTVSPropertyOp50
 70
     1
102
RTVSPropertyOp51
 70
     0
102
RTVSPropertyOp52
 70
     0
102
RTVSPropertyOp53
 70
     1
102
RTVSPropertyOp54
 70
     1
102
RTVSPropertyOp55
 70
     1
102
RTVSPropertyOp56
 70
     1
102
RTVSPropertyOp57
 70
     1
102
RTVSPropertyOp58
 70
     1
102
RTVSPropertyOp59
 70
     1
102
RTVSPropertyOp60
 70
     1
102
RTVSPropertyOp61
 70
     1
102
RTVSPropertyOp62
 70
     1
  0
XRECORD
  5
183E
102
{ACAD_REACTORS
330
183D
102
}
330
183D
100
AcDbXrecord
280
     1
102
RTVSPost2010Prop28
280
     0
102
RTVSPost2010PropOp28
 70
     1
102
RTVSPost2010Prop29
280
     1
102
RTVSPost2010PropOp29
 70
     1
102
RTVSPost2010Prop30
280
     1
102
RTVSPost2010PropOp30
 70
     1
102
RTVSPost2010Prop31
280
     0
102
RTVSPost2010PropOp31
 70
     1
102
RTVSPost2010Prop32
280
     0
102
RTVSPost2010PropOp32
 70
     1
102
RTVSPost2010Prop33
280
     0
102
RTVSPost2010PropOp33
 70
     1
102
RTVSPost2010Prop34
280
     0
102
RTVSPost2010PropOp34
 70
     1
102
RTVSPost2010Prop35
280
     0
102
RTVSPost2010PropOp35
 70
     1
102
RTVSPost2010Prop36
280
     0
102
RTVSPost2010PropOp36
 70
     1
102
RTVSPost2010Prop37
 90
       50
102
RTVSPost2010PropOp37
 70
     1
102
RTVSPost2010Prop38
140
0.0
102
RTVSPost2010PropOp38
 70
     1
102
RTVSPost2010Prop39
140
1.0
102
RTVSPost2010PropOp39
 70
     1
102
RTVSPost2010Prop40
 90
        0
102
RTVSPost2010PropOp40
 70
     1
102
RTVSPost2010Prop41ColorIndex
 90
       18
102
RTVSPost2010Prop41ColorRGB
 90
        0
102
RTVSPost2010PropOp41
 70
     1
102
RTVSPost2010Prop42
 90
       50
102
RTVSPost2010PropOp42
 70
     1
102
RTVSPost2010Prop43
 90
        3
102
RTVSPost2010PropOp43
 70
     1
102
RTVSPost2010Prop44ColorIndex
 90
        5
102
RTVSPost2010Prop44ColorRGB
 90
      255
102
RTVSPost2010PropOp44
 70
     1
102
RTVSPost2010Prop45
280
     0
102
RTVSPost2010PropOp45
 70
     1
102
RTVSPost2010Prop46
 90
       50
102
RTVSPost2010PropOp46
 70
     1
102
RTVSPost2010Prop47
 90
       50
102
RTVSPost2010PropOp47
 70
     1
102
RTVSPost2010Prop48
 90
       50
102
RTVSPost2010PropOp48
 70
     1
102
RTVSPost2010Prop49
280
     0
102
RTVSPost2010PropOp49
 70
     1
102
RTVSPost2010Prop50
 90
       50
102
RTVSPost2010PropOp50
 70
     1
102
RTVSPost2010Prop51ColorIndex
 90
      256
102
RTVSPost2010Prop51ColorRGB
 90
-16777216
102
RTVSPost2010PropOp51
 70
     0
102
RTVSPost2010Prop52
140
1.0
102
RTVSPost2010PropOp52
 70
     0
102
RTVSPost2010Prop53
 90
        2
102
RTVSPost2010PropOp53
 70
     1
102
RTVSPost2010Prop54
  1
strokes_ogs.tif
102
RTVSPost2010PropOp54
 70
     1
102
RTVSPost2010Prop55
280
     0
102
RTVSPost2010PropOp55
 70
     1
102
RTVSPost2010Prop56
140
1.0
102
RTVSPost2010PropOp56
 70
     1
102
RTVSPost2010Prop57
140
1.0
102
RTVSPost2010PropOp57
 70
     1
102
RTVSPropertyOp0
 70
     1
102
RTVSPropertyOp1
 70
     1
102
RTVSPropertyOp2
 70
     1
102
RTVSPropertyOp3
 70
     1
102
RTVSPropertyOp4
 70
     1
102
RTVSPropertyOp5
 70
     1
102
RTVSPropertyOp6
 70
     1
102
RTVSPropertyOp7
 70
     1
102
RTVSPropertyOp8
 70
     1
102
RTVSPropertyOp9
 70
     1
102
RTVSPropertyOp10
 70
     1
102
RTVSPropertyOp11
 70
     1
102
RTVSPropertyOp12
 70
     1
102
RTVSPropertyOp13
 70
     1
102
RTVSPropertyOp14
 70
     1
102
RTVSPropertyOp15
 70
     1
102
RTVSPropertyOp16
 70
     1
102
RTVSPropertyOp17
 70
     1
102
RTVSPropertyOp18
 70
     1
102
RTVSPropertyOp19
 70
     1
102
RTVSPropertyOp20
 70
     1
102
RTVSPropertyOp21
 70
     1
102
RTVSPropertyOp22
 70
     1
102
RTVSPropertyOp23
 70
     1
102
RTVSPropertyOp24
 70
     1
102
RTVSPropertyOp25
 70
     1
102
RTVSPropertyOp26
 70
     1
102
RTVSPropertyOp27
 70
     1
102
RTVSPropertyOp28
 70
     1
102
RTVSPropertyOp29
 70
     1
102
RTVSPropertyOp30
 70
     1
102
RTVSPropertyOp31
 70
     1
102
RTVSPropertyOp32
 70
     1
102
RTVSPropertyOp33
 70
     1
102
RTVSPropertyOp34
 70
     1
102
RTVSPropertyOp35
 70
     1
102
RTVSPropertyOp36
 70
     1
102
RTVSPropertyOp37
 70
     1
102
RTVSPropertyOp38
 70
     1
102
RTVSPropertyOp39
 70
     1
102
RTVSPropertyOp40
 70
     1
102
RTVSPropertyOp41
 70
     1
102
RTVSPropertyOp42
 70
     1
102
RTVSPropertyOp43
 70
     1
102
RTVSPropertyOp44
 70
     1
102
RTVSPropertyOp45
 70
     1
102
RTVSPropertyOp46
 70
     1
102
RTVSPropertyOp47
 70
     1
102
RTVSPropertyOp48
 70
     1
102
RTVSPropertyOp49
 70
     1
102
RTVSPropertyOp50
 70
     1
102
RTVSPropertyOp51
 70
     0
102
RTVSPropertyOp52
 70
     0
102
RTVSPropertyOp53
 70
     1
102
RTVSPropertyOp54
 70
     1
102
RTVSPropertyOp55
 70
     1
102
RTVSPropertyOp56
 70
     1
102
RTVSPropertyOp57
 70
     1
102
RTVSPropertyOp58
 70
     1
102
RTVSPropertyOp59
 70
     1
102
RTVSPropertyOp60
 70
     1
102
RTVSPropertyOp61
 70
     1
102
RTVSPropertyOp62
 70
     1
  0
XRECORD
  5
1840
102
{ACAD_REACTORS
330
183F
102
}
330
183F
100
AcDbXrecord
280
     1
102
RTVSPost2010Prop28
280
     0
102
RTVSPost2010PropOp28
 70
     1
102
RTVSPost2010Prop29
280
     1
102
RTVSPost2010PropOp29
 70
     1
102
RTVSPost2010Prop30
280
     1
102
RTVSPost2010PropOp30
 70
     1
102
RTVSPost2010Prop31
280
     0
102
RTVSPost2010PropOp31
 70
     1
102
RTVSPost2010Prop32
280
     0
102
RTVSPost2010PropOp32
 70
     1
102
RTVSPost2010Prop33
280
     0
102
RTVSPost2010PropOp33
 70
     1
102
RTVSPost2010Prop34
280
     0
102
RTVSPost2010PropOp34
 70
     1
102
RTVSPost2010Prop35
280
     0
102
RTVSPost2010PropOp35
 70
     1
102
RTVSPost2010Prop36
280
     0
102
RTVSPost2010PropOp36
 70
     1
102
RTVSPost2010Prop37
 90
       50
102
RTVSPost2010PropOp37
 70
     1
102
RTVSPost2010Prop38
140
0.0
102
RTVSPost2010PropOp38
 70
     1
102
RTVSPost2010Prop39
140
1.0
102
RTVSPost2010PropOp39
 70
     1
102
RTVSPost2010Prop40
 90
        0
102
RTVSPost2010PropOp40
 70
     1
102
RTVSPost2010Prop41ColorIndex
 90
       18
102
RTVSPost2010Prop41ColorRGB
 90
        0
102
RTVSPost2010PropOp41
 70
     1
102
RTVSPost2010Prop42
 90
       50
102
RTVSPost2010PropOp42
 70
     1
102
RTVSPost2010Prop43
 90
        3
102
RTVSPost2010PropOp43
 70
     1
102
RTVSPost2010Prop44ColorIndex
 90
        5
102
RTVSPost2010Prop44ColorRGB
 90
      255
102
RTVSPost2010PropOp44
 70
     1
102
RTVSPost2010Prop45
280
     0
102
RTVSPost2010PropOp45
 70
     1
102
RTVSPost2010Prop46
 90
       50
102
RTVSPost2010PropOp46
 70
     1
102
RTVSPost2010Prop47
 90
       50
102
RTVSPost2010PropOp47
 70
     1
102
RTVSPost2010Prop48
 90
       50
102
RTVSPost2010PropOp48
 70
     1
102
RTVSPost2010Prop49
280
     0
102
RTVSPost2010PropOp49
 70
     1
102
RTVSPost2010Prop50
 90
       50
102
RTVSPost2010PropOp50
 70
     1
102
RTVSPost2010Prop51ColorIndex
 90
      256
102
RTVSPost2010Prop51ColorRGB
 90
-16777216
102
RTVSPost2010PropOp51
 70
     0
102
RTVSPost2010Prop52
140
1.0
102
RTVSPost2010PropOp52
 70
     0
102
RTVSPost2010Prop53
 90
        2
102
RTVSPost2010PropOp53
 70
     1
102
RTVSPost2010Prop54
  1
strokes_ogs.tif
102
RTVSPost2010PropOp54
 70
     1
102
RTVSPost2010Prop55
280
     0
102
RTVSPost2010PropOp55
 70
     1
102
RTVSPost2010Prop56
140
1.0
102
RTVSPost2010PropOp56
 70
     1
102
RTVSPost2010Prop57
140
1.0
102
RTVSPost2010PropOp57
 70
     1
102
RTVSPropertyOp0
 70
     1
102
RTVSPropertyOp1
 70
     1
102
RTVSPropertyOp2
 70
     1
102
RTVSPropertyOp3
 70
     1
102
RTVSPropertyOp4
 70
     1
102
RTVSPropertyOp5
 70
     1
102
RTVSPropertyOp6
 70
     1
102
RTVSPropertyOp7
 70
     1
102
RTVSPropertyOp8
 70
     1
102
RTVSPropertyOp9
 70
     1
102
RTVSPropertyOp10
 70
     1
102
RTVSPropertyOp11
 70
     1
102
RTVSPropertyOp12
 70
     1
102
RTVSPropertyOp13
 70
     1
102
RTVSPropertyOp14
 70
     1
102
RTVSPropertyOp15
 70
     1
102
RTVSPropertyOp16
 70
     1
102
RTVSPropertyOp17
 70
     1
102
RTVSPropertyOp18
 70
     1
102
RTVSPropertyOp19
 70
     1
102
RTVSPropertyOp20
 70
     1
102
RTVSPropertyOp21
 70
     1
102
RTVSPropertyOp22
 70
     1
102
RTVSPropertyOp23
 70
     1
102
RTVSPropertyOp24
 70
     1
102
RTVSPropertyOp25
 70
     1
102
RTVSPropertyOp26
 70
     1
102
RTVSPropertyOp27
 70
     1
102
RTVSPropertyOp28
 70
     1
102
RTVSPropertyOp29
 70
     1
102
RTVSPropertyOp30
 70
     1
102
RTVSPropertyOp31
 70
     1
102
RTVSPropertyOp32
 70
     1
102
RTVSPropertyOp33
 70
     1
102
RTVSPropertyOp34
 70
     1
102
RTVSPropertyOp35
 70
     1
102
RTVSPropertyOp36
 70
     1
102
RTVSPropertyOp37
 70
     1
102
RTVSPropertyOp38
 70
     1
102
RTVSPropertyOp39
 70
     1
102
RTVSPropertyOp40
 70
     1
102
RTVSPropertyOp41
 70
     1
102
RTVSPropertyOp42
 70
     1
102
RTVSPropertyOp43
 70
     1
102
RTVSPropertyOp44
 70
     1
102
RTVSPropertyOp45
 70
     1
102
RTVSPropertyOp46
 70
     1
102
RTVSPropertyOp47
 70
     1
102
RTVSPropertyOp48
 70
     1
102
RTVSPropertyOp49
 70
     1
102
RTVSPropertyOp50
 70
     1
102
RTVSPropertyOp51
 70
     0
102
RTVSPropertyOp52
 70
     0
102
RTVSPropertyOp53
 70
     1
102
RTVSPropertyOp54
 70
     1
102
RTVSPropertyOp55
 70
     1
102
RTVSPropertyOp56
 70
     1
102
RTVSPropertyOp57
 70
     1
102
RTVSPropertyOp58
 70
     1
102
RTVSPropertyOp59
 70
     1
102
RTVSPropertyOp60
 70
     1
102
RTVSPropertyOp61
 70
     1
102
RTVSPropertyOp62
 70
     1
  0
XRECORD
  5
1836
102
{ACAD_REACTORS
330
1835
102
}
330
1835
100
AcDbXrecord
280
     1
102
RTVSPost2010Prop28
280
     0
102
RTVSPost2010PropOp28
 70
     1
102
RTVSPost2010Prop29
280
     1
102
RTVSPost2010PropOp29
 70
     1
102
RTVSPost2010Prop30
280
     1
102
RTVSPost2010PropOp30
 70
     1
102
RTVSPost2010Prop31
280
     0
102
RTVSPost2010PropOp31
 70
     1
102
RTVSPost2010Prop32
280
     0
102
RTVSPost2010PropOp32
 70
     1
102
RTVSPost2010Prop33
280
     0
102
RTVSPost2010PropOp33
 70
     1
102
RTVSPost2010Prop34
280
     0
102
RTVSPost2010PropOp34
 70
     1
102
RTVSPost2010Prop35
280
     0
102
RTVSPost2010PropOp35
 70
     1
102
RTVSPost2010Prop36
280
     0
102
RTVSPost2010PropOp36
 70
     1
102
RTVSPost2010Prop37
 90
       50
102
RTVSPost2010PropOp37
 70
     1
102
RTVSPost2010Prop38
140
0.0
102
RTVSPost2010PropOp38
 70
     1
102
RTVSPost2010Prop39
140
1.0
102
RTVSPost2010PropOp39
 70
     1
102
RTVSPost2010Prop40
 90
        0
102
RTVSPost2010PropOp40
 70
     1
102
RTVSPost2010Prop41ColorIndex
 90
       18
102
RTVSPost2010Prop41ColorRGB
 90
        0
102
RTVSPost2010PropOp41
 70
     1
102
RTVSPost2010Prop42
 90
       50
102
RTVSPost2010PropOp42
 70
     1
102
RTVSPost2010Prop43
 90
        3
102
RTVSPost2010PropOp43
 70
     1
102
RTVSPost2010Prop44ColorIndex
 90
        5
102
RTVSPost2010Prop44ColorRGB
 90
      255
102
RTVSPost2010PropOp44
 70
     1
102
RTVSPost2010Prop45
280
     0
102
RTVSPost2010PropOp45
 70
     1
102
RTVSPost2010Prop46
 90
       50
102
RTVSPost2010PropOp46
 70
     1
102
RTVSPost2010Prop47
 90
       50
102
RTVSPost2010PropOp47
 70
     1
102
RTVSPost2010Prop48
 90
       50
102
RTVSPost2010PropOp48
 70
     1
102
RTVSPost2010Prop49
280
     0
102
RTVSPost2010PropOp49
 70
     1
102
RTVSPost2010Prop50
 90
       50
102
RTVSPost2010PropOp50
 70
     1
102
RTVSPost2010Prop51ColorIndex
 90
      256
102
RTVSPost2010Prop51ColorRGB
 90
-16777216
102
RTVSPost2010PropOp51
 70
     0
102
RTVSPost2010Prop52
140
1.0
102
RTVSPost2010PropOp52
 70
     0
102
RTVSPost2010Prop53
 90
        2
102
RTVSPost2010PropOp53
 70
     1
102
RTVSPost2010Prop54
  1
strokes_ogs.tif
102
RTVSPost2010PropOp54
 70
     1
102
RTVSPost2010Prop55
280
     0
102
RTVSPost2010PropOp55
 70
     1
102
RTVSPost2010Prop56
140
1.0
102
RTVSPost2010PropOp56
 70
     1
102
RTVSPost2010Prop57
140
1.0
102
RTVSPost2010PropOp57
 70
     1
102
RTVSPropertyOp0
 70
     1
102
RTVSPropertyOp1
 70
     1
102
RTVSPropertyOp2
 70
     1
102
RTVSPropertyOp3
 70
     1
102
RTVSPropertyOp4
 70
     1
102
RTVSPropertyOp5
 70
     1
102
RTVSPropertyOp6
 70
     1
102
RTVSPropertyOp7
 70
     1
102
RTVSPropertyOp8
 70
     1
102
RTVSPropertyOp9
 70
     1
102
RTVSPropertyOp10
 70
     1
102
RTVSPropertyOp11
 70
     1
102
RTVSPropertyOp12
 70
     1
102
RTVSPropertyOp13
 70
     1
102
RTVSPropertyOp14
 70
     1
102
RTVSPropertyOp15
 70
     1
102
RTVSPropertyOp16
 70
     1
102
RTVSPropertyOp17
 70
     1
102
RTVSPropertyOp18
 70
     1
102
RTVSPropertyOp19
 70
     1
102
RTVSPropertyOp20
 70
     1
102
RTVSPropertyOp21
 70
     1
102
RTVSPropertyOp22
 70
     1
102
RTVSPropertyOp23
 70
     1
102
RTVSPropertyOp24
 70
     1
102
RTVSPropertyOp25
 70
     1
102
RTVSPropertyOp26
 70
     1
102
RTVSPropertyOp27
 70
     1
102
RTVSPropertyOp28
 70
     1
102
RTVSPropertyOp29
 70
     1
102
RTVSPropertyOp30
 70
     1
102
RTVSPropertyOp31
 70
     1
102
RTVSPropertyOp32
 70
     1
102
RTVSPropertyOp33
 70
     1
102
RTVSPropertyOp34
 70
     1
102
RTVSPropertyOp35
 70
     1
102
RTVSPropertyOp36
 70
     1
102
RTVSPropertyOp37
 70
     1
102
RTVSPropertyOp38
 70
     1
102
RTVSPropertyOp39
 70
     1
102
RTVSPropertyOp40
 70
     1
102
RTVSPropertyOp41
 70
     1
102
RTVSPropertyOp42
 70
     1
102
RTVSPropertyOp43
 70
     1
102
RTVSPropertyOp44
 70
     1
102
RTVSPropertyOp45
 70
     1
102
RTVSPropertyOp46
 70
     1
102
RTVSPropertyOp47
 70
     1
102
RTVSPropertyOp48
 70
     1
102
RTVSPropertyOp49
 70
     1
102
RTVSPropertyOp50
 70
     1
102
RTVSPropertyOp51
 70
     0
102
RTVSPropertyOp52
 70
     0
102
RTVSPropertyOp53
 70
     1
102
RTVSPropertyOp54
 70
     1
102
RTVSPropertyOp55
 70
     1
102
RTVSPropertyOp56
 70
     1
102
RTVSPropertyOp57
 70
     1
102
RTVSPropertyOp58
 70
     1
102
RTVSPropertyOp59
 70
     1
102
RTVSPropertyOp60
 70
     1
102
RTVSPropertyOp61
 70
     1
102
RTVSPropertyOp62
 70
     1
  0
XRECORD
  5
182A
102
{ACAD_REACTORS
330
1829
102
}
330
1829
100
AcDbXrecord
280
     1
102
RTVSPost2010Prop28
280
     0
102
RTVSPost2010PropOp28
 70
     1
102
RTVSPost2010Prop29
280
     1
102
RTVSPost2010PropOp29
 70
     1
102
RTVSPost2010Prop30
280
     1
102
RTVSPost2010PropOp30
 70
     1
102
RTVSPost2010Prop31
280
     0
102
RTVSPost2010PropOp31
 70
     1
102
RTVSPost2010Prop32
280
     0
102
RTVSPost2010PropOp32
 70
     1
102
RTVSPost2010Prop33
280
     0
102
RTVSPost2010PropOp33
 70
     1
102
RTVSPost2010Prop34
280
     0
102
RTVSPost2010PropOp34
 70
     1
102
RTVSPost2010Prop35
280
     0
102
RTVSPost2010PropOp35
 70
     1
102
RTVSPost2010Prop36
280
     0
102
RTVSPost2010PropOp36
 70
     1
102
RTVSPost2010Prop37
 90
       50
102
RTVSPost2010PropOp37
 70
     1
102
RTVSPost2010Prop38
140
0.0
102
RTVSPost2010PropOp38
 70
     1
102
RTVSPost2010Prop39
140
1.0
102
RTVSPost2010PropOp39
 70
     1
102
RTVSPost2010Prop40
 90
        0
102
RTVSPost2010PropOp40
 70
     1
102
RTVSPost2010Prop41ColorIndex
 90
       18
102
RTVSPost2010Prop41ColorRGB
 90
        0
102
RTVSPost2010PropOp41
 70
     1
102
RTVSPost2010Prop42
 90
       50
102
RTVSPost2010PropOp42
 70
     1
102
RTVSPost2010Prop43
 90
        3
102
RTVSPost2010PropOp43
 70
     1
102
RTVSPost2010Prop44ColorIndex
 90
        5
102
RTVSPost2010Prop44ColorRGB
 90
      255
102
RTVSPost2010PropOp44
 70
     1
102
RTVSPost2010Prop45
280
     0
102
RTVSPost2010PropOp45
 70
     1
102
RTVSPost2010Prop46
 90
       50
102
RTVSPost2010PropOp46
 70
     1
102
RTVSPost2010Prop47
 90
       50
102
RTVSPost2010PropOp47
 70
     1
102
RTVSPost2010Prop48
 90
       50
102
RTVSPost2010PropOp48
 70
     1
102
RTVSPost2010Prop49
280
     0
102
RTVSPost2010PropOp49
 70
     1
102
RTVSPost2010Prop50
 90
       50
102
RTVSPost2010PropOp50
 70
     1
102
RTVSPost2010Prop51ColorIndex
 90
      256
102
RTVSPost2010Prop51ColorRGB
 90
-16777216
102
RTVSPost2010PropOp51
 70
     0
102
RTVSPost2010Prop52
140
1.0
102
RTVSPost2010PropOp52
 70
     0
102
RTVSPost2010Prop53
 90
        2
102
RTVSPost2010PropOp53
 70
     1
102
RTVSPost2010Prop54
  1
strokes_ogs.tif
102
RTVSPost2010PropOp54
 70
     1
102
RTVSPost2010Prop55
280
     0
102
RTVSPost2010PropOp55
 70
     1
102
RTVSPost2010Prop56
140
1.0
102
RTVSPost2010PropOp56
 70
     1
102
RTVSPost2010Prop57
140
1.0
102
RTVSPost2010PropOp57
 70
     1
102
RTVSPropertyOp0
 70
     1
102
RTVSPropertyOp1
 70
     1
102
RTVSPropertyOp2
 70
     1
102
RTVSPropertyOp3
 70
     1
102
RTVSPropertyOp4
 70
     1
102
RTVSPropertyOp5
 70
     1
102
RTVSPropertyOp6
 70
     1
102
RTVSPropertyOp7
 70
     1
102
RTVSPropertyOp8
 70
     1
102
RTVSPropertyOp9
 70
     1
102
RTVSPropertyOp10
 70
     1
102
RTVSPropertyOp11
 70
     1
102
RTVSPropertyOp12
 70
     1
102
RTVSPropertyOp13
 70
     1
102
RTVSPropertyOp14
 70
     1
102
RTVSPropertyOp15
 70
     1
102
RTVSPropertyOp16
 70
     1
102
RTVSPropertyOp17
 70
     1
102
RTVSPropertyOp18
 70
     1
102
RTVSPropertyOp19
 70
     1
102
RTVSPropertyOp20
 70
     1
102
RTVSPropertyOp21
 70
     1
102
RTVSPropertyOp22
 70
     1
102
RTVSPropertyOp23
 70
     1
102
RTVSPropertyOp24
 70
     1
102
RTVSPropertyOp25
 70
     1
102
RTVSPropertyOp26
 70
     1
102
RTVSPropertyOp27
 70
     1
102
RTVSPropertyOp28
 70
     1
102
RTVSPropertyOp29
 70
     1
102
RTVSPropertyOp30
 70
     1
102
RTVSPropertyOp31
 70
     1
102
RTVSPropertyOp32
 70
     1
102
RTVSPropertyOp33
 70
     1
102
RTVSPropertyOp34
 70
     1
102
RTVSPropertyOp35
 70
     1
102
RTVSPropertyOp36
 70
     1
102
RTVSPropertyOp37
 70
     1
102
RTVSPropertyOp38
 70
     1
102
RTVSPropertyOp39
 70
     1
102
RTVSPropertyOp40
 70
     1
102
RTVSPropertyOp41
 70
     1
102
RTVSPropertyOp42
 70
     1
102
RTVSPropertyOp43
 70
     1
102
RTVSPropertyOp44
 70
     1
102
RTVSPropertyOp45
 70
     1
102
RTVSPropertyOp46
 70
     1
102
RTVSPropertyOp47
 70
     1
102
RTVSPropertyOp48
 70
     1
102
RTVSPropertyOp49
 70
     1
102
RTVSPropertyOp50
 70
     1
102
RTVSPropertyOp51
 70
     0
102
RTVSPropertyOp52
 70
     0
102
RTVSPropertyOp53
 70
     1
102
RTVSPropertyOp54
 70
     1
102
RTVSPropertyOp55
 70
     1
102
RTVSPropertyOp56
 70
     1
102
RTVSPropertyOp57
 70
     1
102
RTVSPropertyOp58
 70
     1
102
RTVSPropertyOp59
 70
     1
102
RTVSPropertyOp60
 70
     1
102
RTVSPropertyOp61
 70
     1
102
RTVSPropertyOp62
 70
     1
  0
XRECORD
  5
1842
102
{ACAD_REACTORS
330
1841
102
}
330
1841
100
AcDbXrecord
280
     1
102
RTVSPost2010Prop28
280
     0
102
RTVSPost2010PropOp28
 70
     1
102
RTVSPost2010Prop29
280
     1
102
RTVSPost2010PropOp29
 70
     1
102
RTVSPost2010Prop30
280
     1
102
RTVSPost2010PropOp30
 70
     1
102
RTVSPost2010Prop31
280
     0
102
RTVSPost2010PropOp31
 70
     1
102
RTVSPost2010Prop32
280
     0
102
RTVSPost2010PropOp32
 70
     1
102
RTVSPost2010Prop33
280
     0
102
RTVSPost2010PropOp33
 70
     1
102
RTVSPost2010Prop34
280
     0
102
RTVSPost2010PropOp34
 70
     1
102
RTVSPost2010Prop35
280
     0
102
RTVSPost2010PropOp35
 70
     1
102
RTVSPost2010Prop36
280
     0
102
RTVSPost2010PropOp36
 70
     1
102
RTVSPost2010Prop37
 90
       50
102
RTVSPost2010PropOp37
 70
     1
102
RTVSPost2010Prop38
140
0.0
102
RTVSPost2010PropOp38
 70
     1
102
RTVSPost2010Prop39
140
1.0
102
RTVSPost2010PropOp39
 70
     1
102
RTVSPost2010Prop40
 90
        0
102
RTVSPost2010PropOp40
 70
     1
102
RTVSPost2010Prop41ColorIndex
 90
       18
102
RTVSPost2010Prop41ColorRGB
 90
        0
102
RTVSPost2010PropOp41
 70
     1
102
RTVSPost2010Prop42
 90
       50
102
RTVSPost2010PropOp42
 70
     1
102
RTVSPost2010Prop43
 90
        3
102
RTVSPost2010PropOp43
 70
     1
102
RTVSPost2010Prop44ColorIndex
 90
        5
102
RTVSPost2010Prop44ColorRGB
 90
      255
102
RTVSPost2010PropOp44
 70
     1
102
RTVSPost2010Prop45
280
     0
102
RTVSPost2010PropOp45
 70
     1
102
RTVSPost2010Prop46
 90
       50
102
RTVSPost2010PropOp46
 70
     1
102
RTVSPost2010Prop47
 90
       50
102
RTVSPost2010PropOp47
 70
     1
102
RTVSPost2010Prop48
 90
       50
102
RTVSPost2010PropOp48
 70
     1
102
RTVSPost2010Prop49
280
     0
102
RTVSPost2010PropOp49
 70
     1
102
RTVSPost2010Prop50
 90
       50
102
RTVSPost2010PropOp50
 70
     1
102
RTVSPost2010Prop51ColorIndex
 90
      256
102
RTVSPost2010Prop51ColorRGB
 90
-16777216
102
RTVSPost2010PropOp51
 70
     0
102
RTVSPost2010Prop52
140
1.0
102
RTVSPost2010PropOp52
 70
     0
102
RTVSPost2010Prop53
 90
        2
102
RTVSPost2010PropOp53
 70
     1
102
RTVSPost2010Prop54
  1
strokes_ogs.tif
102
RTVSPost2010PropOp54
 70
     1
102
RTVSPost2010Prop55
280
     0
102
RTVSPost2010PropOp55
 70
     1
102
RTVSPost2010Prop56
140
1.0
102
RTVSPost2010PropOp56
 70
     1
102
RTVSPost2010Prop57
140
1.0
102
RTVSPost2010PropOp57
 70
     1
102
RTVSPropertyOp0
 70
     1
102
RTVSPropertyOp1
 70
     1
102
RTVSPropertyOp2
 70
     1
102
RTVSPropertyOp3
 70
     1
102
RTVSPropertyOp4
 70
     1
102
RTVSPropertyOp5
 70
     1
102
RTVSPropertyOp6
 70
     1
102
RTVSPropertyOp7
 70
     1
102
RTVSPropertyOp8
 70
     1
102
RTVSPropertyOp9
 70
     1
102
RTVSPropertyOp10
 70
     1
102
RTVSPropertyOp11
 70
     1
102
RTVSPropertyOp12
 70
     1
102
RTVSPropertyOp13
 70
     1
102
RTVSPropertyOp14
 70
     1
102
RTVSPropertyOp15
 70
     1
102
RTVSPropertyOp16
 70
     1
102
RTVSPropertyOp17
 70
     1
102
RTVSPropertyOp18
 70
     1
102
RTVSPropertyOp19
 70
     1
102
RTVSPropertyOp20
 70
     1
102
RTVSPropertyOp21
 70
     1
102
RTVSPropertyOp22
 70
     1
102
RTVSPropertyOp23
 70
     1
102
RTVSPropertyOp24
 70
     1
102
RTVSPropertyOp25
 70
     1
102
RTVSPropertyOp26
 70
     1
102
RTVSPropertyOp27
 70
     1
102
RTVSPropertyOp28
 70
     1
102
RTVSPropertyOp29
 70
     1
102
RTVSPropertyOp30
 70
     1
102
RTVSPropertyOp31
 70
     1
102
RTVSPropertyOp32
 70
     1
102
RTVSPropertyOp33
 70
     1
102
RTVSPropertyOp34
 70
     1
102
RTVSPropertyOp35
 70
     1
102
RTVSPropertyOp36
 70
     1
102
RTVSPropertyOp37
 70
     1
102
RTVSPropertyOp38
 70
     1
102
RTVSPropertyOp39
 70
     1
102
RTVSPropertyOp40
 70
     1
102
RTVSPropertyOp41
 70
     1
102
RTVSPropertyOp42
 70
     1
102
RTVSPropertyOp43
 70
     1
102
RTVSPropertyOp44
 70
     1
102
RTVSPropertyOp45
 70
     1
102
RTVSPropertyOp46
 70
     1
102
RTVSPropertyOp47
 70
     1
102
RTVSPropertyOp48
 70
     1
102
RTVSPropertyOp49
 70
     1
102
RTVSPropertyOp50
 70
     1
102
RTVSPropertyOp51
 70
     0
102
RTVSPropertyOp52
 70
     0
102
RTVSPropertyOp53
 70
     1
102
RTVSPropertyOp54
 70
     1
102
RTVSPropertyOp55
 70
     1
102
RTVSPropertyOp56
 70
     1
102
RTVSPropertyOp57
 70
     1
102
RTVSPropertyOp58
 70
     1
102
RTVSPropertyOp59
 70
     1
102
RTVSPropertyOp60
 70
     1
102
RTVSPropertyOp61
 70
     1
102
RTVSPropertyOp62
 70
     1
  0
ENDSEC
  0
EOF
