  0
SECTION
  2
HEADER
  9
$ACADVER
  1
AC1021
  9
$ACADMAINTVER
 70
    50
  9
$DWGCODEPAGE
  3
ANSI_1252
  9
$LASTSAVEDBY
  1
francoisbu
  9
$INSBASE
 10
0.0
 20
0.0
 30
0.0
  9
$EXTMIN
 10
2.666666666699999
 20
3.966327683564135
 30
0.0
  9
$EXTMAX
 10
186.3826547879717
 20
113.3333333333
 30
0.0
  9
$LIMMIN
 10
0.0
 20
0.0
  9
$LIMMAX
 10
181.3333333333
 20
117.3333333333
  9
$ORTHOMODE
 70
     0
  9
$REGENMODE
 70
     1
  9
$FILLMODE
 70
     1
  9
$QTEXTMODE
 70
     0
  9
$MIRRTEXT
 70
     0
  9
$LTSCALE
 40
9.973333333300001
  9
$ATTMODE
 70
     1
  9
$TEXTSIZE
 40
0.2
  9
$TRACEWID
 40
0.05
  9
$TEXTSTYLE
  7
STANDARD
  9
$CLAYER
  8
0
  9
$CELTYPE
  6
BYLAYER
  9
$CECOLOR
 62
   256
  9
$CELTSCALE
 40
1.0
  9
$DISPSILH
 70
     0
  9
$DIMSCALE
 40
1.0
  9
$DIMASZ
 40
2.0
  9
$DIMEXO
 40
0.0625
  9
$DIMDLI
 40
6.890666666699999
  9
$DIMRND
 40
0.0
  9
$DIMDLE
 40
0.0
  9
$DIMEXE
 40
0.125
  9
$DIMTP
 40
0.00001
  9
$DIMTM
 40
0.00001
  9
$DIMTXT
 40
1.333333333299999
  9
$DIMCEN
 40
1.631999999999999
  9
$DIMTSZ
 40
0.0
  9
$DIMTOL
 70
     1
  9
$DIMLIM
 70
     0
  9
$DIMTIH
 70
     1
  9
$DIMTOH
 70
     1
  9
$DIMSE1
 70
     0
  9
$DIMSE2
 70
     0
  9
$DIMTAD
 70
     0
  9
$DIMZIN
 70
     0
  9
$DIMBLK
  1
_FILLED
  9
$DIMASO
 70
     1
  9
$DIMSHO
 70
     1
  9
$DIMPOST
  1

  9
$DIMAPOST
  1

  9
$DIMALT
 70
     0
  9
$DIMALTD
 70
     2
  9
$DIMALTF
 40
25.4
  9
$DIMLFAC
 40
1.0
  9
$DIMTOFL
 70
     0
  9
$DIMTVP
 40
0.0
  9
$DIMTIX
 70
     0
  9
$DIMSOXD
 70
     0
  9
$DIMSAH
 70
     0
  9
$DIMBLK1
  1

  9
$DIMBLK2
  1

  9
$DIMSTYLE
  2
STANDARD
  9
$DIMCLRD
 70
     0
  9
$DIMCLRE
 70
     0
  9
$DIMCLRT
 70
     0
  9
$DIMTFAC
 40
1.0
  9
$DIMGAP
 40
0.09
  9
$DIMJUST
 70
     0
  9
$DIMSD1
 70
     0
  9
$DIMSD2
 70
     0
  9
$DIMTOLJ
 70
     1
  9
$DIMTZIN
 70
     0
  9
$DIMALTZ
 70
     0
  9
$DIMALTTZ
 70
     0
  9
$DIMUPT
 70
     0
  9
$DIMDEC
 70
     4
  9
$DIMTDEC
 70
     4
  9
$DIMALTU
 70
     2
  9
$DIMALTTD
 70
     2
  9
$DIMTXSTY
  7
STANDARD
  9
$DIMAUNIT
 70
     0
  9
$DIMADEC
 70
     0
  9
$DIMALTRND
 40
0.0
  9
$DIMAZIN
 70
     0
  9
$DIMDSEP
 70
    46
  9
$DIMATFIT
 70
     3
  9
$DIMFRAC
 70
     0
  9
$DIMLDRBLK
  1

  9
$DIMLUNIT
 70
     2
  9
$DIMLWD
 70
    -2
  9
$DIMLWE
 70
    -2
  9
$DIMTMOVE
 70
     0
  9
$DIMFXL
 40
1.0
  9
$DIMFXLON
 70
     0
  9
$DIMJOGANG
 40
0.7853981633974483
  9
$DIMTFILL
 70
     0
  9
$DIMTFILLCLR
 70
     0
  9
$DIMARCSYM
 70
     0
  9
$DIMLTYPE
  6

  9
$DIMLTEX1
  6

  9
$DIMLTEX2
  6

  9
$LUNITS
 70
     2
  9
$LUPREC
 70
     4
  9
$SKETCHINC
 40
0.1
  9
$FILLETRAD
 40
0.0
  9
$AUNITS
 70
     0
  9
$AUPREC
 70
     0
  9
$MENU
  1
.
  9
$ELEVATION
 40
0.0
  9
$PELEVATION
 40
0.0
  9
$THICKNESS
 40
0.0
  9
$LIMCHECK
 70
     0
  9
$CHAMFERA
 40
0.0
  9
$CHAMFERB
 40
0.0
  9
$CHAMFERC
 40
0.0
  9
$CHAMFERD
 40
0.0
  9
$SKPOLY
 70
     0
  9
$TDCREATE
 40
2456638.635086227
  9
$TDUCREATE
 40
2456638.843419561
  9
$TDUPDATE
 40
2456645.397212882
  9
$TDUUPDATE
 40
2456645.605546215
  9
$TDINDWG
 40
0.0025215509
  9
$TDUSRTIMER
 40
0.0025215509
  9
$USRTIMER
 70
     1
  9
$ANGBASE
 50
0.0
  9
$ANGDIR
 70
     0
  9
$PDMODE
 70
     3
  9
$PDSIZE
 40
0.03125
  9
$PLINEWID
 40
0.0
  9
$SPLFRAME
 70
     0
  9
$SPLINETYPE
 70
     6
  9
$SPLINESEGS
 70
     8
  9
$HANDSEED
  5
1767
  9
$SURFTAB1
 70
     6
  9
$SURFTAB2
 70
     6
  9
$SURFTYPE
 70
     6
  9
$SURFU
 70
     6
  9
$SURFV
 70
     6
  9
$UCSBASE
  2

  9
$UCSNAME
  2

  9
$UCSORG
 10
0.0
 20
0.0
 30
0.0
  9
$UCSXDIR
 10
1.0
 20
0.0
 30
0.0
  9
$UCSYDIR
 10
0.0
 20
1.0
 30
0.0
  9
$UCSORTHOREF
  2

  9
$UCSORTHOVIEW
 70
     0
  9
$UCSORGTOP
 10
0.0
 20
0.0
 30
0.0
  9
$UCSORGBOTTOM
 10
0.0
 20
0.0
 30
0.0
  9
$UCSORGLEFT
 10
0.0
 20
0.0
 30
0.0
  9
$UCSORGRIGHT
 10
0.0
 20
0.0
 30
0.0
  9
$UCSORGFRONT
 10
0.0
 20
0.0
 30
0.0
  9
$UCSORGBACK
 10
0.0
 20
0.0
 30
0.0
  9
$PUCSBASE
  2

  9
$PUCSNAME
  2

  9
$PUCSORG
 10
0.0
 20
0.0
 30
0.0
  9
$PUCSXDIR
 10
1.0
 20
0.0
 30
0.0
  9
$PUCSYDIR
 10
0.0
 20
1.0
 30
0.0
  9
$PUCSORTHOREF
  2

  9
$PUCSORTHOVIEW
 70
     0
  9
$PUCSORGTOP
 10
0.0
 20
0.0
 30
0.0
  9
$PUCSORGBOTTOM
 10
0.0
 20
0.0
 30
0.0
  9
$PUCSORGLEFT
 10
0.0
 20
0.0
 30
0.0
  9
$PUCSORGRIGHT
 10
0.0
 20
0.0
 30
0.0
  9
$PUCSORGFRONT
 10
0.0
 20
0.0
 30
0.0
  9
$PUCSORGBACK
 10
0.0
 20
0.0
 30
0.0
  9
$USERI1
 70
     0
  9
$USERI2
 70
     0
  9
$USERI3
 70
     0
  9
$USERI4
 70
     0
  9
$USERI5
 70
     0
  9
$USERR1
 40
0.0
  9
$USERR2
 40
0.0
  9
$USERR3
 40
0.0
  9
$USERR4
 40
0.0
  9
$USERR5
 40
0.0
  9
$WORLDVIEW
 70
     1
  9
$SHADEDGE
 70
     3
  9
$SHADEDIF
 70
    70
  9
$TILEMODE
 70
     1
  9
$MAXACTVP
 70
    64
  9
$PINSBASE
 10
0.0
 20
0.0
 30
0.0
  9
$PLIMCHECK
 70
     0
  9
$PEXTMIN
 10
1.000000000000000E+20
 20
1.000000000000000E+20
 30
1.000000000000000E+20
  9
$PEXTMAX
 10
-1.000000000000000E+20
 20
-1.000000000000000E+20
 30
-1.000000000000000E+20
  9
$PLIMMIN
 10
0.0
 20
0.0
  9
$PLIMMAX
 10
12.0
 20
9.0
  9
$UNITMODE
 70
     0
  9
$VISRETAIN
 70
     1
  9
$PLINEGEN
 70
     0
  9
$PSLTSCALE
 70
     1
  9
$TREEDEPTH
 70
  3020
  9
$CMLSTYLE
  2
Standard
  9
$CMLJUST
 70
     0
  9
$CMLSCALE
 40
1.0
  9
$PROXYGRAPHICS
 70
     1
  9
$MEASUREMENT
 70
     0
  9
$CELWEIGHT
370
    -1
  9
$ENDCAPS
280
     0
  9
$JOINSTYLE
280
     0
  9
$LWDISPLAY
290
     0
  9
$INSUNITS
 70
     1
  9
$HYPERLINKBASE
  1

  9
$STYLESHEET
  1

  9
$XEDIT
290
     1
  9
$CEPSNTYPE
380
     0
  9
$PSTYLEMODE
290
     1
  9
$FINGERPRINTGUID
  2
{9E6F6152-6BD2-4E43-9ECE-49CAE40F48F5}
  9
$VERSIONGUID
  2
{D1127F6F-C0A8-4598-80BB-FA16BA2A285E}
  9
$EXTNAMES
290
     1
  9
$PSVPSCALE
 40
0.0
  9
$OLESTARTUP
290
     0
  9
$SORTENTS
280
   127
  9
$INDEXCTL
280
     0
  9
$HIDETEXT
280
     0
  9
$XCLIPFRAME
290
     0
  9
$HALOGAP
280
     0
  9
$OBSCOLOR
 70
   257
  9
$OBSLTYPE
280
     0
  9
$INTERSECTIONDISPLAY
280
     0
  9
$INTERSECTIONCOLOR
 70
   257
  9
$DIMASSOC
280
     1
  9
$PROJECTNAME
  1

  9
$CAMERADISPLAY
290
     0
  9
$LENSLENGTH
 40
50.0
  9
$CAMERAHEIGHT
 40
0.0
  9
$STEPSPERSEC
 40
2.0
  9
$STEPSIZE
 40
6.0
  9
$3DDWFPREC
 40
2.0
  9
$PSOLWIDTH
 40
0.25
  9
$PSOLHEIGHT
 40
4.0
  9
$LOFTANG1
 40
1.570796326794896
  9
$LOFTANG2
 40
1.570796326794896
  9
$LOFTMAG1
 40
0.0
  9
$LOFTMAG2
 40
0.0
  9
$LOFTPARAM
 70
     7
  9
$LOFTNORMALS
280
     1
  9
$LATITUDE
 40
37.795
  9
$LONGITUDE
 40
-122.394
  9
$NORTHDIRECTION
 40
0.0
  9
$TIMEZONE
 70
 -8000
  9
$LIGHTGLYPHDISPLAY
280
     1
  9
$TILEMODELIGHTSYNCH
280
     1
  9
$CMATERIAL
347
166D
  9
$SOLIDHIST
280
     1
  9
$SHOWHIST
280
     1
  9
$DWFFRAME
280
     2
  9
$DGNFRAME
280
     0
  9
$REALWORLDSCALE
290
     1
  9
$INTERFERECOLOR
 62
     1
  9
$INTERFEREOBJVS
345
168F
  9
$INTERFEREVPVS
346
168C
  9
$CSHADOW
280
     0
  9
$SHADOWPLANELOCATION
 40
0.0
  0
ENDSEC
  0
SECTION
  2
CLASSES
  0
CLASS
  1
ACDBDICTIONARYWDFLT
  2
AcDbDictionaryWithDefault
  3
ObjectDBX Classes
 90
        0
 91
        1
280
     0
281
     0
  0
CLASS
  1
MATERIAL
  2
AcDbMaterial
  3
ObjectDBX Classes
 90
     1153
 91
        3
280
     0
281
     0
  0
CLASS
  1
VISUALSTYLE
  2
AcDbVisualStyle
  3
ObjectDBX Classes
 90
     4095
 91
       19
280
     0
281
     0
  0
CLASS
  1
TABLESTYLE
  2
AcDbTableStyle
  3
ObjectDBX Classes
 90
     4095
 91
        1
280
     0
281
     0
  0
CLASS
  1
SCALE
  2
AcDbScale
  3
ObjectDBX Classes
 90
     1153
 91
       33
280
     0
281
     0
  0
CLASS
  1
MLEADERSTYLE
  2
AcDbMLeaderStyle
  3
ACDB_MLEADERSTYLE_CLASS
 90
     4095
 91
        1
280
     0
281
     0
  0
CLASS
  1
CELLSTYLEMAP
  2
AcDbCellStyleMap
  3
ObjectDBX Classes
 90
     1152
 91
        4
280
     0
281
     0
  0
CLASS
  1
DICTIONARYVAR
  2
AcDbDictionaryVar
  3
ObjectDBX Classes
 90
        0
 91
       11
280
     0
281
     0
  0
ENDSEC
  0
SECTION
  2
TABLES
  0
TABLE
  2
VPORT
  5
8
102
{ACAD_XDICTIONARY
360
16C3
102
}
330
0
100
AcDbSymbolTable
 70
     1
  0
VPORT
  5
1F4
330
8
100
AcDbSymbolTableRecord
100
AcDbViewportTableRecord
  2
*ACTIVE
 70
     0
 10
0.0
 20
0.0
 11
1.0
 21
1.0
 12
121.8796774644835
 22
37.0890505242009
 13
0.0
 23
0.0
 14
1.0
 24
1.0
 15
0.0
 25
0.0
 16
0.0
 26
0.0
 36
1.0
 17
0.0
 27
0.0
 37
0.0
 40
29.98088432642652
 41
1.957300275482093
 42
50.0
 43
0.0
 44
0.0
 50
0.0
 51
0.0
 71
     0
 72
   100
 73
     1
 74
     1
 75
     0
 76
     0
 77
     0
 78
     0
281
     0
 65
     1
110
0.0
120
0.0
130
0.0
111
1.0
121
0.0
131
0.0
112
0.0
122
1.0
132
0.0
 79
     0
146
0.0
348
168B
 60
     3
 61
     5
292
     1
282
     1
141
0.0
142
0.0
 63
   250
421
  3355443
  0
ENDTAB
  0
TABLE
  2
LTYPE
  5
5
330
0
100
AcDbSymbolTable
 70
     6
  0
LTYPE
  5
14
330
5
100
AcDbSymbolTableRecord
100
AcDbLinetypeTableRecord
  2
BYBLOCK
 70
     0
  3

 72
    65
 73
     0
 40
0.0
  0
LTYPE
  5
15
330
5
100
AcDbSymbolTableRecord
100
AcDbLinetypeTableRecord
  2
BYLAYER
 70
     0
  3

 72
    65
 73
     0
 40
0.0
  0
LTYPE
  5
16
330
5
100
AcDbSymbolTableRecord
100
AcDbLinetypeTableRecord
  2
CONTINUOUS
 70
     0
  3
Solid line
 72
    65
 73
     0
 40
0.0
  0
LTYPE
  5
1F5
330
5
100
AcDbSymbolTableRecord
100
AcDbLinetypeTableRecord
  2
CENTER
 70
     0
  3
____ _ ____ _ ____ _ ____ _ ____ _ ____ _ ____
 72
    65
 73
     4
 40
0.6
 49
0.375
 74
     0
 49
-0.075
 74
     0
 49
0.075
 74
     0
 49
-0.075
 74
     0
  0
LTYPE
  5
1F6
330
5
100
AcDbSymbolTableRecord
100
AcDbLinetypeTableRecord
  2
HIDDEN
 70
     0
  3
- - - - - - - - - - - - - - - - - - - -
 72
    65
 73
     2
 40
0.2
 49
0.1
 74
     0
 49
-0.1
 74
     0
  0
LTYPE
  5
1F7
330
5
100
AcDbSymbolTableRecord
100
AcDbLinetypeTableRecord
  2
PHANTOM
 70
     0
  3
_____ _ _ _____ _ _ _____ _ _ _____
 72
    65
 73
     6
 40
0.8
 49
0.45
 74
     0
 49
-0.05
 74
     0
 49
0.1
 74
     0
 49
-0.05
 74
     0
 49
0.1
 74
     0
 49
-0.05
 74
     0
  0
LTYPE
  5
1F8
330
5
100
AcDbSymbolTableRecord
100
AcDbLinetypeTableRecord
  2
DOT
 70
     0
  3
. . . . . . . . . . . . . . . . . . . .
 72
    65
 73
     2
 40
0.2
 49
0.1
 74
     0
 49
-0.1
 74
     0
  0
LTYPE
  5
1F9
330
5
100
AcDbSymbolTableRecord
100
AcDbLinetypeTableRecord
  2
DASHED
 70
     0
  3
- - - - - - - - - - - - - - - - - - - -
 72
    65
 73
     2
 40
0.2
 49
0.1
 74
     0
 49
-0.1
 74
     0
  0
ENDTAB
  0
TABLE
  2
LAYER
  5
2
330
0
100
AcDbSymbolTable
 70
    42
  0
LAYER
  5
10
102
{ACAD_XDICTIONARY
360
1703
102
}
330
2
100
AcDbSymbolTableRecord
100
AcDbLayerTableRecord
  2
0
 70
     0
 62
     7
  6
CONTINUOUS
370
    -3
390
F
347
167D
  0
LAYER
  5
1FA
102
{ACAD_XDICTIONARY
360
1705
102
}
330
2
100
AcDbSymbolTableRecord
100
AcDbLayerTableRecord
  2
DEFAULT_1
 70
     0
 62
     7
  6
CENTER
370
    -3
390
F
347
167D
  0
LAYER
  5
1FB
102
{ACAD_XDICTIONARY
360
1707
102
}
330
2
100
AcDbSymbolTableRecord
100
AcDbLayerTableRecord
  2
DEFAULT_2
 70
     0
 62
     7
  6
HIDDEN
370
    -3
390
F
347
167D
  0
LAYER
  5
1FC
102
{ACAD_XDICTIONARY
360
1709
102
}
330
2
100
AcDbSymbolTableRecord
100
AcDbLayerTableRecord
  2
DEFAULT_3
 70
     0
 62
     7
  6
PHANTOM
370
    -3
390
F
347
167D
  0
LAYER
  5
1FD
102
{ACAD_XDICTIONARY
360
170B
102
}
330
2
100
AcDbSymbolTableRecord
100
AcDbLayerTableRecord
  2
1_CURCES_SPECS_FRONT_GAUCHE_INS
 70
     0
 62
     7
  6
CONTINUOUS
370
    -3
390
F
347
167D
  0
LAYER
  5
1FE
102
{ACAD_XDICTIONARY
360
170D
102
}
330
2
100
AcDbSymbolTableRecord
100
AcDbLayerTableRecord
  2
1_CURVES
 70
     0
 62
     7
  6
CONTINUOUS
370
    -3
390
F
347
167D
  0
LAYER
  5
1FF
102
{ACAD_XDICTIONARY
360
170F
102
}
330
2
100
AcDbSymbolTableRecord
100
AcDbLayerTableRecord
  2
1_CURVES_CONDUIT
 70
     0
 62
     7
  6
CONTINUOUS
370
    -3
390
F
347
167D
  0
LAYER
  5
200
102
{ACAD_XDICTIONARY
360
1711
102
}
330
2
100
AcDbSymbolTableRecord
100
AcDbLayerTableRecord
  2
1_CURVES_JETS
 70
     0
 62
     7
  6
CONTINUOUS
370
    -3
390
F
347
167D
  0
LAYER
  5
201
102
{ACAD_XDICTIONARY
360
1713
102
}
330
2
100
AcDbSymbolTableRecord
100
AcDbLayerTableRecord
  2
1_CURVES_JETS-1
 70
     0
 62
     7
  6
CONTINUOUS
370
    -3
390
F
347
167D
  0
LAYER
  5
202
102
{ACAD_XDICTIONARY
360
1715
102
}
330
2
100
AcDbSymbolTableRecord
100
AcDbLayerTableRecord
  2
1_CURVES_JETS-2
 70
     0
 62
     7
  6
CONTINUOUS
370
    -3
390
F
347
167D
  0
LAYER
  5
203
102
{ACAD_XDICTIONARY
360
1717
102
}
330
2
100
AcDbSymbolTableRecord
100
AcDbLayerTableRecord
  2
1_CURVES_PATINS
 70
     0
 62
     7
  6
CONTINUOUS
370
    -3
390
F
347
167D
  0
LAYER
  5
204
102
{ACAD_XDICTIONARY
360
1719
102
}
330
2
100
AcDbSymbolTableRecord
100
AcDbLayerTableRecord
  2
1_CURVES_RESURFACAGE
 70
     0
 62
     7
  6
CONTINUOUS
370
    -3
390
F
347
167D
  0
LAYER
  5
205
102
{ACAD_XDICTIONARY
360
171B
102
}
330
2
100
AcDbSymbolTableRecord
100
AcDbLayerTableRecord
  2
1_CURVES_SPECS_FRONT-GAUCHE
 70
     0
 62
     7
  6
CONTINUOUS
370
    -3
390
F
347
167D
  0
LAYER
  5
206
102
{ACAD_XDICTIONARY
360
171D
102
}
330
2
100
AcDbSymbolTableRecord
100
AcDbLayerTableRecord
  2
1_CURVES_SPECS_RIGHT-GAUCHE
 70
     0
 62
     7
  6
CONTINUOUS
370
    -3
390
F
347
167D
  0
LAYER
  5
207
102
{ACAD_XDICTIONARY
360
171F
102
}
330
2
100
AcDbSymbolTableRecord
100
AcDbLayerTableRecord
  2
2_PLANES
 70
     0
 62
     7
  6
CONTINUOUS
370
    -3
390
F
347
167D
  0
LAYER
  5
208
102
{ACAD_XDICTIONARY
360
1721
102
}
330
2
100
AcDbSymbolTableRecord
100
AcDbLayerTableRecord
  2
2_PLANES_JETS-1
 70
     0
 62
     7
  6
CONTINUOUS
370
    -3
390
F
347
167D
  0
LAYER
  5
209
102
{ACAD_XDICTIONARY
360
1723
102
}
330
2
100
AcDbSymbolTableRecord
100
AcDbLayerTableRecord
  2
2_PLANES_JETS-2
 70
     0
 62
     7
  6
CONTINUOUS
370
    -3
390
F
347
167D
  0
LAYER
  5
20A
102
{ACAD_XDICTIONARY
360
1725
102
}
330
2
100
AcDbSymbolTableRecord
100
AcDbLayerTableRecord
  2
3_POINTS
 70
     0
 62
     7
  6
CONTINUOUS
370
    -3
390
F
347
167D
  0
LAYER
  5
20B
102
{ACAD_XDICTIONARY
360
1727
102
}
330
2
100
AcDbSymbolTableRecord
100
AcDbLayerTableRecord
  2
3_POINTS_JETS-1
 70
     0
 62
     7
  6
CONTINUOUS
370
    -3
390
F
347
167D
  0
LAYER
  5
20C
102
{ACAD_XDICTIONARY
360
1729
102
}
330
2
100
AcDbSymbolTableRecord
100
AcDbLayerTableRecord
  2
3_POINTS_JETS-2
 70
     0
 62
     7
  6
CONTINUOUS
370
    -3
390
F
347
167D
  0
LAYER
  5
20D
102
{ACAD_XDICTIONARY
360
172B
102
}
330
2
100
AcDbSymbolTableRecord
100
AcDbLayerTableRecord
  2
4_CSYS
 70
     0
 62
     7
  6
CONTINUOUS
370
    -3
390
F
347
167D
  0
LAYER
  5
20E
102
{ACAD_XDICTIONARY
360
172D
102
}
330
2
100
AcDbSymbolTableRecord
100
AcDbLayerTableRecord
  2
5_AXIS
 70
     0
 62
     7
  6
CONTINUOUS
370
    -3
390
F
347
167D
  0
LAYER
  5
20F
102
{ACAD_XDICTIONARY
360
172F
102
}
330
2
100
AcDbSymbolTableRecord
100
AcDbLayerTableRecord
  2
5_AXIS_JETS-1
 70
     0
 62
     7
  6
CONTINUOUS
370
    -3
390
F
347
167D
  0
LAYER
  5
210
102
{ACAD_XDICTIONARY
360
1731
102
}
330
2
100
AcDbSymbolTableRecord
100
AcDbLayerTableRecord
  2
5_AXIS_JETS-2
 70
     0
 62
     7
  6
CONTINUOUS
370
    -3
390
F
347
167D
  0
LAYER
  5
211
102
{ACAD_XDICTIONARY
360
1733
102
}
330
2
100
AcDbSymbolTableRecord
100
AcDbLayerTableRecord
  2
6_AIRE_CONDUIT
 70
     0
 62
     7
  6
CONTINUOUS
370
    -3
390
F
347
167D
  0
LAYER
  5
212
102
{ACAD_XDICTIONARY
360
1735
102
}
330
2
100
AcDbSymbolTableRecord
100
AcDbLayerTableRecord
  2
6_SURFACES
 70
     0
 62
     7
  6
CONTINUOUS
370
    -3
390
F
347
167D
  0
LAYER
  5
213
102
{ACAD_XDICTIONARY
360
1737
102
}
330
2
100
AcDbSymbolTableRecord
100
AcDbLayerTableRecord
  2
6_SURFACES-TOOLING
 70
     0
 62
     7
  6
CONTINUOUS
370
    -3
390
F
347
167D
  0
LAYER
  5
214
102
{ACAD_XDICTIONARY
360
1739
102
}
330
2
100
AcDbSymbolTableRecord
100
AcDbLayerTableRecord
  2
6_SURFACES_AIRE
 70
     0
 62
     7
  6
CONTINUOUS
370
    -3
390
F
347
167D
  0
LAYER
  5
215
102
{ACAD_XDICTIONARY
360
173B
102
}
330
2
100
AcDbSymbolTableRecord
100
AcDbLayerTableRecord
  2
6_SURFACES_BAIN_DROIT
 70
     0
 62
     7
  6
CONTINUOUS
370
    -3
390
F
347
167D
  0
LAYER
  5
216
102
{ACAD_XDICTIONARY
360
173D
102
}
330
2
100
AcDbSymbolTableRecord
100
AcDbLayerTableRecord
  2
6_SURFACES_BAIN_DROIT_INSERT
 70
     0
 62
     7
  6
CONTINUOUS
370
    -3
390
F
347
167D
  0
LAYER
  5
217
102
{ACAD_XDICTIONARY
360
173F
102
}
330
2
100
AcDbSymbolTableRecord
100
AcDbLayerTableRecord
  2
6_SURFACES_BAIN_GAUCHE
 70
     0
 62
     7
  6
CONTINUOUS
370
    -3
390
F
347
167D
  0
LAYER
  5
218
102
{ACAD_XDICTIONARY
360
1741
102
}
330
2
100
AcDbSymbolTableRecord
100
AcDbLayerTableRecord
  2
6_SURFACES_BAIN_GAUCHE_INSERT
 70
     0
 62
     7
  6
CONTINUOUS
370
    -3
390
F
347
167D
  0
LAYER
  5
219
102
{ACAD_XDICTIONARY
360
1743
102
}
330
2
100
AcDbSymbolTableRecord
100
AcDbLayerTableRecord
  2
6_SURFACES_OFFSET_FIBRE_ACRYLIQ
 70
     0
 62
     7
  6
CONTINUOUS
370
    -3
390
F
347
167D
  0
LAYER
  5
21A
102
{ACAD_XDICTIONARY
360
1745
102
}
330
2
100
AcDbSymbolTableRecord
100
AcDbLayerTableRecord
  2
6_SURFACES_PATINS_SPECS
 70
     0
 62
     7
  6
CONTINUOUS
370
    -3
390
F
347
167D
  0
LAYER
  5
21B
102
{ACAD_XDICTIONARY
360
1747
102
}
330
2
100
AcDbSymbolTableRecord
100
AcDbLayerTableRecord
  2
6_SURFACES_POUR_CONDUIT
 70
     0
 62
     7
  6
CONTINUOUS
370
    -3
390
F
347
167D
  0
LAYER
  5
21C
102
{ACAD_XDICTIONARY
360
1749
102
}
330
2
100
AcDbSymbolTableRecord
100
AcDbLayerTableRecord
  2
6_SURFACES_POUR_HFL
 70
     0
 62
     7
  6
CONTINUOUS
370
    -3
390
F
347
167D
  0
LAYER
  5
21D
102
{ACAD_XDICTIONARY
360
174B
102
}
330
2
100
AcDbSymbolTableRecord
100
AcDbLayerTableRecord
  2
6_SURFACES_POUR_TROP_PLEIN
 70
     0
 62
     7
  6
CONTINUOUS
370
    -3
390
F
347
167D
  0
LAYER
  5
21E
102
{ACAD_XDICTIONARY
360
174D
102
}
330
2
100
AcDbSymbolTableRecord
100
AcDbLayerTableRecord
  2
6_SURFACES_TOOLING
 70
     0
 62
     7
  6
CONTINUOUS
370
    -3
390
F
347
167D
  0
LAYER
  5
21F
102
{ACAD_XDICTIONARY
360
174F
102
}
330
2
100
AcDbSymbolTableRecord
100
AcDbLayerTableRecord
  2
7_NOTES
 70
     0
 62
     7
  6
CONTINUOUS
370
    -3
390
F
347
167D
  0
LAYER
  5
220
102
{ACAD_XDICTIONARY
360
1751
102
}
330
2
100
AcDbSymbolTableRecord
100
AcDbLayerTableRecord
  2
8_TOL_GEOM
 70
     0
 62
     7
  6
CONTINUOUS
370
    -3
390
F
347
167D
  0
LAYER
  5
221
102
{ACAD_XDICTIONARY
360
1753
102
}
330
2
100
AcDbSymbolTableRecord
100
AcDbLayerTableRecord
  2
NONE
 70
     0
 62
     7
  6
CONTINUOUS
370
    -3
390
F
347
167D
  0
LAYER
  5
222
102
{ACAD_XDICTIONARY
360
1755
102
}
330
2
100
AcDbSymbolTableRecord
100
AcDbLayerTableRecord
  2
XSEC_DATUMS
 70
     0
 62
     7
  6
CONTINUOUS
370
    -3
390
F
347
167D
  0
ENDTAB
  0
TABLE
  2
STYLE
  5
3
330
0
100
AcDbSymbolTable
 70
     8
  0
STYLE
  5
11
330
3
100
AcDbSymbolTableRecord
100
AcDbTextStyleTableRecord
  2
STANDARD
 70
     0
 40
0.0
 41
0.8
 50
0.0
 71
     0
 42
0.2
  3
txt
  4

  0
STYLE
  5
223
330
3
100
AcDbSymbolTableRecord
100
AcDbTextStyleTableRecord
  2
TEXTSTYLE_1
 70
     0
 40
0.0
 41
0.8
 50
0.0
 71
     0
 42
0.2
  3
gdt
  4

  0
STYLE
  5
224
330
3
100
AcDbSymbolTableRecord
100
AcDbTextStyleTableRecord
  2
TEXTSTYLE_2
 70
     0
 40
0.0
 41
1.0
 50
0.0
 71
     0
 42
0.2
  3
trium.ttf
  4

  0
STYLE
  5
225
330
3
100
AcDbSymbolTableRecord
100
AcDbTextStyleTableRecord
  2
TEXTSTYLE_3
 70
     0
 40
0.0
 41
1.0
 50
0.0
 71
     0
 42
0.2
  3
trium.ttf
  4

  0
STYLE
  5
226
330
3
100
AcDbSymbolTableRecord
100
AcDbTextStyleTableRecord
  2
TEXTSTYLE_4
 70
     0
 40
0.0
 41
1.0
 50
0.0
 71
     0
 42
0.2
  3
txt_____.ttf
  4

1001
ACAD
1000
txt
1071
        2
  0
STYLE
  5
227
330
3
100
AcDbSymbolTableRecord
100
AcDbTextStyleTableRecord
  2
TEXTSTYLE_5
 70
     0
 40
0.0
 41
1.0
 50
0.0
 71
     0
 42
0.2
  3
txt
  4

  0
STYLE
  5
228
330
3
100
AcDbSymbolTableRecord
100
AcDbTextStyleTableRecord
  2
TEXTSTYLE_6
 70
     0
 40
0.0
 41
1.0
 50
0.0
 71
     0
 42
0.2
  3
trium.ttf
  4

  0
STYLE
  5
229
330
3
100
AcDbSymbolTableRecord
100
AcDbTextStyleTableRecord
  2
TEXTSTYLE_7
 70
     0
 40
0.0
 41
0.8
 50
0.0
 71
     0
 42
0.2
  3
txt
  4

  0
ENDTAB
  0
TABLE
  2
VIEW
  5
6
330
0
100
AcDbSymbolTable
 70
     0
  0
ENDTAB
  0
TABLE
  2
UCS
  5
7
330
0
100
AcDbSymbolTable
 70
     0
  0
ENDTAB
  0
TABLE
  2
APPID
  5
9
330
0
100
AcDbSymbolTable
 70
     2
  0
APPID
  5
22A
330
9
100
AcDbSymbolTableRecord
100
AcDbRegAppTableRecord
  2
ACAD
 70
     0
  0
APPID
  5
16F3
330
9
100
AcDbSymbolTableRecord
100
AcDbRegAppTableRecord
  2
ACAD_MLEADERVER
 70
     0
  0
ENDTAB
  0
TABLE
  2
DIMSTYLE
  5
A
330
0
100
AcDbSymbolTable
 70
     4
100
AcDbDimStyleTable
 71
     0
  0
DIMSTYLE
105
23D
330
A
100
AcDbSymbolTableRecord
100
AcDbDimStyleTableRecord
  2
STANDARD
 70
     0
 41
2.0
 44
0.125
 47
0.00001
 48
0.00001
 71
     1
 78
     4
140
1.333333333299999
271
     5
272
     5
284
     4
340
11
341
22D
342
22D
343
22D
344
22D
  0
DIMSTYLE
105
23E
330
A
100
AcDbSymbolTableRecord
100
AcDbDimStyleTableRecord
  2
DIMSTYLE_1
 70
     0
 41
2.0
 44
0.125
 47
0.00001
 48
0.00001
 78
     4
140
1.333333333299999
147
0.0625
284
     4
340
11
341
22D
342
22D
343
22D
344
22D
  0
DIMSTYLE
105
23F
330
A
100
AcDbSymbolTableRecord
100
AcDbDimStyleTableRecord
  2
DIMSTYLE_2
 70
     0
 41
2.0
 44
0.125
 47
0.00001
 48
0.00001
 78
     4
140
1.333333333299999
147
0.0625
271
     3
272
     3
284
     4
340
11
341
22D
342
22D
343
22D
344
22D
  0
DIMSTYLE
105
240
330
A
100
AcDbSymbolTableRecord
100
AcDbDimStyleTableRecord
  2
DIMSTYLE_3
 70
     0
 41
2.0
 44
0.125
 47
0.00001
 48
0.00001
 78
     4
140
1.333333333299999
147
0.0625
271
     6
272
     6
284
     4
340
11
341
22D
342
22D
343
22D
344
22D
  0
ENDTAB
  0
TABLE
  2
BLOCK_RECORD
  5
1
330
0
100
AcDbSymbolTable
 70
    16
  0
BLOCK_RECORD
  5
22B
330
1
100
AcDbSymbolTableRecord
100
AcDbBlockTableRecord
  2
*Model_Space
340
1668
 70
     0
280
     1
281
     0
  0
BLOCK_RECORD
  5
22C
330
1
100
AcDbSymbolTableRecord
100
AcDbBlockTableRecord
  2
*Paper_Space
340
1669
 70
     0
280
     1
281
     0
  0
BLOCK_RECORD
  5
22D
330
1
100
AcDbSymbolTableRecord
100
AcDbBlockTableRecord
  2
_FILLED
340
0
102
{BLKREFS
331
345
331
346
331
34E
331
34F
331
358
331
359
102
}
 70
     0
280
     1
281
     0
  0
BLOCK_RECORD
  5
22E
330
1
100
AcDbSymbolTableRecord
100
AcDbBlockTableRecord
  2
*D1
340
0
 70
     0
280
     1
281
     0
  0
BLOCK_RECORD
  5
22F
330
1
100
AcDbSymbolTableRecord
100
AcDbBlockTableRecord
  2
*D2
340
0
 70
     0
280
     1
281
     0
  0
BLOCK_RECORD
  5
230
330
1
100
AcDbSymbolTableRecord
100
AcDbBlockTableRecord
  2
*D3
340
0
 70
     0
280
     1
281
     0
  0
BLOCK_RECORD
  5
231
330
1
100
AcDbSymbolTableRecord
100
AcDbBlockTableRecord
  2
SYMBOL_31_BL11
340
0
 70
     0
280
     1
281
     0
  0
BLOCK_RECORD
  5
232
330
1
100
AcDbSymbolTableRecord
100
AcDbBlockTableRecord
  2
SYMBOL_30_BL10
340
0
 70
     0
280
     1
281
     0
  0
BLOCK_RECORD
  5
233
330
1
100
AcDbSymbolTableRecord
100
AcDbBlockTableRecord
  2
SYMBOL_28_BL9
340
0
 70
     0
280
     1
281
     0
  0
BLOCK_RECORD
  5
234
330
1
100
AcDbSymbolTableRecord
100
AcDbBlockTableRecord
  2
SYMBOL_19_BL8
340
0
 70
     0
280
     1
281
     0
  0
BLOCK_RECORD
  5
235
330
1
100
AcDbSymbolTableRecord
100
AcDbBlockTableRecord
  2
SYMBOL_18_BL7
340
0
 70
     0
280
     1
281
     0
  0
BLOCK_RECORD
  5
236
330
1
100
AcDbSymbolTableRecord
100
AcDbBlockTableRecord
  2
SYMBOL_33_BL6
340
0
 70
     0
280
     1
281
     0
  0
BLOCK_RECORD
  5
237
330
1
100
AcDbSymbolTableRecord
100
AcDbBlockTableRecord
  2
SYMBOL_29_BL5
340
0
 70
     0
280
     1
281
     0
  0
BLOCK_RECORD
  5
238
330
1
100
AcDbSymbolTableRecord
100
AcDbBlockTableRecord
  2
SYMBOL_27_BL4
340
0
 70
     0
280
     1
281
     0
  0
BLOCK_RECORD
  5
239
330
1
100
AcDbSymbolTableRecord
100
AcDbBlockTableRecord
  2
SYMBOL_17_BL3
340
0
 70
     0
280
     1
281
     0
  0
BLOCK_RECORD
  5
23A
330
1
100
AcDbSymbolTableRecord
100
AcDbBlockTableRecord
  2
SYMBOL_16_BL2
340
0
 70
     0
280
     1
281
     0
  0
BLOCK_RECORD
  5
23B
330
1
100
AcDbSymbolTableRecord
100
AcDbBlockTableRecord
  2
SYMBOL_14_BL1
340
0
 70
     0
280
     1
281
     0
  0
BLOCK_RECORD
  5
23C
330
1
100
AcDbSymbolTableRecord
100
AcDbBlockTableRecord
  2
SYMBOL_11_BL0
340
0
 70
     0
280
     1
281
     0
  0
ENDTAB
  0
ENDSEC
  0
SECTION
  2
BLOCKS
  0
BLOCK
  5
20
330
22B
100
AcDbEntity
  8
0
100
AcDbBlockBegin
  2
*Model_Space
 70
     0
 10
0.0
 20
0.0
 30
0.0
  3
*Model_Space
  1

  0
ENDBLK
  5
21
330
22B
100
AcDbEntity
  8
0
100
AcDbBlockEnd
  0
BLOCK
  5
1C
330
22C
100
AcDbEntity
 67
     1
  8
0
100
AcDbBlockBegin
  2
*Paper_Space
 70
     0
 10
0.0
 20
0.0
 30
0.0
  3
*Paper_Space
  1

  0
ENDBLK
  5
1D
330
22C
100
AcDbEntity
 67
     1
  8
0
100
AcDbBlockEnd
  0
BLOCK
  5
33C
330
22D
100
AcDbEntity
  8
0
100
AcDbBlockBegin
  2
_FILLED
 70
     0
 10
0.0
 20
0.0
 30
0.0
  3
_FILLED
  1

  0
SOLID
  5
33D
330
22D
100
AcDbEntity
  8
0
  6
ByBlock
 62
     0
100
AcDbTrace
 10
0.0
 20
0.0
 30
0.0
 11
-1.0
 21
0.1666666667
 31
0.0
 12
-1.0
 22
-0.1666666667
 32
0.0
 13
-1.0
 23
-0.1666666667
 33
0.0
  0
ENDBLK
  5
33E
330
22D
100
AcDbEntity
  8
0
  6
ByBlock
 62
     0
100
AcDbBlockEnd
  0
BLOCK
  5
33F
330
22E
100
AcDbEntity
  8
0
  6
Continuous
 62
     7
100
AcDbBlockBegin
  2
*D1
 70
     1
 10
0.0
 20
0.0
 30
0.0
  3
*D1
  1

  0
MTEXT
  5
340
330
22E
100
AcDbEntity
  8
0
  6
Continuous
 62
     7
100
AcDbMText
 10
49.3917905753
 20
68.0576067512
 30
0.0
 40
1.333333333299999
 41
7.466666666699999
 46
0.0
 71
     2
 72
     1
  1
49-3/16\P[125]
 73
     1
 44
0.9
  0
LINE
  5
341
330
22E
100
AcDbEntity
  8
0
  6
Continuous
 62
     7
100
AcDbLine
 10
73.988900184
 20
71.5686354466
 30
0.0
 11
73.988900184
 21
66.05760675119999
 31
0.0
  0
LINE
  5
342
330
22E
100
AcDbEntity
  8
0
  6
Continuous
 62
     7
100
AcDbLine
 10
24.7946809666
 20
71.4889098622
 30
0.0
 11
24.7946809666
 21
66.05760675119999
 31
0.0
  0
LINE
  5
343
330
22E
100
AcDbEntity
  8
0
  6
Continuous
 62
     7
100
AcDbLine
 10
73.988900184
 20
67.3909400845
 30
0.0
 11
53.7917905753
 21
67.3909400845
 31
0.0
  0
LINE
  5
344
330
22E
100
AcDbEntity
  8
0
  6
Continuous
 62
     7
100
AcDbLine
 10
24.7946809666
 20
67.3909400845
 30
0.0
 11
44.99179057529999
 21
67.3909400845
 31
0.0
  0
INSERT
  5
345
330
22E
100
AcDbEntity
  8
0
  6
Continuous
 62
     7
100
AcDbBlockReference
  2
_FILLED
 10
73.988900184
 20
67.3909400845
 30
0.0
 41
2.0
 42
2.0
 43
2.0
  0
INSERT
  5
346
330
22E
100
AcDbEntity
  8
0
  6
Continuous
 62
     7
100
AcDbBlockReference
  2
_FILLED
 10
24.7946809666
 20
67.3909400845
 30
0.0
 41
2.0
 42
2.0
 43
2.0
 50
180.0
  0
ENDBLK
  5
347
330
22E
100
AcDbEntity
  8
0
  6
ByBlock
 62
     0
100
AcDbBlockEnd
  0
BLOCK
  5
348
330
22F
100
AcDbEntity
  8
0
  6
Continuous
 62
     7
100
AcDbBlockBegin
  2
*D2
 70
     1
 10
0.0
 20
0.0
 30
0.0
  3
*D2
  1

  0
MTEXT
  5
349
330
22F
100
AcDbEntity
  8
0
  6
Continuous
 62
     7
100
AcDbMText
 10
53.1508505218
 20
109.8943093367
 30
0.0
 40
1.333333333299999
 41
6.4
 46
0.0
 71
     2
 72
     1
  1
41-5/8\P[106]
 73
     1
 44
0.9
  0
LINE
  5
34A
330
22F
100
AcDbEntity
  8
0
  6
Continuous
 62
     7
100
AcDbLine
 10
73.988900184
 20
105.3428854466
 30
0.0
 11
73.988900184
 21
110.5609760033
 31
0.0
  0
LINE
  5
34B
330
22F
100
AcDbEntity
  8
0
  6
Continuous
 62
     7
100
AcDbLine
 10
32.3128008595
 20
105.4682627706
 30
0.0
 11
32.3128008595
 21
110.5609760033
 31
0.0
  0
LINE
  5
34C
330
22F
100
AcDbEntity
  8
0
  6
Continuous
 62
     7
100
AcDbLine
 10
73.988900184
 20
109.22764267
 30
0.0
 11
57.0175171884
 21
109.22764267
 31
0.0
  0
LINE
  5
34D
330
22F
100
AcDbEntity
  8
0
  6
Continuous
 62
     7
100
AcDbLine
 10
32.3128008595
 20
109.22764267
 30
0.0
 11
49.2841838551
 21
109.22764267
 31
0.0
  0
INSERT
  5
34E
330
22F
100
AcDbEntity
  8
0
  6
Continuous
 62
     7
100
AcDbBlockReference
  2
_FILLED
 10
73.988900184
 20
109.22764267
 30
0.0
 41
2.0
 42
2.0
 43
2.0
  0
INSERT
  5
34F
330
22F
100
AcDbEntity
  8
0
  6
Continuous
 62
     7
100
AcDbBlockReference
  2
_FILLED
 10
32.3128008595
 20
109.22764267
 30
0.0
 41
2.0
 42
2.0
 43
2.0
 50
180.0
  0
ENDBLK
  5
350
330
22F
100
AcDbEntity
  8
0
  6
ByBlock
 62
     0
100
AcDbBlockEnd
  0
BLOCK
  5
351
330
230
100
AcDbEntity
  8
0
  6
Continuous
 62
     7
100
AcDbBlockBegin
  2
*D3
 70
     1
 10
0.0
 20
0.0
 30
0.0
  3
*D3
  1

  0
MTEXT
  5
352
330
230
100
AcDbEntity
  8
0
  6
Continuous
 62
     7
100
AcDbMText
 10
8.8845403969
 20
52.78628828609999
 30
0.0
 40
1.333333333299999
 41
3.2
 46
0.0
 71
     3
 72
     1
  1
1\P[3]
 73
     1
 44
0.9
  0
LINE
  5
353
330
230
100
AcDbEntity
  8
0
  6
Continuous
 62
     7
100
AcDbLine
 10
20.026329381
 20
46.4636503263
 30
0.0
 11
12.3512070636
 21
46.4636503263
 31
0.0
  0
LINE
  5
354
330
230
100
AcDbEntity
  8
0
  6
Continuous
 62
     7
100
AcDbLine
 10
20.0206627143
 20
45.46365032629999
 30
0.0
 11
12.3512070636
 21
45.46365032629999
 31
0.0
  0
LINE
  5
355
330
230
100
AcDbEntity
  8
0
  6
Continuous
 62
     7
100
AcDbLine
 10
13.6845403969
 20
46.4636503263
 30
0.0
 11
13.6845403969
 21
52.11962161939999
 31
0.0
  0
LINE
  5
356
330
230
100
AcDbEntity
  8
0
  6
Continuous
 62
     7
100
AcDbLine
 10
13.6845403969
 20
52.11962161939999
 30
0.0
 11
11.6845403969
 21
52.11962161939999
 31
0.0
  0
LINE
  5
357
330
230
100
AcDbEntity
  8
0
  6
Continuous
 62
     7
100
AcDbLine
 10
13.6845403969
 20
45.46365032629999
 30
0.0
 11
13.6845403969
 21
40.13031699299999
 31
0.0
  0
INSERT
  5
358
330
230
100
AcDbEntity
  8
0
  6
Continuous
 62
     7
100
AcDbBlockReference
  2
_FILLED
 10
13.6845403969
 20
46.4636503263
 30
0.0
 41
2.0
 42
2.0
 43
2.0
 50
270.0
  0
INSERT
  5
359
330
230
100
AcDbEntity
  8
0
  6
Continuous
 62
     7
100
AcDbBlockReference
  2
_FILLED
 10
13.6845403969
 20
45.46365032629999
 30
0.0
 41
2.0
 42
2.0
 43
2.0
 50
90.0
  0
ENDBLK
  5
35A
330
230
100
AcDbEntity
  8
0
  6
ByBlock
 62
     0
100
AcDbBlockEnd
  0
BLOCK
  5
241
330
231
100
AcDbEntity
  8
0
  6
Continuous
 62
     7
100
AcDbBlockBegin
  2
SYMBOL_31_BL11
 70
     0
 10
155.4090468927
 20
99.0770605682
 30
0.0
  3
SYMBOL_31_BL11
  1

  0
TEXT
  5
242
330
231
100
AcDbEntity
  8
0
  6
Continuous
 62
     7
100
AcDbText
 10
154.5723057688999
 20
99.42678422
 30
0.0
 40
1.333333852099999
  1
A
 50
290.0
  7
TEXTSTYLE_2
100
AcDbText
  0
ELLIPSE
  5
243
330
231
100
AcDbEntity
  8
0
  6
Continuous
 62
     7
100
AcDbEllipse
 10
155.4090468927
 20
99.0770605682
 30
0.0
 11
-0.6645066844
 21
1.825717110599999
 31
0.0
210
0.0
220
0.0
230
1.0
 40
0.6606458385
 41
0.0
 42
6.283185307179586
  0
ENDBLK
  5
244
330
231
100
AcDbEntity
  8
0
  6
ByBlock
 62
     0
100
AcDbBlockEnd
  0
BLOCK
  5
245
330
232
100
AcDbEntity
  8
0
  6
Continuous
 62
     7
100
AcDbBlockBegin
  2
SYMBOL_30_BL10
 70
     0
 10
124.2221370667
 20
74.429044245
 30
0.0
  3
SYMBOL_30_BL10
  1

  0
TEXT
  5
246
330
232
100
AcDbEntity
  8
0
  6
Continuous
 62
     7
100
AcDbText
 10
123.6073220127
 20
73.76237731899999
 30
0.0
 40
1.333333852099999
  1
A
  7
TEXTSTYLE_2
100
AcDbText
  0
ELLIPSE
  5
247
330
232
100
AcDbEntity
  8
0
  6
Continuous
 62
     7
100
AcDbEllipse
 10
124.2221370667
 20
74.429044245
 30
0.0
 11
-1.942887567899999
 21
0.0
 31
0.0
210
0.0
220
0.0
230
1.0
 40
0.6606458385
 41
0.0
 42
6.283185307179586
  0
ENDBLK
  5
248
330
232
100
AcDbEntity
  8
0
  6
ByBlock
 62
     0
100
AcDbBlockEnd
  0
BLOCK
  5
249
330
233
100
AcDbEntity
  8
0
  6
Continuous
 62
     7
100
AcDbBlockBegin
  2
SYMBOL_28_BL9
 70
     0
 10
114.0331640937
 20
74.4322200288
 30
0.0
  3
SYMBOL_28_BL9
  1

  0
TEXT
  5
24A
330
233
100
AcDbEntity
  8
0
  6
Continuous
 62
     7
100
AcDbText
 10
113.3664971677
 20
73.7655531028
 30
0.0
 40
1.333333852099999
  1
C
  7
TEXTSTYLE_2
100
AcDbText
  0
ELLIPSE
  5
24B
330
233
100
AcDbEntity
  8
0
  6
Continuous
 62
     7
100
AcDbEllipse
 10
114.0331640937
 20
74.4322200288
 30
0.0
 11
-1.942887567899999
 21
0.0
 31
0.0
210
0.0
220
0.0
230
1.0
 40
0.6606458385
 41
0.0
 42
6.283185307179586
  0
ENDBLK
  5
24C
330
233
100
AcDbEntity
  8
0
  6
ByBlock
 62
     0
100
AcDbBlockEnd
  0
BLOCK
  5
24D
330
234
100
AcDbEntity
  8
0
  6
Continuous
 62
     7
100
AcDbBlockBegin
  2
SYMBOL_19_BL8
 70
     0
 10
142.0330889674
 20
101.5118742047
 30
0.0
  3
SYMBOL_19_BL8
  1

  0
TEXT
  5
24E
330
234
100
AcDbEntity
  8
0
  6
Continuous
 62
     7
100
AcDbText
 10
141.4836137674
 20
100.8390018647
 30
0.0
 40
1.333333852099999
  1
L
  7
TEXTSTYLE_2
100
AcDbText
  0
TEXT
  5
24F
330
234
100
AcDbEntity
  8
0
  6
Continuous
 62
     7
100
AcDbText
 10
137.7990274891
 20
100.8514126927
 30
0.0
 40
1.333333852099999
  1
9
  7
TEXTSTYLE_2
100
AcDbText
  0
TEXT
  5
250
330
234
100
AcDbEntity
  8
0
  6
Continuous
 62
     7
100
AcDbText
 10
145.2449278259
 20
100.8514126927
 30
0.0
 40
1.333333852099999
  1
8
  7
TEXTSTYLE_2
100
AcDbText
  0
ELLIPSE
  5
251
330
234
100
AcDbEntity
  8
0
  6
Continuous
 62
     7
100
AcDbEllipse
 10
142.0120090347
 20
101.5056687907
 30
0.0
 11
-1.942887567899999
 21
0.0
 31
0.0
210
0.0
220
0.0
230
1.0
 40
0.6606458385
 41
0.0
 42
6.283185307179586
  0
ENDBLK
  5
252
330
234
100
AcDbEntity
  8
0
  6
ByBlock
 62
     0
100
AcDbBlockEnd
  0
BLOCK
  5
253
330
235
100
AcDbEntity
  8
0
  6
Continuous
 62
     7
100
AcDbBlockBegin
  2
SYMBOL_18_BL7
 70
     0
 10
117.0263839069
 20
77.7984533602
 30
0.0
  3
SYMBOL_18_BL7
  1

  0
TEXT
  5
254
330
235
100
AcDbEntity
  8
0
  6
Continuous
 62
     7
100
AcDbText
 10
116.4769087068
 20
77.1255810202
 30
0.0
 40
1.333333852099999
  1
L
  7
TEXTSTYLE_2
100
AcDbText
  0
TEXT
  5
255
330
235
100
AcDbEntity
  8
0
  6
Continuous
 62
     7
100
AcDbText
 10
112.2812111186
 20
77.1379918482
 30
0.0
 40
1.333333852099999
  1
14
  7
TEXTSTYLE_2
100
AcDbText
  0
TEXT
  5
256
330
235
100
AcDbEntity
  8
0
  6
Continuous
 62
     7
100
AcDbText
 10
119.7271114553
 20
77.1379918482
 30
0.0
 40
1.333333852099999
  1
13
  7
TEXTSTYLE_2
100
AcDbText
  0
ELLIPSE
  5
257
330
235
100
AcDbEntity
  8
0
  6
Continuous
 62
     7
100
AcDbEllipse
 10
117.0053039741
 20
77.79224794619999
 30
0.0
 11
-1.942887567899999
 21
0.0
 31
0.0
210
0.0
220
0.0
230
1.0
 40
0.6606458385
 41
0.0
 42
6.283185307179586
  0
ENDBLK
  5
258
330
235
100
AcDbEntity
  8
0
  6
ByBlock
 62
     0
100
AcDbBlockEnd
  0
BLOCK
  5
259
330
236
100
AcDbEntity
  8
0
  6
Continuous
 62
     7
100
AcDbBlockBegin
  2
SYMBOL_33_BL6
 70
     0
 10
25.427226101
 20
99.0836870527
 30
0.0
  3
SYMBOL_33_BL6
  1

  0
TEXT
  5
25A
330
236
100
AcDbEntity
  8
0
  6
Continuous
 62
     7
100
AcDbText
 10
25.8434089591
 20
98.2779363658
 30
0.0
 40
1.333333852099999
  1
A
 50
70.0
  7
TEXTSTYLE_2
100
AcDbText
  0
ELLIPSE
  5
25B
330
236
100
AcDbEntity
  8
0
  6
Continuous
 62
     7
100
AcDbEllipse
 10
25.427226101
 20
99.0836870527
 30
0.0
 11
-0.6645066844
 21
-1.825717110599999
 31
0.0
210
0.0
220
0.0
230
1.0
 40
0.6606458385
 41
0.0
 42
6.283185307179586
  0
ENDBLK
  5
25C
330
236
100
AcDbEntity
  8
0
  6
ByBlock
 62
     0
100
AcDbBlockEnd
  0
BLOCK
  5
25D
330
237
100
AcDbEntity
  8
0
  6
Continuous
 62
     7
100
AcDbBlockBegin
  2
SYMBOL_29_BL5
 70
     0
 10
56.4720830126
 20
74.1675713802
 30
0.0
  3
SYMBOL_29_BL5
  1

  0
TEXT
  5
25E
330
237
100
AcDbEntity
  8
0
  6
Continuous
 62
     7
100
AcDbText
 10
55.8572679586
 20
73.5009044542
 30
0.0
 40
1.333333852099999
  1
A
  7
TEXTSTYLE_2
100
AcDbText
  0
ELLIPSE
  5
25F
330
237
100
AcDbEntity
  8
0
  6
Continuous
 62
     7
100
AcDbEllipse
 10
56.4720830126
 20
74.1675713802
 30
0.0
 11
-1.942887567899999
 21
0.0
 31
0.0
210
0.0
220
0.0
230
1.0
 40
0.6606458385
 41
0.0
 42
6.283185307179586
  0
ENDBLK
  5
260
330
237
100
AcDbEntity
  8
0
  6
ByBlock
 62
     0
100
AcDbBlockEnd
  0
BLOCK
  5
261
330
238
100
AcDbEntity
  8
0
  6
Continuous
 62
     7
100
AcDbBlockBegin
  2
SYMBOL_27_BL4
 70
     0
 10
66.45859976939999
 20
74.216862191
 30
0.0
  3
SYMBOL_27_BL4
  1

  0
TEXT
  5
262
330
238
100
AcDbEntity
  8
0
  6
Continuous
 62
     7
100
AcDbText
 10
65.7919328433
 20
73.550195265
 30
0.0
 40
1.333333852099999
  1
C
  7
TEXTSTYLE_2
100
AcDbText
  0
ELLIPSE
  5
263
330
238
100
AcDbEntity
  8
0
  6
Continuous
 62
     7
100
AcDbEllipse
 10
66.45859976939999
 20
74.216862191
 30
0.0
 11
-1.942887567899999
 21
0.0
 31
0.0
210
0.0
220
0.0
230
1.0
 40
0.6606458385
 41
0.0
 42
6.283185307179586
  0
ENDBLK
  5
264
330
238
100
AcDbEntity
  8
0
  6
ByBlock
 62
     0
100
AcDbBlockEnd
  0
BLOCK
  5
265
330
239
100
AcDbEntity
  8
0
  6
Continuous
 62
     7
100
AcDbBlockBegin
  2
SYMBOL_17_BL3
 70
     0
 10
37.1070917374
 20
77.63493496719999
 30
0.0
  3
SYMBOL_17_BL3
  1

  0
TEXT
  5
266
330
239
100
AcDbEntity
  8
0
  6
Continuous
 62
     7
100
AcDbText
 10
36.55761653739999
 20
76.96206262709999
 30
0.0
 40
1.333333852099999
  1
L
  7
TEXTSTYLE_2
100
AcDbText
  0
TEXT
  5
267
330
239
100
AcDbEntity
  8
0
  6
Continuous
 62
     7
100
AcDbText
 10
32.8730302591
 20
76.97447345509999
 30
0.0
 40
1.333333852099999
  1
8
  7
TEXTSTYLE_2
100
AcDbText
  0
TEXT
  5
268
330
239
100
AcDbEntity
  8
0
  6
Continuous
 62
     7
100
AcDbText
 10
40.31893059579999
 20
76.97447345509999
 30
0.0
 40
1.333333852099999
  1
9
  7
TEXTSTYLE_2
100
AcDbText
  0
ELLIPSE
  5
269
330
239
100
AcDbEntity
  8
0
  6
Continuous
 62
     7
100
AcDbEllipse
 10
37.0860118046
 20
77.6287295531
 30
0.0
 11
-1.942887567899999
 21
0.0
 31
0.0
210
0.0
220
0.0
230
1.0
 40
0.6606458385
 41
0.0
 42
6.283185307179586
  0
ENDBLK
  5
26A
330
239
100
AcDbEntity
  8
0
  6
ByBlock
 62
     0
100
AcDbBlockEnd
  0
BLOCK
  5
26B
330
23A
100
AcDbEntity
  8
0
  6
Continuous
 62
     7
100
AcDbBlockBegin
  2
SYMBOL_16_BL2
 70
     0
 10
62.7476256092
 20
101.2585467634
 30
0.0
  3
SYMBOL_16_BL2
  1

  0
TEXT
  5
26C
330
23A
100
AcDbEntity
  8
0
  6
Continuous
 62
     7
100
AcDbText
 10
62.1981504092
 20
100.5856744233
 30
0.0
 40
1.333333852099999
  1
L
  7
TEXTSTYLE_2
100
AcDbText
  0
TEXT
  5
26D
330
23A
100
AcDbEntity
  8
0
  6
Continuous
 62
     7
100
AcDbText
 10
58.0024528209
 20
100.5980852514
 30
0.0
 40
1.333333852099999
  1
13
  7
TEXTSTYLE_2
100
AcDbText
  0
TEXT
  5
26E
330
23A
100
AcDbEntity
  8
0
  6
Continuous
 62
     7
100
AcDbText
 10
65.4483531576
 20
100.5980852514
 30
0.0
 40
1.333333852099999
  1
14
  7
TEXTSTYLE_2
100
AcDbText
  0
ELLIPSE
  5
26F
330
23A
100
AcDbEntity
  8
0
  6
Continuous
 62
     7
100
AcDbEllipse
 10
62.7265456764
 20
101.2523413494
 30
0.0
 11
-1.942887567899999
 21
0.0
 31
0.0
210
0.0
220
0.0
230
1.0
 40
0.6606458385
 41
0.0
 42
6.283185307179586
  0
ENDBLK
  5
270
330
23A
100
AcDbEntity
  8
0
  6
ByBlock
 62
     0
100
AcDbBlockEnd
  0
BLOCK
  5
271
330
23B
100
AcDbEntity
  8
0
  6
Continuous
 62
     7
100
AcDbBlockBegin
  2
SYMBOL_14_BL1
 70
     0
 10
129.1965162126
 20
53.634443082
 30
0.0
  3
SYMBOL_14_BL1
  1

  0
TEXT
  5
272
330
23B
100
AcDbEntity
  8
0
  6
Continuous
 62
     7
100
AcDbText
 10
122.8824559108
 20
55.87947706779999
 30
0.0
 40
1.1626666667
  1
INTERNAL USE 
 50
10.0
  7
TEXTSTYLE_3
100
AcDbText
  0
TEXT
  5
273
330
23B
100
AcDbEntity
  8
0
  6
Continuous
 62
     7
100
AcDbText
 10
122.1387717068
 20
53.8779558901
 30
0.0
 40
1.1626666667
  1
DOCUMENT ONLY
 50
10.0
  7
TEXTSTYLE_3
100
AcDbText
  0
TEXT
  5
274
330
23B
100
AcDbEntity
  8
0
  6
Continuous
 62
     7
100
AcDbText
 10
127.9234992701
 20
53.6295278396
 30
0.0
 40
1.1626666667
  1
 
 50
10.0
  7
TEXTSTYLE_5
100
AcDbText
  0
TEXT
  5
275
330
23B
100
AcDbEntity
  8
0
  6
Continuous
 62
     7
100
AcDbText
 10
119.478851387
 20
49.4524334333
 30
0.0
 40
1.1626666667
  1
DOCUMENT POUR USAGE
 50
10.0
  7
TEXTSTYLE_3
100
AcDbText
  0
TEXT
  5
276
330
23B
100
AcDbEntity
  8
0
  6
Continuous
 62
     7
100
AcDbText
 10
119.9079508331
 20
47.4356849729
 30
0.0
 40
1.1626666667
  1
A L'INTERNE SEULEMENT
 50
10.0
  7
TEXTSTYLE_3
100
AcDbText
  0
LINE
  5
277
330
23B
100
AcDbEntity
  8
0
  6
Continuous
 62
     7
100
AcDbLine
 10
143.0530679359
 20
49.29090946399999
 30
0.0
 11
143.0598268686
 21
49.2976683967
 31
0.0
  0
LINE
  5
278
330
23B
100
AcDbEntity
  8
0
  6
Continuous
 62
     7
100
AcDbLine
 10
142.3204983695
 20
49.1617376842
 30
0.0
 11
142.9693798146
 21
49.8106191293
 31
0.0
  0
LINE
  5
279
330
23B
100
AcDbEntity
  8
0
  6
Continuous
 62
     7
100
AcDbLine
 10
141.5879288031
 20
49.03256590439999
 30
0.0
 11
142.8789327607
 21
50.32356986199999
 31
0.0
  0
LINE
  5
27A
330
23B
100
AcDbEntity
  8
0
  6
Continuous
 62
     7
100
AcDbLine
 10
140.8553592367
 20
48.9033941246
 30
0.0
 11
142.7884857067
 21
50.83652059470001
 31
0.0
  0
LINE
  5
27B
330
23B
100
AcDbEntity
  8
0
  6
Continuous
 62
     7
100
AcDbLine
 10
140.1227896702
 20
48.7742223448
 30
0.0
 11
142.6980386528
 21
51.34947132729999
 31
0.0
  0
LINE
  5
27C
330
23B
100
AcDbEntity
  8
0
  6
Continuous
 62
     7
100
AcDbLine
 10
139.3902201038
 20
48.645050565
 30
0.0
 11
140.9312239186
 21
50.18605437979999
 31
0.0
  0
LINE
  5
27D
330
23B
100
AcDbEntity
  8
0
  6
Continuous
 62
     7
100
AcDbLine
 10
141.5285691113
 20
50.7833995725
 30
0.0
 11
142.6075915988
 21
51.86242206
 31
0.0
  0
LINE
  5
27E
330
23B
100
AcDbEntity
  8
0
  6
Continuous
 62
     7
100
AcDbLine
 10
138.6576505374
 20
48.5158787852
 30
0.0
 11
140.1986543521999
 21
50.0568826
 31
0.0
  0
LINE
  5
27F
330
23B
100
AcDbEntity
  8
0
  6
Continuous
 62
     7
100
AcDbLine
 10
141.4381220574
 20
51.2963503051
 30
0.0
 11
142.5171445449
 21
52.3753727927
 31
0.0
  0
LINE
  5
280
330
23B
100
AcDbEntity
  8
0
  6
Continuous
 62
     7
100
AcDbLine
 10
137.925080971
 20
48.38670700539999
 30
0.0
 11
139.4660847858
 21
49.9277108201
 31
0.0
  0
LINE
  5
281
330
23B
100
AcDbEntity
  8
0
  6
Continuous
 62
     7
100
AcDbLine
 10
141.3476750034
 20
51.80930103779999
 30
0.0
 11
142.426697491
 21
52.8883235253
 31
0.0
  0
LINE
  5
282
330
23B
100
AcDbEntity
  8
0
  6
Continuous
 62
     7
100
AcDbLine
 10
137.1925114046
 20
48.2575352256
 30
0.0
 11
138.7335152193
 21
49.7985390403
 31
0.0
  0
LINE
  5
283
330
23B
100
AcDbEntity
  8
0
  6
Continuous
 62
     7
100
AcDbLine
 10
141.2572279495
 20
52.32225177050001
 30
0.0
 11
142.336250437
 21
53.401274258
 31
0.0
  0
LINE
  5
284
330
23B
100
AcDbEntity
  8
0
  6
Continuous
 62
     7
100
AcDbLine
 10
136.4599418381
 20
48.12836344579999
 30
0.0
 11
138.0009456529
 21
49.66936726050001
 31
0.0
  0
LINE
  5
285
330
23B
100
AcDbEntity
  8
0
  6
Continuous
 62
     7
100
AcDbLine
 10
141.1667808955
 20
52.83520250319999
 30
0.0
 11
142.2458033831
 21
53.91422499069999
 31
0.0
  0
LINE
  5
286
330
23B
100
AcDbEntity
  8
0
  6
Continuous
 62
     7
100
AcDbLine
 10
135.7273722717
 20
47.999191666
 30
0.0
 11
137.2683760864999
 21
49.5401954807
 31
0.0
  0
LINE
  5
287
330
23B
100
AcDbEntity
  8
0
  6
Continuous
 62
     7
100
AcDbLine
 10
141.0763338416
 20
53.34815323579999
 30
0.0
 11
142.1553563291
 21
54.4271757233
 31
0.0
  0
LINE
  5
288
330
23B
100
AcDbEntity
  8
0
  6
Continuous
 62
     7
100
AcDbLine
 10
134.9948027053
 20
47.8700198861
 30
0.0
 11
136.5358065201
 21
49.4110237009
 31
0.0
  0
LINE
  5
289
330
23B
100
AcDbEntity
  8
0
  6
Continuous
 62
     7
100
AcDbLine
 10
140.9858867877
 20
53.8611039685
 30
0.0
 11
142.0649092752
 21
54.940126456
 31
0.0
  0
LINE
  5
28A
330
23B
100
AcDbEntity
  8
0
  6
Continuous
 62
     7
100
AcDbLine
 10
134.2622331389
 20
47.74084810629999
 30
0.0
 11
135.8032369537
 21
49.28185192109999
 31
0.0
  0
LINE
  5
28B
330
23B
100
AcDbEntity
  8
0
  6
Continuous
 62
     7
100
AcDbLine
 10
140.8954397337
 20
54.3740547012
 30
0.0
 11
141.9744622212
 21
55.4530771887
 31
0.0
  0
LINE
  5
28C
330
23B
100
AcDbEntity
  8
0
  6
Continuous
 62
     7
100
AcDbLine
 10
133.5296635725
 20
47.61167632649999
 30
0.0
 11
135.0706673873
 21
49.1526801413
 31
0.0
  0
LINE
  5
28D
330
23B
100
AcDbEntity
  8
0
  6
Continuous
 62
     7
100
AcDbLine
 10
140.8049926798
 20
54.8870054338
 30
0.0
 11
141.8840151673
 21
55.9660279213
 31
0.0
  0
LINE
  5
28E
330
23B
100
AcDbEntity
  8
0
  6
Continuous
 62
     7
100
AcDbLine
 10
132.7970940061
 20
47.48250454669999
 30
0.0
 11
134.3380978208
 21
49.0235083615
 31
0.0
  0
LINE
  5
28F
330
23B
100
AcDbEntity
  8
0
  6
Continuous
 62
     7
100
AcDbLine
 10
140.5021130799
 20
55.1875236206
 30
0.0
 11
141.7935681133
 21
56.478978654
 31
0.0
  0
LINE
  5
290
330
23B
100
AcDbEntity
  8
0
  6
Continuous
 62
     7
100
AcDbLine
 10
132.0645244395999
 20
47.35333276689999
 30
0.0
 11
133.6055282544
 21
48.8943365817
 31
0.0
  0
LINE
  5
291
330
23B
100
AcDbEntity
  8
0
  6
Continuous
 62
     7
100
AcDbLine
 10
139.7695435135
 20
55.0583518408
 30
0.0
 11
141.7031210594
 21
56.9919293867
 31
0.0
  0
LINE
  5
292
330
23B
100
AcDbEntity
  8
0
  6
Continuous
 62
     7
100
AcDbLine
 10
131.3319548732
 20
47.2241609871
 30
0.0
 11
132.8729586879999
 21
48.7651648019
 31
0.0
  0
LINE
  5
293
330
23B
100
AcDbEntity
  8
0
  6
Continuous
 62
     7
100
AcDbLine
 10
139.0369739471
 20
54.929180061
 30
0.0
 11
140.0643162454
 21
55.9565223593
 31
0.0
  0
LINE
  5
294
330
23B
100
AcDbEntity
  8
0
  6
Continuous
 62
     7
100
AcDbLine
 10
140.5336515179
 20
56.4258576318
 30
0.0
 11
141.6126740055
 21
57.50488011939999
 31
0.0
  0
LINE
  5
295
330
23B
100
AcDbEntity
  8
0
  6
Continuous
 62
     7
100
AcDbLine
 10
130.5993853068
 20
47.09498920729999
 30
0.0
 11
132.1403891216
 21
48.6359930221
 31
0.0
  0
LINE
  5
296
330
23B
100
AcDbEntity
  8
0
  6
Continuous
 62
     7
100
AcDbLine
 10
138.3044043807
 20
54.8000082812
 30
0.0
 11
139.3317464693
 21
55.82735036979999
 31
0.0
  0
LINE
  5
297
330
23B
100
AcDbEntity
  8
0
  6
Continuous
 62
     7
100
AcDbLine
 10
140.443204464
 20
56.93880836449999
 30
0.0
 11
141.5222269515
 21
58.017830852
 31
0.0
  0
LINE
  5
298
330
23B
100
AcDbEntity
  8
0
  6
Continuous
 62
     7
100
AcDbLine
 10
129.8668157404
 20
46.9658174275
 30
0.0
 11
131.4078195552
 21
48.50682124229999
 31
0.0
  0
LINE
  5
299
330
23B
100
AcDbEntity
  8
0
  6
Continuous
 62
     7
100
AcDbLine
 10
137.5718348143
 20
54.67083650140001
 30
0.0
 11
138.5991766933
 21
55.6981783804
 31
0.0
  0
LINE
  5
29A
330
23B
100
AcDbEntity
  8
0
  6
Continuous
 62
     7
100
AcDbLine
 10
140.3527574101
 20
57.4517590972
 30
0.0
 11
141.4317798976
 21
58.5307815847
 31
0.0
  0
LINE
  5
29B
330
23B
100
AcDbEntity
  8
0
  6
Continuous
 62
     7
100
AcDbLine
 10
129.134246174
 20
46.8366456477
 30
0.0
 11
130.6752499887
 21
48.3776494625
 31
0.0
  0
LINE
  5
29C
330
23B
100
AcDbEntity
  8
0
  6
Continuous
 62
     7
100
AcDbLine
 10
136.8392652479
 20
54.5416647216
 30
0.0
 11
137.8666069173
 21
55.569006391
 31
0.0
  0
LINE
  5
29D
330
23B
100
AcDbEntity
  8
0
  6
Continuous
 62
     7
100
AcDbLine
 10
140.2623103561
 20
57.96470982979999
 30
0.0
 11
141.3413328436
 21
59.0437323174
 31
0.0
  0
LINE
  5
29E
330
23B
100
AcDbEntity
  8
0
  6
Continuous
 62
     7
100
AcDbLine
 10
128.4016766076
 20
46.7074738679
 30
0.0
 11
129.9426804223
 21
48.2484776827
 31
0.0
  0
LINE
  5
29F
330
23B
100
AcDbEntity
  8
0
  6
Continuous
 62
     7
100
AcDbLine
 10
136.1066956814
 20
54.4124929418
 30
0.0
 11
137.1340371413
 21
55.43983440159999
 31
0.0
  0
LINE
  5
2A0
330
23B
100
AcDbEntity
  8
0
  6
Continuous
 62
     7
100
AcDbLine
 10
140.1718633022
 20
58.4776605625
 30
0.0
 11
141.2508857897
 21
59.55668304999999
 31
0.0
  0
LINE
  5
2A1
330
23B
100
AcDbEntity
  8
0
  6
Continuous
 62
     7
100
AcDbLine
 10
127.6691070411
 20
46.5783020881
 30
0.0
 11
129.2101108559
 21
48.1193059029
 31
0.0
  0
LINE
  5
2A2
330
23B
100
AcDbEntity
  8
0
  6
Continuous
 62
     7
100
AcDbLine
 10
135.374126115
 20
54.283321162
 30
0.0
 11
136.4014673652
 21
55.3106624122
 31
0.0
  0
LINE
  5
2A3
330
23B
100
AcDbEntity
  8
0
  6
Continuous
 62
     7
100
AcDbLine
 10
140.0814162482
 20
58.9906112952
 30
0.0
 11
141.1604387357
 21
60.0696337827
 31
0.0
  0
LINE
  5
2A4
330
23B
100
AcDbEntity
  8
0
  6
Continuous
 62
     7
100
AcDbLine
 10
126.9365374747
 20
46.44913030829999
 30
0.0
 11
128.4775412895
 21
47.9901341231
 31
0.0
  0
LINE
  5
2A5
330
23B
100
AcDbEntity
  8
0
  6
Continuous
 62
     7
100
AcDbLine
 10
134.6415565486
 20
54.1541493822
 30
0.0
 11
135.6688975892
 21
55.1814904228
 31
0.0
  0
LINE
  5
2A6
330
23B
100
AcDbEntity
  8
0
  6
Continuous
 62
     7
100
AcDbLine
 10
139.9909691943
 20
59.5035620279
 30
0.0
 11
141.0699916818
 21
60.5825845154
 31
0.0
  0
LINE
  5
2A7
330
23B
100
AcDbEntity
  8
0
  6
Continuous
 62
     7
100
AcDbLine
 10
126.2039679083
 20
46.3199585285
 30
0.0
 11
127.7449717231
 21
47.8609623433
 31
0.0
  0
LINE
  5
2A8
330
23B
100
AcDbEntity
  8
0
  6
Continuous
 62
     7
100
AcDbLine
 10
133.9089869822
 20
54.0249776024
 30
0.0
 11
134.9363278132
 21
55.0523184334
 31
0.0
  0
LINE
  5
2A9
330
23B
100
AcDbEntity
  8
0
  6
Continuous
 62
     7
100
AcDbLine
 10
139.9005221403
 20
60.0165127605
 30
0.0
 11
140.9795446279
 21
61.095535248
 31
0.0
  0
LINE
  5
2AA
330
23B
100
AcDbEntity
  8
0
  6
Continuous
 62
     7
100
AcDbLine
 10
125.4713983419
 20
46.19078674869999
 30
0.0
 11
127.0124021567
 21
47.7317905635
 31
0.0
  0
LINE
  5
2AB
330
23B
100
AcDbEntity
  8
0
  6
Continuous
 62
     7
100
AcDbLine
 10
133.1764174158
 20
53.8958058226
 30
0.0
 11
134.2037580371
 21
54.9231464439
 31
0.0
  0
LINE
  5
2AC
330
23B
100
AcDbEntity
  8
0
  6
Continuous
 62
     7
100
AcDbLine
 10
139.8100750864
 20
60.52946349319999
 30
0.0
 11
140.8890975739
 21
61.6084859807
 31
0.0
  0
LINE
  5
2AD
330
23B
100
AcDbEntity
  8
0
  6
Continuous
 62
     7
100
AcDbLine
 10
124.7388287755
 20
46.0616149689
 30
0.0
 11
126.2798325902
 21
47.60261878359999
 31
0.0
  0
LINE
  5
2AE
330
23B
100
AcDbEntity
  8
0
  6
Continuous
 62
     7
100
AcDbLine
 10
132.4438478493
 20
53.7666340428
 30
0.0
 11
133.4711882611
 21
54.7939744545
 31
0.0
  0
LINE
  5
2AF
330
23B
100
AcDbEntity
  8
0
  6
Continuous
 62
     7
100
AcDbLine
 10
139.635198985
 20
60.9579851784
 30
0.0
 11
140.79865052
 21
62.1214367134
 31
0.0
  0
LINE
  5
2B0
330
23B
100
AcDbEntity
  8
0
  6
Continuous
 62
     7
100
AcDbLine
 10
124.006259209
 20
45.9324431891
 30
0.0
 11
125.5472630238
 21
47.4734470038
 31
0.0
  0
LINE
  5
2B1
330
23B
100
AcDbEntity
  8
0
  6
Continuous
 62
     7
100
AcDbLine
 10
131.7112782829
 20
53.637462263
 30
0.0
 11
132.7386184851
 21
54.6648024651
 31
0.0
  0
LINE
  5
2B2
330
23B
100
AcDbEntity
  8
0
  6
Continuous
 62
     7
100
AcDbLine
 10
138.9026294186
 20
60.8288133986
 30
0.0
 11
140.4436332333
 21
62.36981721340001
 31
0.0
  0
LINE
  5
2B3
330
23B
100
AcDbEntity
  8
0
  6
Continuous
 62
     7
100
AcDbLine
 10
123.2736896426
 20
45.8032714093
 30
0.0
 11
124.8146934574
 21
47.34427522399999
 31
0.0
  0
LINE
  5
2B4
330
23B
100
AcDbEntity
  8
0
  6
Continuous
 62
     7
100
AcDbLine
 10
130.9787087165
 20
53.5082904831
 30
0.0
 11
132.0060487091
 21
54.5356304757
 31
0.0
  0
LINE
  5
2B5
330
23B
100
AcDbEntity
  8
0
  6
Continuous
 62
     7
100
AcDbLine
 10
138.1700598521
 20
60.6996416188
 30
0.0
 11
139.7110636669
 21
62.2406454335
 31
0.0
  0
LINE
  5
2B6
330
23B
100
AcDbEntity
  8
0
  6
Continuous
 62
     7
100
AcDbLine
 10
122.5411200762
 20
45.6740996295
 30
0.0
 11
124.082123891
 21
47.2151034442
 31
0.0
  0
LINE
  5
2B7
330
23B
100
AcDbEntity
  8
0
  6
Continuous
 62
     7
100
AcDbLine
 10
130.2461391501
 20
53.3791187033
 30
0.0
 11
131.273478933
 21
54.4064584863
 31
0.0
  0
LINE
  5
2B8
330
23B
100
AcDbEntity
  8
0
  6
Continuous
 62
     7
100
AcDbLine
 10
137.4374902857
 20
60.570469839
 30
0.0
 11
138.9784941005
 21
62.11147365369999
 31
0.0
  0
LINE
  5
2B9
330
23B
100
AcDbEntity
  8
0
  6
Continuous
 62
     7
100
AcDbLine
 10
121.8085505098
 20
45.54492784959999
 30
0.0
 11
123.3495543246
 21
47.08593166439999
 31
0.0
  0
LINE
  5
2BA
330
23B
100
AcDbEntity
  8
0
  6
Continuous
 62
     7
100
AcDbLine
 10
129.5135695837
 20
53.2499469235
 30
0.0
 11
130.540909157
 21
54.27728649689999
 31
0.0
  0
LINE
  5
2BB
330
23B
100
AcDbEntity
  8
0
  6
Continuous
 62
     7
100
AcDbLine
 10
136.7049207193
 20
60.4412980592
 30
0.0
 11
138.2459245341
 21
61.9823018739
 31
0.0
  0
LINE
  5
2BC
330
23B
100
AcDbEntity
  8
0
  6
Continuous
 62
     7
100
AcDbLine
 10
121.0759809434
 20
45.41575606979999
 30
0.0
 11
122.6169847581
 21
46.9567598846
 31
0.0
  0
LINE
  5
2BD
330
23B
100
AcDbEntity
  8
0
  6
Continuous
 62
     7
100
AcDbLine
 10
128.7810000173
 20
53.1207751437
 30
0.0
 11
129.808339381
 21
54.1481145074
 31
0.0
  0
LINE
  5
2BE
330
23B
100
AcDbEntity
  8
0
  6
Continuous
 62
     7
100
AcDbLine
 10
135.9723511529
 20
60.3121262794
 30
0.0
 11
137.5133549677
 21
61.85313009409999
 31
0.0
  0
LINE
  5
2BF
330
23B
100
AcDbEntity
  8
0
  6
Continuous
 62
     7
100
AcDbLine
 10
120.343411377
 20
45.28658429
 30
0.0
 11
121.8844151917
 21
46.82758810479999
 31
0.0
  0
LINE
  5
2C0
330
23B
100
AcDbEntity
  8
0
  6
Continuous
 62
     7
100
AcDbLine
 10
128.0484304508
 20
52.9916033639
 30
0.0
 11
129.0757696049
 21
54.018942518
 31
0.0
  0
LINE
  5
2C1
330
23B
100
AcDbEntity
  8
0
  6
Continuous
 62
     7
100
AcDbLine
 10
135.2397815865
 20
60.1829544996
 30
0.0
 11
136.7807854012
 21
61.72395831430001
 31
0.0
  0
LINE
  5
2C2
330
23B
100
AcDbEntity
  8
0
  6
Continuous
 62
     7
100
AcDbLine
 10
119.6108418105
 20
45.1574125102
 30
0.0
 11
121.1518456253
 21
46.69841632499999
 31
0.0
  0
LINE
  5
2C3
330
23B
100
AcDbEntity
  8
0
  6
Continuous
 62
     7
100
AcDbLine
 10
127.3158608844
 20
52.8624315841
 30
0.0
 11
128.3431998289
 21
53.88977052859999
 31
0.0
  0
LINE
  5
2C4
330
23B
100
AcDbEntity
  8
0
  6
Continuous
 62
     7
100
AcDbLine
 10
134.50721202
 20
60.0537827197
 30
0.0
 11
136.0482158348
 21
61.59478653449999
 31
0.0
  0
LINE
  5
2C5
330
23B
100
AcDbEntity
  8
0
  6
Continuous
 62
     7
100
AcDbLine
 10
118.8782722441
 20
45.0282407304
 30
0.0
 11
120.4192760589
 21
46.56924454520001
 31
0.0
  0
LINE
  5
2C6
330
23B
100
AcDbEntity
  8
0
  6
Continuous
 62
     7
100
AcDbLine
 10
126.583291318
 20
52.73325980430001
 30
0.0
 11
127.6106300529
 21
53.76059853920001
 31
0.0
  0
LINE
  5
2C7
330
23B
100
AcDbEntity
  8
0
  6
Continuous
 62
     7
100
AcDbLine
 10
133.7746424536
 20
59.9246109399
 30
0.0
 11
135.3156462684
 21
61.46561475470001
 31
0.0
  0
LINE
  5
2C8
330
23B
100
AcDbEntity
  8
0
  6
Continuous
 62
     7
100
AcDbLine
 10
118.1457026777
 20
44.8990689506
 30
0.0
 11
119.6867064925
 21
46.4400727654
 31
0.0
  0
LINE
  5
2C9
330
23B
100
AcDbEntity
  8
0
  6
Continuous
 62
     7
100
AcDbLine
 10
125.8507217516
 20
52.6040880245
 30
0.0
 11
126.8780602769
 21
53.63142654979999
 31
0.0
  0
LINE
  5
2CA
330
23B
100
AcDbEntity
  8
0
  6
Continuous
 62
     7
100
AcDbLine
 10
133.0420728872
 20
59.7954391601
 30
0.0
 11
134.583076702
 21
61.3364429749
 31
0.0
  0
LINE
  5
2CB
330
23B
100
AcDbEntity
  8
0
  6
Continuous
 62
     7
100
AcDbLine
 10
117.5943819052
 20
44.9511459647
 30
0.0
 11
118.9541369261
 21
46.3109009856
 31
0.0
  0
LINE
  5
2CC
330
23B
100
AcDbEntity
  8
0
  6
Continuous
 62
     7
100
AcDbLine
 10
125.1181521852
 20
52.47491624470001
 30
0.0
 11
126.1454905008
 21
53.5022545604
 31
0.0
  0
LINE
  5
2CD
330
23B
100
AcDbEntity
  8
0
  6
Continuous
 62
     7
100
AcDbLine
 10
132.3095033208
 20
59.6662673803
 30
0.0
 11
133.8505071356
 21
61.2072711951
 31
0.0
  0
LINE
  5
2CE
330
23B
100
AcDbEntity
  8
0
  6
Continuous
 62
     7
100
AcDbLine
 10
117.5039348512
 20
45.4640966974
 30
0.0
 11
118.5829573388
 21
46.5431191849
 31
0.0
  0
LINE
  5
2CF
330
23B
100
AcDbEntity
  8
0
  6
Continuous
 62
     7
100
AcDbLine
 10
124.3855826188
 20
52.3457444649
 30
0.0
 11
125.4129207248
 21
53.37308257090001
 31
0.0
  0
LINE
  5
2D0
330
23B
100
AcDbEntity
  8
0
  6
Continuous
 62
     7
100
AcDbLine
 10
131.5769337544
 20
59.5370956005
 30
0.0
 11
133.1179375692
 21
61.0780994153
 31
0.0
  0
LINE
  5
2D1
330
23B
100
AcDbEntity
  8
0
  6
Continuous
 62
     7
100
AcDbLine
 10
117.4134877973
 20
45.9770474301
 30
0.0
 11
118.4925102848
 21
47.0560699176
 31
0.0
  0
LINE
  5
2D2
330
23B
100
AcDbEntity
  8
0
  6
Continuous
 62
     7
100
AcDbLine
 10
123.6530130523
 20
52.2165726851
 30
0.0
 11
124.6803509488
 21
53.24391058149999
 31
0.0
  0
LINE
  5
2D3
330
23B
100
AcDbEntity
  8
0
  6
Continuous
 62
     7
100
AcDbLine
 10
130.844364188
 20
59.4079238207
 30
0.0
 11
132.3853680027
 21
60.94892763549999
 31
0.0
  0
LINE
  5
2D4
330
23B
100
AcDbEntity
  8
0
  6
Continuous
 62
     7
100
AcDbLine
 10
117.3230407433
 20
46.4899981627
 30
0.0
 11
118.4020632309
 21
47.5690206502
 31
0.0
  0
LINE
  5
2D5
330
23B
100
AcDbEntity
  8
0
  6
Continuous
 62
     7
100
AcDbLine
 10
122.9204434859
 20
52.0874009053
 30
0.0
 11
123.9477811727
 21
53.1147385921
 31
0.0
  0
LINE
  5
2D6
330
23B
100
AcDbEntity
  8
0
  6
Continuous
 62
     7
100
AcDbLine
 10
130.1117946215
 20
59.2787520409
 30
0.0
 11
131.6527984363
 21
60.81975585569999
 31
0.0
  0
LINE
  5
2D7
330
23B
100
AcDbEntity
  8
0
  6
Continuous
 62
     7
100
AcDbLine
 10
117.2325936894
 20
47.0029488954
 30
0.0
 11
118.3116161769
 21
48.0819713829
 31
0.0
  0
LINE
  5
2D8
330
23B
100
AcDbEntity
  8
0
  6
Continuous
 62
     7
100
AcDbLine
 10
122.1878739195
 20
51.9582291255
 30
0.0
 11
123.2152113967
 21
52.9855666027
 31
0.0
  0
LINE
  5
2D9
330
23B
100
AcDbEntity
  8
0
  6
Continuous
 62
     7
100
AcDbLine
 10
129.3792250551
 20
59.14958026109999
 30
0.0
 11
130.9202288699
 21
60.6905840759
 31
0.0
  0
LINE
  5
2DA
330
23B
100
AcDbEntity
  8
0
  6
Continuous
 62
     7
100
AcDbLine
 10
117.1421466355
 20
47.5158996281
 30
0.0
 11
118.221169123
 21
48.5949221156
 31
0.0
  0
LINE
  5
2DB
330
23B
100
AcDbEntity
  8
0
  6
Continuous
 62
     7
100
AcDbLine
 10
121.4553043531
 20
51.82905734569999
 30
0.0
 11
122.4826416207
 21
52.85639461329999
 31
0.0
  0
LINE
  5
2DC
330
23B
100
AcDbEntity
  8
0
  6
Continuous
 62
     7
100
AcDbLine
 10
128.6466554887
 20
59.0204084813
 30
0.0
 11
130.1876593035
 21
60.56141229609999
 31
0.0
  0
LINE
  5
2DD
330
23B
100
AcDbEntity
  8
0
  6
Continuous
 62
     7
100
AcDbLine
 10
117.0516995815
 20
48.0288503607
 30
0.0
 11
118.130722069
 21
49.10787284819999
 31
0.0
  0
LINE
  5
2DE
330
23B
100
AcDbEntity
  8
0
  6
Continuous
 62
     7
100
AcDbLine
 10
120.7227347867
 20
51.6998855659
 30
0.0
 11
121.7500718447
 21
52.72722262390001
 31
0.0
  0
LINE
  5
2DF
330
23B
100
AcDbEntity
  8
0
  6
Continuous
 62
     7
100
AcDbLine
 10
127.9140859223
 20
58.8912367015
 30
0.0
 11
129.4550897371
 21
60.4322405163
 31
0.0
  0
LINE
  5
2E0
330
23B
100
AcDbEntity
  8
0
  6
Continuous
 62
     7
100
AcDbLine
 10
116.9612525276
 20
48.5418010934
 30
0.0
 11
118.0402750151
 21
49.6208235809
 31
0.0
  0
LINE
  5
2E1
330
23B
100
AcDbEntity
  8
0
  6
Continuous
 62
     7
100
AcDbLine
 10
119.9901652202
 20
51.57071378609999
 30
0.0
 11
121.0175020686
 21
52.59805063449999
 31
0.0
  0
LINE
  5
2E2
330
23B
100
AcDbEntity
  8
0
  6
Continuous
 62
     7
100
AcDbLine
 10
127.1815163559
 20
58.7620649217
 30
0.0
 11
128.7225201706
 21
60.30306873649999
 31
0.0
  0
LINE
  5
2E3
330
23B
100
AcDbEntity
  8
0
  6
Continuous
 62
     7
100
AcDbLine
 10
116.8708054736
 20
49.0547518261
 30
0.0
 11
117.9498279611
 21
50.1337743136
 31
0.0
  0
LINE
  5
2E4
330
23B
100
AcDbEntity
  8
0
  6
Continuous
 62
     7
100
AcDbLine
 10
119.2575956538
 20
51.4415420063
 30
0.0
 11
120.2849322926
 21
52.46887864499999
 31
0.0
  0
LINE
  5
2E5
330
23B
100
AcDbEntity
  8
0
  6
Continuous
 62
     7
100
AcDbLine
 10
126.4489467895
 20
58.6328931419
 30
0.0
 11
127.9899506042
 21
60.1738969567
 31
0.0
  0
LINE
  5
2E6
330
23B
100
AcDbEntity
  8
0
  6
Continuous
 62
     7
100
AcDbLine
 10
116.7803584197
 20
49.5677025587
 30
0.0
 11
117.8593809072
 21
50.64672504629999
 31
0.0
  0
LINE
  5
2E7
330
23B
100
AcDbEntity
  8
0
  6
Continuous
 62
     7
100
AcDbLine
 10
118.5250260874
 20
51.31237022649999
 30
0.0
 11
119.5523625166
 21
52.33970665560001
 31
0.0
  0
LINE
  5
2E8
330
23B
100
AcDbEntity
  8
0
  6
Continuous
 62
     7
100
AcDbLine
 10
125.716377223
 20
58.5037213621
 30
0.0
 11
127.2573810378
 21
60.0447251769
 31
0.0
  0
LINE
  5
2E9
330
23B
100
AcDbEntity
  8
0
  6
Continuous
 62
     7
100
AcDbLine
 10
116.6899113657
 20
50.0806532914
 30
0.0
 11
117.7689338533
 21
51.1596757789
 31
0.0
  0
LINE
  5
2EA
330
23B
100
AcDbEntity
  8
0
  6
Continuous
 62
     7
100
AcDbLine
 10
117.792456521
 20
51.1831984466
 30
0.0
 11
118.8197927405
 21
52.21053466619999
 31
0.0
  0
LINE
  5
2EB
330
23B
100
AcDbEntity
  8
0
  6
Continuous
 62
     7
100
AcDbLine
 10
124.9838076566
 20
58.3745495823
 30
0.0
 11
126.5248114714
 21
59.9155533971
 31
0.0
  0
LINE
  5
2EC
330
23B
100
AcDbEntity
  8
0
  6
Continuous
 62
     7
100
AcDbLine
 10
116.5994643118
 20
50.5936040241
 30
0.0
 11
118.0872229645
 21
52.0813626768
 31
0.0
  0
LINE
  5
2ED
330
23B
100
AcDbEntity
  8
0
  6
Continuous
 62
     7
100
AcDbLine
 10
124.2512380902
 20
58.2453778025
 30
0.0
 11
125.792241905
 21
59.7863816172
 31
0.0
  0
LINE
  5
2EE
330
23B
100
AcDbEntity
  8
0
  6
Continuous
 62
     7
100
AcDbLine
 10
116.5090172579
 20
51.1065547567
 30
0.0
 11
117.5880397454
 21
52.1855772443
 31
0.0
  0
LINE
  5
2EF
330
23B
100
AcDbEntity
  8
0
  6
Continuous
 62
     7
100
AcDbLine
 10
123.5186685238
 20
58.1162060227
 30
0.0
 11
125.0596723386
 21
59.65720983739999
 31
0.0
  0
LINE
  5
2F0
330
23B
100
AcDbEntity
  8
0
  6
Continuous
 62
     7
100
AcDbLine
 10
116.4185702039
 20
51.6195054894
 30
0.0
 11
117.4975926914
 21
52.69852797689999
 31
0.0
  0
LINE
  5
2F1
330
23B
100
AcDbEntity
  8
0
  6
Continuous
 62
     7
100
AcDbLine
 10
122.7860989574
 20
57.9870342429
 30
0.0
 11
124.3271027721
 21
59.5280380576
 31
0.0
  0
LINE
  5
2F2
330
23B
100
AcDbEntity
  8
0
  6
Continuous
 62
     7
100
AcDbLine
 10
116.32812315
 20
52.1324562221
 30
0.0
 11
117.4071456375
 21
53.2114787096
 31
0.0
  0
LINE
  5
2F3
330
23B
100
AcDbEntity
  8
0
  6
Continuous
 62
     7
100
AcDbLine
 10
122.0535293909
 20
57.8578624631
 30
0.0
 11
123.5945332057
 21
59.39886627779999
 31
0.0
  0
LINE
  5
2F4
330
23B
100
AcDbEntity
  8
0
  6
Continuous
 62
     7
100
AcDbLine
 10
116.237676096
 20
52.6454069547
 30
0.0
 11
117.3166985835
 21
53.72442944229999
 31
0.0
  0
LINE
  5
2F5
330
23B
100
AcDbEntity
  8
0
  6
Continuous
 62
     7
100
AcDbLine
 10
121.3209598245
 20
57.7286906832
 30
0.0
 11
122.8619636393
 21
59.269694498
 31
0.0
  0
LINE
  5
2F6
330
23B
100
AcDbEntity
  8
0
  6
Continuous
 62
     7
100
AcDbLine
 10
116.1472290421
 20
53.1583576874
 30
0.0
 11
117.2262515296
 21
54.23738017489999
 31
0.0
  0
LINE
  5
2F7
330
23B
100
AcDbEntity
  8
0
  6
Continuous
 62
     7
100
AcDbLine
 10
120.5883902581
 20
57.5995189034
 30
0.0
 11
122.1293940729
 21
59.1405227182
 31
0.0
  0
LINE
  5
2F8
330
23B
100
AcDbEntity
  8
0
  6
Continuous
 62
     7
100
AcDbLine
 10
116.0567819881
 20
53.6713084201
 30
0.0
 11
117.1358044757
 21
54.7503309076
 31
0.0
  0
LINE
  5
2F9
330
23B
100
AcDbEntity
  8
0
  6
Continuous
 62
     7
100
AcDbLine
 10
119.8558206917
 20
57.4703471236
 30
0.0
 11
121.3968245065
 21
59.0113509384
 31
0.0
  0
LINE
  5
2FA
330
23B
100
AcDbEntity
  8
0
  6
Continuous
 62
     7
100
AcDbLine
 10
115.9663349342
 20
54.1842591528
 30
0.0
 11
117.0453574217
 21
55.2632816403
 31
0.0
  0
LINE
  5
2FB
330
23B
100
AcDbEntity
  8
0
  6
Continuous
 62
     7
100
AcDbLine
 10
119.1232511253
 20
57.34117534380001
 30
0.0
 11
120.66425494
 21
58.8821791586
 31
0.0
  0
LINE
  5
2FC
330
23B
100
AcDbEntity
  8
0
  6
Continuous
 62
     7
100
AcDbLine
 10
115.8758878802
 20
54.6972098854
 30
0.0
 11
116.9549103678
 21
55.7762323729
 31
0.0
  0
LINE
  5
2FD
330
23B
100
AcDbEntity
  8
0
  6
Continuous
 62
     7
100
AcDbLine
 10
118.3906815589
 20
57.21200356399999
 30
0.0
 11
119.9316853736
 21
58.75300737879999
 31
0.0
  0
LINE
  5
2FE
330
23B
100
AcDbEntity
  8
0
  6
Continuous
 62
     7
100
AcDbLine
 10
115.7854408263
 20
55.21016061810001
 30
0.0
 11
116.8644633138
 21
56.2891831056
 31
0.0
  0
LINE
  5
2FF
330
23B
100
AcDbEntity
  8
0
  6
Continuous
 62
     7
100
AcDbLine
 10
117.6581119924
 20
57.0828317842
 30
0.0
 11
119.1991158072
 21
58.62383559899999
 31
0.0
  0
LINE
  5
300
330
23B
100
AcDbEntity
  8
0
  6
Continuous
 62
     7
100
AcDbLine
 10
115.6949937724
 20
55.72311135079999
 30
0.0
 11
116.7740162599
 21
56.8021338383
 31
0.0
  0
LINE
  5
301
330
23B
100
AcDbEntity
  8
0
  6
Continuous
 62
     7
100
AcDbLine
 10
116.925542426
 20
56.95366000439999
 30
0.0
 11
118.4665462408
 21
58.4946638192
 31
0.0
  0
LINE
  5
302
330
23B
100
AcDbEntity
  8
0
  6
Continuous
 62
     7
100
AcDbLine
 10
115.6045467184
 20
56.2360620834
 30
0.0
 11
117.7339766744
 21
58.36549203939999
 31
0.0
  0
LINE
  5
303
330
23B
100
AcDbEntity
  8
0
  6
Continuous
 62
     7
100
AcDbLine
 10
115.5140996645
 20
56.7490128161
 30
0.0
 11
117.001407108
 21
58.2363202596
 31
0.0
  0
LINE
  5
304
330
23B
100
AcDbEntity
  8
0
  6
Continuous
 62
     7
100
AcDbLine
 10
115.4236526105
 20
57.2619635488
 30
0.0
 11
116.2688375415
 21
58.10714847979999
 31
0.0
  0
LINE
  5
305
330
23B
100
AcDbEntity
  8
0
  6
Continuous
 62
     7
100
AcDbLine
 10
115.3332055566
 20
57.7749142814
 30
0.0
 11
115.5362679751
 21
57.9779767
 31
0.0
  0
ENDBLK
  5
306
330
23B
100
AcDbEntity
  8
0
  6
ByBlock
 62
     0
100
AcDbBlockEnd
  0
BLOCK
  5
307
330
23C
100
AcDbEntity
  8
0
  6
Continuous
 62
     7
100
AcDbBlockBegin
  2
SYMBOL_11_BL0
 70
     0
 10
160.6683690716
 20
55.3344296681
 30
0.0
  3
SYMBOL_11_BL0
  1

  0
TEXT
  5
308
330
23C
100
AcDbEntity
  8
0
  6
Continuous
 62
     7
100
AcDbText
 10
144.4205839954999
 20
63.1078630592
 30
0.0
 40
0.5
  1
Infomations Techniques/Technical Infomations
  7
TEXTSTYLE_2
100
AcDbText
  0
TEXT
  5
309
330
23C
100
AcDbEntity
  8
0
  6
Continuous
 62
     7
100
AcDbText
 10
144.6683690716
 20
61.6677630015
 30
0.0
 40
0.6666666667
  1
NOMBRE DE JETS:     
  7
TEXTSTYLE_2
100
AcDbText
  0
TEXT
  5
30A
330
23C
100
AcDbEntity
  8
0
  6
Continuous
 62
     7
100
AcDbText
 10
154.5128135161
 20
61.6677630015
 30
0.0
 40
0.6666666667
  1
42
  7
TEXTSTYLE_2
100
AcDbText
  0
TEXT
  5
30B
330
23C
100
AcDbEntity
  8
0
  6
Continuous
 62
     7
100
AcDbText
 10
144.6683690716
 20
60.66776300149999
 30
0.0
 40
0.6666666667
  1
 
  7
TEXTSTYLE_2
100
AcDbText
  0
TEXT
  5
30C
330
23C
100
AcDbEntity
  8
0
  6
Continuous
 62
     7
100
AcDbText
 10
144.6683690716
 20
59.6677630015
 30
0.0
 40
0.6666666667
  1
NIVEAU D'EAU              GALLONS(US)        LITRES        GALLONS(UK)
  7
TEXTSTYLE_2
100
AcDbText
  0
TEXT
  5
30D
330
23C
100
AcDbEntity
  8
0
  6
Continuous
 62
     7
100
AcDbText
 10
144.6683690716
 20
58.6677630015
 30
0.0
 40
0.6666666667
  1
PLEIN
  7
TEXTSTYLE_2
100
AcDbText
  0
TEXT
  5
30E
330
23C
100
AcDbEntity
  8
0
  6
Continuous
 62
     7
100
AcDbText
 10
144.6683690716
 20
57.6677630015
 30
0.0
 40
0.6666666667
  1
HAUT T.PLEIN
  7
TEXTSTYLE_2
100
AcDbText
  0
TEXT
  5
30F
330
23C
100
AcDbEntity
  8
0
  6
Continuous
 62
     7
100
AcDbText
 10
144.6683690716
 20
56.6677630015
 30
0.0
 40
0.6666666667
  1
MILIEU T.PLEIN
  7
TEXTSTYLE_2
100
AcDbText
  0
TEXT
  5
310
330
23C
100
AcDbEntity
  8
0
  6
Continuous
 62
     7
100
AcDbText
 10
144.6683690716
 20
55.66776300149999
 30
0.0
 40
0.6666666667
  1
BAS T.PLEIN
  7
TEXTSTYLE_2
100
AcDbText
  0
TEXT
  5
311
330
23C
100
AcDbEntity
  8
0
  6
Continuous
 62
     7
100
AcDbText
 10
144.6683690716
 20
54.6677630015
 30
0.0
 40
0.6666666667
  1
3" EN BAS T.PLEIN
  7
TEXTSTYLE_2
100
AcDbText
  0
TEXT
  5
312
330
23C
100
AcDbEntity
  8
0
  6
Continuous
 62
     7
100
AcDbText
 10
144.6683690716
 20
53.6677630014
 30
0.0
 40
0.6666666667
  1
 
  7
TEXTSTYLE_2
100
AcDbText
  0
TEXT
  5
313
330
23C
100
AcDbEntity
  8
0
  6
Continuous
 62
     7
100
AcDbText
 10
144.468207566
 20
53.1209760766
 30
0.0
 40
0.5
  1
Legende/Legend
  7
TEXTSTYLE_2
100
AcDbText
  0
TEXT
  5
314
330
23C
100
AcDbEntity
  8
0
  6
Continuous
 62
     7
100
AcDbText
 10
150.9970425101
 20
51.6097110989
 30
0.0
 40
0.6666666667
  1
ZONE DE ROBINETTERIE
  7
TEXTSTYLE_2
100
AcDbText
  0
TEXT
  5
315
330
23C
100
AcDbEntity
  8
0
  6
Continuous
 62
     7
100
AcDbText
 10
145.9173179431
 20
50.1144665845
 30
0.0
 40
0.6666666667
  1
L   :  SYSTEME LED       DC   :  DOUBLE DOSSIER CHAUFFANT
  7
TEXTSTYLE_2
100
AcDbText
  0
TEXT
  5
316
330
23C
100
AcDbEntity
  8
0
  6
Continuous
 62
     7
100
AcDbText
 10
145.9173179431
 20
48.7811332512
 30
0.0
 40
0.6666666667
  1
C   :  CONTROLE
  7
TEXTSTYLE_2
100
AcDbText
  0
TEXT
  5
317
330
23C
100
AcDbEntity
  8
0
  6
Continuous
 62
     7
100
AcDbText
 10
145.9173179431
 20
47.44779991789999
 30
0.0
 40
0.6666666667
  1
T   :  MOTEUR
  7
TEXTSTYLE_2
100
AcDbText
  0
TEXT
  5
318
330
23C
100
AcDbEntity
  8
0
  6
Continuous
 62
     7
100
AcDbText
 10
157.5010657709
 20
58.6677630015
 30
0.0
 40
0.6666666667
  1
87
  7
TEXTSTYLE_2
100
AcDbText
  0
TEXT
  5
319
330
23C
100
AcDbEntity
  8
0
  6
Continuous
 62
     7
100
AcDbText
 10
157.5010657709
 20
57.6677630015
 30
0.0
 40
0.6666666667
  1
68
  7
TEXTSTYLE_2
100
AcDbText
  0
TEXT
  5
31A
330
23C
100
AcDbEntity
  8
0
  6
Continuous
 62
     7
100
AcDbText
 10
157.5010657709
 20
56.6677630015
 30
0.0
 40
0.6666666667
  1
67
  7
TEXTSTYLE_2
100
AcDbText
  0
TEXT
  5
31B
330
23C
100
AcDbEntity
  8
0
  6
Continuous
 62
     7
100
AcDbText
 10
157.5010657709
 20
55.66776300149999
 30
0.0
 40
0.6666666667
  1
66
  7
TEXTSTYLE_2
100
AcDbText
  0
TEXT
  5
31C
330
23C
100
AcDbEntity
  8
0
  6
Continuous
 62
     7
100
AcDbText
 10
157.5010657709
 20
54.6677630015
 30
0.0
 40
0.6666666667
  1
50
  7
TEXTSTYLE_2
100
AcDbText
  0
TEXT
  5
31D
330
23C
100
AcDbEntity
  8
0
  6
Continuous
 62
     7
100
AcDbText
 10
164.4212717146
 20
58.68484240359999
 30
0.0
 40
0.6666666667
  1
331
  7
TEXTSTYLE_2
100
AcDbText
  0
TEXT
  5
31E
330
23C
100
AcDbEntity
  8
0
  6
Continuous
 62
     7
100
AcDbText
 10
164.4212717146
 20
57.68484240359999
 30
0.0
 40
0.6666666667
  1
257
  7
TEXTSTYLE_2
100
AcDbText
  0
TEXT
  5
31F
330
23C
100
AcDbEntity
  8
0
  6
Continuous
 62
     7
100
AcDbText
 10
164.4212717146
 20
56.68484240359999
 30
0.0
 40
0.6666666667
  1
253
  7
TEXTSTYLE_2
100
AcDbText
  0
TEXT
  5
320
330
23C
100
AcDbEntity
  8
0
  6
Continuous
 62
     7
100
AcDbText
 10
164.4212717146
 20
55.6848424036
 30
0.0
 40
0.6666666667
  1
249
  7
TEXTSTYLE_2
100
AcDbText
  0
TEXT
  5
321
330
23C
100
AcDbEntity
  8
0
  6
Continuous
 62
     7
100
AcDbText
 10
164.4212717146
 20
54.68484240359999
 30
0.0
 40
0.6666666667
  1
191
  7
TEXTSTYLE_2
100
AcDbText
  0
TEXT
  5
322
330
23C
100
AcDbEntity
  8
0
  6
Continuous
 62
     7
100
AcDbText
 10
171.3659106521
 20
58.6677630015
 30
0.0
 40
0.6666666667
  1
73
  7
TEXTSTYLE_2
100
AcDbText
  0
TEXT
  5
323
330
23C
100
AcDbEntity
  8
0
  6
Continuous
 62
     7
100
AcDbText
 10
171.3659106521
 20
57.6677630015
 30
0.0
 40
0.6666666667
  1
56
  7
TEXTSTYLE_2
100
AcDbText
  0
TEXT
  5
324
330
23C
100
AcDbEntity
  8
0
  6
Continuous
 62
     7
100
AcDbText
 10
171.3659106521
 20
56.6677630015
 30
0.0
 40
0.6666666667
  1
56
  7
TEXTSTYLE_2
100
AcDbText
  0
TEXT
  5
325
330
23C
100
AcDbEntity
  8
0
  6
Continuous
 62
     7
100
AcDbText
 10
171.3659106521
 20
55.66776300149999
 30
0.0
 40
0.6666666667
  1
55
  7
TEXTSTYLE_2
100
AcDbText
  0
TEXT
  5
326
330
23C
100
AcDbEntity
  8
0
  6
Continuous
 62
     7
100
AcDbText
 10
171.3659106521
 20
54.6677630015
 30
0.0
 40
0.6666666667
  1
42
  7
TEXTSTYLE_2
100
AcDbText
  0
LINE
  5
327
330
23C
100
AcDbEntity
  8
0
  6
Continuous
 62
     7
100
AcDbLine
 10
144.0017024049
 20
64.00109633479999
 30
0.0
 11
144.0017024049
 21
46.6677630015
 31
0.0
  0
LINE
  5
328
330
23C
100
AcDbEntity
  8
0
  6
Continuous
 62
     7
100
AcDbLine
 10
144.0017024049
 20
64.00109633479999
 30
0.0
 11
177.3350357383
 21
64.00109633479999
 31
0.0
  0
LINE
  5
329
330
23C
100
AcDbEntity
  8
0
  6
Continuous
 62
     7
100
AcDbLine
 10
177.3350357383
 20
64.00109633479999
 30
0.0
 11
177.3350357383
 21
46.6677630015
 31
0.0
  0
LINE
  5
32A
330
23C
100
AcDbEntity
  8
0
  6
Continuous
 62
     7
100
AcDbLine
 10
144.0017024049
 20
46.6677630015
 30
0.0
 11
177.3350357383
 21
46.6677630015
 31
0.0
  0
LINE
  5
32B
330
23C
100
AcDbEntity
  8
0
  6
Continuous
 62
     7
100
AcDbLine
 10
145.3350357383
 20
54.00109633479999
 30
0.0
 11
176.0017024049
 21
54.00109633479999
 31
0.0
  0
LINE
  5
32C
330
23C
100
AcDbEntity
  8
0
  6
Continuous
 62
     7
100
AcDbLine
 10
145.3350357383
 20
61.00109633479999
 30
0.0
 11
176.0017024049
 21
61.00109633479999
 31
0.0
  0
LINE
  5
32D
330
23C
100
AcDbEntity
  8
0
  6
Continuous
 62
     7
100
AcDbLine
 10
144.8106089642
 20
52.3792608391
 30
0.0
 11
144.4415882219
 21
52.01024009680001
 31
0.0
  0
LINE
  5
32E
330
23C
100
AcDbEntity
  8
0
  6
Continuous
 62
     7
100
AcDbLine
 10
145.4772756309
 20
52.3792608391
 30
0.0
 11
144.6792598404
 21
51.58124504869999
 31
0.0
  0
LINE
  5
32F
330
23C
100
AcDbEntity
  8
0
  6
Continuous
 62
     7
100
AcDbLine
 10
146.1439422975
 20
52.3792608391
 30
0.0
 11
145.3459265071
 21
51.58124504869999
 31
0.0
  0
LINE
  5
330
330
23C
100
AcDbEntity
  8
0
  6
Continuous
 62
     7
100
AcDbLine
 10
146.8106089642
 20
52.3792608391
 30
0.0
 11
146.0125931738
 21
51.58124504869999
 31
0.0
  0
LINE
  5
331
330
23C
100
AcDbEntity
  8
0
  6
Continuous
 62
     7
100
AcDbLine
 10
147.4772756309
 20
52.3792608391
 30
0.0
 11
146.6792598404
 21
51.58124504869999
 31
0.0
  0
LINE
  5
332
330
23C
100
AcDbEntity
  8
0
  6
Continuous
 62
     7
100
AcDbLine
 10
148.1439422975
 20
52.3792608391
 30
0.0
 11
147.3459265071
 21
51.58124504869999
 31
0.0
  0
LINE
  5
333
330
23C
100
AcDbEntity
  8
0
  6
Continuous
 62
     7
100
AcDbLine
 10
148.8106089642
 20
52.3792608391
 30
0.0
 11
148.0125931737999
 21
51.58124504869999
 31
0.0
  0
LINE
  5
334
330
23C
100
AcDbEntity
  8
0
  6
Continuous
 62
     7
100
AcDbLine
 10
149.4772756309
 20
52.3792608391
 30
0.0
 11
148.6792598404
 21
51.58124504869999
 31
0.0
  0
LINE
  5
335
330
23C
100
AcDbEntity
  8
0
  6
Continuous
 62
     7
100
AcDbLine
 10
150.1439422975
 20
52.3792608391
 30
0.0
 11
149.3459265071
 21
51.58124504869999
 31
0.0
  0
LINE
  5
336
330
23C
100
AcDbEntity
  8
0
  6
Continuous
 62
     7
100
AcDbLine
 10
150.5874297317
 20
52.1560816066
 30
0.0
 11
150.0125931738
 21
51.58124504869999
 31
0.0
  0
ELLIPSE
  5
337
330
23C
100
AcDbEntity
  8
0
  6
Continuous
 62
     7
100
AcDbEllipse
 10
146.1471048871
 20
50.4320440417
 30
0.0
 11
1.0473539356
 21
0.0
 31
0.0
210
0.0
220
0.0
230
1.0
 40
0.4938647983
 41
0.0
 42
6.283185307179586
  0
ELLIPSE
  5
338
330
23C
100
AcDbEntity
  8
0
  6
Continuous
 62
     7
100
AcDbEllipse
 10
146.1471048871
 20
49.0987107084
 30
0.0
 11
1.0473539356
 21
0.0
 31
0.0
210
0.0
220
0.0
230
1.0
 40
0.4938647983
 41
0.0
 42
6.283185307179586
  0
ELLIPSE
  5
339
330
23C
100
AcDbEntity
  8
0
  6
Continuous
 62
     7
100
AcDbEllipse
 10
146.1471048871
 20
47.76537737509999
 30
0.0
 11
1.0473539356
 21
0.0
 31
0.0
210
0.0
220
0.0
230
1.0
 40
0.4938647983
 41
0.0
 42
6.283185307179586
  0
ELLIPSE
  5
33A
330
23C
100
AcDbEntity
  8
0
  6
Continuous
 62
     7
100
AcDbEllipse
 10
157.1657404682
 20
50.4515653988
 30
0.0
 11
1.0473539356
 21
0.0
 31
0.0
210
0.0
220
0.0
230
1.0
 40
0.4938647983
 41
0.0
 42
6.283185307179586
  0
ENDBLK
  5
33B
330
23C
100
AcDbEntity
  8
0
  6
ByBlock
 62
     0
100
AcDbBlockEnd
  0
ENDSEC
  0
SECTION
  2
ENTITIES
  0
LWPOLYLINE
  5
483
330
22B
100
AcDbEntity
  8
DEFAULT_2
  6
HIDDEN
 62
     7
100
AcDbPolyline
 90
       37
 70
     0
 43
0.0
 10
123.2744742174
 20
28.8022218923
 10
123.0252910699
 20
28.7823332735
 10
122.7928804933
 20
28.7641449232
 10
122.5716752798
 20
28.7471653091
 10
122.357953817
 20
28.7310744251
 10
122.1478747384
 20
28.7155666942
 10
121.9373172658
 20
28.7003391527
 10
121.7241330402
 20
28.6852518944
 10
121.5134912102
 20
28.6706793905
 10
121.3136610999
 20
28.6571672816
 10
121.1271736886
 20
28.644825395
 10
120.9522117151
 20
28.6334735466
 10
120.7863553291
 20
28.6229148131
 10
120.6276040852
 20
28.6130211163
 10
120.4795115639
 20
28.6040093021
 10
120.3442208829
 20
28.5959851831
 10
120.2150749458
 20
28.5885309254
 10
120.0849448549
 20
28.5812366765
 10
119.953473027
 20
28.5741018743
 10
119.8221416154
 20
28.5672239369
 10
119.6902727984
 20
28.5605819723
 10
119.5542294301
 20
28.5540118243
 10
119.4074005924
 20
28.547241265
 10
119.2421614522
 20
28.5400174662
 10
119.0542383784
 20
28.5323072134
 10
118.8459304633
 20
28.5243871695
 10
118.6210993472
 20
28.5165783542
 10
118.3802580537
 20
28.5090624269
 10
118.1212714454
 20
28.5019530172
 10
117.8409076969
 20
28.4953794141
 10
117.5348800163
 20
28.4895120109
 10
117.1973923326
 20
28.4845817701
 10
116.8215600457
 20
28.4809240631
 10
116.4000800465
 20
28.4790103436
 10
115.9265484335
 20
28.4794495672
 10
115.3953047031
 20
28.4829443988
 10
114.8006745761
 20
28.4902374327
  0
LWPOLYLINE
  5
4E9
330
22B
100
AcDbEntity
  8
DEFAULT_2
  6
HIDDEN
 62
     7
100
AcDbPolyline
 90
       10
 70
     0
 43
0.0
 10
114.8006745761
 20
28.4902374327
 10
114.3611292229
 20
28.4976625774
 10
113.9216114699
 20
28.5066078963
 10
113.4962652151
 20
28.516540331
 10
113.0709461654
 20
28.52756852320001
 10
112.2267172081
 20
28.5521315335
 10
111.3859892066
 20
28.5793102098
 10
110.5335625097
 20
28.6088504284
 10
109.6595951676
 20
28.6406776062
 10
108.7706724702
 20
28.6744293883
  0
LWPOLYLINE
  5
4EA
330
22B
100
AcDbEntity
  8
DEFAULT_2
  6
HIDDEN
 62
     7
100
AcDbPolyline
 90
        7
 70
     0
 43
0.0
 10
108.7706724702
 20
28.6744293883
 10
108.3711878985
 20
28.6882787078
 10
107.9717366451
 20
28.7030727417
 10
107.5723215814
 20
28.7188211354
 10
107.1733941138
 20
28.7355143845
 10
106.7745088155
 20
28.7531800624
 10
106.3756688823
 20
28.7718287566
  0
LWPOLYLINE
  5
4EB
330
22B
100
AcDbEntity
  8
DEFAULT_2
  6
HIDDEN
 62
     7
100
AcDbPolyline
 90
       58
 70
     0
 43
0.0
 10
106.3756668039
 20
28.7718288151
 10
106.3238785368
 20
28.7753416111
 10
106.2721900359
 20
28.7801964484
 10
106.2206425983
 20
28.786389465
 10
106.1704828366
 20
28.7937238458
 10
106.1205270685
 20
28.8023241281
 10
106.0708054117
 20
28.8121839756
 10
106.0224601264
 20
28.8230323921
 10
105.974396722
 20
28.8350701823
 10
105.9266446308
 20
28.848289364
 10
105.8793155298
 20
28.8626554623
 10
105.8323540679
 20
28.8781808237
 10
105.785788327
 20
28.8948553948
 10
105.7398109596
 20
28.9126028881
 10
105.6942813766
 20
28.9314695061
 10
105.6492265935
 20
28.9514433734
 10
105.6048851869
 20
28.9724090116
 10
105.5610664295
 20
28.9944460443
 10
105.5177959407
 20
29.017540939
 10
105.4753515297
 20
29.041533153
 10
105.4334983122
 20
29.0665423255
 10
105.3922604041
 20
29.0925534799
 10
105.3519441097
 20
29.1193586815
 10
105.3122807992
 20
29.1471208794
 10
105.2732929666
 20
29.1758238569
 10
105.235303752
 20
29.2052126163
 10
105.198022288
 20
29.2354940808
 10
105.1614693796
 20
29.2666509981
 10
105.1259725983
 20
29.2983848486
 10
105.0912313293
 20
29.3309439914
 10
105.0572646545
 20
29.3643103267
 10
105.0243960401
 20
29.39814455469999
 10
104.9923237672
 20
29.4327345066
 10
104.9610651844
 20
29.4680614126
 10
104.930926346
 20
29.5037559581
 10
104.9016182592
 20
29.5401356361
 10
104.8731565604
 20
29.5771811563
 10
104.8458262642
 20
29.6144959431
 10
104.8193549212
 20
29.6524248398
 10
104.7937564831
 20
29.6909481721
 10
104.7692837865
 20
29.7296581877
 10
104.7456928728
 20
29.7689117524
 10
104.7229960567
 20
29.8086889232
 10
104.7014125794
 20
29.8485762495
 10
104.6807287354
 20
29.8889373522
 10
104.6609552579
 20
29.9297520753
 10
104.6422764118
 20
29.9706085649
 10
104.6245105244
 20
30.0118702157
 10
104.6076667745
 20
30.0535168752
 10
104.591885887
 20
30.0951684569
 10
104.5770282695
 20
30.1371580787
 10
104.5631016929
 20
30.1794651213
 10
104.5502256004
 20
30.2216870162
 10
104.5382776864
 20
30.2641812799
 10
104.5272640269
 20
30.3069287625
 10
104.5170769983
 20
30.35041966530001
 10
104.507858559
 20
30.3941247017
 10
104.4996145657
 20
30.4380183601
  0
LWPOLYLINE
  5
572
330
22B
100
AcDbEntity
  8
DEFAULT_2
  6
HIDDEN
 62
     7
100
AcDbPolyline
 90
       19
 70
     0
 43
0.0
 10
102.9124047554
 20
45.04186755520001
 10
103.5228749053
 20
45.0952564431
 10
104.1334672657
 20
45.147230665
 10
104.6797926429
 20
45.1921268411
 10
105.2262696641
 20
45.2351355081
 10
105.7125788438
 20
45.2715062788
 10
106.1990385512
 20
45.30580265909999
 10
106.6306932387
 20
45.3342535687
 10
107.0624802078
 20
45.3606176174
 10
107.4467807303
 20
45.38213124
 10
107.8311888123
 20
45.401624576
 10
108.1741572387
 20
45.4171508674
 10
108.5172068103
 20
45.43076279850001
 10
108.8242326581
 20
45.44118664169999
 10
109.1313139196
 20
45.44981457459999
 10
109.407802845
 20
45.45592906369999
 10
109.6843241418
 20
45.46035536459999
 10
109.9356817179
 20
45.46280756439999
 10
110.1870485167
 20
45.4636503025
  0
LINE
  5
57A
330
22B
100
AcDbEntity
  8
DEFAULT_2
  6
HIDDEN
 62
     7
100
AcDbLine
 10
110.1870484929
 20
45.46365032629999
 30
0.0
 11
127.5413840413
 21
45.46365032629999
 31
0.0
  0
LWPOLYLINE
  5
57E
330
22B
100
AcDbEntity
  8
DEFAULT_2
  6
HIDDEN
 62
     7
100
AcDbPolyline
 90
       53
 70
     0
 43
0.0
 10
98.25097801850001
 20
46.4461149122
 10
98.24015942610001
 20
46.4464903369
 10
98.2293309411
 20
46.4465533216
 10
98.2185032457
 20
46.44630386310001
 10
98.2076870218
 20
46.44574195789999
 10
98.19688777780001
 20
46.4448673335
 10
98.186119244
 20
46.4436811221
 10
98.1753899573
 20
46.4421844655
 10
98.16470845459999
 20
46.4403785058
 10
98.15407954420001
 20
46.4382637405
 10
98.14351591200001
 20
46.4358427383
 10
98.13302647489999
 20
46.4331176439
 10
98.12262015000001
 20
46.43009060199999
 10
98.11230315400001
 20
46.4267630371
 10
98.10208670100001
 20
46.4231386715
 10
98.0919792575
 20
46.4192206604
 10
98.0819892901
 20
46.4150121592
 10
98.07212374870001
 20
46.4105157947
 10
98.06239227709999
 20
46.40573612479999
 10
98.0528029653
 20
46.40067726409999
 10
98.04336390290002
 20
46.3953433275
 10
98.034082685
 20
46.389738328
 10
98.02496737129999
 20
46.3838673642
 10
98.0160255132
 20
46.3777354568
 10
98.00726466150001
 20
46.3713476268
 10
97.99869257200001
 20
46.3647092814
 10
97.9903159498
 20
46.35782591119999
 10
97.9821417183
 20
46.35070337520001
 10
97.97417680069999
 20
46.3433475321
 10
97.9664283051
 20
46.3357646742
 10
97.95890222889999
 20
46.3279610012
 10
97.95160477140001
 20
46.31994312799999
 10
97.94454213200001
 20
46.31171766939999
 10
97.9377205443
 20
46.303291568
 10
97.9311453572
 20
46.29467180249999
 10
97.92482196620001
 20
46.2858656692
 10
97.9187557668
 20
46.2768804643
 10
97.9129520613
 20
46.267723661
 10
97.90741545140001
 20
46.25840291529999
 10
97.90215045049999
 20
46.24892605689999
 10
97.8971615724
 20
46.2393009155
 10
97.8924531502
 20
46.22953536539999
 10
97.8880289615
 20
46.2196378084
 10
97.88389260049999
 20
46.20961669289999
 10
97.88004766100002
 20
46.1994804671
 10
97.8764974891
 20
46.1892373251
 10
97.8732448889
 20
46.17889576399999
 10
97.87029240389999
 20
46.16846403159999
 10
97.86764257770002
 20
46.15795037549999
 10
97.86529774100001
 20
46.14736302679999
 10
97.86325989819999
 20
46.1367125714
 10
97.86153081770001
 20
46.12600958409999
 10
97.86011226780001
 20
46.1152646401
  0
LINE
  5
57F
330
22B
100
AcDbEntity
  8
DEFAULT_2
  6
HIDDEN
 62
     7
100
AcDbLine
 10
98.25098224200001
 20
46.4461147034
 30
0.0
 11
98.28780838749999
 21
46.44430358149999
 31
0.0
  0
LINE
  5
5DE
330
22B
100
AcDbEntity
  8
DEFAULT_2
  6
HIDDEN
 62
     7
100
AcDbLine
 10
127.2343703748
 20
42.53279693429999
 30
0.0
 11
127.2109811906
 21
42.5369210786
 31
0.0
  0
LINE
  5
5DF
330
22B
100
AcDbEntity
  8
DEFAULT_2
  6
HIDDEN
 62
     7
100
AcDbLine
 10
127.3863125302
 20
43.39450371819999
 30
0.0
 11
127.3629233461
 21
43.3986278625
 31
0.0
  0
LINE
  5
761
330
22B
100
AcDbEntity
  8
DEFAULT_2
  6
HIDDEN
 62
     7
100
AcDbLine
 10
101.7762160392
 20
45.88317891139999
 30
0.0
 11
104.5048208908
 21
30.40849182360001
 31
0.0
  0
LINE
  5
8AC
330
22B
100
AcDbEntity
  8
DEFAULT_2
  6
HIDDEN
 62
     7
100
AcDbLine
 10
127.2818314309
 20
43.34184669219999
 30
0.0
 11
127.1542000203
 21
42.6180129937
 31
0.0
  0
LINE
  5
926
330
22B
100
AcDbEntity
  8
DEFAULT_2
  6
HIDDEN
 62
     7
100
AcDbLine
 10
125.1041253045
 20
30.4515767961
 30
0.0
 11
127.8282294349
 21
45.9007390253
 31
0.0
  0
LWPOLYLINE
  5
927
330
22B
100
AcDbEntity
  8
DEFAULT_2
  6
HIDDEN
 62
     7
100
AcDbPolyline
 90
       55
 70
     0
 43
0.0
 10
125.1041253047
 20
30.4515767971
 10
125.0949104721
 20
30.4028596877
 10
125.0844887366
 20
30.3543786193
 10
125.072867673
 20
30.3061690616
 10
125.0603404867
 20
30.2592829016
 10
125.0466797068
 20
30.2127166169
 10
125.0318932275
 20
30.1664960501
 10
125.0159654814
 20
30.1205811156
 10
124.998926943
 20
30.0750660687
 10
124.9807878664
 20
30.0299781591
 10
124.9615490409
 20
29.9853224736
 10
124.9412309455
 20
29.9411475503
 10
124.9198456721
 20
29.8974793149
 10
124.8973890096
 20
29.8543125442
 10
124.8738897314
 20
29.81170432
 10
124.8493618358
 20
29.7696798036
 10
124.8238013431
 20
29.7282351302
 10
124.7972406086
 20
29.6874242589
 10
124.769695434
 20
29.6472712676
 10
124.7411612093
 20
29.6077721075
 10
124.7116744997
 20
29.5689787962
 10
124.681252842
 20
29.5309142506
 10
124.6498921341
 20
29.4935757165
 10
124.6176319318
 20
29.457011519
 10
124.5844914169
 20
29.4212432762
 10
124.5504676455
 20
29.3862699155
 10
124.5156023532
 20
29.3521353949
 10
124.47991627
 20
29.3188599187
 10
124.4434079335
 20
29.286444002
 10
124.4061207357
 20
29.2549270823
 10
124.3680768496
 20
29.224327838
 10
124.3292768958
 20
29.1946484372
 10
124.28976511
 20
29.1659234808
 10
124.2495649926
 20
29.1381700172
 10
124.2086790822
 20
29.1113913118
 10
124.1671523723
 20
29.0856174885
 10
124.1250095776
 20
29.0608638725
 10
124.0822591373
 20
29.0371366153
 10
124.0389426433
 20
29.0144591874
 10
123.9950858645
 20
28.9928450938
 10
123.9506879459
 20
28.9722955204
 10
123.9058016973
 20
28.9528357166
 10
123.8604539228
 20
28.9344773191
 10
123.8147047632
 20
28.9172436929
 10
123.7685487793
 20
28.9011311045
 10
123.7220132403
 20
28.8861491573
 10
123.6741535452
 20
28.8720332681
 10
123.6259571774
 20
28.859113362
 10
123.577454455
 20
28.8473975823
 10
123.5277167289
 20
28.8366999281
 10
123.4777226735
 20
28.8272686254
 10
123.4275029237
 20
28.8191097645
 10
123.3766389476
 20
28.812173478
 10
123.3256161383
 20
28.8065427981
 10
123.2744742179
 20
28.8022218856
  0
LWPOLYLINE
  5
14E7
330
22B
100
AcDbEntity
  8
0
  6
Continuous
 62
     7
100
AcDbPolyline
 90
        5
 70
     0
 43
0.0
 10
98.02436523270001
 20
46.11939255439999
 10
98.02798824920001
 20
46.1347647306
 10
98.03284100049999
 20
46.15066035669999
 10
98.03904608469999
 20
46.16692913979999
 10
98.046735299
 20
46.1834477255
  0
LWPOLYLINE
  5
14E8
330
22B
100
AcDbEntity
  8
0
  6
Continuous
 62
     7
100
AcDbPolyline
 90
        4
 70
     0
 43
0.0
 10
98.02682184920001
 20
46.1302672387
 10
98.0317454627
 20
46.1473833077
 10
98.03838882219999
 20
46.165356086
 10
98.04694673850001
 20
46.1838607814
  0
LWPOLYLINE
  5
14E9
330
22B
100
AcDbEntity
  8
0
  6
Continuous
 62
     7
100
AcDbPolyline
 90
        3
 70
     0
 43
0.0
 10
97.8944245205
 20
46.2276372403
 10
97.8770845594
 20
46.1909990688
 10
97.86011226780001
 20
46.1152646401
  0
LWPOLYLINE
  5
14EA
330
22B
100
AcDbEntity
  8
0
  6
Continuous
 62
     7
100
AcDbPolyline
 90
        4
 70
     0
 43
0.0
 10
98.046735299
 20
46.1834477255
 10
98.0561059016
 20
46.2001814399
 10
98.06738954469999
 20
46.21705395310001
 10
98.08077776940001
 20
46.2338482211
  0
LWPOLYLINE
  5
14EB
330
22B
100
AcDbEntity
  8
0
  6
Continuous
 62
     7
100
AcDbPolyline
 90
        3
 70
     0
 43
0.0
 10
98.04694673850001
 20
46.1838607814
 10
98.0576907038
 20
46.20273828609999
 10
98.0710205825
 20
46.2219086142
  0
LINE
  5
14EC
330
22B
100
AcDbEntity
  8
0
  6
Continuous
 62
     7
100
AcDbLine
 10
98.13731878959998
 20
45.5924860076
 30
0.0
 11
98.6213266546
 21
46.1693041196
 31
0.0
  0
LINE
  5
14ED
330
22B
100
AcDbEntity
  8
0
  6
Continuous
 62
     7
100
AcDbLine
 10
98.17684668280001
 20
45.559318167
 30
0.0
 11
98.66085454790002
 21
46.136136279
 31
0.0
  0
LINE
  5
14EE
330
22B
100
AcDbEntity
  8
0
  6
Continuous
 62
     7
100
AcDbLine
 10
98.0710205825
 20
46.2219086142
 30
0.0
 11
98.08661084209999
 21
46.2402569351
 31
0.0
  0
LINE
  5
14EF
330
22B
100
AcDbEntity
  8
0
  6
Continuous
 62
     7
100
AcDbLine
 10
98.08077776940001
 20
46.2338482211
 30
0.0
 11
98.0963366865
 21
46.2501814172
 31
0.0
  0
LWPOLYLINE
  5
14F0
330
22B
100
AcDbEntity
  8
0
  6
Continuous
 62
     7
100
AcDbPolyline
 90
        4
 70
     0
 43
0.0
 10
98.0963366865
 20
46.2501814172
 10
98.11407295770001
 20
46.2656573452
 10
98.1339901671
 20
46.2799167389
 10
98.15605807860002
 20
46.29259326529999
  0
LINE
  5
14F1
330
22B
100
AcDbEntity
  8
0
  6
Continuous
 62
     7
100
AcDbLine
 10
97.8944245761
 20
26.4636503263
 30
0.0
 11
97.8944245761
 21
46.3206081681
 31
0.0
  0
LINE
  5
14F2
330
22B
100
AcDbEntity
  8
0
  6
Continuous
 62
     7
100
AcDbLine
 10
98.01942457610001
 20
46.320608168
 30
0.0
 11
98.01942457610001
 21
26.4636503263
 31
0.0
  0
LINE
  5
14F3
330
22B
100
AcDbEntity
  8
0
  6
Continuous
 62
     7
100
AcDbLine
 10
98.11317457610002
 20
27.0261503263
 30
0.0
 11
98.11317457610002
 21
45.5261503263
 31
0.0
  0
LINE
  5
14F4
330
22B
100
AcDbEntity
  8
0
  6
Continuous
 62
     7
100
AcDbLine
 10
98.1647745761
 20
27.0261503263
 30
0.0
 11
98.1647745761
 21
45.5261503263
 31
0.0
  0
LINE
  5
14F5
330
22B
100
AcDbEntity
  8
0
  6
Continuous
 62
     7
100
AcDbLine
 10
97.93918931930001
 20
47.46365032629999
 30
0.0
 11
97.9203503996
 21
46.6866162068
 31
0.0
  0
LWPOLYLINE
  5
14F6
330
22B
100
AcDbEntity
  8
0
  6
Continuous
 62
     7
100
AcDbPolyline
 90
        5
 70
     0
 43
0.0
 10
97.8944245761
 20
46.3206081681
 10
97.89843243909999
 20
46.4157027516
 10
97.90735076670001
 20
46.5103979359
 10
97.91589165219999
 20
46.6004717954
 10
97.9203503996
 20
46.6866162068
  0
LWPOLYLINE
  5
14F7
330
22B
100
AcDbEntity
  8
0
  6
Continuous
 62
     7
100
AcDbPolyline
 90
        6
 70
     0
 43
0.0
 10
98.06031269059999
 20
46.6866162068
 10
98.05744262799999
 20
46.64108023989999
 10
98.0441576994
 20
46.540671935
 10
98.0355639739
 20
46.4873251829
 10
98.02166758690001
 20
46.3765672286
 10
98.01942457610001
 20
46.320608168
  0
LINE
  5
14F8
330
22B
100
AcDbEntity
  8
0
  6
Continuous
 62
     7
100
AcDbLine
 10
98.02012693000001
 20
46.0889571356
 30
0.0
 11
98.0212272506
 21
46.10002310979999
 31
0.0
  0
LWPOLYLINE
  5
14F9
330
22B
100
AcDbEntity
  8
0
  6
Continuous
 62
     7
100
AcDbPolyline
 90
        3
 70
     0
 43
0.0
 10
98.02042862200002
 20
46.0925386654
 10
98.02185746719999
 20
46.1048064351
 10
98.02436523270001
 20
46.11939255439999
  0
LWPOLYLINE
  5
14FA
330
22B
100
AcDbEntity
  8
0
  6
Continuous
 62
     7
100
AcDbPolyline
 90
       44
 70
     0
 43
0.0
 10
97.86011218090001
 20
46.11526465069999
 10
97.85109315660001
 20
46.0390136676
 10
97.8262835982
 20
45.8329148139
 10
97.79836189880001
 20
45.60290490209999
 10
97.76769106319999
 20
45.3493548825
 10
97.73243296069999
 20
45.05447101859999
 10
97.69241403809999
 20
44.7133743023
 10
97.65038420350002
 20
44.3459545693
 10
97.60802384459999
 20
43.96427383949999
 10
97.5655594862
 20
43.56820051289999
 10
97.5229861667
 20
43.1552522872
 10
97.4801730787
 20
42.7210409432
 10
97.436899577
 20
42.2589588621
 10
97.39271331639999
 20
41.75743964979999
 10
97.34843981610001
 20
41.2164483082
 10
97.30541840110001
 20
40.64125528739999
 10
97.26456879469999
 20
40.03061513769999
 10
97.22669643110002
 20
39.3770297129
 10
97.193104561
 20
38.6717192839
 10
97.16591381
 20
37.90597035400001
 10
97.1486428801
 20
37.0904656187
 10
97.14490029290001
 20
36.6719627821
 10
97.1487638217
 20
35.8296709594
 10
97.16671341400001
 20
35.0033576824
 10
97.19546616809999
 20
34.2212849789
 10
97.23122928969999
 20
33.50134056949999
 10
97.2715535732
 20
32.8371265075
 10
97.3149166121
 20
32.2199147429
 10
97.3603270763
 20
31.6422919214
 10
97.40690531
 20
31.1006212868
 10
97.4536601472
 20
30.5950954595
 10
97.49983697030002
 20
30.1247509302
 10
97.54519139020001
 20
29.6849767899
 10
97.58964423389999
 20
29.2711480492
 10
97.63327022209999
 20
28.8783781326
 10
97.67603229950001
 20
28.5035217592
 10
97.71737261940002
 20
28.148133972
 10
97.75608830530002
 20
27.8189561656
 10
97.79126643110002
 20
27.5199565619
 10
97.82290760049999
 20
27.24718064280001
 10
97.8510171843
 20
26.9955028846
 10
97.87462270520002
 20
26.76479022760001
 10
97.89099424900001
 20
26.5609601824
 10
97.8944245761
 20
26.4636503263
  0
LWPOLYLINE
  5
14FB
330
22B
100
AcDbEntity
  8
0
  6
Continuous
 62
     7
100
AcDbPolyline
 90
        3
 70
     0
 43
0.0
 10
98.0212272506
 20
46.10002310979999
 10
98.02339319419999
 20
46.1143257977
 10
98.02682184920001
 20
46.1302672387
  0
LWPOLYLINE
  5
14FC
330
22B
100
AcDbEntity
  8
0
  6
Continuous
 62
     7
100
AcDbPolyline
 90
        4
 70
     0
 43
0.0
 10
98.11020694740001
 20
46.262236125
 10
98.1281322378
 20
46.2760250091
 10
98.152824754
 20
46.2909190987
 10
98.1586767777
 20
46.293566726
  0
LINE
  5
14FD
330
22B
100
AcDbEntity
  8
0
  6
Continuous
 62
     7
100
AcDbLine
 10
98.21637457610002
 20
27.0261503263
 30
0.0
 11
98.21637457610002
 21
45.5261503263
 31
0.0
  0
LINE
  5
14FE
330
22B
100
AcDbEntity
  8
0
  6
Continuous
 62
     7
100
AcDbLine
 10
98.70873232560001
 20
46.2100620533
 30
0.0
 11
98.70873232560001
 21
46.1584620533
 31
0.0
  0
LINE
  5
14FF
330
22B
100
AcDbEntity
  8
0
  6
Continuous
 62
     7
100
AcDbLine
 10
98.86317457610001
 20
27.0261503263
 30
0.0
 11
98.86317457610001
 21
45.5261503263
 31
0.0
  0
LINE
  5
1500
330
22B
100
AcDbEntity
  8
0
  6
Continuous
 62
     7
100
AcDbLine
 10
99.2805266218
 20
46.2100620533
 30
0.0
 11
99.2805266218
 21
46.1584620533
 31
0.0
  0
LINE
  5
1501
330
22B
100
AcDbEntity
  8
0
  6
Continuous
 62
     7
100
AcDbLine
 10
99.3546954814
 20
28.7245503263
 30
0.0
 11
99.3546954814
 21
28.6729503263
 31
0.0
  0
LWPOLYLINE
  5
1502
330
22B
100
AcDbEntity
  8
0
  6
Continuous
 62
     7
100
AcDbPolyline
 90
        3
 70
     0
 43
0.0
 10
98.16440116009999
 20
46.29615660449999
 10
98.18022222020001
 20
46.3033145164
 10
98.21011446280001
 20
46.312627927
  0
LWPOLYLINE
  5
1503
330
22B
100
AcDbEntity
  8
0
  6
Continuous
 62
     7
100
AcDbPolyline
 90
        3
 70
     0
 43
0.0
 10
98.15605807860002
 20
46.29259326529999
 10
98.1801903438
 20
46.30330236179999
 10
98.20623725510001
 20
46.3116487731
  0
LINE
  5
1504
330
22B
100
AcDbEntity
  8
0
  6
Continuous
 62
     7
100
AcDbLine
 10
99.3715605352
 20
28.7232970363
 30
0.0
 11
99.3639335696
 21
28.6722638178
 31
0.0
  0
LINE
  5
1505
330
22B
100
AcDbEntity
  8
0
  6
Continuous
 62
     7
100
AcDbLine
 10
99.2607034769
 20
27.9815351388
 30
0.0
 11
99.3639335696
 21
28.6722638178
 31
0.0
  0
LWPOLYLINE
  5
1506
330
22B
100
AcDbEntity
  8
0
  6
Continuous
 62
     7
100
AcDbPolyline
 90
        4
 70
     0
 43
0.0
 10
101.6686017078
 20
45.8782574876
 10
101.6592306339
 20
45.87318453199999
 10
101.6540806631
 20
45.8675871768
 10
101.6531150701
 20
45.8614728892
  0
LWPOLYLINE
  5
1507
330
22B
100
AcDbEntity
  8
6_SURFACES_PATINS_SPECS
  6
Continuous
 62
     7
100
AcDbPolyline
 90
        3
 70
     0
 43
0.0
 10
120.981488412
 20
26.9003267341
 10
121.0201405267
 20
26.9073131477
 10
121.0506745594
 20
26.9089152105
  0
LINE
  5
1508
330
22B
100
AcDbEntity
  8
6_SURFACES_PATINS_SPECS
  6
Continuous
 62
     7
100
AcDbLine
 10
122.6199804164
 20
28.4694090518
 30
0.0
 11
122.6228019775
 21
28.469913295
 31
0.0
  0
LINE
  5
1509
330
22B
100
AcDbEntity
  8
0
  6
Continuous
 62
     7
100
AcDbLine
 10
98.01942457610001
 20
26.4636503263
 30
0.0
 11
97.8944245761
 21
26.4636503263
 31
0.0
  0
LINE
  5
150A
330
22B
100
AcDbEntity
  8
0
  6
Continuous
 62
     7
100
AcDbLine
 10
98.11317457610002
 20
27.0261503263
 30
0.0
 11
98.86317457610001
 21
27.0261503263
 31
0.0
  0
LINE
  5
150B
330
22B
100
AcDbEntity
  8
0
  6
Continuous
 62
     7
100
AcDbLine
 10
107.4200843496
 20
26.762107497
 30
0.0
 11
99.2607034769
 21
27.9815351388
 31
0.0
  0
LINE
  5
150C
330
22B
100
AcDbEntity
  8
0
  6
Continuous
 62
     7
100
AcDbLine
 10
107.5140763541
 20
27.3910226845
 30
0.0
 11
99.3546954814
 21
28.6104503263
 31
0.0
  0
LINE
  5
150D
330
22B
100
AcDbEntity
  8
0
  6
Continuous
 62
     7
100
AcDbLine
 10
107.5925578854
 20
27.442487674
 30
0.0
 11
99.3639335696
 21
28.6722638178
 31
0.0
  0
LINE
  5
150E
330
22B
100
AcDbEntity
  8
0
  6
Continuous
 62
     7
100
AcDbLine
 10
99.3715605352
 20
28.7232970363
 30
0.0
 11
107.5724760741
 21
27.497661997
 31
0.0
  0
LINE
  5
150F
330
22B
100
AcDbEntity
  8
6_SURFACES_PATINS_SPECS
  6
Continuous
 62
     7
100
AcDbLine
 10
106.9816704522
 20
28.4663395298
 30
0.0
 11
106.9785471645
 21
28.4699131282
 31
0.0
  0
LWPOLYLINE
  5
1510
330
22B
100
AcDbEntity
  8
0
  6
Continuous
 62
     7
100
AcDbPolyline
 90
        4
 70
     0
 43
0.0
 10
97.89398003649999
 20
46.07066710379999
 10
97.8932848856
 20
46.0720603281
 10
97.89206650950001
 20
46.07441688569999
 10
97.89005343870002
 20
46.07810267229999
  0
LINE
  5
1511
330
22B
100
AcDbEntity
  8
0
  6
Continuous
 62
     7
100
AcDbLine
 10
97.8943879954
 20
46.0698303531
 30
0.0
 11
97.89398003649999
 21
46.07066710379999
 31
0.0
  0
LWPOLYLINE
  5
1512
330
22B
100
AcDbEntity
  8
0
  6
Continuous
 62
     7
100
AcDbPolyline
 90
        4
 70
     0
 43
0.0
 10
104.3476585534
 20
30.6881951027
 10
104.3210792116
 20
30.7788372824
 10
104.2985458817
 20
30.8705360663
 10
104.2800845597
 20
30.9631886001
  0
LINE
  5
1513
330
22B
100
AcDbEntity
  8
0
  6
Continuous
 62
     7
100
AcDbLine
 10
104.3817195739
 20
30.3867877736
 30
0.0
 11
101.6531150701
 21
45.8614728892
 31
0.0
  0
LWPOLYLINE
  5
1514
330
22B
100
AcDbEntity
  8
6_SURFACES_PATINS_SPECS
  6
Continuous
 62
     7
100
AcDbPolyline
 90
       11
 70
     0
 43
0.0
 10
119.2532772717
 20
29.0236541638
 10
119.2739265189
 20
29.0290742655
 10
119.3384737421
 20
29.0344408124
 10
119.4451136907
 20
29.0396018934
 10
119.5914472501
 20
29.0444341488
 10
119.7736061655
 20
29.0488070163
 10
119.9877325271
 20
29.0526179118
 10
120.2286321126
 20
29.0557861771
 10
120.4895713997
 20
29.0582392016
 10
120.7669245169
 20
29.0599657593
 10
121.0498859107
 20
29.060937915
  0
LWPOLYLINE
  5
1515
330
22B
100
AcDbEntity
  8
0
  6
Continuous
 62
     7
100
AcDbPolyline
 90
       10
 70
     0
 43
0.0
 10
116.7638431907
 20
28.3502148518
 10
116.793150394
 20
28.3550781083
 10
116.793568652
 20
28.3579376081
 10
116.7629898449
 20
28.3633477649
 10
116.6909923332
 20
28.36783565
 10
116.5787499967
 20
28.3715031271
 10
116.4286175187
 20
28.3744160798
 10
116.2437834349
 20
28.3766276732
 10
116.0279882999
 20
28.3782277883
 10
115.8398896479
 20
28.3790815119
  0
LWPOLYLINE
  5
1516
330
22B
100
AcDbEntity
  8
0
  6
Continuous
 62
     7
100
AcDbPolyline
 90
       10
 70
     0
 43
0.0
 10
123.3027059527
 20
28.6788461242
 10
123.6002907695
 20
28.724248681
 10
123.9015594084
 20
28.8162059558
 10
124.1857228431
 20
28.9514734167
 10
124.4466087206
 20
29.126967001
 10
124.6784306115
 20
29.3385751197
 10
124.8765096288
 20
29.5818271229
 10
125.0367545837
 20
29.85173227260001
 10
125.1554086041
 20
30.1419323448
 10
125.2272262673
 20
30.4298707378
  0
LINE
  5
1517
330
22B
100
AcDbEntity
  8
0
  6
Continuous
 62
     7
100
AcDbLine
 10
123.5601393785
 20
28.7157483117
 30
0.0
 11
123.2832413074
 21
28.6775407127
 31
0.0
  0
LWPOLYLINE
  5
1518
330
22B
100
AcDbEntity
  8
6_SURFACES_PATINS_SPECS
  6
Continuous
 62
     7
100
AcDbPolyline
 90
        3
 70
     0
 43
0.0
 10
115.8385716667
 20
28.3223028226
 10
115.7494460843
 20
28.3108327679
 10
115.6656089245
 20
28.278493296
  0
LWPOLYLINE
  5
1519
330
22B
100
AcDbEntity
  8
6_SURFACES_PATINS_SPECS
  6
Continuous
 62
     7
100
AcDbPolyline
 90
        6
 70
     0
 43
0.0
 10
114.8319245761
 20
28.4555143704
 10
114.9987580315
 20
28.4720444049
 10
115.1591013181
 20
28.5209914557
 10
115.306716748
 20
28.6004513806
 10
115.4358617737
 20
28.707333023
 10
115.541512406
 20
28.8374784968
  0
LINE
  5
151A
330
22B
100
AcDbEntity
  8
6_SURFACES_PATINS_SPECS
  6
Continuous
 62
     7
100
AcDbLine
 10
114.8319245761
 20
27.7911812475
 30
0.0
 11
114.9955836225
 21
27.8070822766
 31
0.0
  0
LWPOLYLINE
  5
151B
330
22B
100
AcDbEntity
  8
6_SURFACES_PATINS_SPECS
  6
Continuous
 62
     7
100
AcDbPolyline
 90
        3
 70
     0
 43
0.0
 10
115.7759458735
 20
28.314470538
 10
115.8228616191
 20
28.3184617083
 10
115.8385716677
 20
28.3223026907
  0
LINE
  5
151C
330
22B
100
AcDbEntity
  8
0
  6
Continuous
 62
     7
100
AcDbLine
 10
123.2832413156
 20
28.6775407379
 30
0.0
 11
122.6846490023
 21
28.6305555584
 31
0.0
  0
LINE
  5
151D
330
22B
100
AcDbEntity
  8
0
  6
Continuous
 62
     7
100
AcDbLine
 10
122.6854867238
 20
28.6326295618
 30
0.0
 11
123.3026952395
 21
28.678845262
 31
0.0
  0
LINE
  5
151E
330
22B
100
AcDbEntity
  8
0
  6
Continuous
 62
     7
100
AcDbLine
 10
123.3026952395
 20
28.678845262
 30
0.0
 11
123.2832413069
 21
28.6775407193
 31
0.0
  0
LINE
  5
151F
330
22B
100
AcDbEntity
  8
6_SURFACES_PATINS_SPECS
  6
Continuous
 62
     7
100
AcDbLine
 10
115.769794987
 20
28.3141525116
 30
0.0
 11
115.7759458735
 21
28.314470538
 31
0.0
  0
LWPOLYLINE
  5
1520
330
22B
100
AcDbEntity
  8
0
  6
Continuous
 62
     7
100
AcDbPolyline
 90
        4
 70
     0
 43
0.0
 10
119.4595220249
 20
28.42465631260001
 10
119.3882346133
 20
28.4212623077
 10
118.8669677341
 20
28.4000732131
 10
118.6538854165
 20
28.3925991339
  0
LINE
  5
1521
330
22B
100
AcDbEntity
  8
0
  6
Continuous
 62
     7
100
AcDbLine
 10
118.6538836347
 20
28.3925991757
 30
0.0
 11
119.4585491099
 21
28.4274927737
 31
0.0
  0
LWPOLYLINE
  5
1522
330
22B
100
AcDbEntity
  8
6_SURFACES_PATINS_SPECS
  6
Continuous
 62
     7
100
AcDbPolyline
 90
       14
 70
     0
 43
0.0
 10
114.8370118049
 20
27.7906814807
 10
114.8539395996
 20
27.7910970189
 10
114.870130044
 20
27.7917376409
 10
114.8899409006
 20
27.7929015214
 10
114.9157322071
 20
27.7950876457
 10
114.9489808473
 20
27.7990624274
 10
114.9772355234
 20
27.8034854919
 10
115.03495449
 20
27.815587117
 10
115.0986893466
 20
27.8339356063
 10
115.1786361761
 20
27.8649206871
 10
115.2469268998
 20
27.8991937452
 10
115.3533510025
 20
27.9697225951
 10
115.4431185212
 20
28.0502897753
 10
115.5324016843
 20
28.159515468
  0
LWPOLYLINE
  5
1523
330
22B
100
AcDbEntity
  8
0
  6
Continuous
 62
     7
100
AcDbPolyline
 90
        4
 70
     0
 43
0.0
 10
116.7638684773
 20
28.3455452844
 10
117.3374794636
 20
28.3560833994
 10
118.1019264714
 20
28.3754620445
 10
118.6538854165
 20
28.3925991339
  0
LINE
  5
1524
330
22B
100
AcDbEntity
  8
6_SURFACES_PATINS_SPECS
  6
Continuous
 62
     7
100
AcDbLine
 10
114.8142814996
 20
27.7904189212
 30
0.0
 11
114.8370118049
 21
27.7906814807
 31
0.0
  0
LWPOLYLINE
  5
1525
330
22B
100
AcDbEntity
  8
0
  6
Continuous
 62
     7
100
AcDbPolyline
 90
       10
 70
     0
 43
0.0
 10
113.7614595734
 20
28.3790785179
 10
113.5787168881
 20
28.3782586166
 10
113.3624348706
 20
28.3766731652
 10
113.1769028164
 20
28.3744789846
 10
113.0259501633
 20
28.3715861948
 10
112.9128616437
 20
28.367944552
 10
112.8397738157
 20
28.3634824711
 10
112.8080096506
 20
28.358066284
 10
112.807986634
 20
28.3551881107
 10
112.8378181754
 20
28.35011756110001
  0
LWPOLYLINE
  5
1526
330
22B
100
AcDbEntity
  8
0
  6
Continuous
 62
     7
100
AcDbPolyline
 90
        9
 70
     0
 43
0.0
 10
113.7623127209
 20
28.3423248935
 10
113.7222310448
 20
28.342173235
 10
113.4996207584
 20
28.3407662791
 10
113.3062927955
 20
28.3387645868
 10
113.146372537
 20
28.3360604298
 10
113.0234609296
 20
28.3325828112
 10
112.9402151188
 20
28.3282855641
 10
112.8981068597
 20
28.3229898789
 10
112.8932719947
 20
28.3192762156
  0
LINE
  5
1527
330
22B
100
AcDbEntity
  8
0
  6
Continuous
 62
     7
100
AcDbLine
 10
115.4581738645
 20
27.7461503263
 30
0.0
 11
114.1431752876
 21
27.7461503263
 31
0.0
  0
LINE
  5
1528
330
22B
100
AcDbEntity
  8
0
  6
Continuous
 62
     7
100
AcDbLine
 10
113.5292295153
 20
27.8386503263
 30
0.0
 11
114.4896034373
 21
27.8386503263
 31
0.0
  0
LINE
  5
1529
330
22B
100
AcDbEntity
  8
0
  6
Continuous
 62
     7
100
AcDbLine
 10
115.1108541338
 20
27.8386503263
 30
0.0
 11
116.0721196369
 21
27.8386503263
 31
0.0
  0
LWPOLYLINE
  5
152A
330
22B
100
AcDbEntity
  8
6_SURFACES_PATINS_SPECS
  6
Continuous
 62
     7
100
AcDbPolyline
 90
        8
 70
     0
 43
0.0
 10
119.5028792827
 20
28.29898360219999
 10
119.5367032914
 20
28.2988334477
 10
119.6231579592
 20
28.2842851426
 10
119.703873253
 20
28.2500603688
 10
119.7406844835
 20
28.2261113332
 10
119.8046820932
 20
28.1661865013
 10
119.8529788024
 20
28.093114347
 10
119.8703862673
 20
28.0529001724
  0
LWPOLYLINE
  5
152B
330
22B
100
AcDbEntity
  8
6_SURFACES_PATINS_SPECS
  6
Continuous
 62
     7
100
AcDbPolyline
 90
        3
 70
     0
 43
0.0
 10
114.7747223493
 20
27.7905268455
 10
114.8010418837
 20
27.7903799153
 10
114.8142814996
 20
27.7904189212
  0
LINE
  5
152C
330
22B
100
AcDbEntity
  8
6_SURFACES_PATINS_SPECS
  6
Continuous
 62
     7
100
AcDbLine
 10
114.7542129195
 20
27.7909022068
 30
0.0
 11
114.7747223493
 21
27.7905268455
 31
0.0
  0
LWPOLYLINE
  5
152D
330
22B
100
AcDbEntity
  8
0
  6
Continuous
 62
     7
100
AcDbPolyline
 90
        5
 70
     0
 43
0.0
 10
110.1410815682
 20
28.4224827263
 10
110.774670649
 20
28.3985048178
 10
111.4967253967
 20
28.3755393824
 10
112.2617862946
 20
28.356129329
 10
112.8378030355
 20
28.3455418092
  0
LINE
  5
152E
330
22B
100
AcDbEntity
  8
6_SURFACES_PATINS_SPECS
  6
Continuous
 62
     7
100
AcDbLine
 10
113.8253687723
 20
28.3144727813
 30
0.0
 11
113.8320337156
 21
28.3141281129
 31
0.0
  0
LWPOLYLINE
  5
152F
330
22B
100
AcDbEntity
  8
6_SURFACES_PATINS_SPECS
  6
Continuous
 62
     7
100
AcDbPolyline
 90
        3
 70
     0
 43
0.0
 10
121.0506745592
 20
26.9089152096
 10
121.0816009562
 20
26.9072712966
 10
121.1198634058
 20
26.9003260349
  0
LWPOLYLINE
  5
1530
330
22B
100
AcDbEntity
  8
0
  6
Continuous
 62
     7
100
AcDbPolyline
 90
        4
 70
     0
 43
0.0
 10
106.3281863311
 20
28.6358266592
 10
106.5539564536
 20
28.6203258486
 10
106.858944125
 20
28.5997429898
 10
106.9310527326
 20
28.595021402
  0
LINE
  5
1531
330
22B
100
AcDbEntity
  8
6_SURFACES_PATINS_SPECS
  6
Continuous
 62
     7
100
AcDbLine
 10
113.7784698791
 20
28.3184639462
 30
0.0
 11
113.8253687723
 21
28.3144727813
 31
0.0
  0
LWPOLYLINE
  5
1532
330
22B
100
AcDbEntity
  8
6_SURFACES_PATINS_SPECS
  6
Continuous
 62
     7
100
AcDbPolyline
 90
        8
 70
     0
 43
0.0
 10
114.7694245761
 20
27.7911812475
 10
114.772519299
 20
27.7909082898
 10
114.7811905198
 20
27.7906893947
 10
114.7937207969
 20
27.7905679171
 10
114.8076283553
 20
27.7905679171
 10
114.8201586324
 20
27.7906893947
 10
114.8288298532
 20
27.7909082898
 10
114.8319245761
 20
27.7911812475
  0
LWPOLYLINE
  5
1533
330
22B
100
AcDbEntity
  8
6_SURFACES_PATINS_SPECS
  6
Continuous
 62
     7
100
AcDbPolyline
 90
        8
 70
     0
 43
0.0
 10
114.8319245761
 20
28.4555143704
 10
114.8288298532
 20
28.4557873281
 10
114.8201586324
 20
28.4560062232
 10
114.8076283553
 20
28.4561277008
 10
114.7937207969
 20
28.4561277008
 10
114.7811905198
 20
28.4560062232
 10
114.772519299
 20
28.4557873281
 10
114.7694245761
 20
28.4555143704
  0
LINE
  5
1534
330
22B
100
AcDbEntity
  8
6_SURFACES_PATINS_SPECS
  6
Continuous
 62
     7
100
AcDbLine
 10
114.7694245761
 20
27.7911812475
 30
0.0
 11
114.6057655258
 21
27.8070822774
 31
0.0
  0
LWPOLYLINE
  5
1535
330
22B
100
AcDbEntity
  8
6_SURFACES_PATINS_SPECS
  6
Continuous
 62
     7
100
AcDbPolyline
 90
        6
 70
     0
 43
0.0
 10
114.7694245761
 20
28.4555143704
 10
114.6025911243
 20
28.4720444042
 10
114.442247841
 20
28.5209914528
 10
114.2946324135
 20
28.6004513743
 10
114.1654873891
 20
28.7073330123
 10
114.0598367462
 20
28.8374784968
  0
LWPOLYLINE
  5
1536
330
22B
100
AcDbEntity
  8
6_SURFACES_PATINS_SPECS
  6
Continuous
 62
     7
100
AcDbPolyline
 90
       11
 70
     0
 43
0.0
 10
113.8222197675
 20
28.3156511238
 10
113.8215377959
 20
28.3157217076
 10
113.8235633885
 20
28.3154618598
 10
113.8326070797
 20
28.3140378304
 10
113.8493042019
 20
28.3106104555
 10
113.8754877975
 20
28.303405415
 10
113.9110555433
 20
28.2900334664
 10
113.9520882767
 20
28.2689772082
 10
113.9948788564
 20
28.2392988803
 10
114.0366339661
 20
28.2001642737
 10
114.0689474693
 20
28.1595158116
  0
LWPOLYLINE
  5
1537
330
22B
100
AcDbEntity
  8
6_SURFACES_PATINS_SPECS
  6
Continuous
 62
     7
100
AcDbPolyline
 90
        8
 70
     0
 43
0.0
 10
106.9816705097
 20
28.4663395261
 10
107.0112784146
 20
28.4632056277
 10
107.0899483804
 20
28.442804311
 10
107.1623829813
 20
28.4059276768
 10
107.1952463657
 20
28.381769556
 10
107.2521153089
 20
28.3235622292
 10
107.2944025762
 20
28.2558785544
 10
107.3094183021
 20
28.2204071906
  0
LWPOLYLINE
  5
1538
330
22B
100
AcDbEntity
  8
0
  6
Continuous
 62
     7
100
AcDbPolyline
 90
        7
 70
     0
 43
0.0
 10
112.8378955025
 20
28.3505724993
 10
112.8377864497
 20
28.3505850158
 10
112.8407430137
 20
28.34991817840001
 10
112.8481423688
 20
28.3477159008
 10
112.861141091
 20
28.3423150449
 10
112.8792389487
 20
28.3313307616
 10
112.8932772061
 20
28.3192710516
  0
LWPOLYLINE
  5
1539
330
22B
100
AcDbEntity
  8
6_SURFACES_PATINS_SPECS
  6
Continuous
 62
     7
100
AcDbPolyline
 90
        6
 70
     0
 43
0.0
 10
106.7508039106
 20
29.0395742445
 10
106.8410481311
 20
29.0280319901
 10
106.9258548008
 20
28.9950980205
 10
107.000231925
 20
28.9427109356
 10
107.0598014258
 20
28.8739544085
 10
107.1010568499
 20
28.7928756706
  0
LWPOLYLINE
  5
153A
330
22B
100
AcDbEntity
  8
6_SURFACES_PATINS_SPECS
  6
Continuous
 62
     7
100
AcDbPolyline
 90
        3
 70
     0
 43
0.0
 10
113.7627774848
 20
28.3223027364
 10
113.8519030848
 20
28.3108327386
 10
113.9357402701
 20
28.2784933122
  0
LINE
  5
153B
330
22B
100
AcDbEntity
  8
6_SURFACES_PATINS_SPECS
  6
Continuous
 62
     7
100
AcDbLine
 10
106.9785471746
 20
28.4699132935
 30
0.0
 11
106.9821926933
 21
28.4692618002
 31
0.0
  0
LINE
  5
153C
330
22B
100
AcDbEntity
  8
6_SURFACES_PATINS_SPECS
  6
Continuous
 62
     7
100
AcDbLine
 10
113.7627774848
 20
28.3223027364
 30
0.0
 11
113.7784698791
 21
28.3184639462
 31
0.0
  0
LWPOLYLINE
  5
153D
330
22B
100
AcDbEntity
  8
6_SURFACES_PATINS_SPECS
  6
Continuous
 62
     7
100
AcDbPolyline
 90
       11
 70
     0
 43
0.0
 10
110.3480718805
 20
29.0236541711
 10
110.3274251214
 20
29.0290739295
 10
110.2628772586
 20
29.0344406091
 10
110.1562384373
 20
29.0396018807
 10
110.0099047733
 20
29.0444341353
 10
109.8277461613
 20
29.0488069642
 10
109.6136168903
 20
29.052617866
 10
109.3727187073
 20
29.0557860878
 10
109.1117763729
 20
29.0582392389
 10
108.8344189537
 20
29.0599657905
 10
108.5514632414
 20
29.0609379137
  0
LINE
  5
153E
330
22B
100
AcDbEntity
  8
6_SURFACES_PATINS_SPECS
  6
Continuous
 62
     7
100
AcDbLine
 10
114.6057655258
 20
27.8070822774
 30
0.0
 11
114.4482308871
 21
27.8541903223
 31
0.0
  0
LWPOLYLINE
  5
153F
330
22B
100
AcDbEntity
  8
0
  6
Continuous
 62
     7
100
AcDbPolyline
 90
        8
 70
     0
 43
0.0
 10
97.89005343870002
 20
46.07810267229999
 10
97.8868667559
 20
46.0834841851
 10
97.88222013010001
 20
46.0905062309
 10
97.87637376799999
 20
46.0982270688
 10
97.87031062330001
 20
46.1052082838
 10
97.86499498520001
 20
46.1106625957
 10
97.86134305870001
 20
46.1141314981
 10
97.86011214390001
 20
46.1152643352
  0
LWPOLYLINE
  5
1540
330
22B
100
AcDbEntity
  8
6_SURFACES_PATINS_SPECS
  6
Continuous
 62
     7
100
AcDbPolyline
 90
        5
 70
     0
 43
0.0
 10
106.7508039106
 20
29.0395742445
 10
106.7891154189
 20
28.945396019
 10
106.8221588532
 20
28.8640343462
 10
106.8506722699
 20
28.7937265663
 10
106.8752834537
 20
28.7329657314
  0
LINE
  5
1541
330
22B
100
AcDbEntity
  8
6_SURFACES_PATINS_SPECS
  6
Continuous
 62
     7
100
AcDbLine
 10
106.8752834537
 20
28.7329657314
 30
0.0
 11
106.9148780356
 21
28.6350665754
 31
0.0
  0
LINE
  5
1542
330
22B
100
AcDbEntity
  8
6_SURFACES_PATINS_SPECS
  6
Continuous
 62
     7
100
AcDbLine
 10
106.9148780356
 20
28.6350665754
 30
0.0
 11
106.9443369604
 21
28.5621101424
 31
0.0
  0
LWPOLYLINE
  5
1543
330
22B
100
AcDbEntity
  8
6_SURFACES_PATINS_SPECS
  6
Continuous
 62
     7
100
AcDbPolyline
 90
        4
 70
     0
 43
0.0
 10
106.9443369604
 20
28.5621101424
 10
106.9742616307
 20
28.4878954659
 10
106.9813869357
 20
28.4693815139
 10
106.9816704522
 20
28.4663395298
  0
LINE
  5
1544
330
22B
100
AcDbEntity
  8
6_SURFACES_PATINS_SPECS
  6
Continuous
 62
     7
100
AcDbLine
 10
107.6697127441
 20
27.2305064419
 30
0.0
 11
107.101056874
 21
28.7928756044
 31
0.0
  0
LINE
  5
1545
330
22B
100
AcDbEntity
  8
6_SURFACES_PATINS_SPECS
  6
Continuous
 62
     7
100
AcDbLine
 10
114.7466409793
 20
28.7325286257
 30
0.0
 11
114.7713470661
 21
28.736218743
 31
0.0
  0
LWPOLYLINE
  5
1546
330
22B
100
AcDbEntity
  8
6_SURFACES_PATINS_SPECS
  6
Continuous
 62
     7
100
AcDbPolyline
 90
        5
 70
     0
 43
0.0
 10
115.8542433935
 20
29.005987389
 10
115.7626647429
 20
28.9945553251
 10
115.676652375
 20
28.96110745280001
 10
115.6014159138
 20
28.9076696533
 10
115.5415123044
 20
28.8374785638
  0
LWPOLYLINE
  5
1547
330
22B
100
AcDbEntity
  8
6_SURFACES_PATINS_SPECS
  6
Continuous
 62
     7
100
AcDbPolyline
 90
        6
 70
     0
 43
0.0
 10
110.3480718805
 20
29.0236541711
 10
110.2570847507
 20
29.0127566974
 10
110.171460854
 20
28.9801191652
 10
110.0963136314
 20
28.9276906811
 10
110.0361308593
 20
28.858602263
 10
109.9945066401
 20
28.7769798567
  0
LINE
  5
1548
330
22B
100
AcDbEntity
  8
6_SURFACES_PATINS_SPECS
  6
Continuous
 62
     7
100
AcDbLine
 10
106.9785471746
 20
28.4699132935
 30
0.0
 11
106.9972204437
 21
28.4709172252
 31
0.0
  0
LINE
  5
1549
330
22B
100
AcDbEntity
  8
6_SURFACES_PATINS_SPECS
  6
Continuous
 62
     7
100
AcDbLine
 10
114.7713470661
 20
28.736218743
 30
0.0
 11
114.8006745761
 21
28.7377127729
 31
0.0
  0
LWPOLYLINE
  5
154A
330
22B
100
AcDbEntity
  8
6_SURFACES_PATINS_SPECS
  6
Continuous
 62
     7
100
AcDbPolyline
 90
       10
 70
     0
 43
0.0
 10
114.8006745761
 20
29.027488629
 10
114.6177191439
 20
29.0271653602
 10
114.4402185348
 20
29.0262043036
 10
114.2736422827
 20
29.0246332495
 10
114.1231245371
 20
29.02249856820001
 10
113.9932135703
 20
29.0198616379
 10
113.8879103217
 20
29.0167994554
 10
113.8103657974
 20
29.013398303
 10
113.7628861518
 20
29.0097479585
 10
113.7471057586
 20
29.0059873439
  0
LWPOLYLINE
  5
154B
330
22B
100
AcDbEntity
  8
6_SURFACES_PATINS_SPECS
  6
Continuous
 62
     7
100
AcDbPolyline
 90
       11
 70
     0
 43
0.0
 10
121.0498859107
 20
29.0609379153
 10
121.3339396945
 20
29.0611837312
 10
121.6104814879
 20
29.0607464324
 10
121.8718578016
 20
29.0596864018
 10
122.1133960111
 20
29.0580604349
 10
122.3278928918
 20
29.0559443819
 10
122.5105992731
 20
29.0533885004
 10
122.6577143492
 20
29.0504360297
 10
122.764719935
 20
29.0471401902
 10
122.8296658753
 20
29.0435075227
 10
122.8505452414
 20
29.0395742623
  0
LWPOLYLINE
  5
154C
330
22B
100
AcDbEntity
  8
0
  6
Continuous
 62
     7
100
AcDbPolyline
 90
        4
 70
     0
 43
0.0
 10
114.8006745761
 20
29.1835190688
 10
117.6349792781
 20
29.1846796016
 10
120.3783993994
 20
29.1880255869
 10
123.2315003009
 20
29.193861934
  0
LINE
  5
154D
330
22B
100
AcDbEntity
  8
0
  6
Continuous
 62
     7
100
AcDbLine
 10
98.86317457610001
 20
28.6729503263
 30
0.0
 11
99.3546954814
 21
28.6729503263
 31
0.0
  0
LINE
  5
154E
330
22B
100
AcDbEntity
  8
0
  6
Continuous
 62
     7
100
AcDbLine
 10
98.86317457610001
 20
28.7245503263
 30
0.0
 11
99.3546954814
 21
28.7245503263
 31
0.0
  0
LWPOLYLINE
  5
154F
330
22B
100
AcDbEntity
  8
6_SURFACES_PATINS_SPECS
  6
Continuous
 62
     7
100
AcDbPolyline
 90
       11
 70
     0
 43
0.0
 10
108.5514632415
 20
29.060937922
 10
108.2674363677
 20
29.0611837307
 10
107.9908860036
 20
29.0607464391
 10
107.7295045948
 20
29.0596866044
 10
107.4879695919
 20
29.058060625
 10
107.2734643538
 20
29.0559444444
 10
107.0907582829
 20
29.0533885891
 10
106.9436397953
 20
29.0504360948
 10
106.8366314477
 20
29.0471403229
 10
106.7716847929
 20
29.0435076625
 10
106.7508039107
 20
29.0395742607
  0
LWPOLYLINE
  5
1550
330
22B
100
AcDbEntity
  8
0
  6
Continuous
 62
     7
100
AcDbPolyline
 90
        4
 70
     0
 43
0.0
 10
106.3698490055
 20
29.1938617638
 10
108.9527826889
 20
29.18847446
 10
111.7377383632
 20
29.1848746033
 10
114.8006745761
 20
29.1835190688
  0
LINE
  5
1551
330
22B
100
AcDbEntity
  8
6_SURFACES_PATINS_SPECS
  6
Continuous
 62
     7
100
AcDbLine
 10
114.8006745761
 20
28.7377127789
 30
0.0
 11
114.8304367986
 21
28.7361737078
 31
0.0
  0
LINE
  5
1552
330
22B
100
AcDbEntity
  8
6_SURFACES_PATINS_SPECS
  6
Continuous
 62
     7
100
AcDbLine
 10
122.6228019775
 20
28.469913295
 30
0.0
 11
122.6198793316
 21
28.4700704252
 31
0.0
  0
LWPOLYLINE
  5
1553
330
22B
100
AcDbEntity
  8
0
  6
Continuous
 62
     7
100
AcDbPolyline
 90
       11
 70
     0
 43
0.0
 10
106.3698488563
 20
29.1938616467
 10
106.0883789327
 20
29.2150467409
 10
105.8141162354
 20
29.2726253888
 10
105.5511873186
 20
29.3649309971
 10
105.3046976457
 20
29.4892483353
 10
105.079203411
 20
29.6418640094
 10
104.8779724117
 20
29.8186712804
 10
104.7031715845
 20
30.015532009
 10
104.5561374305
 20
30.2284570354
 10
104.4375497763
 20
30.4537829999
 10
104.3476585558
 20
30.6881950954
  0
LWPOLYLINE
  5
1554
330
22B
100
AcDbEntity
  8
6_SURFACES_PATINS_SPECS
  6
Continuous
 62
     7
100
AcDbPolyline
 90
        5
 70
     0
 43
0.0
 10
113.7471057587
 20
29.0059874721
 10
113.8386843914
 20
28.9945553518
 10
113.9246967331
 20
28.961107435
 10
113.999933165
 20
28.9076696043
 10
114.0598367462
 20
28.8374784968
  0
LINE
  5
1555
330
22B
100
AcDbEntity
  8
6_SURFACES_PATINS_SPECS
  6
Continuous
 62
     7
100
AcDbLine
 10
114.8304367986
 20
28.7361737078
 30
0.0
 11
114.8547262994
 21
28.7325250389
 31
0.0
  0
LWPOLYLINE
  5
1556
330
22B
100
AcDbEntity
  8
6_SURFACES_PATINS_SPECS
  6
Continuous
 62
     7
100
AcDbPolyline
 90
       10
 70
     0
 43
0.0
 10
115.8542433935
 20
29.005987389
 10
115.8384803183
 20
29.0097459597
 10
115.7910172104
 20
29.0133964193
 10
115.7134701746
 20
29.0167983663
 10
115.6081740439
 20
29.0198607198
 10
115.4782558656
 20
29.0224980453
 10
115.3277347459
 20
29.0246329281
 10
115.1611394185
 20
29.0262042393
 10
114.9836291188
 20
29.0271653613
 10
114.8006745761
 20
29.0274886291
  0
LINE
  5
1557
330
22B
100
AcDbEntity
  8
6_SURFACES_PATINS_SPECS
  6
Continuous
 62
     7
100
AcDbLine
 10
114.4482308871
 20
27.8541903223
 30
0.0
 11
114.3027158853
 21
27.9307425157
 31
0.0
  0
LINE
  5
1558
330
22B
100
AcDbEntity
  8
6_SURFACES_PATINS_SPECS
  6
Continuous
 62
     7
100
AcDbLine
 10
113.9357402701
 20
28.2784933122
 30
0.0
 11
114.0094749165
 21
28.2271414614
 31
0.0
  0
LINE
  5
1559
330
22B
100
AcDbEntity
  8
6_SURFACES_PATINS_SPECS
  6
Continuous
 62
     7
100
AcDbLine
 10
114.3027158853
 20
27.9307425157
 30
0.0
 11
114.1746659495
 21
28.0338741389
 31
0.0
  0
LINE
  5
155A
330
22B
100
AcDbEntity
  8
0
  6
Continuous
 62
     7
100
AcDbLine
 10
113.2640629237
 20
27.9484852833
 30
0.0
 11
112.893268555
 21
28.3192796521
 31
0.0
  0
LINE
  5
155B
330
22B
100
AcDbEntity
  8
0
  6
Continuous
 62
     7
100
AcDbLine
 10
107.4200843496
 20
26.762107497
 30
0.0
 11
107.5233144423
 21
27.4528361759
 31
0.0
  0
LWPOLYLINE
  5
155C
330
22B
100
AcDbEntity
  8
0
  6
Continuous
 62
     7
100
AcDbPolyline
 90
        9
 70
     0
 43
0.0
 10
116.7080768936
 20
28.3192759512
 10
116.7037252998
 20
28.3228546291
 10
116.6628168059
 20
28.3281566508
 10
116.5805378412
 20
28.3324827852
 10
116.4584477833
 20
28.3359845672
 10
116.2993076881
 20
28.3387082001
 10
116.1065875849
 20
28.3407268421
 10
115.8843935401
 20
28.34214733219999
 10
115.8390363403
 20
28.3423209811
  0
LINE
  5
155D
330
22B
100
AcDbEntity
  8
6_SURFACES_PATINS_SPECS
  6
Continuous
 62
     7
100
AcDbLine
 10
114.0094749165
 20
28.2271414614
 30
0.0
 11
114.0688730105
 21
28.159725928
 31
0.0
  0
LWPOLYLINE
  5
155E
330
22B
100
AcDbEntity
  8
0
  6
Continuous
 62
     7
100
AcDbPolyline
 90
        5
 70
     0
 43
0.0
 10
98.28166820680001
 20
46.31945447979999
 10
98.28087096370001
 20
46.3203713474
 10
98.28010423750001
 20
46.32306730229999
 10
98.2792450958
 20
46.32806250859999
 10
98.27814341879999
 20
46.3368012958
  0
LINE
  5
155F
330
22B
100
AcDbEntity
  8
6_SURFACES_PATINS_SPECS
  6
Continuous
 62
     7
100
AcDbLine
 10
114.1746659495
 20
28.0338741389
 30
0.0
 11
114.0688729108
 21
28.1597258595
 31
0.0
  0
LWPOLYLINE
  5
1560
330
22B
100
AcDbEntity
  8
6_SURFACES_PATINS_SPECS
  6
Continuous
 62
     7
100
AcDbPolyline
 90
       13
 70
     0
 43
0.0
 10
114.0689474746
 20
28.1595154582
 10
114.161605368
 20
28.0468178042
 10
114.2505676676
 20
27.96773447690001
 10
114.3429072318
 20
27.9057546117
 10
114.437164763
 20
27.8586237058
 10
114.4970972307
 20
27.8357960135
 10
114.5548128293
 20
27.8185239459
 10
114.6177728023
 20
27.804611991
 10
114.6482344533
 20
27.7996490945
 10
114.6840350871
 20
27.7952470146
 10
114.712993305
 20
27.7927922179
 10
114.7360362505
 20
27.7915192698
 10
114.7542129195
 20
27.7909022068
  0
LINE
  5
1562
330
22B
100
AcDbEntity
  8
0
  6
Continuous
 62
     7
100
AcDbLine
 10
98.13731878959998
 20
45.5924860076
 30
0.0
 11
98.17684668280001
 21
45.559318167
 31
0.0
  0
LINE
  5
1563
330
22B
100
AcDbEntity
  8
0
  6
Continuous
 62
     7
100
AcDbLine
 10
98.6213266546
 20
46.1693041196
 30
0.0
 11
98.66085454790002
 21
46.136136279
 31
0.0
  0
LINE
  5
1564
330
22B
100
AcDbEntity
  8
6_SURFACES_PATINS_SPECS
  6
Continuous
 62
     7
100
AcDbLine
 10
114.0688729108
 20
28.1597258595
 30
0.0
 11
114.0689472733
 21
28.1595157512
 31
0.0
  0
LWPOLYLINE
  5
1565
330
22B
100
AcDbEntity
  8
6_SURFACES_PATINS_SPECS
  6
Continuous
 62
     7
100
AcDbPolyline
 90
        4
 70
     0
 43
0.0
 10
113.7471057587
 20
29.0059874721
 10
113.7523085199
 20
28.776144124
 10
113.7575325646
 20
28.5482541761
 10
113.7627774855
 20
28.3223028229
  0
LINE
  5
1566
330
22B
100
AcDbEntity
  8
6_SURFACES_PATINS_SPECS
  6
Continuous
 62
     7
100
AcDbLine
 10
110.1108097589
 20
28.3341540576
 30
0.0
 11
110.1233097084
 21
28.37064034
 31
0.0
  0
LINE
  5
1567
330
22B
100
AcDbEntity
  8
6_SURFACES_PATINS_SPECS
  6
Continuous
 62
     7
100
AcDbLine
 10
110.1233097084
 20
28.37064034
 30
0.0
 11
110.1411890881
 21
28.4227963205
 31
0.0
  0
LINE
  5
1568
330
22B
100
AcDbEntity
  8
6_SURFACES_PATINS_SPECS
  6
Continuous
 62
     7
100
AcDbLine
 10
110.1411890881
 20
28.4227963205
 30
0.0
 11
110.1659512621
 21
28.4949686339
 31
0.0
  0
LINE
  5
1569
330
22B
100
AcDbEntity
  8
6_SURFACES_PATINS_SPECS
  6
Continuous
 62
     7
100
AcDbLine
 10
110.1659512621
 20
28.4949686339
 30
0.0
 11
110.1997108809
 21
28.5932512921
 31
0.0
  0
LWPOLYLINE
  5
156A
330
22B
100
AcDbEntity
  8
6_SURFACES_PATINS_SPECS
  6
Continuous
 62
     7
100
AcDbPolyline
 90
        5
 70
     0
 43
0.0
 10
110.1997108809
 20
28.5932512921
 10
110.2456411193
 20
28.726757847
 10
110.2745551219
 20
28.8106818193
 10
110.3083952803
 20
28.9087870904
 10
110.3480718804
 20
29.0236541449
  0
LINE
  5
156B
330
22B
100
AcDbEntity
  8
6_SURFACES_PATINS_SPECS
  6
Continuous
 62
     7
100
AcDbLine
 10
109.9945066564
 20
28.7769797393
 30
0.0
 11
109.4316364081
 21
27.2305064419
 31
0.0
  0
LWPOLYLINE
  5
156C
330
22B
100
AcDbEntity
  8
6_SURFACES_PATINS_SPECS
  6
Continuous
 62
     7
100
AcDbPolyline
 90
        4
 70
     0
 43
0.0
 10
110.0984698009
 20
28.298983074
 10
110.1006376806
 20
28.3045467917
 10
110.1056856834
 20
28.3191942517
 10
110.1108097589
 20
28.3341540576
  0
LWPOLYLINE
  5
156D
330
22B
100
AcDbEntity
  8
6_SURFACES_PATINS_SPECS
  6
Continuous
 62
     7
100
AcDbPolyline
 90
        8
 70
     0
 43
0.0
 10
109.7309780685
 20
28.0529418545
 10
109.7484089227
 20
28.0931907573
 10
109.7968077782
 20
28.1663528414
 10
109.8609796606
 20
28.2263429855
 10
109.8978928554
 20
28.2502973521
 10
109.9788171614
 20
28.284466719
 10
110.0654681508
 20
28.2988728103
 10
110.0984697512
 20
28.298983076
  0
LINE
  5
1571
330
22B
100
AcDbEntity
  8
0
  6
Continuous
 62
     7
100
AcDbLine
 10
114.1431745761
 20
27.8386503263
 30
0.0
 11
114.1431745761
 21
27.7461503263
 31
0.0
  0
LINE
  5
1572
330
22B
100
AcDbEntity
  8
DEFAULT_1
  6
CENTER
 62
     7
100
AcDbLine
 10
114.8006745761
 20
51.5499429765
 30
0.0
 11
114.8006745761
 21
30.686768202
 31
0.0
  0
LINE
  5
1573
330
22B
100
AcDbEntity
  8
DEFAULT_1
  6
CENTER
 62
     7
100
AcDbLine
 10
114.8006745761
 20
29.027488629
 30
0.0
 11
114.8006745761
 21
22.3969836596
 31
0.0
  0
LINE
  5
1574
330
22B
100
AcDbEntity
  8
6_SURFACES_PATINS_SPECS
  6
Continuous
 62
     7
100
AcDbLine
 10
114.8006745761
 20
29.027488629
 30
0.0
 11
114.8006745761
 21
28.8525907867
 31
0.0
  0
LINE
  5
1575
330
22B
100
AcDbEntity
  8
0
  6
Continuous
 62
     7
100
AcDbLine
 10
114.8006745761
 20
29.027488629
 30
0.0
 11
114.8006745761
 21
30.686768202
 31
0.0
  0
LWPOLYLINE
  5
157B
330
22B
100
AcDbEntity
  8
6_SURFACES_PATINS_SPECS
  6
Continuous
 62
     7
100
AcDbPolyline
 90
        6
 70
     0
 43
0.0
 10
119.6068424932
 20
28.7769798498
 10
119.5652182771
 20
28.8586022533
 10
119.5050355089
 20
28.9276906698
 10
119.4298882906
 20
28.9801191537
 10
119.344264398
 20
29.0127566872
 10
119.2532772717
 20
29.0236541638
  0
LINE
  5
157C
330
22B
100
AcDbEntity
  8
0
  6
Continuous
 62
     7
100
AcDbLine
 10
115.4581745761
 20
27.7461503263
 30
0.0
 11
115.4581745761
 21
27.8386503263
 31
0.0
  0
LWPOLYLINE
  5
157D
330
22B
100
AcDbEntity
  8
6_SURFACES_PATINS_SPECS
  6
Continuous
 62
     7
100
AcDbPolyline
 90
        4
 70
     0
 43
0.0
 10
115.8385716667
 20
28.3223028226
 10
115.8438167955
 20
28.5482632059
 10
115.8490408083
 20
28.7761518504
 10
115.8542433935
 20
29.0059874722
  0
LWPOLYLINE
  5
1580
330
22B
100
AcDbEntity
  8
6_SURFACES_PATINS_SPECS
  6
Continuous
 62
     7
100
AcDbPolyline
 90
        6
 70
     0
 43
0.0
 10
119.5028792551
 20
28.2989836011
 10
119.5007556923
 20
28.3044219086
 10
119.4957422174
 20
28.3189642247
 10
119.4906456969
 20
28.3338436325
 10
119.4849803026
 20
28.3503834338
 10
119.4700814511
 20
28.3938593123
  0
LINE
  5
1581
330
22B
100
AcDbEntity
  8
6_SURFACES_PATINS_SPECS
  6
Continuous
 62
     7
100
AcDbLine
 10
119.6068424929
 20
28.7769797472
 30
0.0
 11
120.1697127441
 21
27.2305064419
 31
0.0
  0
LWPOLYLINE
  5
1582
330
22B
100
AcDbEntity
  8
6_SURFACES_PATINS_SPECS
  6
Continuous
 62
     7
100
AcDbPolyline
 90
        4
 70
     0
 43
0.0
 10
119.355994728
 20
28.7259252383
 10
119.3270236834
 20
28.8100156075
 10
119.2930915983
 20
28.9083880643
 10
119.2532772718
 20
29.0236541449
  0
LINE
  5
1583
330
22B
100
AcDbEntity
  8
6_SURFACES_PATINS_SPECS
  6
Continuous
 62
     7
100
AcDbLine
 10
119.4019663538
 20
28.5922967888
 30
0.0
 11
119.355994728
 21
28.7259252383
 31
0.0
  0
LINE
  5
1584
330
22B
100
AcDbEntity
  8
6_SURFACES_PATINS_SPECS
  6
Continuous
 62
     7
100
AcDbLine
 10
119.449039483
 20
28.455217381
 30
0.0
 11
119.4019663538
 21
28.5922967888
 31
0.0
  0
LINE
  5
1585
330
22B
100
AcDbEntity
  8
6_SURFACES_PATINS_SPECS
  6
Continuous
 62
     7
100
AcDbLine
 10
119.4700814511
 20
28.3938593123
 30
0.0
 11
119.449039483
 21
28.455217381
 31
0.0
  0
LINE
  5
1587
330
22B
100
AcDbEntity
  8
6_SURFACES_PATINS_SPECS
  6
Continuous
 62
     7
100
AcDbLine
 10
115.5324018155
 20
28.159515659
 30
0.0
 11
115.5324762414
 21
28.1597258595
 31
0.0
  0
LWPOLYLINE
  5
158B
330
22B
100
AcDbEntity
  8
6_SURFACES_PATINS_SPECS
  6
Continuous
 62
     7
100
AcDbPolyline
 90
       10
 70
     0
 43
0.0
 10
115.5324015572
 20
28.1595156691
 10
115.5621024906
 20
28.197279401
 10
115.6006803019
 20
28.2345556753
 10
115.6405335219
 20
28.2636245151
 10
115.679814261
 20
28.285261893
 10
115.7153777188
 20
28.2999021625
 10
115.7436992417
 20
28.3085523096
 10
115.7647162419
 20
28.3132992183
 10
115.7766387215
 20
28.3153023454
 10
115.7798788887
 20
28.3157288894
  0
LINE
  5
158C
330
22B
100
AcDbEntity
  8
6_SURFACES_PATINS_SPECS
  6
Continuous
 62
     7
100
AcDbLine
 10
115.4266831914
 20
28.0338741279
 30
0.0
 11
115.5324762414
 21
28.1597258595
 31
0.0
  0
LINE
  5
158D
330
22B
100
AcDbEntity
  8
6_SURFACES_PATINS_SPECS
  6
Continuous
 62
     7
100
AcDbLine
 10
115.5918743072
 20
28.2271414126
 30
0.0
 11
115.5324762414
 21
28.1597258595
 31
0.0
  0
LINE
  5
1591
330
22B
100
AcDbEntity
  8
0
  6
Continuous
 62
     7
100
AcDbLine
 10
116.3372862284
 20
27.9484852833
 30
0.0
 11
116.7080799419
 21
28.3192789968
 31
0.0
  0
LWPOLYLINE
  5
1592
330
22B
100
AcDbEntity
  8
0
  6
Continuous
 62
     7
100
AcDbPolyline
 90
        7
 70
     0
 43
0.0
 10
116.7080719796
 20
28.3192711028
 10
116.7116266069
 20
28.3226857377
 10
116.7314404186
 20
28.3375418998
 10
116.7471194306
 20
28.345426415
 10
116.7572581612
 20
28.3490046497
 10
116.7623689783
 20
28.350335537
 10
116.7637751582
 20
28.3506248329
  0
LINE
  5
1593
330
22B
100
AcDbEntity
  8
6_SURFACES_PATINS_SPECS
  6
Continuous
 62
     7
100
AcDbLine
 10
115.298633257
 20
27.9307425092
 30
0.0
 11
115.4266831914
 21
28.0338741279
 31
0.0
  0
LINE
  5
1594
330
22B
100
AcDbEntity
  8
6_SURFACES_PATINS_SPECS
  6
Continuous
 62
     7
100
AcDbLine
 10
115.6656089245
 20
28.278493296
 30
0.0
 11
115.5918743072
 21
28.2271414126
 31
0.0
  0
LINE
  5
1595
330
22B
100
AcDbEntity
  8
0
  6
Continuous
 62
     7
100
AcDbLine
 10
127.1705773423
 20
46.1800211095
 30
0.0
 11
128.1490152602
 21
46.2954847377
 31
0.0
  0
LWPOLYLINE
  5
1596
330
22B
100
AcDbEntity
  8
0
  6
Continuous
 62
     7
100
AcDbPolyline
 90
       10
 70
     0
 43
0.0
 10
129.4274000293
 20
46.3195622534
 10
129.4637264852
 20
46.32339994359999
 10
129.5344003667
 20
46.34154478489999
 10
129.600217251
 20
46.37302154819999
 10
129.6586848809
 20
46.41663833209999
 10
129.6844576103
 20
46.4424994611
 10
129.7278604096
 20
46.5011025232
 10
129.7590805393
 20
46.5669956342
 10
129.7769357431
 20
46.63768329759999
 10
129.7806196594
 20
46.67399292169999
  0
LINE
  5
1597
330
22B
100
AcDbEntity
  8
0
  6
Continuous
 62
     7
100
AcDbLine
 10
128.2376759829
 20
46.182782031
 30
0.0
 11
129.4398381873
 21
46.2954847377
 31
0.0
  0
LWPOLYLINE
  5
1598
330
22B
100
AcDbEntity
  8
0
  6
Continuous
 62
     7
100
AcDbPolyline
 90
        8
 70
     0
 43
0.0
 10
128.2376759829
 20
46.182782031
 10
128.1674240524
 20
46.1788379963
 10
128.0636298361
 20
46.17640114199999
 10
127.9296272456
 20
46.1750857061
 10
127.7695727564
 20
46.174724843
 10
127.5879174111
 20
46.1752931639
 10
127.388486417
 20
46.17691418399999
 10
127.1705773423
 20
46.1800211095
  0
LINE
  5
1599
330
22B
100
AcDbEntity
  8
0
  6
Continuous
 62
     7
100
AcDbLine
 10
98.1647745761
 20
45.5261503263
 30
0.0
 11
98.86317457610001
 21
45.5261503263
 31
0.0
  0
LINE
  5
159A
330
22B
100
AcDbEntity
  8
0
  6
Continuous
 62
     7
100
AcDbLine
 10
98.11317457610002
 20
45.5261503263
 30
0.0
 11
98.1647745761
 21
45.5261503263
 31
0.0
  0
LINE
  5
159B
330
22B
100
AcDbEntity
  8
0
  6
Continuous
 62
     7
100
AcDbLine
 10
101.3270426248
 20
46.1696819675
 30
0.0
 11
98.28166822740001
 21
46.3194544788
 31
0.0
  0
LINE
  5
159C
330
22B
100
AcDbEntity
  8
0
  6
Continuous
 62
     7
100
AcDbLine
 10
102.2472016344
 20
46.17504671739999
 30
0.0
 11
100.0623765589
 21
46.2954847377
 31
0.0
  0
LINE
  5
159F
330
22B
100
AcDbEntity
  8
6_SURFACES_PATINS_SPECS
  6
Continuous
 62
     7
100
AcDbLine
 10
115.1531182578
 20
27.8541903193
 30
0.0
 11
115.298633257
 21
27.9307425092
 31
0.0
  0
LINE
  5
15A0
330
22B
100
AcDbEntity
  8
6_SURFACES_PATINS_SPECS
  6
Continuous
 62
     7
100
AcDbLine
 10
114.9955836225
 20
27.8070822766
 30
0.0
 11
115.1531182578
 21
27.8541903193
 31
0.0
  0
LINE
  5
15A1
330
22B
100
AcDbEntity
  8
0
  6
Continuous
 62
     7
100
AcDbLine
 10
98.24217385370001
 20
46.3182706299
 30
0.0
 11
98.27319703229999
 21
46.3195564456
 31
0.0
  0
LWPOLYLINE
  5
15A2
330
22B
100
AcDbEntity
  8
0
  6
Continuous
 62
     7
100
AcDbPolyline
 90
        7
 70
     0
 43
0.0
 10
129.1601434931
 20
46.3195473017
 10
128.936568356
 20
46.31084431549999
 10
128.7639683855
 20
46.30520566829999
 10
128.6174784323
 20
46.3012748546
 10
128.4735993957
 20
46.29827961020001
 10
128.3272729531
 20
46.29624824239999
 10
128.1490152602
 20
46.2954847377
  0
LWPOLYLINE
  5
15A3
330
22B
100
AcDbEntity
  8
0
  6
Continuous
 62
     7
100
AcDbPolyline
 90
        9
 70
     0
 43
0.0
 10
102.24720172
 20
46.1750467127
 10
102.1031421454
 20
46.1717439672
 10
101.9488760423
 20
46.1694417938
 10
101.8006286375
 20
46.1680342264
 10
101.6657223686
 20
46.16730941350001
 10
101.5481093934
 20
46.1671302428
 10
101.4510618194
 20
46.167443296
 10
101.3762243837
 20
46.1682684605
 10
101.3270426248
 20
46.1696819675
  0
LWPOLYLINE
  5
15A4
330
22B
100
AcDbEntity
  8
0
  6
Continuous
 62
     7
100
AcDbPolyline
 90
        3
 70
     0
 43
0.0
 10
102.7272866535
 20
46.18296518810001
 10
102.482776216
 20
46.1809744318
 10
102.2472016344
 20
46.17504671739999
  0
LINE
  5
15A5
330
22B
100
AcDbEntity
  8
0
  6
Continuous
 62
     7
100
AcDbLine
 10
98.70873232560001
 20
46.1584620533
 30
0.0
 11
99.2805266218
 21
46.1584620533
 31
0.0
  0
LINE
  5
15A6
330
22B
100
AcDbEntity
  8
0
  6
Continuous
 62
     7
100
AcDbLine
 10
126.8740624987
 20
46.18296518810001
 30
0.0
 11
102.7272866535
 21
46.18296518810001
 31
0.0
  0
LINE
  5
15A7
330
22B
100
AcDbEntity
  8
0
  6
Continuous
 62
     7
100
AcDbLine
 10
98.70873232560001
 20
46.2100620533
 30
0.0
 11
99.2805266218
 21
46.2100620533
 31
0.0
  0
LINE
  5
15A8
330
22B
100
AcDbEntity
  8
0
  6
Continuous
 62
     7
100
AcDbLine
 10
128.1490152602
 20
46.2954847377
 30
0.0
 11
100.0623765589
 21
46.2954847377
 31
0.0
  0
LWPOLYLINE
  5
15A9
330
22B
100
AcDbEntity
  8
0
  6
Continuous
 62
     7
100
AcDbPolyline
 90
       10
 70
     0
 43
0.0
 10
100.0623765589
 20
46.2954847377
 10
99.9388922189
 20
46.29556895189999
 10
99.78299067450002
 20
46.2969612212
 10
99.61944134180001
 20
46.29941214529999
 10
99.45158445469999
 20
46.3026634189
 10
99.26603016059999
 20
46.30691132489999
 10
99.06300649469999
 20
46.312176211
 10
98.84364806389999
 20
46.31845103689999
 10
98.5943851432
 20
46.3261934072
 10
98.27814341879999
 20
46.3368012958
  0
LWPOLYLINE
  5
15AA
330
22B
100
AcDbEntity
  8
0
  6
Continuous
 62
     7
100
AcDbPolyline
 90
        4
 70
     0
 43
0.0
 10
127.1705773423
 20
46.1800211095
 10
127.072591529
 20
46.1816585578
 10
126.9737269739
 20
46.1826384413
 10
126.8740624987
 20
46.18296518810001
  0
LINE
  5
15AB
330
22B
100
AcDbEntity
  8
6_SURFACES_PATINS_SPECS
  6
Continuous
 62
     7
100
AcDbLine
 10
121.9316364081
 20
27.2305064419
 30
0.0
 11
122.5002922777
 21
28.792875603
 31
0.0
  0
LWPOLYLINE
  5
15AC
330
22B
100
AcDbEntity
  8
6_SURFACES_PATINS_SPECS
  6
Continuous
 62
     7
100
AcDbPolyline
 90
        3
 70
     0
 43
0.0
 10
122.6271015904
 20
28.4879304343
 10
122.6199852547
 20
28.4694582807
 10
122.6196787594
 20
28.4663397513
  0
LINE
  5
15AD
330
22B
100
AcDbEntity
  8
6_SURFACES_PATINS_SPECS
  6
Continuous
 62
     7
100
AcDbLine
 10
122.6569336356
 20
28.5619154581
 30
0.0
 11
122.6271015904
 21
28.4879304343
 31
0.0
  0
LINE
  5
15AE
330
22B
100
AcDbEntity
  8
6_SURFACES_PATINS_SPECS
  6
Continuous
 62
     7
100
AcDbLine
 10
122.6863480875
 20
28.6347620979
 30
0.0
 11
122.6569336356
 21
28.5619154581
 31
0.0
  0
LWPOLYLINE
  5
15AF
330
22B
100
AcDbEntity
  8
6_SURFACES_PATINS_SPECS
  6
Continuous
 62
     7
100
AcDbPolyline
 90
        6
 70
     0
 43
0.0
 10
122.8505452415
 20
29.0395742445
 10
122.8121648616
 20
28.9452265679
 10
122.7790787026
 20
28.8637593556
 10
122.7505428151
 20
28.7933957662
 10
122.7259246483
 20
28.7326173012
 10
122.6863480875
 20
28.6347620979
  0
LWPOLYLINE
  5
15B0
330
22B
100
AcDbEntity
  8
6_SURFACES_PATINS_SPECS
  6
Continuous
 62
     7
100
AcDbPolyline
 90
        8
 70
     0
 43
0.0
 10
122.2919309569
 20
28.2204074289
 10
122.306935372
 20
28.2558554832
 10
122.3491381086
 20
28.3234402018
 10
122.4058380807
 20
28.3815517778
 10
122.4385978539
 20
28.4056864883
 10
122.5108134729
 20
28.4425813232
 10
122.5892644645
 20
28.4630870737
 10
122.6196786675
 20
28.4663397453
  0
LWPOLYLINE
  5
15B2
330
22B
100
AcDbEntity
  8
0
  6
Continuous
 62
     7
100
AcDbPolyline
 90
        8
 70
     0
 43
0.0
 10
98.278139016
 20
46.33680128
 10
98.21678172940002
 20
46.3313511814
 10
98.15862027700001
 20
46.31107073129999
 10
98.10718571009999
 20
46.2771911712
 10
98.084988199
 20
46.2557653437
 10
98.04931856350002
 20
46.2055688171
 10
98.0270116762
 20
46.1481783114
 10
98.01942185000001
 20
46.0871741006
  0
LWPOLYLINE
  5
15B3
330
22B
100
AcDbEntity
  8
0
  6
Continuous
 62
     7
100
AcDbPolyline
 90
        3
 70
     0
 43
0.0
 10
98.23397928110001
 20
46.3172360118
 10
98.2631216066
 20
46.31967772189999
 10
98.28166821629999
 20
46.31945447939999
  0
LINE
  5
15B4
330
22B
100
AcDbEntity
  8
0
  6
Continuous
 62
     7
100
AcDbLine
 10
129.8220038961
 20
47.46365032629999
 30
0.0
 11
97.93918931930001
 21
47.46365032629999
 31
0.0
  0
LINE
  5
15B5
330
22B
100
AcDbEntity
  8
0
  6
Continuous
 62
     7
100
AcDbLine
 10
127.951330404
 20
45.8790330031
 30
0.0
 11
125.2272262736
 21
30.4298707739
 31
0.0
  0
LWPOLYLINE
  5
15B6
330
22B
100
AcDbEntity
  8
0
  6
Continuous
 62
     7
100
AcDbPolyline
 90
        4
 70
     0
 43
0.0
 10
125.3212645919
 20
30.9631885988
 10
125.3028026724
 20
30.8705333758
 10
125.2802684963
 20
30.778831921
 10
125.2536905956
 20
30.6881950926
  0
LWPOLYLINE
  5
15B7
330
22B
100
AcDbEntity
  8
0
  6
Continuous
 62
     7
100
AcDbPolyline
 90
        8
 70
     0
 43
0.0
 10
125.2272262738
 20
30.4298707749
 10
125.1639945506
 20
30.168963592
 10
125.0696921114
 20
29.9210213111
 10
124.9450362842
 20
29.6864108824
 10
124.7919026847
 20
29.4689169865
 10
124.6126069461
 20
29.2720112513
 10
124.5139920896
 20
29.1822832544
 10
124.3007351814
 20
29.0220927986
  0
LWPOLYLINE
  5
15B8
330
22B
100
AcDbEntity
  8
6_SURFACES_PATINS_SPECS
  6
Continuous
 62
     7
100
AcDbPolyline
 90
        3
 70
     0
 43
0.0
 10
122.2931923299
 20
28.2238732725
 10
122.3321617646
 20
28.3015170784
 10
122.3450675778
 20
28.3169215327
  0
LWPOLYLINE
  5
15B9
330
22B
100
AcDbEntity
  8
6_SURFACES_PATINS_SPECS
  6
Continuous
 62
     7
100
AcDbPolyline
 90
        6
 70
     0
 43
0.0
 10
122.5002923022
 20
28.7928756706
 10
122.5415477263
 20
28.8739544085
 10
122.6011172272
 20
28.9427109356
 10
122.6754943514
 20
28.9950980205
 10
122.7603010211
 20
29.0280319901
 10
122.8505452415
 20
29.0395742445
  0
LINE
  5
15BA
330
22B
100
AcDbEntity
  8
6_SURFACES_PATINS_SPECS
  6
Continuous
 62
     7
100
AcDbLine
 10
122.6196787594
 20
28.4663397513
 30
0.0
 11
122.622801989
 21
28.4699131064
 31
0.0
  0
LWPOLYLINE
  5
15BB
330
22B
100
AcDbEntity
  8
0
  6
Continuous
 62
     7
100
AcDbPolyline
 90
        4
 70
     0
 43
0.0
 10
124.3007351814
 20
29.0220927986
 10
124.0689231435
 20
28.8897247289
 10
123.8224507849
 20
28.7874319624
 10
123.5601393785
 20
28.7157483117
  0
LINE
  5
15BC
330
22B
100
AcDbEntity
  8
0
  6
Continuous
 62
     7
100
AcDbLine
 10
98.20623725510001
 20
46.3116487731
 30
0.0
 11
98.23397928110001
 21
46.3172360118
 31
0.0
  0
LINE
  5
15BD
330
22B
100
AcDbEntity
  8
0
  6
Continuous
 62
     7
100
AcDbLine
 10
98.21011446280001
 20
46.312627927
 30
0.0
 11
98.24217385370001
 21
46.3182706299
 31
0.0
  0
LWPOLYLINE
  5
15BE
330
22B
100
AcDbEntity
  8
0
  6
Continuous
 62
     7
100
AcDbPolyline
 90
        7
 70
     0
 43
0.0
 10
129.4398381873
 20
46.2954847377
 10
129.4369181605
 20
46.2960055572
 10
129.4347587461
 20
46.2977553487
 10
129.4329418743
 20
46.3004752081
 10
129.4312641908
 20
46.3042442308
 10
129.4294515037
 20
46.3101417926
 10
129.4272648882
 20
46.31956226129999
  0
LWPOLYLINE
  5
15BF
330
22B
100
AcDbEntity
  8
0
  6
Continuous
 62
     7
100
AcDbPolyline
 90
       11
 70
     0
 43
0.0
 10
125.2536905926
 20
30.6881950834
 10
125.1637933583
 20
30.4537697018
 10
125.0451963467
 20
30.2284316146
 10
124.8981495958
 20
30.015496318
 10
124.7233331195999
 20
29.8186278426
 10
124.5220837861
 20
29.6418160809
 10
124.2965711713
 20
29.4892011046
 10
124.0501006581
 20
29.3649049385
 10
123.7872063158
 20
29.2726179558
 10
123.5129775922
 20
29.2150477914
 10
123.2315002963
 20
29.1938616301
  0
LWPOLYLINE
  5
15C0
330
22B
100
AcDbEntity
  8
0
  6
Continuous
 62
     7
100
AcDbPolyline
 90
        8
 70
     0
 43
0.0
 10
129.4272648882
 20
46.31956226129999
 10
129.4203302097
 20
46.3217451271
 10
129.4003447876
 20
46.3232108329
 10
129.3684625835
 20
46.3239502546
 10
129.3262831308
 20
46.32395320829999
 10
129.2759378868
 20
46.3232191624
 10
129.219832724
 20
46.3217545555
 10
129.1601434931
 20
46.3195473017
  0
LINE
  5
15C1
330
22B
100
AcDbEntity
  8
0
  6
Continuous
 62
     7
100
AcDbLine
 10
129.8220038986
 20
47.46365032629999
 30
0.0
 11
129.7793214971
 21
46.6492215888
 31
0.0
  0
ARC
  5
163A
330
22B
100
AcDbEntity
  8
DEFAULT_2
  6
HIDDEN
 62
     7
100
AcDbCircle
 10
128.3206333114
 20
45.81391493649999
 30
0.0
 40
0.5
100
AcDbArc
 50
95.35582504290001
 51
170.0
  0
ARC
  5
163B
330
22B
100
AcDbEntity
  8
DEFAULT_2
  6
HIDDEN
 62
     7
100
AcDbCircle
 10
101.2838121627
 20
45.7963548225
 30
0.0
 40
0.5
100
AcDbArc
 50
10.0
 51
87.1844433158
  0
ARC
  5
163C
330
22B
100
AcDbEntity
  8
DEFAULT_2
  6
HIDDEN
 62
     7
100
AcDbCircle
 10
127.5413839898
 20
45.71365028859999
 30
0.0
 40
0.2500000377
100
AcDbArc
 50
270.0000118094
 51
350.0
  0
ARC
  5
1642
330
22B
100
AcDbEntity
  8
DEFAULT_2
  6
HIDDEN
 62
     7
100
AcDbCircle
 10
127.3507679736
 20
43.3296913197
 30
0.0
 40
0.07
100
AcDbArc
 50
80.0
 51
170.0
  0
ARC
  5
1643
330
22B
100
AcDbEntity
  8
DEFAULT_2
  6
HIDDEN
 62
     7
100
AcDbCircle
 10
127.2231365631
 20
42.6058576213
 30
0.0
 40
0.07
100
AcDbArc
 50
170.0
 51
260.0
  0
ARC
  5
1649
330
22B
100
AcDbEntity
  8
0
  6
Continuous
 62
     7
100
AcDbCircle
 10
99.3546954814
 20
28.6104503263
 30
0.0
 40
0.1141
100
AcDbArc
 50
81.5
 51
90.0
  0
CIRCLE
  5
164A
330
22B
100
AcDbEntity
  8
0
  6
Continuous
 62
     7
100
AcDbCircle
 10
98.61317457610001
 20
27.3441003263
 30
0.0
 40
0.0703125
  0
CIRCLE
  5
164B
330
22B
100
AcDbEntity
  8
0
  6
Continuous
 62
     7
100
AcDbCircle
 10
98.61317457610001
 20
28.3441003263
 30
0.0
 40
0.0703125
  0
ARC
  5
164C
330
22B
100
AcDbEntity
  8
0
  6
Continuous
 62
     7
100
AcDbCircle
 10
99.3546954814
 20
28.6104503263
 30
0.0
 40
0.0625
100
AcDbArc
 50
81.5
 51
90.0
  0
ARC
  5
164D
330
22B
100
AcDbEntity
  8
6_SURFACES_PATINS_SPECS
  6
Continuous
 62
     7
100
AcDbCircle
 10
108.5506745761
 20
27.5511503263
 30
0.0
 40
0.9375
100
AcDbArc
 50
200.0
 51
340.0
  0
ARC
  5
164E
330
22B
100
AcDbEntity
  8
0
  6
Continuous
 62
     7
100
AcDbCircle
 10
113.5292279667
 20
28.2136503263
 30
0.0
 40
0.375
100
AcDbArc
 50
225.0
 51
270.0
  0
ARC
  5
164F
330
22B
100
AcDbEntity
  8
0
  6
Continuous
 62
     7
100
AcDbCircle
 10
106.4744363968
 20
30.7557881789
 30
0.0
 40
2.125
100
AcDbArc
 50
190.0
 51
266.0535987024
  0
ARC
  5
1650
330
22B
100
AcDbEntity
  8
0
  6
Continuous
 62
     7
100
AcDbCircle
 10
101.2838121627
 20
45.7963548225
 30
0.0
 40
0.375
100
AcDbArc
 50
10.0
 51
87.1844433158
  0
ARC
  5
1651
330
22B
100
AcDbEntity
  8
0
  6
Continuous
 62
     7
100
AcDbCircle
 10
98.2693879876
 20
46.06975626949999
 30
0.0
 40
0.25
100
AcDbArc
 50
87.1844433158
 51
176.3107908897
  0
ARC
  5
1652
330
22B
100
AcDbEntity
  8
0
  6
Continuous
 62
     7
100
AcDbCircle
 10
98.70873232560001
 20
46.09596205329999
 30
0.0
 40
0.1141
100
AcDbArc
 50
90.0
 51
140.0
  0
ARC
  5
1653
330
22B
100
AcDbEntity
  8
0
  6
Continuous
 62
     7
100
AcDbCircle
 10
98.21637457610002
 20
45.5261503263
 30
0.0
 40
0.1032
100
AcDbArc
 50
140.0
 51
180.0
  0
ARC
  5
1654
330
22B
100
AcDbEntity
  8
0
  6
Continuous
 62
     7
100
AcDbCircle
 10
98.70873232560001
 20
46.09596205329999
 30
0.0
 40
0.0625
100
AcDbArc
 50
90.0
 51
140.0
  0
ARC
  5
1655
330
22B
100
AcDbEntity
  8
0
  6
Continuous
 62
     7
100
AcDbCircle
 10
98.21637457610002
 20
45.5261503263
 30
0.0
 40
0.0516
100
AcDbArc
 50
140.0
 51
180.0
  0
ARC
  5
1656
330
22B
100
AcDbEntity
  8
0
  6
Continuous
 62
     7
100
AcDbCircle
 10
116.0721211855
 20
28.2136503263
 30
0.0
 40
0.375
100
AcDbArc
 50
270.0
 51
315.0
  0
ARC
  5
1657
330
22B
100
AcDbEntity
  8
6_SURFACES_PATINS_SPECS
  6
Continuous
 62
     7
100
AcDbCircle
 10
121.0506745761
 20
27.5511503263
 30
0.0
 40
0.9375
100
AcDbArc
 50
200.0
 51
340.0
  0
ARC
  5
1658
330
22B
100
AcDbEntity
  8
0
  6
Continuous
 62
     7
100
AcDbCircle
 10
129.4048354216
 20
46.6688475724
 30
0.0
 40
0.375
100
AcDbArc
 50
275.3558250429
 51
357.0
  0
ARC
  5
1659
330
22B
100
AcDbEntity
  8
0
  6
Continuous
 62
     7
100
AcDbCircle
 10
128.3206333114
 20
45.81391493649999
 30
0.0
 40
0.375
100
AcDbArc
 50
95.35582504290001
 51
170.0
  0
ELLIPSE
  5
1663
330
22B
100
AcDbEntity
  8
0
  6
Continuous
 62
     7
100
AcDbEllipse
 10
98.26942457610002
 20
44.0686885197
 30
0.0
 11
0.0
 21
-4.7768306523
 31
0.0
210
0.0
220
0.0
230
1.0
 40
0.0523359562
 41
-2.361309381699999
 42
-2.150823894
  0
ENDSEC
  0
SECTION
  2
OBJECTS
  0
DICTIONARY
  5
C
330
0
100
AcDbDictionary
281
     1
  3
ACAD_COLOR
350
1699
  3
ACAD_GROUP
350
D
  3
ACAD_LAYOUT
350
1A
  3
ACAD_MATERIAL
350
166C
  3
ACAD_MLEADERSTYLE
350
16BE
  3
ACAD_MLINESTYLE
350
17
  3
ACAD_PLOTSETTINGS
350
19
  3
ACAD_PLOTSTYLENAME
350
E
  3
ACAD_SCALELIST
350
169C
  3
ACAD_TABLESTYLE
350
169A
  3
ACAD_VISUALSTYLE
350
1685
  3
ACDB_RECOMPOSE_DATA
350
16C2
  3
AcDbVariableDictionary
350
16F4
  0
DICTIONARY
  5
16C3
330
8
100
AcDbDictionary
280
     1
281
     1
  0
DICTIONARY
  5
1703
330
10
100
AcDbDictionary
280
     1
281
     1
  3
ADSK_XREC_LAYER_RECONCILED
360
1704
  0
DICTIONARY
  5
1705
330
1FA
100
AcDbDictionary
280
     1
281
     1
  3
ADSK_XREC_LAYER_RECONCILED
360
1706
  0
DICTIONARY
  5
1707
330
1FB
100
AcDbDictionary
280
     1
281
     1
  3
ADSK_XREC_LAYER_RECONCILED
360
1708
  0
DICTIONARY
  5
1709
330
1FC
100
AcDbDictionary
280
     1
281
     1
  3
ADSK_XREC_LAYER_RECONCILED
360
170A
  0
DICTIONARY
  5
170B
330
1FD
100
AcDbDictionary
280
     1
281
     1
  3
ADSK_XREC_LAYER_RECONCILED
360
170C
  0
DICTIONARY
  5
170D
330
1FE
100
AcDbDictionary
280
     1
281
     1
  3
ADSK_XREC_LAYER_RECONCILED
360
170E
  0
DICTIONARY
  5
170F
330
1FF
100
AcDbDictionary
280
     1
281
     1
  3
ADSK_XREC_LAYER_RECONCILED
360
1710
  0
DICTIONARY
  5
1711
330
200
100
AcDbDictionary
280
     1
281
     1
  3
ADSK_XREC_LAYER_RECONCILED
360
1712
  0
DICTIONARY
  5
1713
330
201
100
AcDbDictionary
280
     1
281
     1
  3
ADSK_XREC_LAYER_RECONCILED
360
1714
  0
DICTIONARY
  5
1715
330
202
100
AcDbDictionary
280
     1
281
     1
  3
ADSK_XREC_LAYER_RECONCILED
360
1716
  0
DICTIONARY
  5
1717
330
203
100
AcDbDictionary
280
     1
281
     1
  3
ADSK_XREC_LAYER_RECONCILED
360
1718
  0
DICTIONARY
  5
1719
330
204
100
AcDbDictionary
280
     1
281
     1
  3
ADSK_XREC_LAYER_RECONCILED
360
171A
  0
DICTIONARY
  5
171B
330
205
100
AcDbDictionary
280
     1
281
     1
  3
ADSK_XREC_LAYER_RECONCILED
360
171C
  0
DICTIONARY
  5
171D
330
206
100
AcDbDictionary
280
     1
281
     1
  3
ADSK_XREC_LAYER_RECONCILED
360
171E
  0
DICTIONARY
  5
171F
330
207
100
AcDbDictionary
280
     1
281
     1
  3
ADSK_XREC_LAYER_RECONCILED
360
1720
  0
DICTIONARY
  5
1721
330
208
100
AcDbDictionary
280
     1
281
     1
  3
ADSK_XREC_LAYER_RECONCILED
360
1722
  0
DICTIONARY
  5
1723
330
209
100
AcDbDictionary
280
     1
281
     1
  3
ADSK_XREC_LAYER_RECONCILED
360
1724
  0
DICTIONARY
  5
1725
330
20A
100
AcDbDictionary
280
     1
281
     1
  3
ADSK_XREC_LAYER_RECONCILED
360
1726
  0
DICTIONARY
  5
1727
330
20B
100
AcDbDictionary
280
     1
281
     1
  3
ADSK_XREC_LAYER_RECONCILED
360
1728
  0
DICTIONARY
  5
1729
330
20C
100
AcDbDictionary
280
     1
281
     1
  3
ADSK_XREC_LAYER_RECONCILED
360
172A
  0
DICTIONARY
  5
172B
330
20D
100
AcDbDictionary
280
     1
281
     1
  3
ADSK_XREC_LAYER_RECONCILED
360
172C
  0
DICTIONARY
  5
172D
330
20E
100
AcDbDictionary
280
     1
281
     1
  3
ADSK_XREC_LAYER_RECONCILED
360
172E
  0
DICTIONARY
  5
172F
330
20F
100
AcDbDictionary
280
     1
281
     1
  3
ADSK_XREC_LAYER_RECONCILED
360
1730
  0
DICTIONARY
  5
1731
330
210
100
AcDbDictionary
280
     1
281
     1
  3
ADSK_XREC_LAYER_RECONCILED
360
1732
  0
DICTIONARY
  5
1733
330
211
100
AcDbDictionary
280
     1
281
     1
  3
ADSK_XREC_LAYER_RECONCILED
360
1734
  0
DICTIONARY
  5
1735
330
212
100
AcDbDictionary
280
     1
281
     1
  3
ADSK_XREC_LAYER_RECONCILED
360
1736
  0
DICTIONARY
  5
1737
330
213
100
AcDbDictionary
280
     1
281
     1
  3
ADSK_XREC_LAYER_RECONCILED
360
1738
  0
DICTIONARY
  5
1739
330
214
100
AcDbDictionary
280
     1
281
     1
  3
ADSK_XREC_LAYER_RECONCILED
360
173A
  0
DICTIONARY
  5
173B
330
215
100
AcDbDictionary
280
     1
281
     1
  3
ADSK_XREC_LAYER_RECONCILED
360
173C
  0
DICTIONARY
  5
173D
330
216
100
AcDbDictionary
280
     1
281
     1
  3
ADSK_XREC_LAYER_RECONCILED
360
173E
  0
DICTIONARY
  5
173F
330
217
100
AcDbDictionary
280
     1
281
     1
  3
ADSK_XREC_LAYER_RECONCILED
360
1740
  0
DICTIONARY
  5
1741
330
218
100
AcDbDictionary
280
     1
281
     1
  3
ADSK_XREC_LAYER_RECONCILED
360
1742
  0
DICTIONARY
  5
1743
330
219
100
AcDbDictionary
280
     1
281
     1
  3
ADSK_XREC_LAYER_RECONCILED
360
1744
  0
DICTIONARY
  5
1745
330
21A
100
AcDbDictionary
280
     1
281
     1
  3
ADSK_XREC_LAYER_RECONCILED
360
1746
  0
DICTIONARY
  5
1747
330
21B
100
AcDbDictionary
280
     1
281
     1
  3
ADSK_XREC_LAYER_RECONCILED
360
1748
  0
DICTIONARY
  5
1749
330
21C
100
AcDbDictionary
280
     1
281
     1
  3
ADSK_XREC_LAYER_RECONCILED
360
174A
  0
DICTIONARY
  5
174B
330
21D
100
AcDbDictionary
280
     1
281
     1
  3
ADSK_XREC_LAYER_RECONCILED
360
174C
  0
DICTIONARY
  5
174D
330
21E
100
AcDbDictionary
280
     1
281
     1
  3
ADSK_XREC_LAYER_RECONCILED
360
174E
  0
DICTIONARY
  5
174F
330
21F
100
AcDbDictionary
280
     1
281
     1
  3
ADSK_XREC_LAYER_RECONCILED
360
1750
  0
DICTIONARY
  5
1751
330
220
100
AcDbDictionary
280
     1
281
     1
  3
ADSK_XREC_LAYER_RECONCILED
360
1752
  0
DICTIONARY
  5
1753
330
221
100
AcDbDictionary
280
     1
281
     1
  3
ADSK_XREC_LAYER_RECONCILED
360
1754
  0
DICTIONARY
  5
1755
330
222
100
AcDbDictionary
280
     1
281
     1
  3
ADSK_XREC_LAYER_RECONCILED
360
1756
  0
DICTIONARY
  5
1699
102
{ACAD_REACTORS
330
C
102
}
330
C
100
AcDbDictionary
281
     1
  0
DICTIONARY
  5
D
102
{ACAD_REACTORS
330
C
102
}
330
C
100
AcDbDictionary
281
     1
  0
DICTIONARY
  5
1A
102
{ACAD_REACTORS
330
C
102
}
330
C
100
AcDbDictionary
281
     1
  3
Layout1
350
1669
  3
Model
350
1668
  0
DICTIONARY
  5
166C
102
{ACAD_REACTORS
330
C
102
}
330
C
100
AcDbDictionary
281
     1
  3
ByBlock
350
1675
  3
ByLayer
350
166D
  3
Global
350
167D
  0
DICTIONARY
  5
16BE
102
{ACAD_REACTORS
330
C
102
}
330
C
100
AcDbDictionary
281
     1
  3
Standard
350
16BF
  0
DICTIONARY
  5
17
102
{ACAD_REACTORS
330
C
102
}
330
C
100
AcDbDictionary
281
     1
  3
Standard
350
18
  0
DICTIONARY
  5
19
102
{ACAD_REACTORS
330
C
102
}
330
C
100
AcDbDictionary
281
     1
  0
ACDBDICTIONARYWDFLT
  5
E
102
{ACAD_REACTORS
330
C
102
}
330
C
100
AcDbDictionary
281
     1
  3
Normal
350
F
100
AcDbDictionaryWithDefault
340
F
  0
DICTIONARY
  5
169C
102
{ACAD_REACTORS
330
C
102
}
330
C
100
AcDbDictionary
281
     1
  3
A0
350
169D
  3
A1
350
169E
  3
A2
350
169F
  3
A3
350
16A0
  3
A4
350
16A1
  3
A5
350
16A2
  3
A6
350
16A3
  3
A7
350
16A4
  3
A8
350
16A5
  3
A9
350
16A6
  3
B0
350
16A7
  3
B1
350
16A8
  3
B2
350
16A9
  3
B3
350
16AA
  3
B4
350
16AB
  3
B5
350
16AC
  3
B6
350
16AD
  3
B7
350
16AE
  3
B8
350
16AF
  3
B9
350
16B0
  3
C0
350
16B1
  3
C1
350
16B2
  3
C2
350
16B3
  3
C3
350
16B4
  3
C4
350
16B5
  3
C5
350
16B6
  3
C6
350
16B7
  3
C7
350
16B8
  3
C8
350
16B9
  3
C9
350
16BA
  3
D0
350
16BB
  3
D1
350
16BC
  3
D2
350
16BD
  0
DICTIONARY
  5
169A
102
{ACAD_REACTORS
330
C
102
}
330
C
100
AcDbDictionary
281
     1
  3
Standard
350
169B
  0
DICTIONARY
  5
1685
102
{ACAD_REACTORS
330
C
102
}
330
C
100
AcDbDictionary
281
     1
  3
2dWireframe
350
168B
  3
3D Hidden
350
168D
  3
3dWireframe
350
168C
  3
Basic
350
168A
  3
Brighten
350
1691
  3
ColorChange
350
1695
  3
Conceptual
350
168E
  3
Dim
350
1690
  3
EdgeColorOff
350
1698
  3
Facepattern
350
1694
  3
Flat
350
1686
  3
FlatWithEdges
350
1687
  3
Gouraud
350
1688
  3
GouraudWithEdges
350
1689
  3
JitterOff
350
1696
  3
Linepattern
350
1693
  3
OverhangOff
350
1697
  3
Realistic
350
168F
  3
Thicken
350
1692
  0
XRECORD
  5
16C2
102
{ACAD_REACTORS
330
C
102
}
330
C
100
AcDbXrecord
280
     1
 90
        1
330
169B
  0
DICTIONARY
  5
16F4
102
{ACAD_REACTORS
330
C
102
}
330
C
100
AcDbDictionary
281
     1
  3
CANNOSCALE
350
16F7
  3
CMLEADERSTYLE
350
16F6
  3
CTABLESTYLE
350
16F5
  3
DIMASSOC
350
16FA
  3
INDEXCTL
350
16F9
  3
LAYEREVAL
350
175A
  3
LAYERNOTIFY
350
175B
  3
LIGHTINGUNITS
350
1759
  3
MSLTSCALE
350
1758
  3
SORTENTS
350
16F8
  3
XCLIPFRAME
350
16FB
  0
XRECORD
  5
1704
102
{ACAD_REACTORS
330
1703
102
}
330
1703
100
AcDbXrecord
280
     1
290
     1
  0
XRECORD
  5
1706
102
{ACAD_REACTORS
330
1705
102
}
330
1705
100
AcDbXrecord
280
     1
290
     1
  0
XRECORD
  5
1708
102
{ACAD_REACTORS
330
1707
102
}
330
1707
100
AcDbXrecord
280
     1
290
     1
  0
XRECORD
  5
170A
102
{ACAD_REACTORS
330
1709
102
}
330
1709
100
AcDbXrecord
280
     1
290
     1
  0
XRECORD
  5
170C
102
{ACAD_REACTORS
330
170B
102
}
330
170B
100
AcDbXrecord
280
     1
290
     1
  0
XRECORD
  5
170E
102
{ACAD_REACTORS
330
170D
102
}
330
170D
100
AcDbXrecord
280
     1
290
     1
  0
XRECORD
  5
1710
102
{ACAD_REACTORS
330
170F
102
}
330
170F
100
AcDbXrecord
280
     1
290
     1
  0
XRECORD
  5
1712
102
{ACAD_REACTORS
330
1711
102
}
330
1711
100
AcDbXrecord
280
     1
290
     1
  0
XRECORD
  5
1714
102
{ACAD_REACTORS
330
1713
102
}
330
1713
100
AcDbXrecord
280
     1
290
     1
  0
XRECORD
  5
1716
102
{ACAD_REACTORS
330
1715
102
}
330
1715
100
AcDbXrecord
280
     1
290
     1
  0
XRECORD
  5
1718
102
{ACAD_REACTORS
330
1717
102
}
330
1717
100
AcDbXrecord
280
     1
290
     1
  0
XRECORD
  5
171A
102
{ACAD_REACTORS
330
1719
102
}
330
1719
100
AcDbXrecord
280
     1
290
     1
  0
XRECORD
  5
171C
102
{ACAD_REACTORS
330
171B
102
}
330
171B
100
AcDbXrecord
280
     1
290
     1
  0
XRECORD
  5
171E
102
{ACAD_REACTORS
330
171D
102
}
330
171D
100
AcDbXrecord
280
     1
290
     1
  0
XRECORD
  5
1720
102
{ACAD_REACTORS
330
171F
102
}
330
171F
100
AcDbXrecord
280
     1
290
     1
  0
XRECORD
  5
1722
102
{ACAD_REACTORS
330
1721
102
}
330
1721
100
AcDbXrecord
280
     1
290
     1
  0
XRECORD
  5
1724
102
{ACAD_REACTORS
330
1723
102
}
330
1723
100
AcDbXrecord
280
     1
290
     1
  0
XRECORD
  5
1726
102
{ACAD_REACTORS
330
1725
102
}
330
1725
100
AcDbXrecord
280
     1
290
     1
  0
XRECORD
  5
1728
102
{ACAD_REACTORS
330
1727
102
}
330
1727
100
AcDbXrecord
280
     1
290
     1
  0
XRECORD
  5
172A
102
{ACAD_REACTORS
330
1729
102
}
330
1729
100
AcDbXrecord
280
     1
290
     1
  0
XRECORD
  5
172C
102
{ACAD_REACTORS
330
172B
102
}
330
172B
100
AcDbXrecord
280
     1
290
     1
  0
XRECORD
  5
172E
102
{ACAD_REACTORS
330
172D
102
}
330
172D
100
AcDbXrecord
280
     1
290
     1
  0
XRECORD
  5
1730
102
{ACAD_REACTORS
330
172F
102
}
330
172F
100
AcDbXrecord
280
     1
290
     1
  0
XRECORD
  5
1732
102
{ACAD_REACTORS
330
1731
102
}
330
1731
100
AcDbXrecord
280
     1
290
     1
  0
XRECORD
  5
1734
102
{ACAD_REACTORS
330
1733
102
}
330
1733
100
AcDbXrecord
280
     1
290
     1
  0
XRECORD
  5
1736
102
{ACAD_REACTORS
330
1735
102
}
330
1735
100
AcDbXrecord
280
     1
290
     1
  0
XRECORD
  5
1738
102
{ACAD_REACTORS
330
1737
102
}
330
1737
100
AcDbXrecord
280
     1
290
     1
  0
XRECORD
  5
173A
102
{ACAD_REACTORS
330
1739
102
}
330
1739
100
AcDbXrecord
280
     1
290
     1
  0
XRECORD
  5
173C
102
{ACAD_REACTORS
330
173B
102
}
330
173B
100
AcDbXrecord
280
     1
290
     1
  0
XRECORD
  5
173E
102
{ACAD_REACTORS
330
173D
102
}
330
173D
100
AcDbXrecord
280
     1
290
     1
  0
XRECORD
  5
1740
102
{ACAD_REACTORS
330
173F
102
}
330
173F
100
AcDbXrecord
280
     1
290
     1
  0
XRECORD
  5
1742
102
{ACAD_REACTORS
330
1741
102
}
330
1741
100
AcDbXrecord
280
     1
290
     1
  0
XRECORD
  5
1744
102
{ACAD_REACTORS
330
1743
102
}
330
1743
100
AcDbXrecord
280
     1
290
     1
  0
XRECORD
  5
1746
102
{ACAD_REACTORS
330
1745
102
}
330
1745
100
AcDbXrecord
280
     1
290
     1
  0
XRECORD
  5
1748
102
{ACAD_REACTORS
330
1747
102
}
330
1747
100
AcDbXrecord
280
     1
290
     1
  0
XRECORD
  5
174A
102
{ACAD_REACTORS
330
1749
102
}
330
1749
100
AcDbXrecord
280
     1
290
     1
  0
XRECORD
  5
174C
102
{ACAD_REACTORS
330
174B
102
}
330
174B
100
AcDbXrecord
280
     1
290
     1
  0
XRECORD
  5
174E
102
{ACAD_REACTORS
330
174D
102
}
330
174D
100
AcDbXrecord
280
     1
290
     1
  0
XRECORD
  5
1750
102
{ACAD_REACTORS
330
174F
102
}
330
174F
100
AcDbXrecord
280
     1
290
     1
  0
XRECORD
  5
1752
102
{ACAD_REACTORS
330
1751
102
}
330
1751
100
AcDbXrecord
280
     1
290
     1
  0
XRECORD
  5
1754
102
{ACAD_REACTORS
330
1753
102
}
330
1753
100
AcDbXrecord
280
     1
290
     1
  0
XRECORD
  5
1756
102
{ACAD_REACTORS
330
1755
102
}
330
1755
100
AcDbXrecord
280
     1
290
     1
  0
LAYOUT
  5
1669
102
{ACAD_REACTORS
330
1A
102
}
330
1A
100
AcDbPlotSettings
  1

  2
none_device
  4
ANSI_B_(17.00_x_11.00_Inches)
  6

 40
0.0
 41
0.0
 42
0.0
 43
0.0
 44
431.8
 45
279.4
 46
0.0
 47
0.0
 48
0.0
 49
0.0
140
0.0
141
0.0
142
1.0
143
1.0
 70
     0
 72
     0
 73
     0
 74
     0
  7

 75
     0
147
1.0
 76
     0
 77
     2
 78
   300
148
0.0
149
0.0
100
AcDbLayout
  1
Layout1
 70
     1
 71
     1
 10
0.0
 20
0.0
 11
12.0
 21
9.0
 12
0.0
 22
0.0
 32
0.0
 14
1.000000000000000E+20
 24
1.000000000000000E+20
 34
1.000000000000000E+20
 15
-1.000000000000000E+20
 25
-1.000000000000000E+20
 35
-1.000000000000000E+20
146
0.0
 13
0.0
 23
0.0
 33
0.0
 16
1.0
 26
0.0
 36
0.0
 17
0.0
 27
1.0
 37
0.0
 76
     0
330
22C
  0
LAYOUT
  5
1668
102
{ACAD_REACTORS
330
1A
102
}
330
1A
100
AcDbPlotSettings
  1

  2
none_device
  4
ANSI_B_(17.00_x_11.00_Inches)
  6

 40
0.0
 41
0.0
 42
0.0
 43
0.0
 44
431.8
 45
279.4
 46
0.0
 47
0.0
 48
0.0
 49
0.0
140
0.0
141
0.0
142
1.0
143
1.0
 70
  1024
 72
     0
 73
     0
 74
     0
  7

 75
     0
147
1.0
 76
     0
 77
     2
 78
   300
148
0.0
149
0.0
100
AcDbLayout
  1
Model
 70
     0
 71
     0
 10
0.0
 20
0.0
 11
17.0
 21
11.0
 12
0.0
 22
0.0
 32
0.0
 14
0.0
 24
0.0
 34
0.0
 15
0.0
 25
0.0
 35
0.0
146
0.0
 13
0.0
 23
0.0
 33
0.0
 16
1.0
 26
0.0
 36
0.0
 17
0.0
 27
1.0
 37
0.0
 76
     0
330
22B
331
1F4
  0
MATERIAL
  5
1675
102
{ACAD_XDICTIONARY
360
1676
102
}
102
{ACAD_REACTORS
330
166C
102
}
330
166C
100
AcDbMaterial
  1
ByBlock
 72
     0
 43
0.0208333333333333
 43
0.0
 43
0.0
 43
0.0
 43
0.0
 43
0.0208333333333333
 43
0.0
 43
0.0
 43
0.0
 43
0.0
 43
1.0
 43
0.0
 43
0.0
 43
0.0
 43
0.0
 43
1.0
 77
     0
 47
0.0208333333333333
 47
0.0
 47
0.0
 47
0.0
 47
0.0
 47
0.0208333333333333
 47
0.0
 47
0.0
 47
0.0
 47
0.0
 47
1.0
 47
0.0
 47
0.0
 47
0.0
 47
0.0
 47
1.0
171
     0
 49
0.0208333333333333
 49
0.0
 49
0.0
 49
0.0
 49
0.0
 49
0.0208333333333333
 49
0.0
 49
0.0
 49
0.0
 49
0.0
 49
1.0
 49
0.0
 49
0.0
 49
0.0
 49
0.0
 49
1.0
175
     0
142
0.0208333333333333
142
0.0
142
0.0
142
0.0
142
0.0
142
0.0208333333333333
142
0.0
142
0.0
142
0.0
142
0.0
142
1.0
142
0.0
142
0.0
142
0.0
142
0.0
142
1.0
179
     0
144
0.0208333333333333
144
0.0
144
0.0
144
0.0
144
0.0
144
0.0208333333333333
144
0.0
144
0.0
144
0.0
144
0.0
144
1.0
144
0.0
144
0.0
144
0.0
144
0.0
144
1.0
147
0.0208333333333333
147
0.0
147
0.0
147
0.0
147
0.0
147
0.0208333333333333
147
0.0
147
0.0
147
0.0
147
0.0
147
1.0
147
0.0
147
0.0
147
0.0
147
0.0
147
1.0
  0
MATERIAL
  5
166D
102
{ACAD_XDICTIONARY
360
166E
102
}
102
{ACAD_REACTORS
330
166C
102
}
330
166C
100
AcDbMaterial
  1
ByLayer
 72
     0
 43
0.0208333333333333
 43
0.0
 43
0.0
 43
0.0
 43
0.0
 43
0.0208333333333333
 43
0.0
 43
0.0
 43
0.0
 43
0.0
 43
1.0
 43
0.0
 43
0.0
 43
0.0
 43
0.0
 43
1.0
 77
     0
 47
0.0208333333333333
 47
0.0
 47
0.0
 47
0.0
 47
0.0
 47
0.0208333333333333
 47
0.0
 47
0.0
 47
0.0
 47
0.0
 47
1.0
 47
0.0
 47
0.0
 47
0.0
 47
0.0
 47
1.0
171
     0
 49
0.0208333333333333
 49
0.0
 49
0.0
 49
0.0
 49
0.0
 49
0.0208333333333333
 49
0.0
 49
0.0
 49
0.0
 49
0.0
 49
1.0
 49
0.0
 49
0.0
 49
0.0
 49
0.0
 49
1.0
175
     0
142
0.0208333333333333
142
0.0
142
0.0
142
0.0
142
0.0
142
0.0208333333333333
142
0.0
142
0.0
142
0.0
142
0.0
142
1.0
142
0.0
142
0.0
142
0.0
142
0.0
142
1.0
179
     0
144
0.0208333333333333
144
0.0
144
0.0
144
0.0
144
0.0
144
0.0208333333333333
144
0.0
144
0.0
144
0.0
144
0.0
144
1.0
144
0.0
144
0.0
144
0.0
144
0.0
144
1.0
147
0.0208333333333333
147
0.0
147
0.0
147
0.0
147
0.0
147
0.0208333333333333
147
0.0
147
0.0
147
0.0
147
0.0
147
1.0
147
0.0
147
0.0
147
0.0
147
0.0
147
1.0
  0
MATERIAL
  5
167D
102
{ACAD_XDICTIONARY
360
167E
102
}
102
{ACAD_REACTORS
330
166C
102
}
330
166C
100
AcDbMaterial
  1
Global
 72
     0
 43
0.0208333333333333
 43
0.0
 43
0.0
 43
0.0
 43
0.0
 43
0.0208333333333333
 43
0.0
 43
0.0
 43
0.0
 43
0.0
 43
1.0
 43
0.0
 43
0.0
 43
0.0
 43
0.0
 43
1.0
 77
     0
 47
0.0208333333333333
 47
0.0
 47
0.0
 47
0.0
 47
0.0
 47
0.0208333333333333
 47
0.0
 47
0.0
 47
0.0
 47
0.0
 47
1.0
 47
0.0
 47
0.0
 47
0.0
 47
0.0
 47
1.0
171
     0
 49
0.0208333333333333
 49
0.0
 49
0.0
 49
0.0
 49
0.0
 49
0.0208333333333333
 49
0.0
 49
0.0
 49
0.0
 49
0.0
 49
1.0
 49
0.0
 49
0.0
 49
0.0
 49
0.0
 49
1.0
175
     0
142
0.0208333333333333
142
0.0
142
0.0
142
0.0
142
0.0
142
0.0208333333333333
142
0.0
142
0.0
142
0.0
142
0.0
142
1.0
142
0.0
142
0.0
142
0.0
142
0.0
142
1.0
179
     0
144
0.0208333333333333
144
0.0
144
0.0
144
0.0
144
0.0
144
0.0208333333333333
144
0.0
144
0.0
144
0.0
144
0.0
144
1.0
144
0.0
144
0.0
144
0.0
144
0.0
144
1.0
147
0.0208333333333333
147
0.0
147
0.0
147
0.0
147
0.0
147
0.0208333333333333
147
0.0
147
0.0
147
0.0
147
0.0
147
1.0
147
0.0
147
0.0
147
0.0
147
0.0
147
1.0
  0
MLEADERSTYLE
  5
16BF
102
{ACAD_REACTORS
330
16BE
102
}
330
16BE
100
AcDbMLeaderStyle
170
     2
171
     1
172
     0
 90
        2
 40
0.0
 41
0.0
173
     1
 91
-1056964608
340
14
 92
       -2
290
     1
 42
0.09
291
     1
 43
0.36
  3
Standard
 44
0.18
300

342
11
174
     1
178
     6
175
     1
176
     0
 93
-1056964608
 45
0.18
292
     0
297
     0
 46
0.18
 94
-1056964608
 47
1.0
 49
1.0
140
1.0
293
     1
141
0.0
294
     1
177
     0
142
1.0
295
     0
296
     0
143
0.125
1001
ACAD_MLEADERVER
1070
     2
  0
MLINESTYLE
  5
18
102
{ACAD_REACTORS
330
17
102
}
330
17
100
AcDbMlineStyle
  2
STANDARD
 70
     0
  3

 62
   256
 51
90.0
 52
90.0
 71
     2
 49
0.5
 62
   256
  6
BYLAYER
 49
-0.5
 62
   256
  6
BYLAYER
  0
ACDBPLACEHOLDER
  5
F
102
{ACAD_REACTORS
330
E
102
}
330
E
  0
SCALE
  5
169D
102
{ACAD_REACTORS
330
169C
102
}
330
169C
100
AcDbScale
 70
     0
300
1:1
140
1.0
141
1.0
290
     1
  0
SCALE
  5
169E
102
{ACAD_REACTORS
330
169C
102
}
330
169C
100
AcDbScale
 70
     0
300
1:2
140
1.0
141
2.0
290
     0
  0
SCALE
  5
169F
102
{ACAD_REACTORS
330
169C
102
}
330
169C
100
AcDbScale
 70
     0
300
1:4
140
1.0
141
4.0
290
     0
  0
SCALE
  5
16A0
102
{ACAD_REACTORS
330
169C
102
}
330
169C
100
AcDbScale
 70
     0
300
1:5
140
1.0
141
5.0
290
     0
  0
SCALE
  5
16A1
102
{ACAD_REACTORS
330
169C
102
}
330
169C
100
AcDbScale
 70
     0
300
1:8
140
1.0
141
8.0
290
     0
  0
SCALE
  5
16A2
102
{ACAD_REACTORS
330
169C
102
}
330
169C
100
AcDbScale
 70
     0
300
1:10
140
1.0
141
10.0
290
     0
  0
SCALE
  5
16A3
102
{ACAD_REACTORS
330
169C
102
}
330
169C
100
AcDbScale
 70
     0
300
1:16
140
1.0
141
16.0
290
     0
  0
SCALE
  5
16A4
102
{ACAD_REACTORS
330
169C
102
}
330
169C
100
AcDbScale
 70
     0
300
1:20
140
1.0
141
20.0
290
     0
  0
SCALE
  5
16A5
102
{ACAD_REACTORS
330
169C
102
}
330
169C
100
AcDbScale
 70
     0
300
1:30
140
1.0
141
30.0
290
     0
  0
SCALE
  5
16A6
102
{ACAD_REACTORS
330
169C
102
}
330
169C
100
AcDbScale
 70
     0
300
1:40
140
1.0
141
40.0
290
     0
  0
SCALE
  5
16A7
102
{ACAD_REACTORS
330
169C
102
}
330
169C
100
AcDbScale
 70
     0
300
1:50
140
1.0
141
50.0
290
     0
  0
SCALE
  5
16A8
102
{ACAD_REACTORS
330
169C
102
}
330
169C
100
AcDbScale
 70
     0
300
1:100
140
1.0
141
100.0
290
     0
  0
SCALE
  5
16A9
102
{ACAD_REACTORS
330
169C
102
}
330
169C
100
AcDbScale
 70
     0
300
2:1
140
2.0
141
1.0
290
     0
  0
SCALE
  5
16AA
102
{ACAD_REACTORS
330
169C
102
}
330
169C
100
AcDbScale
 70
     0
300
4:1
140
4.0
141
1.0
290
     0
  0
SCALE
  5
16AB
102
{ACAD_REACTORS
330
169C
102
}
330
169C
100
AcDbScale
 70
     0
300
8:1
140
8.0
141
1.0
290
     0
  0
SCALE
  5
16AC
102
{ACAD_REACTORS
330
169C
102
}
330
169C
100
AcDbScale
 70
     0
300
10:1
140
10.0
141
1.0
290
     0
  0
SCALE
  5
16AD
102
{ACAD_REACTORS
330
169C
102
}
330
169C
100
AcDbScale
 70
     0
300
100:1
140
100.0
141
1.0
290
     0
  0
SCALE
  5
16AE
102
{ACAD_REACTORS
330
169C
102
}
330
169C
100
AcDbScale
 70
     0
300
1/128" = 1'-0"
140
0.0078125
141
12.0
290
     0
  0
SCALE
  5
16AF
102
{ACAD_REACTORS
330
169C
102
}
330
169C
100
AcDbScale
 70
     0
300
1/64" = 1'-0"
140
0.015625
141
12.0
290
     0
  0
SCALE
  5
16B0
102
{ACAD_REACTORS
330
169C
102
}
330
169C
100
AcDbScale
 70
     0
300
1/32" = 1'-0"
140
0.03125
141
12.0
290
     0
  0
SCALE
  5
16B1
102
{ACAD_REACTORS
330
169C
102
}
330
169C
100
AcDbScale
 70
     0
300
1/16" = 1'-0"
140
0.0625
141
12.0
290
     0
  0
SCALE
  5
16B2
102
{ACAD_REACTORS
330
169C
102
}
330
169C
100
AcDbScale
 70
     0
300
3/32" = 1'-0"
140
0.09375
141
12.0
290
     0
  0
SCALE
  5
16B3
102
{ACAD_REACTORS
330
169C
102
}
330
169C
100
AcDbScale
 70
     0
300
1/8" = 1'-0"
140
0.125
141
12.0
290
     0
  0
SCALE
  5
16B4
102
{ACAD_REACTORS
330
169C
102
}
330
169C
100
AcDbScale
 70
     0
300
3/16" = 1'-0"
140
0.1875
141
12.0
290
     0
  0
SCALE
  5
16B5
102
{ACAD_REACTORS
330
169C
102
}
330
169C
100
AcDbScale
 70
     0
300
1/4" = 1'-0"
140
0.25
141
12.0
290
     0
  0
SCALE
  5
16B6
102
{ACAD_REACTORS
330
169C
102
}
330
169C
100
AcDbScale
 70
     0
300
3/8" = 1'-0"
140
0.375
141
12.0
290
     0
  0
SCALE
  5
16B7
102
{ACAD_REACTORS
330
169C
102
}
330
169C
100
AcDbScale
 70
     0
300
1/2" = 1'-0"
140
0.5
141
12.0
290
     0
  0
SCALE
  5
16B8
102
{ACAD_REACTORS
330
169C
102
}
330
169C
100
AcDbScale
 70
     0
300
3/4" = 1'-0"
140
0.75
141
12.0
290
     0
  0
SCALE
  5
16B9
102
{ACAD_REACTORS
330
169C
102
}
330
169C
100
AcDbScale
 70
     0
300
1" = 1'-0"
140
1.0
141
12.0
290
     0
  0
SCALE
  5
16BA
102
{ACAD_REACTORS
330
169C
102
}
330
169C
100
AcDbScale
 70
     0
300
1-1/2" = 1'-0"
140
1.5
141
12.0
290
     0
  0
SCALE
  5
16BB
102
{ACAD_REACTORS
330
169C
102
}
330
169C
100
AcDbScale
 70
     0
300
3" = 1'-0"
140
3.0
141
12.0
290
     0
  0
SCALE
  5
16BC
102
{ACAD_REACTORS
330
169C
102
}
330
169C
100
AcDbScale
 70
     0
300
6" = 1'-0"
140
6.0
141
12.0
290
     0
  0
SCALE
  5
16BD
102
{ACAD_REACTORS
330
169C
102
}
330
169C
100
AcDbScale
 70
     0
300
1'-0" = 1'-0"
140
12.0
141
12.0
290
     0
  0
TABLESTYLE
  5
169B
102
{ACAD_XDICTIONARY
360
16C0
102
}
102
{ACAD_REACTORS
330
169A
102
}
330
169A
100
AcDbTableStyle
  3
Standard
 70
     0
 71
     0
 40
0.06
 41
0.06
280
     0
281
     0
  7
STANDARD
140
0.18
170
     2
 62
     0
 63
     7
283
     0
 90
      512
 91
        0
  1

274
    -2
284
     1
 64
     0
275
    -2
285
     1
 65
     0
276
    -2
286
     1
 66
     0
277
    -2
287
     1
 67
     0
278
    -2
288
     1
 68
     0
279
    -2
289
     1
 69
     0
  7
STANDARD
140
0.25
170
     5
 62
     0
 63
     7
283
     0
 90
      512
 91
        0
  1

274
    -2
284
     1
 64
     0
275
    -2
285
     1
 65
     0
276
    -2
286
     1
 66
     0
277
    -2
287
     1
 67
     0
278
    -2
288
     1
 68
     0
279
    -2
289
     1
 69
     0
  7
STANDARD
140
0.18
170
     5
 62
     0
 63
     7
283
     0
 90
      512
 91
        0
  1

274
    -2
284
     1
 64
     0
275
    -2
285
     1
 65
     0
276
    -2
286
     1
 66
     0
277
    -2
287
     1
 67
     0
278
    -2
288
     1
 68
     0
279
    -2
289
     1
 69
     0
  0
VISUALSTYLE
  5
168B
102
{ACAD_XDICTIONARY
360
16D6
102
}
102
{ACAD_REACTORS
330
1685
102
}
330
1685
100
AcDbVisualStyle
  2
2dWireframe
 70
     4
 71
     0
 72
     2
 73
     0
 90
        0
 40
-0.6
 41
-30.0
 62
     5
 63
     7
 74
     1
 91
        4
 64
     7
 65
   257
 75
     1
175
     1
 42
1.0
 92
        0
 66
   257
 43
1.0
 76
     1
 77
     6
 78
     2
 67
     7
 79
     5
170
     0
171
     0
290
     0
174
     0
 93
        1
 44
0.0
173
     0
291
     0
 45
0.0
  0
VISUALSTYLE
  5
168D
102
{ACAD_XDICTIONARY
360
16DA
102
}
102
{ACAD_REACTORS
330
1685
102
}
330
1685
100
AcDbVisualStyle
  2
3D Hidden
 70
     6
 71
     1
 72
     2
 73
     2
 90
        0
 40
-0.6
 41
-30.0
 62
     5
 63
     7
 74
     2
 91
        2
 64
     7
 65
   257
 75
     2
175
     1
 42
179.0
 92
        0
 66
   257
 43
1.0
 76
     1
 77
     6
 78
     2
 67
     7
 79
     3
170
     0
171
     0
290
     0
174
     0
 93
        1
 44
0.0
173
     0
291
     0
 45
0.0
  0
VISUALSTYLE
  5
168C
102
{ACAD_XDICTIONARY
360
16D8
102
}
102
{ACAD_REACTORS
330
1685
102
}
330
1685
100
AcDbVisualStyle
  2
3dWireframe
 70
     5
 71
     0
 72
     2
 73
     0
 90
        0
 40
-0.6
 41
-30.0
 62
     5
 63
     7
 74
     1
 91
        4
 64
     7
 65
   257
 75
     1
175
     1
 42
1.0
 92
        0
 66
   257
 43
1.0
 76
     1
 77
     6
 78
     2
 67
     7
 79
     5
170
     0
171
     0
290
     0
174
     0
 93
        1
 44
0.0
173
     0
291
     0
 45
0.0
  0
VISUALSTYLE
  5
168A
102
{ACAD_XDICTIONARY
360
16D4
102
}
102
{ACAD_REACTORS
330
1685
102
}
330
1685
100
AcDbVisualStyle
  2
Basic
 70
     7
 71
     1
 72
     0
 73
     1
 90
        0
 40
-0.6
 41
-30.0
 62
     5
 63
     7
 74
     0
 91
        4
 64
     7
 65
   257
 75
     1
175
     1
 42
1.0
 92
        8
 66
     7
 43
1.0
 76
     1
 77
     6
 78
     2
 67
     7
 79
     5
170
     0
171
     0
290
     0
174
     0
 93
        1
 44
0.0
173
     0
291
     1
 45
0.0
  0
VISUALSTYLE
  5
1691
102
{ACAD_XDICTIONARY
360
16E2
102
}
102
{ACAD_REACTORS
330
1685
102
}
330
1685
100
AcDbVisualStyle
  2
Brighten
 70
    12
 71
     2
 72
     2
 73
     0
 90
        0
 40
-0.6
 41
-30.0
 62
     5
 63
     7
 74
     1
 91
        4
 64
     7
 65
   257
 75
     1
175
     1
 42
1.0
 92
        8
 66
     7
 43
1.0
 76
     1
 77
     6
 78
     2
 67
     7
 79
     5
170
     0
171
     0
290
     0
174
     0
 93
        1
 44
50.0
173
     0
291
     1
 45
0.0
  0
VISUALSTYLE
  5
1695
102
{ACAD_XDICTIONARY
360
16EA
102
}
102
{ACAD_REACTORS
330
1685
102
}
330
1685
100
AcDbVisualStyle
  2
ColorChange
 70
    16
 71
     2
 72
     2
 73
     3
 90
        0
 40
-0.6
 41
-30.0
 62
     5
 63
     8
 74
     1
 91
        4
 64
     7
 65
   257
 75
     1
175
     1
 42
1.0
 92
        8
 66
     8
 43
1.0
 76
     1
 77
     6
 78
     2
 67
     7
 79
     5
170
     0
171
     0
290
     0
174
     0
 93
        1
 44
0.0
173
     0
291
     1
 45
0.0
  0
VISUALSTYLE
  5
168E
102
{ACAD_XDICTIONARY
360
16DC
102
}
102
{ACAD_REACTORS
330
1685
102
}
330
1685
100
AcDbVisualStyle
  2
Conceptual
 70
     9
 71
     3
 72
     2
 73
     0
 90
        0
 40
-0.6
 41
-30.0
 62
     5
 63
     7
 74
     2
 91
        2
 64
     7
 65
   257
 75
     1
175
     1
 42
179.0
 92
        8
 66
     7
 43
1.0
 76
     1
 77
     6
 78
     2
 67
     7
 79
     3
170
     0
171
     0
290
     0
174
     0
 93
        1
 44
0.0
173
     0
291
     0
 45
0.0
  0
VISUALSTYLE
  5
1690
102
{ACAD_XDICTIONARY
360
16E0
102
}
102
{ACAD_REACTORS
330
1685
102
}
330
1685
100
AcDbVisualStyle
  2
Dim
 70
    11
 71
     2
 72
     2
 73
     0
 90
        0
 40
-0.6
 41
-30.0
 62
     5
 63
     7
 74
     1
 91
        4
 64
     7
 65
   257
 75
     1
175
     1
 42
1.0
 92
        8
 66
     7
 43
1.0
 76
     1
 77
     6
 78
     2
 67
     7
 79
     5
170
     0
171
     0
290
     0
174
     0
 93
        1
 44
-50.0
173
     0
291
     1
 45
0.0
  0
VISUALSTYLE
  5
1698
102
{ACAD_XDICTIONARY
360
16F0
102
}
102
{ACAD_REACTORS
330
1685
102
}
330
1685
100
AcDbVisualStyle
  2
EdgeColorOff
 70
    22
 71
     2
 72
     2
 73
     0
 90
        0
 40
-0.6
 41
-30.0
 62
     5
 63
     7
 74
     1
 91
        4
 64
     7
 65
   257
 75
     1
175
     1
 42
1.0
 92
        8
 66
     7
 43
1.0
 76
     1
 77
     6
 78
     2
 67
     7
 79
     5
170
     0
171
     0
290
     0
174
     0
 93
        1
 44
0.0
173
     0
291
     1
 45
0.0
  0
VISUALSTYLE
  5
1694
102
{ACAD_XDICTIONARY
360
16E8
102
}
102
{ACAD_REACTORS
330
1685
102
}
330
1685
100
AcDbVisualStyle
  2
Facepattern
 70
    15
 71
     2
 72
     2
 73
     0
 90
        0
 40
-0.6
 41
-30.0
 62
     5
 63
     7
 74
     1
 91
        4
 64
     7
 65
   257
 75
     1
175
     1
 42
1.0
 92
        8
 66
     7
 43
1.0
 76
     1
 77
     6
 78
     2
 67
     7
 79
     5
170
     0
171
     0
290
     0
174
     0
 93
        1
 44
0.0
173
     0
291
     1
 45
0.0
  0
VISUALSTYLE
  5
1686
102
{ACAD_XDICTIONARY
360
16CC
102
}
102
{ACAD_REACTORS
330
1685
102
}
330
1685
100
AcDbVisualStyle
  2
Flat
 70
     0
 71
     2
 72
     1
 73
     1
 90
        2
 40
-0.6
 41
30.0
 62
     5
 63
     7
 74
     0
 91
        4
 64
     7
 65
   257
 75
     1
175
     1
 42
1.0
 92
        8
 66
     7
 43
1.0
 76
     1
 77
     6
 78
     2
 67
     7
 79
     5
170
     0
171
     0
290
     0
174
     0
 93
       13
 44
0.0
173
     0
291
     1
 45
0.0
  0
VISUALSTYLE
  5
1687
102
{ACAD_XDICTIONARY
360
16CE
102
}
102
{ACAD_REACTORS
330
1685
102
}
330
1685
100
AcDbVisualStyle
  2
FlatWithEdges
 70
     1
 71
     2
 72
     1
 73
     1
 90
        2
 40
-0.6
 41
30.0
 62
     5
 63
     7
 74
     1
 91
        4
 64
     7
 65
   257
 75
     1
175
     1
 42
1.0
 92
        0
 66
   257
 43
1.0
 76
     1
 77
     6
 78
     2
 67
     7
 79
     5
170
     0
171
     0
290
     0
174
     0
 93
       13
 44
0.0
173
     0
291
     1
 45
0.0
  0
VISUALSTYLE
  5
1688
102
{ACAD_XDICTIONARY
360
16D0
102
}
102
{ACAD_REACTORS
330
1685
102
}
330
1685
100
AcDbVisualStyle
  2
Gouraud
 70
     2
 71
     2
 72
     2
 73
     1
 90
        2
 40
-0.6
 41
30.0
 62
     5
 63
     7
 74
     0
 91
        4
 64
     7
 65
   257
 75
     1
175
     1
 42
1.0
 92
        0
 66
     7
 43
1.0
 76
     1
 77
     6
 78
     2
 67
     7
 79
     5
170
     0
171
     0
290
     0
174
     0
 93
       13
 44
0.0
173
     0
291
     1
 45
0.0
  0
VISUALSTYLE
  5
1689
102
{ACAD_XDICTIONARY
360
16D2
102
}
102
{ACAD_REACTORS
330
1685
102
}
330
1685
100
AcDbVisualStyle
  2
GouraudWithEdges
 70
     3
 71
     2
 72
     2
 73
     1
 90
        2
 40
-0.6
 41
30.0
 62
     5
 63
     7
 74
     1
 91
        4
 64
     7
 65
   257
 75
     1
175
     1
 42
1.0
 92
        0
 66
   257
 43
1.0
 76
     1
 77
     6
 78
     2
 67
     7
 79
     5
170
     0
171
     0
290
     0
174
     0
 93
       13
 44
0.0
173
     0
291
     1
 45
0.0
  0
VISUALSTYLE
  5
1696
102
{ACAD_XDICTIONARY
360
16EC
102
}
102
{ACAD_REACTORS
330
1685
102
}
330
1685
100
AcDbVisualStyle
  2
JitterOff
 70
    20
 71
     2
 72
     2
 73
     0
 90
        0
 40
-0.6
 41
-30.0
 62
     5
 63
     7
 74
     1
 91
        4
 64
     7
 65
   257
 75
     1
175
     1
 42
1.0
 92
       10
 66
     7
 43
1.0
 76
     1
 77
     6
 78
     2
 67
     7
 79
     5
170
     0
171
     0
290
     0
174
     0
 93
        1
 44
0.0
173
     0
291
     1
 45
0.0
  0
VISUALSTYLE
  5
1693
102
{ACAD_XDICTIONARY
360
16E6
102
}
102
{ACAD_REACTORS
330
1685
102
}
330
1685
100
AcDbVisualStyle
  2
Linepattern
 70
    14
 71
     2
 72
     2
 73
     0
 90
        0
 40
-0.6
 41
-30.0
 62
     5
 63
     7
 74
     1
 91
        4
 64
     7
 65
   257
 75
     7
175
     7
 42
1.0
 92
        8
 66
     7
 43
1.0
 76
     1
 77
     6
 78
     2
 67
     7
 79
     5
170
     0
171
     0
290
     0
174
     0
 93
        1
 44
0.0
173
     0
291
     1
 45
0.0
  0
VISUALSTYLE
  5
1697
102
{ACAD_XDICTIONARY
360
16EE
102
}
102
{ACAD_REACTORS
330
1685
102
}
330
1685
100
AcDbVisualStyle
  2
OverhangOff
 70
    21
 71
     2
 72
     2
 73
     0
 90
        0
 40
-0.6
 41
-30.0
 62
     5
 63
     7
 74
     1
 91
        4
 64
     7
 65
   257
 75
     1
175
     1
 42
1.0
 92
        9
 66
     7
 43
1.0
 76
     1
 77
     6
 78
     2
 67
     7
 79
     5
170
     0
171
     0
290
     0
174
     0
 93
        1
 44
0.0
173
     0
291
     1
 45
0.0
  0
VISUALSTYLE
  5
168F
102
{ACAD_XDICTIONARY
360
16DE
102
}
102
{ACAD_REACTORS
330
1685
102
}
330
1685
100
AcDbVisualStyle
  2
Realistic
 70
     8
 71
     2
 72
     2
 73
     0
 90
        0
 40
-0.6
 41
-30.0
 62
     5
 63
     7
 74
     1
 91
        0
 64
     7
 65
   257
 75
     1
175
     1
 42
1.0
 92
        8
 66
     8
 43
1.0
 76
     1
 77
     6
 78
     2
 67
     7
 79
     5
170
     0
171
     0
290
     0
174
     0
 93
       13
 44
0.0
173
     0
291
     0
 45
0.0
  0
VISUALSTYLE
  5
1692
102
{ACAD_XDICTIONARY
360
16E4
102
}
102
{ACAD_REACTORS
330
1685
102
}
330
1685
100
AcDbVisualStyle
  2
Thicken
 70
    13
 71
     2
 72
     2
 73
     0
 90
        0
 40
-0.6
 41
-30.0
 62
     5
 63
     7
 74
     1
 91
        4
 64
     7
 65
   257
 75
     1
175
     1
 42
1.0
 92
       12
 66
     7
 43
1.0
 76
     1
 77
     6
 78
     2
 67
     7
 79
     5
170
     0
171
     0
290
     0
174
     0
 93
        1
 44
0.0
173
     0
291
     1
 45
0.0
  0
DICTIONARYVAR
  5
16F7
102
{ACAD_REACTORS
330
16F4
102
}
330
16F4
100
DictionaryVariables
280
     0
  1
1:1
  0
DICTIONARYVAR
  5
16F6
102
{ACAD_REACTORS
330
16F4
102
}
330
16F4
100
DictionaryVariables
280
     0
  1
STANDARD
  0
DICTIONARYVAR
  5
16F5
102
{ACAD_REACTORS
330
16F4
102
}
330
16F4
100
DictionaryVariables
280
     0
  1
STANDARD
  0
DICTIONARYVAR
  5
16FA
102
{ACAD_REACTORS
330
16F4
102
}
330
16F4
100
DictionaryVariables
280
     0
  1
1
  0
DICTIONARYVAR
  5
16F9
102
{ACAD_REACTORS
330
16F4
102
}
330
16F4
100
DictionaryVariables
280
     0
  1
0
  0
DICTIONARYVAR
  5
175A
102
{ACAD_REACTORS
330
16F4
102
}
330
16F4
100
DictionaryVariables
280
     0
  1
1
  0
DICTIONARYVAR
  5
175B
102
{ACAD_REACTORS
330
16F4
102
}
330
16F4
100
DictionaryVariables
280
     0
  1
15
  0
DICTIONARYVAR
  5
1759
102
{ACAD_REACTORS
330
16F4
102
}
330
16F4
100
DictionaryVariables
280
     0
  1
0
  0
DICTIONARYVAR
  5
1758
102
{ACAD_REACTORS
330
16F4
102
}
330
16F4
100
DictionaryVariables
280
     0
  1
0
  0
DICTIONARYVAR
  5
16F8
102
{ACAD_REACTORS
330
16F4
102
}
330
16F4
100
DictionaryVariables
280
     0
  1
127
  0
DICTIONARYVAR
  5
16FB
102
{ACAD_REACTORS
330
16F4
102
}
330
16F4
100
DictionaryVariables
280
     0
  1
2
  0
DICTIONARY
  5
1676
330
1675
100
AcDbDictionary
280
     1
281
     1
  3
BUMPTILE
360
1678
  3
DIFFUSETILE
360
1677
  3
OPACITYTILE
360
167B
  3
REFLECTIONTILE
360
167A
  3
REFRACTIONTILE
360
167C
  3
SPECULARTILE
360
1679
  0
DICTIONARY
  5
166E
330
166D
100
AcDbDictionary
280
     1
281
     1
  3
BUMPTILE
360
1670
  3
DIFFUSETILE
360
166F
  3
OPACITYTILE
360
1673
  3
REFLECTIONTILE
360
1672
  3
REFRACTIONTILE
360
1674
  3
SPECULARTILE
360
1671
  0
DICTIONARY
  5
167E
330
167D
100
AcDbDictionary
280
     1
281
     1
  3
BUMPTILE
360
1680
  3
DIFFUSETILE
360
167F
  3
OPACITYTILE
360
1683
  3
REFLECTIONTILE
360
1682
  3
REFRACTIONTILE
360
1684
  3
SPECULARTILE
360
1681
  0
DICTIONARY
  5
16C0
330
169B
100
AcDbDictionary
280
     1
281
     1
  3
ACAD_ROUNDTRIP_2008_TABLESTYLE_CELLSTYLEMAP
360
1766
  0
DICTIONARY
  5
16D6
330
168B
100
AcDbDictionary
280
     1
281
     1
  3
ACAD_XREC_ROUNDTRIP
360
16D7
  0
DICTIONARY
  5
16DA
330
168D
100
AcDbDictionary
280
     1
281
     1
  3
ACAD_XREC_ROUNDTRIP
360
16DB
  0
DICTIONARY
  5
16D8
330
168C
100
AcDbDictionary
280
     1
281
     1
  3
ACAD_XREC_ROUNDTRIP
360
16D9
  0
DICTIONARY
  5
16D4
330
168A
100
AcDbDictionary
280
     1
281
     1
  3
ACAD_XREC_ROUNDTRIP
360
16D5
  0
DICTIONARY
  5
16E2
330
1691
100
AcDbDictionary
280
     1
281
     1
  3
ACAD_XREC_ROUNDTRIP
360
16E3
  0
DICTIONARY
  5
16EA
330
1695
100
AcDbDictionary
280
     1
281
     1
  3
ACAD_XREC_ROUNDTRIP
360
16EB
  0
DICTIONARY
  5
16DC
330
168E
100
AcDbDictionary
280
     1
281
     1
  3
ACAD_XREC_ROUNDTRIP
360
16DD
  0
DICTIONARY
  5
16E0
330
1690
100
AcDbDictionary
280
     1
281
     1
  3
ACAD_XREC_ROUNDTRIP
360
16E1
  0
DICTIONARY
  5
16F0
330
1698
100
AcDbDictionary
280
     1
281
     1
  3
ACAD_XREC_ROUNDTRIP
360
16F1
  0
DICTIONARY
  5
16E8
330
1694
100
AcDbDictionary
280
     1
281
     1
  3
ACAD_XREC_ROUNDTRIP
360
16E9
  0
DICTIONARY
  5
16CC
330
1686
100
AcDbDictionary
280
     1
281
     1
  3
ACAD_XREC_ROUNDTRIP
360
16CD
  0
DICTIONARY
  5
16CE
330
1687
100
AcDbDictionary
280
     1
281
     1
  3
ACAD_XREC_ROUNDTRIP
360
16CF
  0
DICTIONARY
  5
16D0
330
1688
100
AcDbDictionary
280
     1
281
     1
  3
ACAD_XREC_ROUNDTRIP
360
16D1
  0
DICTIONARY
  5
16D2
330
1689
100
AcDbDictionary
280
     1
281
     1
  3
ACAD_XREC_ROUNDTRIP
360
16D3
  0
DICTIONARY
  5
16EC
330
1696
100
AcDbDictionary
280
     1
281
     1
  3
ACAD_XREC_ROUNDTRIP
360
16ED
  0
DICTIONARY
  5
16E6
330
1693
100
AcDbDictionary
280
     1
281
     1
  3
ACAD_XREC_ROUNDTRIP
360
16E7
  0
DICTIONARY
  5
16EE
330
1697
100
AcDbDictionary
280
     1
281
     1
  3
ACAD_XREC_ROUNDTRIP
360
16EF
  0
DICTIONARY
  5
16DE
330
168F
100
AcDbDictionary
280
     1
281
     1
  3
ACAD_XREC_ROUNDTRIP
360
16DF
  0
DICTIONARY
  5
16E4
330
1692
100
AcDbDictionary
280
     1
281
     1
  3
ACAD_XREC_ROUNDTRIP
360
16E5
  0
XRECORD
  5
1678
102
{ACAD_REACTORS
330
1676
102
}
330
1676
100
AcDbXrecord
280
     1
270
     1
271
     1
  0
XRECORD
  5
1677
102
{ACAD_REACTORS
330
1676
102
}
330
1676
100
AcDbXrecord
280
     1
270
     1
271
     1
  0
XRECORD
  5
167B
102
{ACAD_REACTORS
330
1676
102
}
330
1676
100
AcDbXrecord
280
     1
270
     1
271
     1
  0
XRECORD
  5
167A
102
{ACAD_REACTORS
330
1676
102
}
330
1676
100
AcDbXrecord
280
     1
270
     1
271
     1
  0
XRECORD
  5
167C
102
{ACAD_REACTORS
330
1676
102
}
330
1676
100
AcDbXrecord
280
     1
270
     1
271
     1
  0
XRECORD
  5
1679
102
{ACAD_REACTORS
330
1676
102
}
330
1676
100
AcDbXrecord
280
     1
270
     1
271
     1
  0
XRECORD
  5
1670
102
{ACAD_REACTORS
330
166E
102
}
330
166E
100
AcDbXrecord
280
     1
270
     1
271
     1
  0
XRECORD
  5
166F
102
{ACAD_REACTORS
330
166E
102
}
330
166E
100
AcDbXrecord
280
     1
270
     1
271
     1
  0
XRECORD
  5
1673
102
{ACAD_REACTORS
330
166E
102
}
330
166E
100
AcDbXrecord
280
     1
270
     1
271
     1
  0
XRECORD
  5
1672
102
{ACAD_REACTORS
330
166E
102
}
330
166E
100
AcDbXrecord
280
     1
270
     1
271
     1
  0
XRECORD
  5
1674
102
{ACAD_REACTORS
330
166E
102
}
330
166E
100
AcDbXrecord
280
     1
270
     1
271
     1
  0
XRECORD
  5
1671
102
{ACAD_REACTORS
330
166E
102
}
330
166E
100
AcDbXrecord
280
     1
270
     1
271
     1
  0
XRECORD
  5
1680
102
{ACAD_REACTORS
330
167E
102
}
330
167E
100
AcDbXrecord
280
     1
270
     1
271
     1
  0
XRECORD
  5
167F
102
{ACAD_REACTORS
330
167E
102
}
330
167E
100
AcDbXrecord
280
     1
270
     1
271
     1
  0
XRECORD
  5
1683
102
{ACAD_REACTORS
330
167E
102
}
330
167E
100
AcDbXrecord
280
     1
270
     1
271
     1
  0
XRECORD
  5
1682
102
{ACAD_REACTORS
330
167E
102
}
330
167E
100
AcDbXrecord
280
     1
270
     1
271
     1
  0
XRECORD
  5
1684
102
{ACAD_REACTORS
330
167E
102
}
330
167E
100
AcDbXrecord
280
     1
270
     1
271
     1
  0
XRECORD
  5
1681
102
{ACAD_REACTORS
330
167E
102
}
330
167E
100
AcDbXrecord
280
     1
270
     1
271
     1
  0
CELLSTYLEMAP
  5
1766
102
{ACAD_REACTORS
330
16C0
102
}
330
16C0
100
AcDbCellStyleMap
 90
        3
300
CELLSTYLE
  1
TABLEFORMAT_BEGIN
 90
        5
170
     1
 91
        0
 92
    32768
 62
   257
 93
        1
300
CONTENTFORMAT
  1
CONTENTFORMAT_BEGIN
 90
        0
 91
        0
 92
      512
 93
        0
300

 40
0.0
140
1.0
 94
        5
 62
     0
340
11
144
0.25
309
CONTENTFORMAT_END
171
     0
 94
        0
309
TABLEFORMAT_END
  1
CELLSTYLE_BEGIN
 90
        1
 91
        1
300
_TITLE
309
CELLSTYLE_END
300
CELLSTYLE
  1
TABLEFORMAT_BEGIN
 90
        5
170
     1
 91
        0
 92
        0
 62
   257
 93
        1
300
CONTENTFORMAT
  1
CONTENTFORMAT_BEGIN
 90
        0
 91
        0
 92
      512
 93
        0
300

 40
0.0
140
1.0
 94
        5
 62
     0
340
11
144
0.18
309
CONTENTFORMAT_END
171
     0
 94
        0
309
TABLEFORMAT_END
  1
CELLSTYLE_BEGIN
 90
        2
 91
        1
300
_HEADER
309
CELLSTYLE_END
300
CELLSTYLE
  1
TABLEFORMAT_BEGIN
 90
        5
170
     1
 91
        0
 92
        0
 62
   257
 93
        1
300
CONTENTFORMAT
  1
CONTENTFORMAT_BEGIN
 90
        0
 91
        0
 92
      512
 93
        0
300

 40
0.0
140
1.0
 94
        2
 62
     0
340
11
144
0.18
309
CONTENTFORMAT_END
171
     0
 94
        0
309
TABLEFORMAT_END
  1
CELLSTYLE_BEGIN
 90
        3
 91
        2
300
_DATA
309
CELLSTYLE_END
  0
XRECORD
  5
16D7
102
{ACAD_REACTORS
330
16D6
102
}
330
16D6
100
AcDbXrecord
280
     1
102
RTVSPropertyOp0
 70
     1
102
RTVSPropertyOp1
 70
     1
102
RTVSPropertyOp2
 70
     1
102
RTVSPropertyOp3
 70
     1
102
RTVSPropertyOp4
 70
     1
102
RTVSPropertyOp5
 70
     1
102
RTVSPropertyOp6
 70
     1
102
RTVSPropertyOp7
 70
     1
102
RTVSPropertyOp8
 70
     1
102
RTVSPropertyOp9
 70
     1
102
RTVSPropertyOp10
 70
     1
102
RTVSPropertyOp11
 70
     1
102
RTVSPropertyOp12
 70
     1
102
RTVSPropertyOp13
 70
     1
102
RTVSPropertyOp14
 70
     1
102
RTVSPropertyOp15
 70
     1
102
RTVSPropertyOp16
 70
     1
102
RTVSPropertyOp17
 70
     1
102
RTVSPropertyOp18
 70
     1
102
RTVSPropertyOp19
 70
     1
102
RTVSPropertyOp20
 70
     1
102
RTVSPropertyOp21
 70
     1
102
RTVSPropertyOp22
 70
     1
102
RTVSPropertyOp23
 70
     1
102
RTVSPropertyOp24
 70
     1
102
RTVSPropertyOp25
 70
     1
102
RTVSPropertyOp26
 70
     1
102
RTVSPropertyOp27
 70
     1
  0
XRECORD
  5
16DB
102
{ACAD_REACTORS
330
16DA
102
}
330
16DA
100
AcDbXrecord
280
     1
102
RTVSPropertyOp0
 70
     1
102
RTVSPropertyOp1
 70
     1
102
RTVSPropertyOp2
 70
     1
102
RTVSPropertyOp3
 70
     1
102
RTVSPropertyOp4
 70
     1
102
RTVSPropertyOp5
 70
     1
102
RTVSPropertyOp6
 70
     1
102
RTVSPropertyOp7
 70
     1
102
RTVSPropertyOp8
 70
     1
102
RTVSPropertyOp9
 70
     1
102
RTVSPropertyOp10
 70
     1
102
RTVSPropertyOp11
 70
     1
102
RTVSPropertyOp12
 70
     1
102
RTVSPropertyOp13
 70
     1
102
RTVSPropertyOp14
 70
     1
102
RTVSPropertyOp15
 70
     1
102
RTVSPropertyOp16
 70
     1
102
RTVSPropertyOp17
 70
     1
102
RTVSPropertyOp18
 70
     1
102
RTVSPropertyOp19
 70
     1
102
RTVSPropertyOp20
 70
     1
102
RTVSPropertyOp21
 70
     1
102
RTVSPropertyOp22
 70
     1
102
RTVSPropertyOp23
 70
     1
102
RTVSPropertyOp24
 70
     1
102
RTVSPropertyOp25
 70
     1
102
RTVSPropertyOp26
 70
     1
102
RTVSPropertyOp27
 70
     1
  0
XRECORD
  5
16D9
102
{ACAD_REACTORS
330
16D8
102
}
330
16D8
100
AcDbXrecord
280
     1
102
RTVSPropertyOp0
 70
     1
102
RTVSPropertyOp1
 70
     1
102
RTVSPropertyOp2
 70
     1
102
RTVSPropertyOp3
 70
     1
102
RTVSPropertyOp4
 70
     1
102
RTVSPropertyOp5
 70
     1
102
RTVSPropertyOp6
 70
     1
102
RTVSPropertyOp7
 70
     1
102
RTVSPropertyOp8
 70
     1
102
RTVSPropertyOp9
 70
     1
102
RTVSPropertyOp10
 70
     1
102
RTVSPropertyOp11
 70
     1
102
RTVSPropertyOp12
 70
     1
102
RTVSPropertyOp13
 70
     1
102
RTVSPropertyOp14
 70
     1
102
RTVSPropertyOp15
 70
     1
102
RTVSPropertyOp16
 70
     1
102
RTVSPropertyOp17
 70
     1
102
RTVSPropertyOp18
 70
     1
102
RTVSPropertyOp19
 70
     1
102
RTVSPropertyOp20
 70
     1
102
RTVSPropertyOp21
 70
     1
102
RTVSPropertyOp22
 70
     1
102
RTVSPropertyOp23
 70
     1
102
RTVSPropertyOp24
 70
     1
102
RTVSPropertyOp25
 70
     1
102
RTVSPropertyOp26
 70
     1
102
RTVSPropertyOp27
 70
     1
  0
XRECORD
  5
16D5
102
{ACAD_REACTORS
330
16D4
102
}
330
16D4
100
AcDbXrecord
280
     1
102
RTVSPropertyOp0
 70
     1
102
RTVSPropertyOp1
 70
     1
102
RTVSPropertyOp2
 70
     1
102
RTVSPropertyOp3
 70
     1
102
RTVSPropertyOp4
 70
     1
102
RTVSPropertyOp5
 70
     1
102
RTVSPropertyOp6
 70
     1
102
RTVSPropertyOp7
 70
     1
102
RTVSPropertyOp8
 70
     1
102
RTVSPropertyOp9
 70
     1
102
RTVSPropertyOp10
 70
     1
102
RTVSPropertyOp11
 70
     1
102
RTVSPropertyOp12
 70
     1
102
RTVSPropertyOp13
 70
     1
102
RTVSPropertyOp14
 70
     1
102
RTVSPropertyOp15
 70
     1
102
RTVSPropertyOp16
 70
     1
102
RTVSPropertyOp17
 70
     1
102
RTVSPropertyOp18
 70
     1
102
RTVSPropertyOp19
 70
     1
102
RTVSPropertyOp20
 70
     1
102
RTVSPropertyOp21
 70
     1
102
RTVSPropertyOp22
 70
     1
102
RTVSPropertyOp23
 70
     1
102
RTVSPropertyOp24
 70
     1
102
RTVSPropertyOp25
 70
     1
102
RTVSPropertyOp26
 70
     1
102
RTVSPropertyOp27
 70
     1
  0
XRECORD
  5
16E3
102
{ACAD_REACTORS
330
16E2
102
}
330
16E2
100
AcDbXrecord
280
     1
102
RTVSPropertyOp0
 70
     1
102
RTVSPropertyOp1
 70
     1
102
RTVSPropertyOp2
 70
     1
102
RTVSPropertyOp3
 70
     1
102
RTVSPropertyOp4
 70
     1
102
RTVSPropertyOp5
 70
     1
102
RTVSPropertyOp6
 70
     1
102
RTVSPropertyOp7
 70
     1
102
RTVSPropertyOp8
 70
     1
102
RTVSPropertyOp9
 70
     1
102
RTVSPropertyOp10
 70
     1
102
RTVSPropertyOp11
 70
     1
102
RTVSPropertyOp12
 70
     1
102
RTVSPropertyOp13
 70
     1
102
RTVSPropertyOp14
 70
     1
102
RTVSPropertyOp15
 70
     1
102
RTVSPropertyOp16
 70
     1
102
RTVSPropertyOp17
 70
     1
102
RTVSPropertyOp18
 70
     1
102
RTVSPropertyOp19
 70
     1
102
RTVSPropertyOp20
 70
     1
102
RTVSPropertyOp21
 70
     1
102
RTVSPropertyOp22
 70
     1
102
RTVSPropertyOp23
 70
     1
102
RTVSPropertyOp24
 70
     1
102
RTVSPropertyOp25
 70
     1
102
RTVSPropertyOp26
 70
     1
102
RTVSPropertyOp27
 70
     1
  0
XRECORD
  5
16EB
102
{ACAD_REACTORS
330
16EA
102
}
330
16EA
100
AcDbXrecord
280
     1
102
RTVSPropertyOp0
 70
     1
102
RTVSPropertyOp1
 70
     1
102
RTVSPropertyOp2
 70
     1
102
RTVSPropertyOp3
 70
     1
102
RTVSPropertyOp4
 70
     1
102
RTVSPropertyOp5
 70
     1
102
RTVSPropertyOp6
 70
     1
102
RTVSPropertyOp7
 70
     1
102
RTVSPropertyOp8
 70
     1
102
RTVSPropertyOp9
 70
     1
102
RTVSPropertyOp10
 70
     1
102
RTVSPropertyOp11
 70
     1
102
RTVSPropertyOp12
 70
     1
102
RTVSPropertyOp13
 70
     1
102
RTVSPropertyOp14
 70
     1
102
RTVSPropertyOp15
 70
     1
102
RTVSPropertyOp16
 70
     1
102
RTVSPropertyOp17
 70
     1
102
RTVSPropertyOp18
 70
     1
102
RTVSPropertyOp19
 70
     1
102
RTVSPropertyOp20
 70
     1
102
RTVSPropertyOp21
 70
     1
102
RTVSPropertyOp22
 70
     1
102
RTVSPropertyOp23
 70
     1
102
RTVSPropertyOp24
 70
     1
102
RTVSPropertyOp25
 70
     1
102
RTVSPropertyOp26
 70
     1
102
RTVSPropertyOp27
 70
     1
  0
XRECORD
  5
16DD
102
{ACAD_REACTORS
330
16DC
102
}
330
16DC
100
AcDbXrecord
280
     1
102
RTVSPropertyOp0
 70
     1
102
RTVSPropertyOp1
 70
     1
102
RTVSPropertyOp2
 70
     1
102
RTVSPropertyOp3
 70
     1
102
RTVSPropertyOp4
 70
     1
102
RTVSPropertyOp5
 70
     1
102
RTVSPropertyOp6
 70
     1
102
RTVSPropertyOp7
 70
     1
102
RTVSPropertyOp8
 70
     1
102
RTVSPropertyOp9
 70
     1
102
RTVSPropertyOp10
 70
     1
102
RTVSPropertyOp11
 70
     1
102
RTVSPropertyOp12
 70
     1
102
RTVSPropertyOp13
 70
     1
102
RTVSPropertyOp14
 70
     1
102
RTVSPropertyOp15
 70
     1
102
RTVSPropertyOp16
 70
     1
102
RTVSPropertyOp17
 70
     1
102
RTVSPropertyOp18
 70
     1
102
RTVSPropertyOp19
 70
     1
102
RTVSPropertyOp20
 70
     1
102
RTVSPropertyOp21
 70
     1
102
RTVSPropertyOp22
 70
     1
102
RTVSPropertyOp23
 70
     1
102
RTVSPropertyOp24
 70
     1
102
RTVSPropertyOp25
 70
     1
102
RTVSPropertyOp26
 70
     1
102
RTVSPropertyOp27
 70
     1
  0
XRECORD
  5
16E1
102
{ACAD_REACTORS
330
16E0
102
}
330
16E0
100
AcDbXrecord
280
     1
102
RTVSPropertyOp0
 70
     1
102
RTVSPropertyOp1
 70
     1
102
RTVSPropertyOp2
 70
     1
102
RTVSPropertyOp3
 70
     1
102
RTVSPropertyOp4
 70
     1
102
RTVSPropertyOp5
 70
     1
102
RTVSPropertyOp6
 70
     1
102
RTVSPropertyOp7
 70
     1
102
RTVSPropertyOp8
 70
     1
102
RTVSPropertyOp9
 70
     1
102
RTVSPropertyOp10
 70
     1
102
RTVSPropertyOp11
 70
     1
102
RTVSPropertyOp12
 70
     1
102
RTVSPropertyOp13
 70
     1
102
RTVSPropertyOp14
 70
     1
102
RTVSPropertyOp15
 70
     1
102
RTVSPropertyOp16
 70
     1
102
RTVSPropertyOp17
 70
     1
102
RTVSPropertyOp18
 70
     1
102
RTVSPropertyOp19
 70
     1
102
RTVSPropertyOp20
 70
     1
102
RTVSPropertyOp21
 70
     1
102
RTVSPropertyOp22
 70
     1
102
RTVSPropertyOp23
 70
     1
102
RTVSPropertyOp24
 70
     1
102
RTVSPropertyOp25
 70
     1
102
RTVSPropertyOp26
 70
     1
102
RTVSPropertyOp27
 70
     1
  0
XRECORD
  5
16F1
102
{ACAD_REACTORS
330
16F0
102
}
330
16F0
100
AcDbXrecord
280
     1
102
RTVSPropertyOp0
 70
     0
102
RTVSPropertyOp1
 70
     0
102
RTVSPropertyOp2
 70
     0
102
RTVSPropertyOp3
 70
     0
102
RTVSPropertyOp4
 70
     0
102
RTVSPropertyOp5
 70
     0
102
RTVSPropertyOp6
 70
     0
102
RTVSPropertyOp7
 70
     0
102
RTVSPropertyOp8
 70
     0
102
RTVSPropertyOp9
 70
     0
102
RTVSPropertyOp10
 70
     0
102
RTVSPropertyOp11
 70
     0
102
RTVSPropertyOp12
 70
     0
102
RTVSPropertyOp13
 70
     0
102
RTVSPropertyOp14
 70
     2
102
RTVSPropertyOp15
 70
     0
102
RTVSPropertyOp16
 70
     0
102
RTVSPropertyOp17
 70
     0
102
RTVSPropertyOp18
 70
     0
102
RTVSPropertyOp19
 70
     0
102
RTVSPropertyOp20
 70
     0
102
RTVSPropertyOp21
 70
     0
102
RTVSPropertyOp22
 70
     0
102
RTVSPropertyOp23
 70
     0
102
RTVSPropertyOp24
 70
     0
102
RTVSPropertyOp25
 70
     0
102
RTVSPropertyOp26
 70
     0
102
RTVSPropertyOp27
 70
     0
  0
XRECORD
  5
16E9
102
{ACAD_REACTORS
330
16E8
102
}
330
16E8
100
AcDbXrecord
280
     1
102
RTVSPropertyOp0
 70
     1
102
RTVSPropertyOp1
 70
     1
102
RTVSPropertyOp2
 70
     1
102
RTVSPropertyOp3
 70
     1
102
RTVSPropertyOp4
 70
     1
102
RTVSPropertyOp5
 70
     1
102
RTVSPropertyOp6
 70
     1
102
RTVSPropertyOp7
 70
     1
102
RTVSPropertyOp8
 70
     1
102
RTVSPropertyOp9
 70
     1
102
RTVSPropertyOp10
 70
     1
102
RTVSPropertyOp11
 70
     1
102
RTVSPropertyOp12
 70
     1
102
RTVSPropertyOp13
 70
     1
102
RTVSPropertyOp14
 70
     1
102
RTVSPropertyOp15
 70
     1
102
RTVSPropertyOp16
 70
     1
102
RTVSPropertyOp17
 70
     1
102
RTVSPropertyOp18
 70
     1
102
RTVSPropertyOp19
 70
     1
102
RTVSPropertyOp20
 70
     1
102
RTVSPropertyOp21
 70
     1
102
RTVSPropertyOp22
 70
     1
102
RTVSPropertyOp23
 70
     1
102
RTVSPropertyOp24
 70
     1
102
RTVSPropertyOp25
 70
     1
102
RTVSPropertyOp26
 70
     1
102
RTVSPropertyOp27
 70
     1
  0
XRECORD
  5
16CD
102
{ACAD_REACTORS
330
16CC
102
}
330
16CC
100
AcDbXrecord
280
     1
102
RTVSPropertyOp0
 70
     1
102
RTVSPropertyOp1
 70
     1
102
RTVSPropertyOp2
 70
     1
102
RTVSPropertyOp3
 70
     1
102
RTVSPropertyOp4
 70
     1
102
RTVSPropertyOp5
 70
     1
102
RTVSPropertyOp6
 70
     1
102
RTVSPropertyOp7
 70
     1
102
RTVSPropertyOp8
 70
     1
102
RTVSPropertyOp9
 70
     1
102
RTVSPropertyOp10
 70
     1
102
RTVSPropertyOp11
 70
     1
102
RTVSPropertyOp12
 70
     1
102
RTVSPropertyOp13
 70
     1
102
RTVSPropertyOp14
 70
     1
102
RTVSPropertyOp15
 70
     1
102
RTVSPropertyOp16
 70
     1
102
RTVSPropertyOp17
 70
     1
102
RTVSPropertyOp18
 70
     1
102
RTVSPropertyOp19
 70
     1
102
RTVSPropertyOp20
 70
     1
102
RTVSPropertyOp21
 70
     1
102
RTVSPropertyOp22
 70
     1
102
RTVSPropertyOp23
 70
     1
102
RTVSPropertyOp24
 70
     1
102
RTVSPropertyOp25
 70
     1
102
RTVSPropertyOp26
 70
     1
102
RTVSPropertyOp27
 70
     1
  0
XRECORD
  5
16CF
102
{ACAD_REACTORS
330
16CE
102
}
330
16CE
100
AcDbXrecord
280
     1
102
RTVSPropertyOp0
 70
     1
102
RTVSPropertyOp1
 70
     1
102
RTVSPropertyOp2
 70
     1
102
RTVSPropertyOp3
 70
     1
102
RTVSPropertyOp4
 70
     1
102
RTVSPropertyOp5
 70
     1
102
RTVSPropertyOp6
 70
     1
102
RTVSPropertyOp7
 70
     1
102
RTVSPropertyOp8
 70
     1
102
RTVSPropertyOp9
 70
     1
102
RTVSPropertyOp10
 70
     1
102
RTVSPropertyOp11
 70
     1
102
RTVSPropertyOp12
 70
     1
102
RTVSPropertyOp13
 70
     1
102
RTVSPropertyOp14
 70
     1
102
RTVSPropertyOp15
 70
     1
102
RTVSPropertyOp16
 70
     1
102
RTVSPropertyOp17
 70
     1
102
RTVSPropertyOp18
 70
     1
102
RTVSPropertyOp19
 70
     1
102
RTVSPropertyOp20
 70
     1
102
RTVSPropertyOp21
 70
     1
102
RTVSPropertyOp22
 70
     1
102
RTVSPropertyOp23
 70
     1
102
RTVSPropertyOp24
 70
     1
102
RTVSPropertyOp25
 70
     1
102
RTVSPropertyOp26
 70
     1
102
RTVSPropertyOp27
 70
     1
  0
XRECORD
  5
16D1
102
{ACAD_REACTORS
330
16D0
102
}
330
16D0
100
AcDbXrecord
280
     1
102
RTVSPropertyOp0
 70
     1
102
RTVSPropertyOp1
 70
     1
102
RTVSPropertyOp2
 70
     1
102
RTVSPropertyOp3
 70
     1
102
RTVSPropertyOp4
 70
     1
102
RTVSPropertyOp5
 70
     1
102
RTVSPropertyOp6
 70
     1
102
RTVSPropertyOp7
 70
     1
102
RTVSPropertyOp8
 70
     1
102
RTVSPropertyOp9
 70
     1
102
RTVSPropertyOp10
 70
     1
102
RTVSPropertyOp11
 70
     1
102
RTVSPropertyOp12
 70
     1
102
RTVSPropertyOp13
 70
     1
102
RTVSPropertyOp14
 70
     1
102
RTVSPropertyOp15
 70
     1
102
RTVSPropertyOp16
 70
     1
102
RTVSPropertyOp17
 70
     1
102
RTVSPropertyOp18
 70
     1
102
RTVSPropertyOp19
 70
     1
102
RTVSPropertyOp20
 70
     1
102
RTVSPropertyOp21
 70
     1
102
RTVSPropertyOp22
 70
     1
102
RTVSPropertyOp23
 70
     1
102
RTVSPropertyOp24
 70
     1
102
RTVSPropertyOp25
 70
     1
102
RTVSPropertyOp26
 70
     1
102
RTVSPropertyOp27
 70
     1
  0
XRECORD
  5
16D3
102
{ACAD_REACTORS
330
16D2
102
}
330
16D2
100
AcDbXrecord
280
     1
102
RTVSPropertyOp0
 70
     1
102
RTVSPropertyOp1
 70
     1
102
RTVSPropertyOp2
 70
     1
102
RTVSPropertyOp3
 70
     1
102
RTVSPropertyOp4
 70
     1
102
RTVSPropertyOp5
 70
     1
102
RTVSPropertyOp6
 70
     1
102
RTVSPropertyOp7
 70
     1
102
RTVSPropertyOp8
 70
     1
102
RTVSPropertyOp9
 70
     1
102
RTVSPropertyOp10
 70
     1
102
RTVSPropertyOp11
 70
     1
102
RTVSPropertyOp12
 70
     1
102
RTVSPropertyOp13
 70
     1
102
RTVSPropertyOp14
 70
     1
102
RTVSPropertyOp15
 70
     1
102
RTVSPropertyOp16
 70
     1
102
RTVSPropertyOp17
 70
     1
102
RTVSPropertyOp18
 70
     1
102
RTVSPropertyOp19
 70
     1
102
RTVSPropertyOp20
 70
     1
102
RTVSPropertyOp21
 70
     1
102
RTVSPropertyOp22
 70
     1
102
RTVSPropertyOp23
 70
     1
102
RTVSPropertyOp24
 70
     1
102
RTVSPropertyOp25
 70
     1
102
RTVSPropertyOp26
 70
     1
102
RTVSPropertyOp27
 70
     1
  0
XRECORD
  5
16ED
102
{ACAD_REACTORS
330
16EC
102
}
330
16EC
100
AcDbXrecord
280
     1
102
RTVSPropertyOp0
 70
     0
102
RTVSPropertyOp1
 70
     0
102
RTVSPropertyOp2
 70
     0
102
RTVSPropertyOp3
 70
     0
102
RTVSPropertyOp4
 70
     0
102
RTVSPropertyOp5
 70
     0
102
RTVSPropertyOp6
 70
     0
102
RTVSPropertyOp7
 70
     0
102
RTVSPropertyOp8
 70
     0
102
RTVSPropertyOp9
 70
     0
102
RTVSPropertyOp10
 70
     0
102
RTVSPropertyOp11
 70
     0
102
RTVSPropertyOp12
 70
     0
102
RTVSPropertyOp13
 70
     0
102
RTVSPropertyOp14
 70
     2
102
RTVSPropertyOp15
 70
     0
102
RTVSPropertyOp16
 70
     0
102
RTVSPropertyOp17
 70
     0
102
RTVSPropertyOp18
 70
     0
102
RTVSPropertyOp19
 70
     0
102
RTVSPropertyOp20
 70
     0
102
RTVSPropertyOp21
 70
     0
102
RTVSPropertyOp22
 70
     0
102
RTVSPropertyOp23
 70
     0
102
RTVSPropertyOp24
 70
     0
102
RTVSPropertyOp25
 70
     0
102
RTVSPropertyOp26
 70
     0
102
RTVSPropertyOp27
 70
     0
  0
XRECORD
  5
16E7
102
{ACAD_REACTORS
330
16E6
102
}
330
16E6
100
AcDbXrecord
280
     1
102
RTVSPropertyOp0
 70
     1
102
RTVSPropertyOp1
 70
     1
102
RTVSPropertyOp2
 70
     1
102
RTVSPropertyOp3
 70
     1
102
RTVSPropertyOp4
 70
     1
102
RTVSPropertyOp5
 70
     1
102
RTVSPropertyOp6
 70
     1
102
RTVSPropertyOp7
 70
     1
102
RTVSPropertyOp8
 70
     1
102
RTVSPropertyOp9
 70
     1
102
RTVSPropertyOp10
 70
     1
102
RTVSPropertyOp11
 70
     1
102
RTVSPropertyOp12
 70
     1
102
RTVSPropertyOp13
 70
     1
102
RTVSPropertyOp14
 70
     1
102
RTVSPropertyOp15
 70
     1
102
RTVSPropertyOp16
 70
     1
102
RTVSPropertyOp17
 70
     1
102
RTVSPropertyOp18
 70
     1
102
RTVSPropertyOp19
 70
     1
102
RTVSPropertyOp20
 70
     1
102
RTVSPropertyOp21
 70
     1
102
RTVSPropertyOp22
 70
     1
102
RTVSPropertyOp23
 70
     1
102
RTVSPropertyOp24
 70
     1
102
RTVSPropertyOp25
 70
     1
102
RTVSPropertyOp26
 70
     1
102
RTVSPropertyOp27
 70
     1
  0
XRECORD
  5
16EF
102
{ACAD_REACTORS
330
16EE
102
}
330
16EE
100
AcDbXrecord
280
     1
102
RTVSPropertyOp0
 70
     0
102
RTVSPropertyOp1
 70
     0
102
RTVSPropertyOp2
 70
     0
102
RTVSPropertyOp3
 70
     0
102
RTVSPropertyOp4
 70
     0
102
RTVSPropertyOp5
 70
     0
102
RTVSPropertyOp6
 70
     0
102
RTVSPropertyOp7
 70
     0
102
RTVSPropertyOp8
 70
     0
102
RTVSPropertyOp9
 70
     0
102
RTVSPropertyOp10
 70
     0
102
RTVSPropertyOp11
 70
     0
102
RTVSPropertyOp12
 70
     0
102
RTVSPropertyOp13
 70
     0
102
RTVSPropertyOp14
 70
     2
102
RTVSPropertyOp15
 70
     0
102
RTVSPropertyOp16
 70
     0
102
RTVSPropertyOp17
 70
     0
102
RTVSPropertyOp18
 70
     0
102
RTVSPropertyOp19
 70
     0
102
RTVSPropertyOp20
 70
     0
102
RTVSPropertyOp21
 70
     0
102
RTVSPropertyOp22
 70
     0
102
RTVSPropertyOp23
 70
     0
102
RTVSPropertyOp24
 70
     0
102
RTVSPropertyOp25
 70
     0
102
RTVSPropertyOp26
 70
     0
102
RTVSPropertyOp27
 70
     0
  0
XRECORD
  5
16DF
102
{ACAD_REACTORS
330
16DE
102
}
330
16DE
100
AcDbXrecord
280
     1
102
RTVSPropertyOp0
 70
     1
102
RTVSPropertyOp1
 70
     1
102
RTVSPropertyOp2
 70
     1
102
RTVSPropertyOp3
 70
     1
102
RTVSPropertyOp4
 70
     1
102
RTVSPropertyOp5
 70
     1
102
RTVSPropertyOp6
 70
     1
102
RTVSPropertyOp7
 70
     1
102
RTVSPropertyOp8
 70
     1
102
RTVSPropertyOp9
 70
     1
102
RTVSPropertyOp10
 70
     1
102
RTVSPropertyOp11
 70
     1
102
RTVSPropertyOp12
 70
     1
102
RTVSPropertyOp13
 70
     1
102
RTVSPropertyOp14
 70
     1
102
RTVSPropertyOp15
 70
     1
102
RTVSPropertyOp16
 70
     1
102
RTVSPropertyOp17
 70
     1
102
RTVSPropertyOp18
 70
     1
102
RTVSPropertyOp19
 70
     1
102
RTVSPropertyOp20
 70
     1
102
RTVSPropertyOp21
 70
     1
102
RTVSPropertyOp22
 70
     1
102
RTVSPropertyOp23
 70
     1
102
RTVSPropertyOp24
 70
     1
102
RTVSPropertyOp25
 70
     1
102
RTVSPropertyOp26
 70
     1
102
RTVSPropertyOp27
 70
     1
  0
XRECORD
  5
16E5
102
{ACAD_REACTORS
330
16E4
102
}
330
16E4
100
AcDbXrecord
280
     1
102
RTVSPropertyOp0
 70
     1
102
RTVSPropertyOp1
 70
     1
102
RTVSPropertyOp2
 70
     1
102
RTVSPropertyOp3
 70
     1
102
RTVSPropertyOp4
 70
     1
102
RTVSPropertyOp5
 70
     1
102
RTVSPropertyOp6
 70
     1
102
RTVSPropertyOp7
 70
     1
102
RTVSPropertyOp8
 70
     1
102
RTVSPropertyOp9
 70
     1
102
RTVSPropertyOp10
 70
     1
102
RTVSPropertyOp11
 70
     1
102
RTVSPropertyOp12
 70
     1
102
RTVSPropertyOp13
 70
     1
102
RTVSPropertyOp14
 70
     1
102
RTVSPropertyOp15
 70
     1
102
RTVSPropertyOp16
 70
     1
102
RTVSPropertyOp17
 70
     1
102
RTVSPropertyOp18
 70
     1
102
RTVSPropertyOp19
 70
     1
102
RTVSPropertyOp20
 70
     1
102
RTVSPropertyOp21
 70
     1
102
RTVSPropertyOp22
 70
     1
102
RTVSPropertyOp23
 70
     1
102
RTVSPropertyOp24
 70
     1
102
RTVSPropertyOp25
 70
     1
102
RTVSPropertyOp26
 70
     1
102
RTVSPropertyOp27
 70
     1
  0
ENDSEC
  0
EOF
