  0
SECTION
  2
HEADER
  9
$ACADVER
  1
AC1018
  9
$ACADMAINTVER
 70
   104
  9
$DWGCODEPAGE
  3
ANSI_1252
  9
$LASTSAVEDBY
  1
daniele
  9
$INSBASE
 10
0.0
 20
0.0
 30
0.0
  9
$EXTMIN
 10
21.338417836
 20
61.43724318069999
 30
0.0
  9
$EXTMAX
 10
87.33837249009999
 20
99.4371980468
 30
0.0
  9
$LIMMIN
 10
0.0
 20
0.0
  9
$LIMMAX
 10
181.3333333333
 20
117.3333333333
  9
$ORTHOMODE
 70
     0
  9
$REGENMODE
 70
     1
  9
$FILLMODE
 70
     1
  9
$QTEXTMODE
 70
     0
  9
$MIRRTEXT
 70
     0
  9
$LTSCALE
 40
9.973333333300001
  9
$ATTMODE
 70
     1
  9
$TEXTSIZE
 40
0.2
  9
$TRACEWID
 40
0.05
  9
$TEXTSTYLE
  7
STANDARD
  9
$CLAYER
  8
0
  9
$CELTYPE
  6
BYLAYER
  9
$CECOLOR
 62
   256
  9
$CELTSCALE
 40
1.0
  9
$DISPSILH
 70
     0
  9
$DIMSCALE
 40
1.0
  9
$DIMASZ
 40
2.0
  9
$DIMEXO
 40
0.0625
  9
$DIMDLI
 40
6.890666666699999
  9
$DIMRND
 40
0.0
  9
$DIMDLE
 40
0.0
  9
$DIMEXE
 40
0.125
  9
$DIMTP
 40
0.00001
  9
$DIMTM
 40
0.00001
  9
$DIMTXT
 40
1.333333333299999
  9
$DIMCEN
 40
1.631999999999999
  9
$DIMTSZ
 40
0.0
  9
$DIMTOL
 70
     1
  9
$DIMLIM
 70
     0
  9
$DIMTIH
 70
     1
  9
$DIMTOH
 70
     1
  9
$DIMSE1
 70
     0
  9
$DIMSE2
 70
     0
  9
$DIMTAD
 70
     0
  9
$DIMZIN
 70
     0
  9
$DIMBLK
  1
_FILLED
  9
$DIMASO
 70
     1
  9
$DIMSHO
 70
     1
  9
$DIMPOST
  1

  9
$DIMAPOST
  1

  9
$DIMALT
 70
     0
  9
$DIMALTD
 70
     2
  9
$DIMALTF
 40
25.4
  9
$DIMLFAC
 40
1.0
  9
$DIMTOFL
 70
     0
  9
$DIMTVP
 40
0.0
  9
$DIMTIX
 70
     0
  9
$DIMSOXD
 70
     0
  9
$DIMSAH
 70
     0
  9
$DIMBLK1
  1

  9
$DIMBLK2
  1

  9
$DIMSTYLE
  2
STANDARD
  9
$DIMCLRD
 70
     0
  9
$DIMCLRE
 70
     0
  9
$DIMCLRT
 70
     0
  9
$DIMTFAC
 40
1.0
  9
$DIMGAP
 40
0.09
  9
$DIMJUST
 70
     0
  9
$DIMSD1
 70
     0
  9
$DIMSD2
 70
     0
  9
$DIMTOLJ
 70
     1
  9
$DIMTZIN
 70
     0
  9
$DIMALTZ
 70
     0
  9
$DIMALTTZ
 70
     0
  9
$DIMUPT
 70
     0
  9
$DIMDEC
 70
     4
  9
$DIMTDEC
 70
     4
  9
$DIMALTU
 70
     2
  9
$DIMALTTD
 70
     2
  9
$DIMTXSTY
  7
STANDARD
  9
$DIMAUNIT
 70
     0
  9
$DIMADEC
 70
     0
  9
$DIMALTRND
 40
0.0
  9
$DIMAZIN
 70
     0
  9
$DIMDSEP
 70
    46
  9
$DIMATFIT
 70
     3
  9
$DIMFRAC
 70
     0
  9
$DIMLDRBLK
  1

  9
$DIMLUNIT
 70
     2
  9
$DIMLWD
 70
    -2
  9
$DIMLWE
 70
    -2
  9
$DIMTMOVE
 70
     0
  9
$LUNITS
 70
     2
  9
$LUPREC
 70
     4
  9
$SKETCHINC
 40
0.1
  9
$FILLETRAD
 40
0.0
  9
$AUNITS
 70
     0
  9
$AUPREC
 70
     0
  9
$MENU
  1
.
  9
$ELEVATION
 40
0.0
  9
$PELEVATION
 40
0.0
  9
$THICKNESS
 40
0.0
  9
$LIMCHECK
 70
     0
  9
$CHAMFERA
 40
0.0
  9
$CHAMFERB
 40
0.0
  9
$CHAMFERC
 40
0.0
  9
$CHAMFERD
 40
0.0
  9
$SKPOLY
 70
     0
  9
$TDCREATE
 40
2456966.645808854
  9
$TDUCREATE
 40
2456966.812475521
  9
$TDUPDATE
 40
2457220.486280278
  9
$TDUUPDATE
 40
2457220.652946944
  9
$TDINDWG
 40
0.0039305208
  9
$TDUSRTIMER
 40
0.0039305208
  9
$USRTIMER
 70
     1
  9
$ANGBASE
 50
0.0
  9
$ANGDIR
 70
     0
  9
$PDMODE
 70
     3
  9
$PDSIZE
 40
0.03125
  9
$PLINEWID
 40
0.0
  9
$SPLFRAME
 70
     0
  9
$SPLINETYPE
 70
     6
  9
$SPLINESEGS
 70
     8
  9
$HANDSEED
  5
18A8
  9
$SURFTAB1
 70
     6
  9
$SURFTAB2
 70
     6
  9
$SURFTYPE
 70
     6
  9
$SURFU
 70
     6
  9
$SURFV
 70
     6
  9
$UCSBASE
  2

  9
$UCSNAME
  2

  9
$UCSORG
 10
0.0
 20
0.0
 30
0.0
  9
$UCSXDIR
 10
1.0
 20
0.0
 30
0.0
  9
$UCSYDIR
 10
0.0
 20
1.0
 30
0.0
  9
$UCSORTHOREF
  2

  9
$UCSORTHOVIEW
 70
     0
  9
$UCSORGTOP
 10
0.0
 20
0.0
 30
0.0
  9
$UCSORGBOTTOM
 10
0.0
 20
0.0
 30
0.0
  9
$UCSORGLEFT
 10
0.0
 20
0.0
 30
0.0
  9
$UCSORGRIGHT
 10
0.0
 20
0.0
 30
0.0
  9
$UCSORGFRONT
 10
0.0
 20
0.0
 30
0.0
  9
$UCSORGBACK
 10
0.0
 20
0.0
 30
0.0
  9
$PUCSBASE
  2

  9
$PUCSNAME
  2

  9
$PUCSORG
 10
0.0
 20
0.0
 30
0.0
  9
$PUCSXDIR
 10
1.0
 20
0.0
 30
0.0
  9
$PUCSYDIR
 10
0.0
 20
1.0
 30
0.0
  9
$PUCSORTHOREF
  2

  9
$PUCSORTHOVIEW
 70
     0
  9
$PUCSORGTOP
 10
0.0
 20
0.0
 30
0.0
  9
$PUCSORGBOTTOM
 10
0.0
 20
0.0
 30
0.0
  9
$PUCSORGLEFT
 10
0.0
 20
0.0
 30
0.0
  9
$PUCSORGRIGHT
 10
0.0
 20
0.0
 30
0.0
  9
$PUCSORGFRONT
 10
0.0
 20
0.0
 30
0.0
  9
$PUCSORGBACK
 10
0.0
 20
0.0
 30
0.0
  9
$USERI1
 70
     0
  9
$USERI2
 70
     0
  9
$USERI3
 70
     0
  9
$USERI4
 70
     0
  9
$USERI5
 70
     0
  9
$USERR1
 40
0.0
  9
$USERR2
 40
0.0
  9
$USERR3
 40
0.0
  9
$USERR4
 40
0.0
  9
$USERR5
 40
0.0
  9
$WORLDVIEW
 70
     1
  9
$SHADEDGE
 70
     3
  9
$SHADEDIF
 70
    70
  9
$TILEMODE
 70
     1
  9
$MAXACTVP
 70
    64
  9
$PINSBASE
 10
0.0
 20
0.0
 30
0.0
  9
$PLIMCHECK
 70
     0
  9
$PEXTMIN
 10
1.000000000000000E+20
 20
1.000000000000000E+20
 30
1.000000000000000E+20
  9
$PEXTMAX
 10
-1.000000000000000E+20
 20
-1.000000000000000E+20
 30
-1.000000000000000E+20
  9
$PLIMMIN
 10
0.0
 20
0.0
  9
$PLIMMAX
 10
12.0
 20
9.0
  9
$UNITMODE
 70
     0
  9
$VISRETAIN
 70
     1
  9
$PLINEGEN
 70
     0
  9
$PSLTSCALE
 70
     1
  9
$TREEDEPTH
 70
  3020
  9
$CMLSTYLE
  2
Standard
  9
$CMLJUST
 70
     0
  9
$CMLSCALE
 40
1.0
  9
$PROXYGRAPHICS
 70
     1
  9
$MEASUREMENT
 70
     0
  9
$CELWEIGHT
370
    -1
  9
$ENDCAPS
280
     0
  9
$JOINSTYLE
280
     0
  9
$LWDISPLAY
290
     0
  9
$INSUNITS
 70
     1
  9
$HYPERLINKBASE
  1

  9
$STYLESHEET
  1

  9
$XEDIT
290
     1
  9
$CEPSNTYPE
380
     0
  9
$PSTYLEMODE
290
     1
  9
$FINGERPRINTGUID
  2
{BAA30D28-64B2-4947-87E6-43843D4E312F}
  9
$VERSIONGUID
  2
{7875BD9A-51F7-4ABF-9BE5-7D93CDB4F6C0}
  9
$EXTNAMES
290
     1
  9
$PSVPSCALE
 40
0.0
  9
$OLESTARTUP
290
     0
  9
$SORTENTS
280
   127
  9
$INDEXCTL
280
     0
  9
$HIDETEXT
280
     0
  9
$XCLIPFRAME
290
     0
  9
$HALOGAP
280
     0
  9
$OBSCOLOR
 70
   257
  9
$OBSLTYPE
280
     0
  9
$INTERSECTIONDISPLAY
280
     0
  9
$INTERSECTIONCOLOR
 70
   257
  9
$DIMASSOC
280
     1
  9
$PROJECTNAME
  1

  0
ENDSEC
  0
SECTION
  2
CLASSES
  0
CLASS
  1
ACDBDICTIONARYWDFLT
  2
AcDbDictionaryWithDefault
  3
ObjectDBX Classes
 90
        0
 91
        1
280
     0
281
     0
  0
CLASS
  1
MATERIAL
  2
AcDbMaterial
  3
ObjectDBX Classes
 90
     1153
 91
        3
280
     0
281
     0
  0
CLASS
  1
VISUALSTYLE
  2
AcDbVisualStyle
  3
ObjectDBX Classes
 90
     4095
 91
       26
280
     0
281
     0
  0
CLASS
  1
TABLESTYLE
  2
AcDbTableStyle
  3
ObjectDBX Classes
 90
     4095
 91
        1
280
     0
281
     0
  0
CLASS
  1
SCALE
  2
AcDbScale
  3
ObjectDBX Classes
 90
     1153
 91
       33
280
     0
281
     0
  0
CLASS
  1
MLEADERSTYLE
  2
AcDbMLeaderStyle
  3
ACDB_MLEADERSTYLE_CLASS
 90
     4095
 91
        1
280
     0
281
     0
  0
CLASS
  1
CELLSTYLEMAP
  2
AcDbCellStyleMap
  3
ObjectDBX Classes
 90
     1152
 91
        3
280
     0
281
     0
  0
CLASS
  1
DICTIONARYVAR
  2
AcDbDictionaryVar
  3
ObjectDBX Classes
 90
        0
 91
       19
280
     0
281
     0
  0
CLASS
  1
ACDBSECTIONVIEWSTYLE
  2
AcDbSectionViewStyle
  3
ObjectDBX Classes
 90
     1025
 91
        1
280
     0
281
     0
  0
CLASS
  1
ACDBDETAILVIEWSTYLE
  2
AcDbDetailViewStyle
  3
ObjectDBX Classes
 90
     1025
 91
        1
280
     0
281
     0
  0
ENDSEC
  0
SECTION
  2
TABLES
  0
TABLE
  2
VPORT
  5
8
102
{ACAD_XDICTIONARY
360
177C
102
}
330
0
100
AcDbSymbolTable
 70
     1
  0
VPORT
  5
1F4
330
8
100
AcDbSymbolTableRecord
100
AcDbViewportTableRecord
  2
*ACTIVE
 70
     0
 10
0.0
 20
0.0
 11
1.0
 21
1.0
 12
65.05985607613921
 22
81.73918254944604
 13
0.0
 23
0.0
 14
1.0
 24
1.0
 15
0.0
 25
0.0
 16
0.0
 26
0.0
 36
1.0
 17
0.0
 27
0.0
 37
0.0
 40
56.09826132777047
 41
2.246690734055354
 42
50.0
 43
0.0
 44
0.0
 50
0.0
 51
0.0
 71
     0
 72
   100
 73
     1
 74
     1
 75
     0
 76
     0
 77
     0
 78
     0
281
     0
 65
     1
110
0.0
120
0.0
130
0.0
111
1.0
121
0.0
131
0.0
112
0.0
122
1.0
132
0.0
 79
     0
146
0.0
1001
ACAD_NAV_VCDISPLAY
1070
     3
  0
ENDTAB
  0
TABLE
  2
LTYPE
  5
5
330
0
100
AcDbSymbolTable
 70
     6
  0
LTYPE
  5
14
330
5
100
AcDbSymbolTableRecord
100
AcDbLinetypeTableRecord
  2
BYBLOCK
 70
     0
  3

 72
    65
 73
     0
 40
0.0
  0
LTYPE
  5
15
330
5
100
AcDbSymbolTableRecord
100
AcDbLinetypeTableRecord
  2
BYLAYER
 70
     0
  3

 72
    65
 73
     0
 40
0.0
  0
LTYPE
  5
16
330
5
100
AcDbSymbolTableRecord
100
AcDbLinetypeTableRecord
  2
CONTINUOUS
 70
     0
  3
Solid line
 72
    65
 73
     0
 40
0.0
  0
LTYPE
  5
1F5
330
5
100
AcDbSymbolTableRecord
100
AcDbLinetypeTableRecord
  2
CENTER
 70
     0
  3
____ _ ____ _ ____ _ ____ _ ____ _ ____ _ ____
 72
    65
 73
     4
 40
0.6
 49
0.375
 74
     0
 49
-0.075
 74
     0
 49
0.075
 74
     0
 49
-0.075
 74
     0
  0
LTYPE
  5
1F6
330
5
100
AcDbSymbolTableRecord
100
AcDbLinetypeTableRecord
  2
HIDDEN
 70
     0
  3
- - - - - - - - - - - - - - - - - - - -
 72
    65
 73
     2
 40
0.2
 49
0.1
 74
     0
 49
-0.1
 74
     0
  0
LTYPE
  5
1F7
330
5
100
AcDbSymbolTableRecord
100
AcDbLinetypeTableRecord
  2
PHANTOM
 70
     0
  3
_____ _ _ _____ _ _ _____ _ _ _____
 72
    65
 73
     6
 40
0.8
 49
0.45
 74
     0
 49
-0.05
 74
     0
 49
0.1
 74
     0
 49
-0.05
 74
     0
 49
0.1
 74
     0
 49
-0.05
 74
     0
  0
LTYPE
  5
1F8
330
5
100
AcDbSymbolTableRecord
100
AcDbLinetypeTableRecord
  2
DOT
 70
     0
  3
. . . . . . . . . . . . . . . . . . . .
 72
    65
 73
     2
 40
0.2
 49
0.1
 74
     0
 49
-0.1
 74
     0
  0
LTYPE
  5
1F9
330
5
100
AcDbSymbolTableRecord
100
AcDbLinetypeTableRecord
  2
DASHED
 70
     0
  3
- - - - - - - - - - - - - - - - - - - -
 72
    65
 73
     2
 40
0.2
 49
0.1
 74
     0
 49
-0.1
 74
     0
  0
ENDTAB
  0
TABLE
  2
LAYER
  5
2
330
0
100
AcDbSymbolTable
 70
    36
  0
LAYER
  5
10
102
{ACAD_XDICTIONARY
360
17BC
102
}
330
2
100
AcDbSymbolTableRecord
100
AcDbLayerTableRecord
  2
0
 70
     0
 62
     7
  6
CONTINUOUS
370
    -3
390
F
  0
LAYER
  5
1FA
102
{ACAD_XDICTIONARY
360
17BE
102
}
330
2
100
AcDbSymbolTableRecord
100
AcDbLayerTableRecord
  2
DEFAULT_1
 70
     0
 62
     7
  6
CENTER
370
    -3
390
F
  0
LAYER
  5
1FB
102
{ACAD_XDICTIONARY
360
17C0
102
}
330
2
100
AcDbSymbolTableRecord
100
AcDbLayerTableRecord
  2
DEFAULT_2
 70
     0
 62
     7
  6
HIDDEN
370
    -3
390
F
  0
LAYER
  5
1FC
102
{ACAD_XDICTIONARY
360
17C2
102
}
330
2
100
AcDbSymbolTableRecord
100
AcDbLayerTableRecord
  2
DEFAULT_3
 70
     0
 62
     7
  6
PHANTOM
370
    -3
390
F
  0
LAYER
  5
1FD
102
{ACAD_XDICTIONARY
360
17C4
102
}
330
2
100
AcDbSymbolTableRecord
100
AcDbLayerTableRecord
  2
1_CURVES
 70
     0
 62
     7
  6
CONTINUOUS
370
    -3
390
F
  0
LAYER
  5
1FE
102
{ACAD_XDICTIONARY
360
17C6
102
}
330
2
100
AcDbSymbolTableRecord
100
AcDbLayerTableRecord
  2
1_CURVES-DEGAGEMENT-COIL
 70
     0
 62
     7
  6
CONTINUOUS
370
    -3
390
F
  0
LAYER
  5
1FF
102
{ACAD_XDICTIONARY
360
17C8
102
}
330
2
100
AcDbSymbolTableRecord
100
AcDbLayerTableRecord
  2
1_CURVES-TRAJECTOIRE-COIL
 70
     0
 62
     7
  6
CONTINUOUS
370
    -3
390
F
  0
LAYER
  5
200
102
{ACAD_XDICTIONARY
360
17CA
102
}
330
2
100
AcDbSymbolTableRecord
100
AcDbLayerTableRecord
  2
1_CURVES_CONDUIT
 70
     0
 62
     7
  6
CONTINUOUS
370
    -3
390
F
  0
LAYER
  5
201
102
{ACAD_XDICTIONARY
360
17CC
102
}
330
2
100
AcDbSymbolTableRecord
100
AcDbLayerTableRecord
  2
1_CURVES_IMPORT
 70
     0
 62
     7
  6
CONTINUOUS
370
    -3
390
F
  0
LAYER
  5
202
102
{ACAD_XDICTIONARY
360
17CE
102
}
330
2
100
AcDbSymbolTableRecord
100
AcDbLayerTableRecord
  2
1_CURVES_JETS
 70
     0
 62
     7
  6
CONTINUOUS
370
    -3
390
F
  0
LAYER
  5
203
102
{ACAD_XDICTIONARY
360
17D0
102
}
330
2
100
AcDbSymbolTableRecord
100
AcDbLayerTableRecord
  2
1_CURVES_PATINS
 70
     0
 62
     7
  6
CONTINUOUS
370
    -3
390
F
  0
LAYER
  5
204
102
{ACAD_XDICTIONARY
360
17D2
102
}
330
2
100
AcDbSymbolTableRecord
100
AcDbLayerTableRecord
  2
1_CURVES_SPEC_FRONT
 70
     0
 62
     7
  6
CONTINUOUS
370
    -3
390
F
  0
LAYER
  5
205
102
{ACAD_XDICTIONARY
360
17D4
102
}
330
2
100
AcDbSymbolTableRecord
100
AcDbLayerTableRecord
  2
1_CURVES_SPEC_RIGHT
 70
     0
 62
     7
  6
CONTINUOUS
370
    -3
390
F
  0
LAYER
  5
206
102
{ACAD_XDICTIONARY
360
17D6
102
}
330
2
100
AcDbSymbolTableRecord
100
AcDbLayerTableRecord
  2
1_CURVES_ZONE-ROBINETTERIE
 70
     0
 62
     7
  6
CONTINUOUS
370
    -3
390
F
  0
LAYER
  5
207
102
{ACAD_XDICTIONARY
360
17D8
102
}
330
2
100
AcDbSymbolTableRecord
100
AcDbLayerTableRecord
  2
2_PLANES
 70
     0
 62
     7
  6
CONTINUOUS
370
    -3
390
F
  0
LAYER
  5
208
102
{ACAD_XDICTIONARY
360
17DA
102
}
330
2
100
AcDbSymbolTableRecord
100
AcDbLayerTableRecord
  2
2_PLANES_JETS
 70
     0
 62
     7
  6
CONTINUOUS
370
    -3
390
F
  0
LAYER
  5
209
102
{ACAD_XDICTIONARY
360
17DC
102
}
330
2
100
AcDbSymbolTableRecord
100
AcDbLayerTableRecord
  2
3_POINTS
 70
     0
 62
     7
  6
CONTINUOUS
370
    -3
390
F
  0
LAYER
  5
20A
102
{ACAD_XDICTIONARY
360
17DE
102
}
330
2
100
AcDbSymbolTableRecord
100
AcDbLayerTableRecord
  2
3_POINTS_JETS
 70
     0
 62
     7
  6
CONTINUOUS
370
    -3
390
F
  0
LAYER
  5
20B
102
{ACAD_XDICTIONARY
360
17E0
102
}
330
2
100
AcDbSymbolTableRecord
100
AcDbLayerTableRecord
  2
4_CSYS
 70
     0
 62
     7
  6
CONTINUOUS
370
    -3
390
F
  0
LAYER
  5
20C
102
{ACAD_XDICTIONARY
360
17E2
102
}
330
2
100
AcDbSymbolTableRecord
100
AcDbLayerTableRecord
  2
5_AXIS
 70
     0
 62
     7
  6
CONTINUOUS
370
    -3
390
F
  0
LAYER
  5
20D
102
{ACAD_XDICTIONARY
360
17E4
102
}
330
2
100
AcDbSymbolTableRecord
100
AcDbLayerTableRecord
  2
5_AXIS_JETS
 70
     0
 62
     7
  6
CONTINUOUS
370
    -3
390
F
  0
LAYER
  5
20E
102
{ACAD_XDICTIONARY
360
17E6
102
}
330
2
100
AcDbSymbolTableRecord
100
AcDbLayerTableRecord
  2
6_AIRE_CONDUIT
 70
     0
 62
     7
  6
CONTINUOUS
370
    -3
390
F
  0
LAYER
  5
20F
102
{ACAD_XDICTIONARY
360
17E8
102
}
330
2
100
AcDbSymbolTableRecord
100
AcDbLayerTableRecord
  2
6_SURFACES
 70
     0
 62
     7
  6
CONTINUOUS
370
    -3
390
F
  0
LAYER
  5
210
102
{ACAD_XDICTIONARY
360
17EA
102
}
330
2
100
AcDbSymbolTableRecord
100
AcDbLayerTableRecord
  2
6_SURFACES_AIRE
 70
     0
 62
     7
  6
CONTINUOUS
370
    -3
390
F
  0
LAYER
  5
211
102
{ACAD_XDICTIONARY
360
17EC
102
}
330
2
100
AcDbSymbolTableRecord
100
AcDbLayerTableRecord
  2
6_SURFACES_DROP_IN
 70
     0
 62
     7
  6
CONTINUOUS
370
    -3
390
F
  0
LAYER
  5
212
102
{ACAD_XDICTIONARY
360
17EE
102
}
330
2
100
AcDbSymbolTableRecord
100
AcDbLayerTableRecord
  2
6_SURFACES_FS
 70
     0
 62
     7
  6
CONTINUOUS
370
    -3
390
F
  0
LAYER
  5
213
102
{ACAD_XDICTIONARY
360
17F0
102
}
330
2
100
AcDbSymbolTableRecord
100
AcDbLayerTableRecord
  2
6_SURFACES_OFFSET_FIBRE_ACRYLIQ
 70
     0
 62
     7
  6
CONTINUOUS
370
    -3
390
F
  0
LAYER
  5
214
102
{ACAD_XDICTIONARY
360
17F2
102
}
330
2
100
AcDbSymbolTableRecord
100
AcDbLayerTableRecord
  2
6_SURFACES_PATINS_SPECS
 70
     0
 62
     7
  6
CONTINUOUS
370
    -3
390
F
  0
LAYER
  5
215
102
{ACAD_XDICTIONARY
360
17F4
102
}
330
2
100
AcDbSymbolTableRecord
100
AcDbLayerTableRecord
  2
6_SURFACES_POUR_CONDUIT
 70
     0
 62
     7
  6
CONTINUOUS
370
    -3
390
F
  0
LAYER
  5
216
102
{ACAD_XDICTIONARY
360
17F6
102
}
330
2
100
AcDbSymbolTableRecord
100
AcDbLayerTableRecord
  2
6_SURFACES_POUR_HFL
 70
     0
 62
     7
  6
CONTINUOUS
370
    -3
390
F
  0
LAYER
  5
217
102
{ACAD_XDICTIONARY
360
17F8
102
}
330
2
100
AcDbSymbolTableRecord
100
AcDbLayerTableRecord
  2
6_SURFACES_TOOLING
 70
     0
 62
     7
  6
CONTINUOUS
370
    -3
390
F
  0
LAYER
  5
218
102
{ACAD_XDICTIONARY
360
17FA
102
}
330
2
100
AcDbSymbolTableRecord
100
AcDbLayerTableRecord
  2
7_NOTES
 70
     0
 62
     7
  6
CONTINUOUS
370
    -3
390
F
  0
LAYER
  5
219
102
{ACAD_XDICTIONARY
360
17FC
102
}
330
2
100
AcDbSymbolTableRecord
100
AcDbLayerTableRecord
  2
8_TOL_GEOM
 70
     0
 62
     7
  6
CONTINUOUS
370
    -3
390
F
  0
LAYER
  5
21A
102
{ACAD_XDICTIONARY
360
17FE
102
}
330
2
100
AcDbSymbolTableRecord
100
AcDbLayerTableRecord
  2
DEGAGEMENT_SERIGRAPHIE
 70
     0
 62
     7
  6
CONTINUOUS
370
    -3
390
F
  0
LAYER
  5
21B
102
{ACAD_XDICTIONARY
360
1800
102
}
330
2
100
AcDbSymbolTableRecord
100
AcDbLayerTableRecord
  2
NONE
 70
     0
 62
     7
  6
CONTINUOUS
370
    -3
390
F
  0
LAYER
  5
21C
102
{ACAD_XDICTIONARY
360
1802
102
}
330
2
100
AcDbSymbolTableRecord
100
AcDbLayerTableRecord
  2
XSEC_DATUMS
 70
     0
 62
     7
  6
CONTINUOUS
370
    -3
390
F
  0
ENDTAB
  0
TABLE
  2
STYLE
  5
3
330
0
100
AcDbSymbolTable
 70
     8
  0
STYLE
  5
11
330
3
100
AcDbSymbolTableRecord
100
AcDbTextStyleTableRecord
  2
STANDARD
 70
     0
 40
0.0
 41
0.8
 50
0.0
 71
     0
 42
0.2
  3
txt
  4

  0
STYLE
  5
21D
330
3
100
AcDbSymbolTableRecord
100
AcDbTextStyleTableRecord
  2
TEXTSTYLE_1
 70
     0
 40
0.0
 41
0.8
 50
0.0
 71
     0
 42
0.2
  3
gdt
  4

  0
STYLE
  5
21E
330
3
100
AcDbSymbolTableRecord
100
AcDbTextStyleTableRecord
  2
TEXTSTYLE_2
 70
     0
 40
0.0
 41
1.0
 50
0.0
 71
     0
 42
0.2
  3
trium.ttf
  4

  0
STYLE
  5
21F
330
3
100
AcDbSymbolTableRecord
100
AcDbTextStyleTableRecord
  2
TEXTSTYLE_3
 70
     0
 40
0.0
 41
1.0
 50
0.0
 71
     0
 42
0.2
  3
trium.ttf
  4

  0
STYLE
  5
220
330
3
100
AcDbSymbolTableRecord
100
AcDbTextStyleTableRecord
  2
TEXTSTYLE_4
 70
     0
 40
0.0
 41
1.0
 50
0.0
 71
     0
 42
0.2
  3
txt_____.ttf
  4

1001
ACAD
1000
txt
1071
        2
  0
STYLE
  5
221
330
3
100
AcDbSymbolTableRecord
100
AcDbTextStyleTableRecord
  2
TEXTSTYLE_5
 70
     0
 40
0.0
 41
1.0
 50
0.0
 71
     0
 42
0.2
  3
txt
  4

  0
STYLE
  5
222
330
3
100
AcDbSymbolTableRecord
100
AcDbTextStyleTableRecord
  2
TEXTSTYLE_6
 70
     0
 40
0.0
 41
1.0
 50
0.0
 71
     0
 42
0.2
  3
trium.ttf
  4

  0
STYLE
  5
223
330
3
100
AcDbSymbolTableRecord
100
AcDbTextStyleTableRecord
  2
TEXTSTYLE_7
 70
     0
 40
0.0
 41
0.8
 50
0.0
 71
     0
 42
0.2
  3
txt
  4

1001
ACAD
1000
Txt
1071
        2
  0
ENDTAB
  0
TABLE
  2
VIEW
  5
6
330
0
100
AcDbSymbolTable
 70
     0
  0
ENDTAB
  0
TABLE
  2
UCS
  5
7
330
0
100
AcDbSymbolTable
 70
     0
  0
ENDTAB
  0
TABLE
  2
APPID
  5
9
330
0
100
AcDbSymbolTable
 70
     3
  0
APPID
  5
224
330
9
100
AcDbSymbolTableRecord
100
AcDbRegAppTableRecord
  2
ACAD
 70
     0
  0
APPID
  5
17AC
330
9
100
AcDbSymbolTableRecord
100
AcDbRegAppTableRecord
  2
ACAD_MLEADERVER
 70
     0
  0
APPID
  5
1822
330
9
100
AcDbSymbolTableRecord
100
AcDbRegAppTableRecord
  2
ACAD_NAV_VCDISPLAY
 70
     0
  0
ENDTAB
  0
TABLE
  2
DIMSTYLE
  5
A
330
0
100
AcDbSymbolTable
 70
     4
100
AcDbDimStyleTable
 71
     0
  0
DIMSTYLE
105
23F
330
A
100
AcDbSymbolTableRecord
100
AcDbDimStyleTableRecord
  2
STANDARD
 70
     0
 41
2.0
 44
0.125
 47
0.00001
 48
0.00001
 71
     1
 78
     4
140
1.333333333299999
271
     5
272
     5
284
     4
340
11
341
227
342
227
343
227
344
227
  0
DIMSTYLE
105
240
330
A
100
AcDbSymbolTableRecord
100
AcDbDimStyleTableRecord
  2
DIMSTYLE_1
 70
     0
 41
2.0
 44
0.125
 47
0.00001
 48
0.00001
 78
     4
140
1.333333333299999
147
0.0625
271
     3
272
     3
284
     4
340
11
341
227
342
227
343
227
344
227
  0
DIMSTYLE
105
241
330
A
100
AcDbSymbolTableRecord
100
AcDbDimStyleTableRecord
  2
DIMSTYLE_2
 70
     0
 41
2.0
 44
0.125
 47
0.00001
 48
0.00001
 78
     4
140
1.333333333299999
147
0.0625
271
     6
272
     6
284
     4
340
11
341
227
342
227
343
227
344
227
  0
DIMSTYLE
105
242
330
A
100
AcDbSymbolTableRecord
100
AcDbDimStyleTableRecord
  2
DIMSTYLE_3
 70
     0
 41
2.0
 44
0.125
 47
0.5
 48
0.5
 78
     4
140
1.333333333299999
271
     0
272
     0
284
     4
340
11
341
227
342
227
343
227
344
227
  0
ENDTAB
  0
TABLE
  2
BLOCK_RECORD
  5
1
330
0
100
AcDbSymbolTable
 70
     9
  0
BLOCK_RECORD
  5
225
330
1
100
AcDbSymbolTableRecord
100
AcDbBlockTableRecord
  2
*Model_Space
340
1721
  0
BLOCK_RECORD
  5
226
330
1
100
AcDbSymbolTableRecord
100
AcDbBlockTableRecord
  2
*Paper_Space
340
1722
  0
BLOCK_RECORD
  5
227
330
1
100
AcDbSymbolTableRecord
100
AcDbBlockTableRecord
  2
_FILLED
340
0
  0
BLOCK_RECORD
  5
237
330
1
100
AcDbSymbolTableRecord
100
AcDbBlockTableRecord
  2
SYMBOL_8_BL7
340
0
  0
BLOCK_RECORD
  5
238
330
1
100
AcDbSymbolTableRecord
100
AcDbBlockTableRecord
  2
SYMBOL_12_BL6
340
0
  0
BLOCK_RECORD
  5
239
330
1
100
AcDbSymbolTableRecord
100
AcDbBlockTableRecord
  2
SYMBOL_11_BL5
340
0
  0
BLOCK_RECORD
  5
23A
330
1
100
AcDbSymbolTableRecord
100
AcDbBlockTableRecord
  2
SYMBOL_10_BL4
340
0
  0
BLOCK_RECORD
  5
23B
330
1
100
AcDbSymbolTableRecord
100
AcDbBlockTableRecord
  2
SYMBOL_5_BL3
340
0
  0
BLOCK_RECORD
  5
23C
330
1
100
AcDbSymbolTableRecord
100
AcDbBlockTableRecord
  2
SYMBOL_4_BL2
340
0
  0
BLOCK_RECORD
  5
23D
330
1
100
AcDbSymbolTableRecord
100
AcDbBlockTableRecord
  2
SYMBOL_3_BL1
340
0
  0
BLOCK_RECORD
  5
23E
330
1
100
AcDbSymbolTableRecord
100
AcDbBlockTableRecord
  2
SYMBOL_0_BL0
340
0
  0
ENDTAB
  0
ENDSEC
  0
SECTION
  2
BLOCKS
  0
BLOCK
  5
20
330
225
100
AcDbEntity
  8
0
100
AcDbBlockBegin
  2
*Model_Space
 70
     0
 10
0.0
 20
0.0
 30
0.0
  3
*Model_Space
  1

  0
ENDBLK
  5
21
330
225
100
AcDbEntity
  8
0
100
AcDbBlockEnd
  0
BLOCK
  5
1C
330
226
100
AcDbEntity
 67
     1
  8
0
100
AcDbBlockBegin
  2
*Paper_Space
 70
     0
 10
0.0
 20
0.0
 30
0.0
  3
*Paper_Space
  1

  0
ENDBLK
  5
1D
330
226
100
AcDbEntity
 67
     1
  8
0
100
AcDbBlockEnd
  0
BLOCK
  5
32A
330
227
100
AcDbEntity
  8
0
100
AcDbBlockBegin
  2
_FILLED
 70
     0
 10
0.0
 20
0.0
 30
0.0
  3
_FILLED
  1

  0
SOLID
  5
32B
330
227
100
AcDbEntity
  8
0
  6
ByBlock
 62
     0
100
AcDbTrace
 10
0.0
 20
0.0
 30
0.0
 11
-1.0
 21
0.1666666667
 31
0.0
 12
-1.0
 22
-0.1666666667
 32
0.0
 13
-1.0
 23
-0.1666666667
 33
0.0
  0
ENDBLK
  5
32C
330
227
100
AcDbEntity
  8
0
  6
ByBlock
 62
     0
100
AcDbBlockEnd
  0
BLOCK
  5
243
330
237
100
AcDbEntity
  8
0
  6
Continuous
 62
     7
100
AcDbBlockBegin
  2
SYMBOL_8_BL7
 70
     0
 10
123.4755144253
 20
51.6510813909
 30
0.0
  3
SYMBOL_8_BL7
  1

  0
TEXT
  5
244
330
237
100
AcDbEntity
  8
0
  6
Continuous
 62
     7
100
AcDbText
 10
117.1614541235
 20
53.8961153767
 30
0.0
 40
1.1626666667
  1
INTERNAL USE 
 50
10.0
  7
TEXTSTYLE_3
100
AcDbText
  0
TEXT
  5
245
330
237
100
AcDbEntity
  8
0
  6
Continuous
 62
     7
100
AcDbText
 10
116.4177699195
 20
51.894594199
 30
0.0
 40
1.1626666667
  1
DOCUMENT ONLY
 50
10.0
  7
TEXTSTYLE_3
100
AcDbText
  0
TEXT
  5
246
330
237
100
AcDbEntity
  8
0
  6
Continuous
 62
     7
100
AcDbText
 10
122.2024974827
 20
51.64616614839999
 30
0.0
 40
1.1626666667
  1
 
 50
10.0
  7
TEXTSTYLE_5
100
AcDbText
  0
TEXT
  5
247
330
237
100
AcDbEntity
  8
0
  6
Continuous
 62
     7
100
AcDbText
 10
113.7578495997
 20
47.4690717421
 30
0.0
 40
1.1626666667
  1
DOCUMENT POUR USAGE
 50
10.0
  7
TEXTSTYLE_3
100
AcDbText
  0
TEXT
  5
248
330
237
100
AcDbEntity
  8
0
  6
Continuous
 62
     7
100
AcDbText
 10
114.1869490457
 20
45.4523232817
 30
0.0
 40
1.1626666667
  1
A L'INTERNE SEULEMENT
 50
10.0
  7
TEXTSTYLE_3
100
AcDbText
  0
LINE
  5
249
330
237
100
AcDbEntity
  8
0
  6
Continuous
 62
     7
100
AcDbLine
 10
137.3320661486
 20
47.3075477729
 30
0.0
 11
137.3388250812
 21
47.31430670549999
 31
0.0
  0
LINE
  5
24A
330
237
100
AcDbEntity
  8
0
  6
Continuous
 62
     7
100
AcDbLine
 10
136.5994965822
 20
47.17837599310001
 30
0.0
 11
137.2483780273
 21
47.8272574382
 31
0.0
  0
LINE
  5
24B
330
237
100
AcDbEntity
  8
0
  6
Continuous
 62
     7
100
AcDbLine
 10
135.8669270158
 20
47.0492042133
 30
0.0
 11
137.1579309733
 21
48.34020817089999
 31
0.0
  0
LINE
  5
24C
330
237
100
AcDbEntity
  8
0
  6
Continuous
 62
     7
100
AcDbLine
 10
135.1343574493
 20
46.9200324335
 30
0.0
 11
137.0674839194
 21
48.8531589035
 31
0.0
  0
LINE
  5
24D
330
237
100
AcDbEntity
  8
0
  6
Continuous
 62
     7
100
AcDbLine
 10
134.4017878829
 20
46.79086065369999
 30
0.0
 11
136.9770368655
 21
49.3661096362
 31
0.0
  0
LINE
  5
24E
330
237
100
AcDbEntity
  8
0
  6
Continuous
 62
     7
100
AcDbLine
 10
133.6692183165
 20
46.6616888739
 30
0.0
 11
135.2102221313
 21
48.20269268859999
 31
0.0
  0
LINE
  5
24F
330
237
100
AcDbEntity
  8
0
  6
Continuous
 62
     7
100
AcDbLine
 10
135.807567324
 20
48.8000378814
 30
0.0
 11
136.8865898115
 21
49.87906036890001
 31
0.0
  0
LINE
  5
250
330
237
100
AcDbEntity
  8
0
  6
Continuous
 62
     7
100
AcDbLine
 10
132.9366487501
 20
46.5325170941
 30
0.0
 11
134.4776525649
 21
48.0735209088
 31
0.0
  0
LINE
  5
251
330
237
100
AcDbEntity
  8
0
  6
Continuous
 62
     7
100
AcDbLine
 10
135.7171202701
 20
49.312988614
 30
0.0
 11
136.7961427576
 21
50.3920111016
 31
0.0
  0
LINE
  5
252
330
237
100
AcDbEntity
  8
0
  6
Continuous
 62
     7
100
AcDbLine
 10
132.2040791837
 20
46.4033453143
 30
0.0
 11
133.7450829984
 21
47.94434912899999
 31
0.0
  0
LINE
  5
253
330
237
100
AcDbEntity
  8
0
  6
Continuous
 62
     7
100
AcDbLine
 10
135.6266732161
 20
49.8259393467
 30
0.0
 11
136.7056957036
 21
50.9049618342
 31
0.0
  0
LINE
  5
254
330
237
100
AcDbEntity
  8
0
  6
Continuous
 62
     7
100
AcDbLine
 10
131.4715096171999
 20
46.2741735344
 30
0.0
 11
133.012513432
 21
47.8151773492
 31
0.0
  0
LINE
  5
255
330
237
100
AcDbEntity
  8
0
  6
Continuous
 62
     7
100
AcDbLine
 10
135.5362261622
 20
50.3388900794
 30
0.0
 11
136.6152486497
 21
51.41791256689999
 31
0.0
  0
LINE
  5
256
330
237
100
AcDbEntity
  8
0
  6
Continuous
 62
     7
100
AcDbLine
 10
130.7389400508
 20
46.1450017546
 30
0.0
 11
132.2799438656
 21
47.6860055694
 31
0.0
  0
LINE
  5
257
330
237
100
AcDbEntity
  8
0
  6
Continuous
 62
     7
100
AcDbLine
 10
135.4457791082
 20
50.851840812
 30
0.0
 11
136.5248015957
 21
51.93086329959999
 31
0.0
  0
LINE
  5
258
330
237
100
AcDbEntity
  8
0
  6
Continuous
 62
     7
100
AcDbLine
 10
130.0063704844
 20
46.01582997479999
 30
0.0
 11
131.5473742992
 21
47.55683378959999
 31
0.0
  0
LINE
  5
259
330
237
100
AcDbEntity
  8
0
  6
Continuous
 62
     7
100
AcDbLine
 10
135.3553320543
 20
51.3647915447
 30
0.0
 11
136.4343545418
 21
52.4438140322
 31
0.0
  0
LINE
  5
25A
330
237
100
AcDbEntity
  8
0
  6
Continuous
 62
     7
100
AcDbLine
 10
129.273800918
 20
45.886658195
 30
0.0
 11
130.8148047328
 21
47.42766200979999
 31
0.0
  0
LINE
  5
25B
330
237
100
AcDbEntity
  8
0
  6
Continuous
 62
     7
100
AcDbLine
 10
135.2648850003
 20
51.8777422774
 30
0.0
 11
136.3439074879
 21
52.9567647649
 31
0.0
  0
LINE
  5
25C
330
237
100
AcDbEntity
  8
0
  6
Continuous
 62
     7
100
AcDbLine
 10
128.5412313516
 20
45.7574864152
 30
0.0
 11
130.0822351664
 21
47.29849022999999
 31
0.0
  0
LINE
  5
25D
330
237
100
AcDbEntity
  8
0
  6
Continuous
 62
     7
100
AcDbLine
 10
135.1744379464
 20
52.39069301
 30
0.0
 11
136.2534604339
 21
53.4697154976
 31
0.0
  0
LINE
  5
25E
330
237
100
AcDbEntity
  8
0
  6
Continuous
 62
     7
100
AcDbLine
 10
127.8086617852
 20
45.6283146354
 30
0.0
 11
129.3496655999
 21
47.1693184502
 31
0.0
  0
LINE
  5
25F
330
237
100
AcDbEntity
  8
0
  6
Continuous
 62
     7
100
AcDbLine
 10
135.0839908925
 20
52.90364374270001
 30
0.0
 11
136.16301338
 21
53.9826662302
 31
0.0
  0
LINE
  5
260
330
237
100
AcDbEntity
  8
0
  6
Continuous
 62
     7
100
AcDbLine
 10
127.0760922187
 20
45.4991428556
 30
0.0
 11
128.6170960335
 21
47.0401466704
 31
0.0
  0
LINE
  5
261
330
237
100
AcDbEntity
  8
0
  6
Continuous
 62
     7
100
AcDbLine
 10
134.7811112926
 20
53.20416192949999
 30
0.0
 11
136.072566326
 21
54.4956169629
 31
0.0
  0
LINE
  5
262
330
237
100
AcDbEntity
  8
0
  6
Continuous
 62
     7
100
AcDbLine
 10
126.3435226523
 20
45.3699710758
 30
0.0
 11
127.8845264671
 21
46.9109748906
 31
0.0
  0
LINE
  5
263
330
237
100
AcDbEntity
  8
0
  6
Continuous
 62
     7
100
AcDbLine
 10
134.0485417262
 20
53.0749901497
 30
0.0
 11
135.9821192721
 21
55.00856769560001
 31
0.0
  0
LINE
  5
264
330
237
100
AcDbEntity
  8
0
  6
Continuous
 62
     7
100
AcDbLine
 10
125.6109530859
 20
45.240799296
 30
0.0
 11
127.1519569007
 21
46.7818031108
 31
0.0
  0
LINE
  5
265
330
237
100
AcDbEntity
  8
0
  6
Continuous
 62
     7
100
AcDbLine
 10
133.3159721598
 20
52.94581836989999
 30
0.0
 11
134.343314458
 21
53.9731606682
 31
0.0
  0
LINE
  5
266
330
237
100
AcDbEntity
  8
0
  6
Continuous
 62
     7
100
AcDbLine
 10
134.8126497306
 20
54.4424959407
 30
0.0
 11
135.8916722181
 21
55.52151842819999
 31
0.0
  0
LINE
  5
267
330
237
100
AcDbEntity
  8
0
  6
Continuous
 62
     7
100
AcDbLine
 10
124.8783835195
 20
45.1116275162
 30
0.0
 11
126.4193873343
 21
46.652631331
 31
0.0
  0
LINE
  5
268
330
237
100
AcDbEntity
  8
0
  6
Continuous
 62
     7
100
AcDbLine
 10
132.5834025934
 20
52.8166465901
 30
0.0
 11
133.610744682
 21
53.8439886787
 31
0.0
  0
LINE
  5
269
330
237
100
AcDbEntity
  8
0
  6
Continuous
 62
     7
100
AcDbLine
 10
134.7222026767
 20
54.9554466734
 30
0.0
 11
135.8012251642
 21
56.0344691609
 31
0.0
  0
LINE
  5
26A
330
237
100
AcDbEntity
  8
0
  6
Continuous
 62
     7
100
AcDbLine
 10
124.1458139531
 20
44.98245573640001
 30
0.0
 11
125.6868177678
 21
46.5234595512
 31
0.0
  0
LINE
  5
26B
330
237
100
AcDbEntity
  8
0
  6
Continuous
 62
     7
100
AcDbLine
 10
131.850833027
 20
52.6874748103
 30
0.0
 11
132.878174906
 21
53.7148166893
 31
0.0
  0
LINE
  5
26C
330
237
100
AcDbEntity
  8
0
  6
Continuous
 62
     7
100
AcDbLine
 10
134.6317556227
 20
55.4683974061
 30
0.0
 11
135.7107781102
 21
56.54741989359999
 31
0.0
  0
LINE
  5
26D
330
237
100
AcDbEntity
  8
0
  6
Continuous
 62
     7
100
AcDbLine
 10
123.4132443866
 20
44.85328395659999
 30
0.0
 11
124.9542482014
 21
46.3942877714
 31
0.0
  0
LINE
  5
26E
330
237
100
AcDbEntity
  8
0
  6
Continuous
 62
     7
100
AcDbLine
 10
131.1182634605
 20
52.5583030305
 30
0.0
 11
132.14560513
 21
53.5856446999
 31
0.0
  0
LINE
  5
26F
330
237
100
AcDbEntity
  8
0
  6
Continuous
 62
     7
100
AcDbLine
 10
134.5413085688
 20
55.9813481387
 30
0.0
 11
135.6203310563
 21
57.0603706262
 31
0.0
  0
LINE
  5
270
330
237
100
AcDbEntity
  8
0
  6
Continuous
 62
     7
100
AcDbLine
 10
122.6806748202
 20
44.7241121768
 30
0.0
 11
124.221678635
 21
46.26511599159999
 31
0.0
  0
LINE
  5
271
330
237
100
AcDbEntity
  8
0
  6
Continuous
 62
     7
100
AcDbLine
 10
130.3856938941
 20
52.4291312507
 30
0.0
 11
131.4130353539
 21
53.4564727105
 31
0.0
  0
LINE
  5
272
330
237
100
AcDbEntity
  8
0
  6
Continuous
 62
     7
100
AcDbLine
 10
134.4508615148
 20
56.49429887140001
 30
0.0
 11
135.5298840024
 21
57.5733213589
 31
0.0
  0
LINE
  5
273
330
237
100
AcDbEntity
  8
0
  6
Continuous
 62
     7
100
AcDbLine
 10
121.9481052538
 20
44.594940397
 30
0.0
 11
123.4891090686
 21
46.1359442118
 31
0.0
  0
LINE
  5
274
330
237
100
AcDbEntity
  8
0
  6
Continuous
 62
     7
100
AcDbLine
 10
129.6531243277
 20
52.29995947089999
 30
0.0
 11
130.6804655779
 21
53.32730072109999
 31
0.0
  0
LINE
  5
275
330
237
100
AcDbEntity
  8
0
  6
Continuous
 62
     7
100
AcDbLine
 10
134.3604144609
 20
57.00724960409999
 30
0.0
 11
135.4394369484
 21
58.0862720916
 31
0.0
  0
LINE
  5
276
330
237
100
AcDbEntity
  8
0
  6
Continuous
 62
     7
100
AcDbLine
 10
121.2155356874
 20
44.4657686172
 30
0.0
 11
122.7565395022
 21
46.00677243199999
 31
0.0
  0
LINE
  5
277
330
237
100
AcDbEntity
  8
0
  6
Continuous
 62
     7
100
AcDbLine
 10
128.9205547613
 20
52.17078769109999
 30
0.0
 11
129.9478958019
 21
53.1981287317
 31
0.0
  0
LINE
  5
278
330
237
100
AcDbEntity
  8
0
  6
Continuous
 62
     7
100
AcDbLine
 10
134.269967407
 20
57.5202003367
 30
0.0
 11
135.3489898945
 21
58.5992228243
 31
0.0
  0
LINE
  5
279
330
237
100
AcDbEntity
  8
0
  6
Continuous
 62
     7
100
AcDbLine
 10
120.482966121
 20
44.33659683739999
 30
0.0
 11
122.0239699358
 21
45.8776006521
 31
0.0
  0
LINE
  5
27A
330
237
100
AcDbEntity
  8
0
  6
Continuous
 62
     7
100
AcDbLine
 10
128.1879851949
 20
52.0416159113
 30
0.0
 11
129.2153260258
 21
53.0689567422
 31
0.0
  0
LINE
  5
27B
330
237
100
AcDbEntity
  8
0
  6
Continuous
 62
     7
100
AcDbLine
 10
134.179520353
 20
58.0331510694
 30
0.0
 11
135.2585428405
 21
59.11217355689999
 31
0.0
  0
LINE
  5
27C
330
237
100
AcDbEntity
  8
0
  6
Continuous
 62
     7
100
AcDbLine
 10
119.7503965546
 20
44.2074250576
 30
0.0
 11
121.2914003693
 21
45.74842887229999
 31
0.0
  0
LINE
  5
27D
330
237
100
AcDbEntity
  8
0
  6
Continuous
 62
     7
100
AcDbLine
 10
127.4554156284
 20
51.9124441314
 30
0.0
 11
128.4827562498
 21
52.93978475279999
 31
0.0
  0
LINE
  5
27E
330
237
100
AcDbEntity
  8
0
  6
Continuous
 62
     7
100
AcDbLine
 10
134.0890732991
 20
58.54610180209999
 30
0.0
 11
135.1680957866
 21
59.6251242896
 31
0.0
  0
LINE
  5
27F
330
237
100
AcDbEntity
  8
0
  6
Continuous
 62
     7
100
AcDbLine
 10
119.0178269881
 20
44.07825327779999
 30
0.0
 11
120.5588308029
 21
45.6192570925
 31
0.0
  0
LINE
  5
280
330
237
100
AcDbEntity
  8
0
  6
Continuous
 62
     7
100
AcDbLine
 10
126.722846062
 20
51.7832723516
 30
0.0
 11
127.7501864738
 21
52.8106127634
 31
0.0
  0
LINE
  5
281
330
237
100
AcDbEntity
  8
0
  6
Continuous
 62
     7
100
AcDbLine
 10
133.9141971977
 20
58.97462348729999
 30
0.0
 11
135.0776487326
 21
60.13807502229999
 31
0.0
  0
LINE
  5
282
330
237
100
AcDbEntity
  8
0
  6
Continuous
 62
     7
100
AcDbLine
 10
118.2852574217
 20
43.949081498
 30
0.0
 11
119.8262612365
 21
45.4900853127
 31
0.0
  0
LINE
  5
283
330
237
100
AcDbEntity
  8
0
  6
Continuous
 62
     7
100
AcDbLine
 10
125.9902764956
 20
51.6541005718
 30
0.0
 11
127.0176166978
 21
52.68144077399999
 31
0.0
  0
LINE
  5
284
330
237
100
AcDbEntity
  8
0
  6
Continuous
 62
     7
100
AcDbLine
 10
133.1816276312
 20
58.8454517075
 30
0.0
 11
134.722631446
 21
60.3864555222
 31
0.0
  0
LINE
  5
285
330
237
100
AcDbEntity
  8
0
  6
Continuous
 62
     7
100
AcDbLine
 10
117.5526878553
 20
43.8199097181
 30
0.0
 11
119.0936916701
 21
45.36091353289999
 31
0.0
  0
LINE
  5
286
330
237
100
AcDbEntity
  8
0
  6
Continuous
 62
     7
100
AcDbLine
 10
125.2577069292
 20
51.524928792
 30
0.0
 11
126.2850469217
 21
52.5522687846
 31
0.0
  0
LINE
  5
287
330
237
100
AcDbEntity
  8
0
  6
Continuous
 62
     7
100
AcDbLine
 10
132.4490580648
 20
58.71627992770001
 30
0.0
 11
133.9900618796
 21
60.25728374239999
 31
0.0
  0
LINE
  5
288
330
237
100
AcDbEntity
  8
0
  6
Continuous
 62
     7
100
AcDbLine
 10
116.8201182889
 20
43.6907379383
 30
0.0
 11
118.3611221037
 21
45.2317417531
 31
0.0
  0
LINE
  5
289
330
237
100
AcDbEntity
  8
0
  6
Continuous
 62
     7
100
AcDbLine
 10
124.5251373628
 20
51.3957570122
 30
0.0
 11
125.5524771457
 21
52.4230967952
 31
0.0
  0
LINE
  5
28A
330
237
100
AcDbEntity
  8
0
  6
Continuous
 62
     7
100
AcDbLine
 10
131.7164884984
 20
58.5871081479
 30
0.0
 11
133.2574923132
 21
60.1281119626
 31
0.0
  0
LINE
  5
28B
330
237
100
AcDbEntity
  8
0
  6
Continuous
 62
     7
100
AcDbLine
 10
116.0875487225
 20
43.5615661585
 30
0.0
 11
117.6285525372
 21
45.10256997329999
 31
0.0
  0
LINE
  5
28C
330
237
100
AcDbEntity
  8
0
  6
Continuous
 62
     7
100
AcDbLine
 10
123.7925677964
 20
51.26658523239999
 30
0.0
 11
124.8199073697
 21
52.29392480569999
 31
0.0
  0
LINE
  5
28D
330
237
100
AcDbEntity
  8
0
  6
Continuous
 62
     7
100
AcDbLine
 10
130.983918932
 20
58.45793636799999
 30
0.0
 11
132.5249227468
 21
59.9989401828
 31
0.0
  0
LINE
  5
28E
330
237
100
AcDbEntity
  8
0
  6
Continuous
 62
     7
100
AcDbLine
 10
115.3549791561
 20
43.43239437869999
 30
0.0
 11
116.8959829708
 21
44.9733981935
 31
0.0
  0
LINE
  5
28F
330
237
100
AcDbEntity
  8
0
  6
Continuous
 62
     7
100
AcDbLine
 10
123.0599982299
 20
51.1374134526
 30
0.0
 11
124.0873375936
 21
52.1647528163
 31
0.0
  0
LINE
  5
290
330
237
100
AcDbEntity
  8
0
  6
Continuous
 62
     7
100
AcDbLine
 10
130.2513493656
 20
58.32876458819999
 30
0.0
 11
131.7923531803
 21
59.869768403
 31
0.0
  0
LINE
  5
291
330
237
100
AcDbEntity
  8
0
  6
Continuous
 62
     7
100
AcDbLine
 10
114.6224095896
 20
43.3032225989
 30
0.0
 11
116.1634134044
 21
44.8442264137
 31
0.0
  0
LINE
  5
292
330
237
100
AcDbEntity
  8
0
  6
Continuous
 62
     7
100
AcDbLine
 10
122.3274286635
 20
51.00824167279999
 30
0.0
 11
123.3547678176
 21
52.03558082689999
 31
0.0
  0
LINE
  5
293
330
237
100
AcDbEntity
  8
0
  6
Continuous
 62
     7
100
AcDbLine
 10
129.5187797991
 20
58.1995928084
 30
0.0
 11
131.0597836139
 21
59.7405966232
 31
0.0
  0
LINE
  5
294
330
237
100
AcDbEntity
  8
0
  6
Continuous
 62
     7
100
AcDbLine
 10
113.8898400232
 20
43.17405081909999
 30
0.0
 11
115.430843838
 21
44.7150546339
 31
0.0
  0
LINE
  5
295
330
237
100
AcDbEntity
  8
0
  6
Continuous
 62
     7
100
AcDbLine
 10
121.5948590971
 20
50.879069893
 30
0.0
 11
122.6221980416
 21
51.9064088375
 31
0.0
  0
LINE
  5
296
330
237
100
AcDbEntity
  8
0
  6
Continuous
 62
     7
100
AcDbLine
 10
128.7862102327
 20
58.07042102859999
 30
0.0
 11
130.3272140475
 21
59.6114248434
 31
0.0
  0
LINE
  5
297
330
237
100
AcDbEntity
  8
0
  6
Continuous
 62
     7
100
AcDbLine
 10
113.1572704568
 20
43.0448790393
 30
0.0
 11
114.6982742716
 21
44.5858828541
 31
0.0
  0
LINE
  5
298
330
237
100
AcDbEntity
  8
0
  6
Continuous
 62
     7
100
AcDbLine
 10
120.8622895307
 20
50.7498981132
 30
0.0
 11
121.8896282656
 21
51.77723684810001
 31
0.0
  0
LINE
  5
299
330
237
100
AcDbEntity
  8
0
  6
Continuous
 62
     7
100
AcDbLine
 10
128.0536406663
 20
57.9412492488
 30
0.0
 11
129.5946444811
 21
59.4822530636
 31
0.0
  0
LINE
  5
29A
330
237
100
AcDbEntity
  8
0
  6
Continuous
 62
     7
100
AcDbLine
 10
112.4247008904
 20
42.91570725949999
 30
0.0
 11
113.9657047052
 21
44.4567110743
 31
0.0
  0
LINE
  5
29B
330
237
100
AcDbEntity
  8
0
  6
Continuous
 62
     7
100
AcDbLine
 10
120.1297199643
 20
50.6207263334
 30
0.0
 11
121.1570584895
 21
51.64806485869999
 31
0.0
  0
LINE
  5
29C
330
237
100
AcDbEntity
  8
0
  6
Continuous
 62
     7
100
AcDbLine
 10
127.3210710999
 20
57.81207746899999
 30
0.0
 11
128.8620749147
 21
59.3530812838
 31
0.0
  0
LINE
  5
29D
330
237
100
AcDbEntity
  8
0
  6
Continuous
 62
     7
100
AcDbLine
 10
111.8733801179
 20
42.96778427359999
 30
0.0
 11
113.2331351387
 21
44.3275392945
 31
0.0
  0
LINE
  5
29E
330
237
100
AcDbEntity
  8
0
  6
Continuous
 62
     7
100
AcDbLine
 10
119.3971503978
 20
50.4915545536
 30
0.0
 11
120.4244887135
 21
51.5188928692
 31
0.0
  0
LINE
  5
29F
330
237
100
AcDbEntity
  8
0
  6
Continuous
 62
     7
100
AcDbLine
 10
126.5885015335
 20
57.6829056892
 30
0.0
 11
128.1295053483
 21
59.223909504
 31
0.0
  0
LINE
  5
2A0
330
237
100
AcDbEntity
  8
0
  6
Continuous
 62
     7
100
AcDbLine
 10
111.7829330639
 20
43.48073500629999
 30
0.0
 11
112.8619555514
 21
44.5597574938
 31
0.0
  0
LINE
  5
2A1
330
237
100
AcDbEntity
  8
0
  6
Continuous
 62
     7
100
AcDbLine
 10
118.6645808314
 20
50.3623827738
 30
0.0
 11
119.6919189375
 21
51.3897208798
 31
0.0
  0
LINE
  5
2A2
330
237
100
AcDbEntity
  8
0
  6
Continuous
 62
     7
100
AcDbLine
 10
125.8559319671
 20
57.5537339094
 30
0.0
 11
127.3969357818
 21
59.0947377242
 31
0.0
  0
LINE
  5
2A3
330
237
100
AcDbEntity
  8
0
  6
Continuous
 62
     7
100
AcDbLine
 10
111.69248601
 20
43.9936857389
 30
0.0
 11
112.7715084975
 21
45.07270822649999
 31
0.0
  0
LINE
  5
2A4
330
237
100
AcDbEntity
  8
0
  6
Continuous
 62
     7
100
AcDbLine
 10
117.932011265
 20
50.233210994
 30
0.0
 11
118.9593491615
 21
51.2605488904
 31
0.0
  0
LINE
  5
2A5
330
237
100
AcDbEntity
  8
0
  6
Continuous
 62
     7
100
AcDbLine
 10
125.1233624006
 20
57.4245621296
 30
0.0
 11
126.6643662154
 21
58.96556594439999
 31
0.0
  0
LINE
  5
2A6
330
237
100
AcDbEntity
  8
0
  6
Continuous
 62
     7
100
AcDbLine
 10
111.602038956
 20
44.50663647159999
 30
0.0
 11
112.6810614435
 21
45.5856589591
 31
0.0
  0
LINE
  5
2A7
330
237
100
AcDbEntity
  8
0
  6
Continuous
 62
     7
100
AcDbLine
 10
117.1994416986
 20
50.1040392142
 30
0.0
 11
118.2267793854
 21
51.131376901
 31
0.0
  0
LINE
  5
2A8
330
237
100
AcDbEntity
  8
0
  6
Continuous
 62
     7
100
AcDbLine
 10
124.3907928342
 20
57.2953903498
 30
0.0
 11
125.931796649
 21
58.8363941646
 31
0.0
  0
LINE
  5
2A9
330
237
100
AcDbEntity
  8
0
  6
Continuous
 62
     7
100
AcDbLine
 10
111.5115919021
 20
45.0195872043
 30
0.0
 11
112.5906143896
 21
46.0986096918
 31
0.0
  0
LINE
  5
2AA
330
237
100
AcDbEntity
  8
0
  6
Continuous
 62
     7
100
AcDbLine
 10
116.4668721322
 20
49.97486743439999
 30
0.0
 11
117.4942096094
 21
51.00220491159999
 31
0.0
  0
LINE
  5
2AB
330
237
100
AcDbEntity
  8
0
  6
Continuous
 62
     7
100
AcDbLine
 10
123.6582232678
 20
57.16621856999999
 30
0.0
 11
125.1992270826
 21
58.70722238479999
 31
0.0
  0
LINE
  5
2AC
330
237
100
AcDbEntity
  8
0
  6
Continuous
 62
     7
100
AcDbLine
 10
111.4211448481
 20
45.53253793689999
 30
0.0
 11
112.5001673357
 21
46.6115604245
 31
0.0
  0
LINE
  5
2AD
330
237
100
AcDbEntity
  8
0
  6
Continuous
 62
     7
100
AcDbLine
 10
115.7343025658
 20
49.8456956546
 30
0.0
 11
116.7616398334
 21
50.8730329222
 31
0.0
  0
LINE
  5
2AE
330
237
100
AcDbEntity
  8
0
  6
Continuous
 62
     7
100
AcDbLine
 10
122.9256537014
 20
57.0370467902
 30
0.0
 11
124.4666575162
 21
58.578050605
 31
0.0
  0
LINE
  5
2AF
330
237
100
AcDbEntity
  8
0
  6
Continuous
 62
     7
100
AcDbLine
 10
111.3306977942
 20
46.0454886696
 30
0.0
 11
112.4097202817
 21
47.1245111571
 31
0.0
  0
LINE
  5
2B0
330
237
100
AcDbEntity
  8
0
  6
Continuous
 62
     7
100
AcDbLine
 10
115.0017329993
 20
49.71652387479999
 30
0.0
 11
116.0290700573
 21
50.7438609328
 31
0.0
  0
LINE
  5
2B1
330
237
100
AcDbEntity
  8
0
  6
Continuous
 62
     7
100
AcDbLine
 10
122.193084135
 20
56.90787501039999
 30
0.0
 11
123.7340879497
 21
58.44887882520001
 31
0.0
  0
LINE
  5
2B2
330
237
100
AcDbEntity
  8
0
  6
Continuous
 62
     7
100
AcDbLine
 10
111.2402507403
 20
46.55843940229999
 30
0.0
 11
112.3192732278
 21
47.63746188979999
 31
0.0
  0
LINE
  5
2B3
330
237
100
AcDbEntity
  8
0
  6
Continuous
 62
     7
100
AcDbLine
 10
114.2691634329
 20
49.587352095
 30
0.0
 11
115.2965002813
 21
50.6146889433
 31
0.0
  0
LINE
  5
2B4
330
237
100
AcDbEntity
  8
0
  6
Continuous
 62
     7
100
AcDbLine
 10
121.4605145685
 20
56.7787032306
 30
0.0
 11
123.0015183833
 21
58.3197070454
 31
0.0
  0
LINE
  5
2B5
330
237
100
AcDbEntity
  8
0
  6
Continuous
 62
     7
100
AcDbLine
 10
111.1498036863
 20
47.07139013499999
 30
0.0
 11
112.2288261738
 21
48.1504126225
 31
0.0
  0
LINE
  5
2B6
330
237
100
AcDbEntity
  8
0
  6
Continuous
 62
     7
100
AcDbLine
 10
113.5365938665
 20
49.4581803151
 30
0.0
 11
114.5639305053
 21
50.4855169539
 31
0.0
  0
LINE
  5
2B7
330
237
100
AcDbEntity
  8
0
  6
Continuous
 62
     7
100
AcDbLine
 10
120.7279450021
 20
56.6495314508
 30
0.0
 11
122.2689488169
 21
58.1905352655
 31
0.0
  0
LINE
  5
2B8
330
237
100
AcDbEntity
  8
0
  6
Continuous
 62
     7
100
AcDbLine
 10
111.0593566324
 20
47.5843408676
 30
0.0
 11
112.1383791199
 21
48.6633633551
 31
0.0
  0
LINE
  5
2B9
330
237
100
AcDbEntity
  8
0
  6
Continuous
 62
     7
100
AcDbLine
 10
112.8040243001
 20
49.3290085353
 30
0.0
 11
113.8313607293
 21
50.3563449645
 31
0.0
  0
LINE
  5
2BA
330
237
100
AcDbEntity
  8
0
  6
Continuous
 62
     7
100
AcDbLine
 10
119.9953754357
 20
56.520359671
 30
0.0
 11
121.5363792505
 21
58.06136348569999
 31
0.0
  0
LINE
  5
2BB
330
237
100
AcDbEntity
  8
0
  6
Continuous
 62
     7
100
AcDbLine
 10
110.9689095784
 20
48.09729160029999
 30
0.0
 11
112.0479320659
 21
49.1763140878
 31
0.0
  0
LINE
  5
2BC
330
237
100
AcDbEntity
  8
0
  6
Continuous
 62
     7
100
AcDbLine
 10
112.0714547337
 20
49.1998367555
 30
0.0
 11
113.0987909532
 21
50.2271729751
 31
0.0
  0
LINE
  5
2BD
330
237
100
AcDbEntity
  8
0
  6
Continuous
 62
     7
100
AcDbLine
 10
119.2628058693
 20
56.3911878912
 30
0.0
 11
120.8038096841
 21
57.9321917059
 31
0.0
  0
LINE
  5
2BE
330
237
100
AcDbEntity
  8
0
  6
Continuous
 62
     7
100
AcDbLine
 10
110.8784625245
 20
48.610242333
 30
0.0
 11
112.3662211772
 21
50.0980009857
 31
0.0
  0
LINE
  5
2BF
330
237
100
AcDbEntity
  8
0
  6
Continuous
 62
     7
100
AcDbLine
 10
118.5302363029
 20
56.2620161114
 30
0.0
 11
120.0712401177
 21
57.8030199261
 31
0.0
  0
LINE
  5
2C0
330
237
100
AcDbEntity
  8
0
  6
Continuous
 62
     7
100
AcDbLine
 10
110.7880154705
 20
49.1231930656
 30
0.0
 11
111.8670379581
 21
50.2022155531
 31
0.0
  0
LINE
  5
2C1
330
237
100
AcDbEntity
  8
0
  6
Continuous
 62
     7
100
AcDbLine
 10
117.7976667365
 20
56.1328443316
 30
0.0
 11
119.3386705512
 21
57.6738481463
 31
0.0
  0
LINE
  5
2C2
330
237
100
AcDbEntity
  8
0
  6
Continuous
 62
     7
100
AcDbLine
 10
110.6975684166
 20
49.6361437983
 30
0.0
 11
111.7765909041
 21
50.7151662858
 31
0.0
  0
LINE
  5
2C3
330
237
100
AcDbEntity
  8
0
  6
Continuous
 62
     7
100
AcDbLine
 10
117.06509717
 20
56.0036725517
 30
0.0
 11
118.6061009848
 21
57.5446763665
 31
0.0
  0
LINE
  5
2C4
330
237
100
AcDbEntity
  8
0
  6
Continuous
 62
     7
100
AcDbLine
 10
110.6071213626
 20
50.149094531
 30
0.0
 11
111.6861438502
 21
51.2281170185
 31
0.0
  0
LINE
  5
2C5
330
237
100
AcDbEntity
  8
0
  6
Continuous
 62
     7
100
AcDbLine
 10
116.3325276036
 20
55.87450077189999
 30
0.0
 11
117.8735314184
 21
57.4155045867
 31
0.0
  0
LINE
  5
2C6
330
237
100
AcDbEntity
  8
0
  6
Continuous
 62
     7
100
AcDbLine
 10
110.5166743087
 20
50.66204526359999
 30
0.0
 11
111.5956967962
 21
51.7410677512
 31
0.0
  0
LINE
  5
2C7
330
237
100
AcDbEntity
  8
0
  6
Continuous
 62
     7
100
AcDbLine
 10
115.5999580372
 20
55.7453289921
 30
0.0
 11
117.140961852
 21
57.2863328069
 31
0.0
  0
LINE
  5
2C8
330
237
100
AcDbEntity
  8
0
  6
Continuous
 62
     7
100
AcDbLine
 10
110.4262272548
 20
51.1749959963
 30
0.0
 11
111.5052497423
 21
52.2540184838
 31
0.0
  0
LINE
  5
2C9
330
237
100
AcDbEntity
  8
0
  6
Continuous
 62
     7
100
AcDbLine
 10
114.8673884708
 20
55.61615721229999
 30
0.0
 11
116.4083922856
 21
57.1571610271
 31
0.0
  0
LINE
  5
2CA
330
237
100
AcDbEntity
  8
0
  6
Continuous
 62
     7
100
AcDbLine
 10
110.3357802008
 20
51.68794672899999
 30
0.0
 11
111.4148026883
 21
52.7669692165
 31
0.0
  0
LINE
  5
2CB
330
237
100
AcDbEntity
  8
0
  6
Continuous
 62
     7
100
AcDbLine
 10
114.1348189044
 20
55.4869854325
 30
0.0
 11
115.6758227191
 21
57.0279892473
 31
0.0
  0
LINE
  5
2CC
330
237
100
AcDbEntity
  8
0
  6
Continuous
 62
     7
100
AcDbLine
 10
110.2453331469
 20
52.2008974616
 30
0.0
 11
111.3243556344
 21
53.2799199492
 31
0.0
  0
LINE
  5
2CD
330
237
100
AcDbEntity
  8
0
  6
Continuous
 62
     7
100
AcDbLine
 10
113.402249338
 20
55.3578136527
 30
0.0
 11
114.9432531527
 21
56.8988174675
 31
0.0
  0
LINE
  5
2CE
330
237
100
AcDbEntity
  8
0
  6
Continuous
 62
     7
100
AcDbLine
 10
110.1548860929
 20
52.7138481943
 30
0.0
 11
111.2339085804
 21
53.7928706818
 31
0.0
  0
LINE
  5
2CF
330
237
100
AcDbEntity
  8
0
  6
Continuous
 62
     7
100
AcDbLine
 10
112.6696797715
 20
55.2286418729
 30
0.0
 11
114.2106835863
 21
56.7696456877
 31
0.0
  0
LINE
  5
2D0
330
237
100
AcDbEntity
  8
0
  6
Continuous
 62
     7
100
AcDbLine
 10
110.064439039
 20
53.226798927
 30
0.0
 11
111.1434615265
 21
54.30582141449999
 31
0.0
  0
LINE
  5
2D1
330
237
100
AcDbEntity
  8
0
  6
Continuous
 62
     7
100
AcDbLine
 10
111.9371102051
 20
55.0994700931
 30
0.0
 11
113.4781140199
 21
56.6404739079
 31
0.0
  0
LINE
  5
2D2
330
237
100
AcDbEntity
  8
0
  6
Continuous
 62
     7
100
AcDbLine
 10
109.973991985
 20
53.7397496596
 30
0.0
 11
111.0530144726
 21
54.8187721472
 31
0.0
  0
LINE
  5
2D3
330
237
100
AcDbEntity
  8
0
  6
Continuous
 62
     7
100
AcDbLine
 10
111.2045406387
 20
54.97029831329999
 30
0.0
 11
112.7455444535
 21
56.5113021281
 31
0.0
  0
LINE
  5
2D4
330
237
100
AcDbEntity
  8
0
  6
Continuous
 62
     7
100
AcDbLine
 10
109.8835449311
 20
54.25270039229999
 30
0.0
 11
112.0129748871
 21
56.3821303483
 31
0.0
  0
LINE
  5
2D5
330
237
100
AcDbEntity
  8
0
  6
Continuous
 62
     7
100
AcDbLine
 10
109.7930978772
 20
54.765651125
 30
0.0
 11
111.2804053206
 21
56.25295856850001
 31
0.0
  0
LINE
  5
2D6
330
237
100
AcDbEntity
  8
0
  6
Continuous
 62
     7
100
AcDbLine
 10
109.7026508232
 20
55.2786018577
 30
0.0
 11
110.5478357542
 21
56.1237867887
 31
0.0
  0
LINE
  5
2D7
330
237
100
AcDbEntity
  8
0
  6
Continuous
 62
     7
100
AcDbLine
 10
109.6122037693
 20
55.7915525903
 30
0.0
 11
109.8152661878
 21
55.99461500890001
 31
0.0
  0
ENDBLK
  5
2D8
330
237
100
AcDbEntity
  8
0
  6
ByBlock
 62
     0
100
AcDbBlockEnd
  0
BLOCK
  5
2D9
330
238
100
AcDbEntity
  8
0
  6
Continuous
 62
     7
100
AcDbBlockBegin
  2
SYMBOL_12_BL6
 70
     0
 10
82.208124535
 20
67.16850450449999
 30
0.0
  3
SYMBOL_12_BL6
  1

  0
TEXT
  5
2DA
330
238
100
AcDbEntity
  8
0
  6
Continuous
 62
     7
100
AcDbText
 10
81.64516135300001
 20
66.5018375785
 30
0.0
 40
1.333333852099999
  1
T
  7
TEXTSTYLE_2
100
AcDbText
  0
ELLIPSE
  5
2DB
330
238
100
AcDbEntity
  8
0
  6
Continuous
 62
     7
100
AcDbEllipse
 10
82.208124535
 20
67.16850450449999
 30
0.0
 11
-1.942887567899999
 21
0.0
 31
0.0
210
0.0
220
0.0
230
1.0
 40
0.6606458385
 41
0.0
 42
6.283185307179586
  0
ENDBLK
  5
2DC
330
238
100
AcDbEntity
  8
0
  6
ByBlock
 62
     0
100
AcDbBlockEnd
  0
BLOCK
  5
2DD
330
239
100
AcDbEntity
  8
0
  6
Continuous
 62
     7
100
AcDbBlockBegin
  2
SYMBOL_11_BL5
 70
     0
 10
27.1949707525
 20
92.398927477
 30
0.0
  3
SYMBOL_11_BL5
  1

  0
TEXT
  5
2DE
330
239
100
AcDbEntity
  8
0
  6
Continuous
 62
     7
100
AcDbText
 10
27.1525203367
 20
91.49303548389999
 30
0.0
 40
1.333333852099999
  1
A
 50
40.0
  7
TEXTSTYLE_2
100
AcDbText
  0
ELLIPSE
  5
2DF
330
239
100
AcDbEntity
  8
0
  6
Continuous
 62
     7
100
AcDbEllipse
 10
27.1949707525
 20
92.398927477
 30
0.0
 11
-1.488338224999999
 21
-1.248864055699999
 31
0.0
210
0.0
220
0.0
230
1.0
 40
0.6606458385
 41
0.0
 42
6.283185307179586
  0
ENDBLK
  5
2E0
330
239
100
AcDbEntity
  8
0
  6
ByBlock
 62
     0
100
AcDbBlockEnd
  0
BLOCK
  5
2E1
330
23A
100
AcDbEntity
  8
0
  6
Continuous
 62
     7
100
AcDbBlockBegin
  2
SYMBOL_10_BL4
 70
     0
 10
27.1547778297
 20
68.5958118308
 30
0.0
  3
SYMBOL_10_BL4
  1

  0
TEXT
  5
2E2
330
23A
100
AcDbEntity
  8
0
  6
Continuous
 62
     7
100
AcDbText
 10
26.2155560958
 20
68.51364057649999
 30
0.0
 40
1.333333852099999
  1
C
 50
320.0
  7
TEXTSTYLE_2
100
AcDbText
  0
ELLIPSE
  5
2E3
330
23A
100
AcDbEntity
  8
0
  6
Continuous
 62
     7
100
AcDbEllipse
 10
27.1547778297
 20
68.5958118308
 30
0.0
 11
-1.488338224999999
 21
1.248864055699999
 31
0.0
210
0.0
220
0.0
230
1.0
 40
0.6606458385
 41
0.0
 42
6.283185307179586
  0
ENDBLK
  5
2E4
330
23A
100
AcDbEntity
  8
0
  6
ByBlock
 62
     0
100
AcDbBlockEnd
  0
BLOCK
  5
2E5
330
23B
100
AcDbEntity
  8
0
  6
Continuous
 62
     7
100
AcDbBlockBegin
  2
SYMBOL_5_BL3
 70
     0
 10
54.3291931305
 20
67.4676680454
 30
0.0
  3
SYMBOL_5_BL3
  1

  0
TEXT
  5
2E6
330
23B
100
AcDbEntity
  8
0
  6
Continuous
 62
     7
100
AcDbText
 10
53.80079786319999
 20
66.80100111939999
 30
0.0
 40
1.333333852099999
  1
L
  7
TEXTSTYLE_2
100
AcDbText
  0
ELLIPSE
  5
2E7
330
23B
100
AcDbEntity
  8
0
  6
Continuous
 62
     7
100
AcDbEllipse
 10
54.3291931305
 20
67.4676680454
 30
0.0
 11
-1.942887567899999
 21
0.0
 31
0.0
210
0.0
220
0.0
230
1.0
 40
0.6606458385
 41
0.0
 42
6.283185307179586
  0
ENDBLK
  5
2E8
330
23B
100
AcDbEntity
  8
0
  6
ByBlock
 62
     0
100
AcDbBlockEnd
  0
BLOCK
  5
2E9
330
23C
100
AcDbEntity
  8
0
  6
Continuous
 62
     7
100
AcDbBlockBegin
  2
SYMBOL_4_BL2
 70
     0
 10
42.0959052332
 20
92.3651430427
 30
0.0
  3
SYMBOL_4_BL2
  1

  0
TEXT
  5
2EA
330
23C
100
AcDbEntity
  8
0
  6
Continuous
 62
     7
100
AcDbText
 10
41.6996255887
 20
91.586662449
 30
0.0
 40
1.333333852099999
  1
L
 50
12.0
  7
TEXTSTYLE_2
100
AcDbText
  0
TEXT
  5
2EB
330
23C
100
AcDbEntity
  8
0
  6
Continuous
 62
     7
100
AcDbText
 10
38.0929760046
 20
90.83273350749999
 30
0.0
 40
1.333333852099999
  1
5
 50
12.0
  7
TEXTSTYLE_2
100
AcDbText
  0
TEXT
  5
2EC
330
23C
100
AcDbEntity
  8
0
  6
Continuous
 62
     7
100
AcDbText
 10
45.3761655543
 20
92.38082323620002
 30
0.0
 40
1.333333852099999
  1
4
 50
12.0
  7
TEXTSTYLE_2
100
AcDbText
  0
ELLIPSE
  5
2ED
330
23C
100
AcDbEntity
  8
0
  6
Continuous
 62
     7
100
AcDbEllipse
 10
42.0778663038
 20
92.34862065660001
 30
0.0
 11
-1.900430813
 21
-0.4039490393
 31
0.0
210
0.0
220
0.0
230
1.0
 40
0.6606458385
 41
0.0
 42
6.283185307179586
  0
ENDBLK
  5
2EE
330
23C
100
AcDbEntity
  8
0
  6
ByBlock
 62
     0
100
AcDbBlockEnd
  0
BLOCK
  5
2EF
330
23D
100
AcDbEntity
  8
0
  6
Continuous
 62
     7
100
AcDbBlockBegin
  2
SYMBOL_3_BL1
 70
     0
 10
66.5742716315
 20
92.2559773537
 30
0.0
  3
SYMBOL_3_BL1
  1

  0
TEXT
  5
2F0
330
23D
100
AcDbEntity
  8
0
  6
Continuous
 62
     7
100
AcDbText
 10
65.8956155789
 20
91.7059813957
 30
0.0
 40
1.333333852099999
  1
L
 50
348.0
  7
TEXTSTYLE_2
100
AcDbText
  0
TEXT
  5
2F1
330
23D
100
AcDbEntity
  8
0
  6
Continuous
 62
     7
100
AcDbText
 10
62.29412670729999
 20
92.48418958049999
 30
0.0
 40
1.333333852099999
  1
4
 50
348.0
  7
TEXTSTYLE_2
100
AcDbText
  0
TEXT
  5
2F2
330
23D
100
AcDbEntity
  8
0
  6
Continuous
 62
     7
100
AcDbText
 10
69.57731625699999
 20
90.9360998518
 30
0.0
 40
1.333333852099999
  1
5
 50
348.0
  7
TEXTSTYLE_2
100
AcDbText
  0
ELLIPSE
  5
2F3
330
23D
100
AcDbEntity
  8
0
  6
Continuous
 62
     7
100
AcDbEllipse
 10
66.5510719896
 20
92.24822049649999
 30
0.0
 11
-1.900430813
 21
0.4039490393
 31
0.0
210
0.0
220
0.0
230
1.0
 40
0.6606458385
 41
0.0
 42
6.283185307179586
  0
ENDBLK
  5
2F4
330
23D
100
AcDbEntity
  8
0
  6
ByBlock
 62
     0
100
AcDbBlockEnd
  0
BLOCK
  5
2F5
330
23E
100
AcDbEntity
  8
0
  6
Continuous
 62
     7
100
AcDbBlockBegin
  2
SYMBOL_0_BL0
 70
     0
 10
160.6671083252
 20
55.3337800379
 30
0.0
  3
SYMBOL_0_BL0
  1

  0
TEXT
  5
2F6
330
23E
100
AcDbEntity
  8
0
  6
Continuous
 62
     7
100
AcDbText
 10
144.4193232491
 20
63.10721342899999
 30
0.0
 40
0.5
  1
Infomations Techniques/Technical Infomations
  7
TEXTSTYLE_2
100
AcDbText
  0
TEXT
  5
2F7
330
23E
100
AcDbEntity
  8
0
  6
Continuous
 62
     7
100
AcDbText
 10
144.6671083252
 20
61.66711337119999
 30
0.0
 40
0.6666666667
  1
NOMBRE DE JETS:     
  7
TEXTSTYLE_2
100
AcDbText
  0
TEXT
  5
2F8
330
23E
100
AcDbEntity
  8
0
  6
Continuous
 62
     7
100
AcDbText
 10
154.5115527697
 20
61.66711337119999
 30
0.0
 40
0.6666666667
  1
38
  7
TEXTSTYLE_2
100
AcDbText
  0
TEXT
  5
2F9
330
23E
100
AcDbEntity
  8
0
  6
Continuous
 62
     7
100
AcDbText
 10
144.6671083252
 20
60.6671133712
 30
0.0
 40
0.6666666667
  1
 
  7
TEXTSTYLE_2
100
AcDbText
  0
TEXT
  5
2FA
330
23E
100
AcDbEntity
  8
0
  6
Continuous
 62
     7
100
AcDbText
 10
144.6671083252
 20
59.66711337119999
 30
0.0
 40
0.6666666667
  1
NIVEAU D'EAU              GALLONS(US)        LITRES        GALLONS(UK)
  7
TEXTSTYLE_2
100
AcDbText
  0
TEXT
  5
2FB
330
23E
100
AcDbEntity
  8
0
  6
Continuous
 62
     7
100
AcDbText
 10
144.6671083252
 20
58.66711337119999
 30
0.0
 40
0.6666666667
  1
PLEIN
  7
TEXTSTYLE_2
100
AcDbText
  0
TEXT
  5
2FC
330
23E
100
AcDbEntity
  8
0
  6
Continuous
 62
     7
100
AcDbText
 10
144.6671083252
 20
57.6671133712
 30
0.0
 40
0.6666666667
  1
HAUT T.PLEIN
  7
TEXTSTYLE_2
100
AcDbText
  0
TEXT
  5
2FD
330
23E
100
AcDbEntity
  8
0
  6
Continuous
 62
     7
100
AcDbText
 10
144.6671083252
 20
56.66711337119999
 30
0.0
 40
0.6666666667
  1
MILIEU T.PLEIN
  7
TEXTSTYLE_2
100
AcDbText
  0
TEXT
  5
2FE
330
23E
100
AcDbEntity
  8
0
  6
Continuous
 62
     7
100
AcDbText
 10
144.6671083252
 20
55.6671133712
 30
0.0
 40
0.6666666667
  1
BAS T.PLEIN
  7
TEXTSTYLE_2
100
AcDbText
  0
TEXT
  5
2FF
330
23E
100
AcDbEntity
  8
0
  6
Continuous
 62
     7
100
AcDbText
 10
144.6671083252
 20
54.66711337119999
 30
0.0
 40
0.6666666667
  1
3" EN BAS T.PLEIN
  7
TEXTSTYLE_2
100
AcDbText
  0
TEXT
  5
300
330
23E
100
AcDbEntity
  8
0
  6
Continuous
 62
     7
100
AcDbText
 10
144.6671083252
 20
53.66711337119999
 30
0.0
 40
0.6666666667
  1
 
  7
TEXTSTYLE_2
100
AcDbText
  0
TEXT
  5
301
330
23E
100
AcDbEntity
  8
0
  6
Continuous
 62
     7
100
AcDbText
 10
144.4669468196
 20
53.1203264464
 30
0.0
 40
0.5
  1
Legende/Legend
  7
TEXTSTYLE_2
100
AcDbText
  0
TEXT
  5
302
330
23E
100
AcDbEntity
  8
0
  6
Continuous
 62
     7
100
AcDbText
 10
150.9957817637
 20
51.6090614687
 30
0.0
 40
0.6666666667
  1
ZONE DE ROBINETTERIE
  7
TEXTSTYLE_2
100
AcDbText
  0
TEXT
  5
303
330
23E
100
AcDbEntity
  8
0
  6
Continuous
 62
     7
100
AcDbText
 10
145.9160571967
 20
50.1138169543
 30
0.0
 40
0.6666666667
  1
L   :  SYSTEME LED       DC   :  DOUBLE DOSSIER CHAUFFANT
  7
TEXTSTYLE_2
100
AcDbText
  0
TEXT
  5
304
330
23E
100
AcDbEntity
  8
0
  6
Continuous
 62
     7
100
AcDbText
 10
145.9160571967
 20
48.780483621
 30
0.0
 40
0.6666666667
  1
C   :  CONTROLE
  7
TEXTSTYLE_2
100
AcDbText
  0
TEXT
  5
305
330
23E
100
AcDbEntity
  8
0
  6
Continuous
 62
     7
100
AcDbText
 10
145.9160571967
 20
47.4471502877
 30
0.0
 40
0.6666666667
  1
T   :  MOTEUR
  7
TEXTSTYLE_2
100
AcDbText
  0
TEXT
  5
306
330
23E
100
AcDbEntity
  8
0
  6
Continuous
 62
     7
100
AcDbText
 10
157.244249469
 20
58.66711337119999
 30
0.0
 40
0.6666666667
  1
102
  7
TEXTSTYLE_2
100
AcDbText
  0
TEXT
  5
307
330
23E
100
AcDbEntity
  8
0
  6
Continuous
 62
     7
100
AcDbText
 10
157.4998050245
 20
57.6671133712
 30
0.0
 40
0.6666666667
  1
79
  7
TEXTSTYLE_2
100
AcDbText
  0
TEXT
  5
308
330
23E
100
AcDbEntity
  8
0
  6
Continuous
 62
     7
100
AcDbText
 10
157.4998050245
 20
56.66711337119999
 30
0.0
 40
0.6666666667
  1
78
  7
TEXTSTYLE_2
100
AcDbText
  0
TEXT
  5
309
330
23E
100
AcDbEntity
  8
0
  6
Continuous
 62
     7
100
AcDbText
 10
157.4998050245
 20
55.6671133712
 30
0.0
 40
0.6666666667
  1
76
  7
TEXTSTYLE_2
100
AcDbText
  0
TEXT
  5
30A
330
23E
100
AcDbEntity
  8
0
  6
Continuous
 62
     7
100
AcDbText
 10
157.4998050245
 20
54.66711337119999
 30
0.0
 40
0.6666666667
  1
59
  7
TEXTSTYLE_2
100
AcDbText
  0
TEXT
  5
30B
330
23E
100
AcDbEntity
  8
0
  6
Continuous
 62
     7
100
AcDbText
 10
164.4200109682
 20
58.6841927734
 30
0.0
 40
0.6666666667
  1
385
  7
TEXTSTYLE_2
100
AcDbText
  0
TEXT
  5
30C
330
23E
100
AcDbEntity
  8
0
  6
Continuous
 62
     7
100
AcDbText
 10
164.4200109682
 20
57.6841927734
 30
0.0
 40
0.6666666667
  1
299
  7
TEXTSTYLE_2
100
AcDbText
  0
TEXT
  5
30D
330
23E
100
AcDbEntity
  8
0
  6
Continuous
 62
     7
100
AcDbText
 10
164.4200109682
 20
56.68419277339999
 30
0.0
 40
0.6666666667
  1
294
  7
TEXTSTYLE_2
100
AcDbText
  0
TEXT
  5
30E
330
23E
100
AcDbEntity
  8
0
  6
Continuous
 62
     7
100
AcDbText
 10
164.4200109682
 20
55.6841927734
 30
0.0
 40
0.6666666667
  1
290
  7
TEXTSTYLE_2
100
AcDbText
  0
TEXT
  5
30F
330
23E
100
AcDbEntity
  8
0
  6
Continuous
 62
     7
100
AcDbText
 10
164.4200109682
 20
54.6841927734
 30
0.0
 40
0.6666666667
  1
223
  7
TEXTSTYLE_2
100
AcDbText
  0
TEXT
  5
310
330
23E
100
AcDbEntity
  8
0
  6
Continuous
 62
     7
100
AcDbText
 10
171.3646499057
 20
58.66711337119999
 30
0.0
 40
0.6666666667
  1
85
  7
TEXTSTYLE_2
100
AcDbText
  0
TEXT
  5
311
330
23E
100
AcDbEntity
  8
0
  6
Continuous
 62
     7
100
AcDbText
 10
171.3646499057
 20
57.6671133712
 30
0.0
 40
0.6666666667
  1
66
  7
TEXTSTYLE_2
100
AcDbText
  0
TEXT
  5
312
330
23E
100
AcDbEntity
  8
0
  6
Continuous
 62
     7
100
AcDbText
 10
171.3646499057
 20
56.66711337119999
 30
0.0
 40
0.6666666667
  1
65
  7
TEXTSTYLE_2
100
AcDbText
  0
TEXT
  5
313
330
23E
100
AcDbEntity
  8
0
  6
Continuous
 62
     7
100
AcDbText
 10
171.3646499057
 20
55.6671133712
 30
0.0
 40
0.6666666667
  1
64
  7
TEXTSTYLE_2
100
AcDbText
  0
TEXT
  5
314
330
23E
100
AcDbEntity
  8
0
  6
Continuous
 62
     7
100
AcDbText
 10
171.3646499057
 20
54.66711337119999
 30
0.0
 40
0.6666666667
  1
49
  7
TEXTSTYLE_2
100
AcDbText
  0
LINE
  5
315
330
23E
100
AcDbEntity
  8
0
  6
Continuous
 62
     7
100
AcDbLine
 10
144.0004416585
 20
64.00044670459999
 30
0.0
 11
144.0004416585
 21
46.66711337119999
 31
0.0
  0
LINE
  5
316
330
23E
100
AcDbEntity
  8
0
  6
Continuous
 62
     7
100
AcDbLine
 10
144.0004416585
 20
64.00044670459999
 30
0.0
 11
177.3337749919
 21
64.00044670459999
 31
0.0
  0
LINE
  5
317
330
23E
100
AcDbEntity
  8
0
  6
Continuous
 62
     7
100
AcDbLine
 10
177.3337749919
 20
64.00044670459999
 30
0.0
 11
177.3337749919
 21
46.66711337119999
 31
0.0
  0
LINE
  5
318
330
23E
100
AcDbEntity
  8
0
  6
Continuous
 62
     7
100
AcDbLine
 10
144.0004416585
 20
46.66711337119999
 30
0.0
 11
177.3337749919
 21
46.66711337119999
 31
0.0
  0
LINE
  5
319
330
23E
100
AcDbEntity
  8
0
  6
Continuous
 62
     7
100
AcDbLine
 10
145.3337749919
 20
54.0004467046
 30
0.0
 11
176.0004416585
 21
54.0004467046
 31
0.0
  0
LINE
  5
31A
330
23E
100
AcDbEntity
  8
0
  6
Continuous
 62
     7
100
AcDbLine
 10
145.3337749919
 20
61.0004467046
 30
0.0
 11
176.0004416585
 21
61.0004467046
 31
0.0
  0
LINE
  5
31B
330
23E
100
AcDbEntity
  8
0
  6
Continuous
 62
     7
100
AcDbLine
 10
144.8093482178
 20
52.3786112089
 30
0.0
 11
144.4403274755
 21
52.00959046659999
 31
0.0
  0
LINE
  5
31C
330
23E
100
AcDbEntity
  8
0
  6
Continuous
 62
     7
100
AcDbLine
 10
145.4760148845
 20
52.3786112089
 30
0.0
 11
144.6779990941
 21
51.58059541850001
 31
0.0
  0
LINE
  5
31D
330
23E
100
AcDbEntity
  8
0
  6
Continuous
 62
     7
100
AcDbLine
 10
146.1426815512
 20
52.3786112089
 30
0.0
 11
145.3446657607
 21
51.58059541850001
 31
0.0
  0
LINE
  5
31E
330
23E
100
AcDbEntity
  8
0
  6
Continuous
 62
     7
100
AcDbLine
 10
146.8093482178
 20
52.3786112089
 30
0.0
 11
146.0113324274
 21
51.58059541850001
 31
0.0
  0
LINE
  5
31F
330
23E
100
AcDbEntity
  8
0
  6
Continuous
 62
     7
100
AcDbLine
 10
147.4760148845
 20
52.3786112089
 30
0.0
 11
146.6779990941
 21
51.58059541850001
 31
0.0
  0
LINE
  5
320
330
23E
100
AcDbEntity
  8
0
  6
Continuous
 62
     7
100
AcDbLine
 10
148.1426815512
 20
52.3786112089
 30
0.0
 11
147.3446657607
 21
51.58059541850001
 31
0.0
  0
LINE
  5
321
330
23E
100
AcDbEntity
  8
0
  6
Continuous
 62
     7
100
AcDbLine
 10
148.8093482178
 20
52.3786112089
 30
0.0
 11
148.0113324274
 21
51.58059541850001
 31
0.0
  0
LINE
  5
322
330
23E
100
AcDbEntity
  8
0
  6
Continuous
 62
     7
100
AcDbLine
 10
149.4760148845
 20
52.3786112089
 30
0.0
 11
148.6779990941
 21
51.58059541850001
 31
0.0
  0
LINE
  5
323
330
23E
100
AcDbEntity
  8
0
  6
Continuous
 62
     7
100
AcDbLine
 10
150.1426815512
 20
52.3786112089
 30
0.0
 11
149.3446657607
 21
51.58059541850001
 31
0.0
  0
LINE
  5
324
330
23E
100
AcDbEntity
  8
0
  6
Continuous
 62
     7
100
AcDbLine
 10
150.5861689853
 20
52.1554319764
 30
0.0
 11
150.0113324274
 21
51.58059541850001
 31
0.0
  0
ELLIPSE
  5
325
330
23E
100
AcDbEntity
  8
0
  6
Continuous
 62
     7
100
AcDbEllipse
 10
146.1458441407
 20
50.4313944115
 30
0.0
 11
1.0473539356
 21
0.0
 31
0.0
210
0.0
220
0.0
230
1.0
 40
0.4938647983
 41
0.0
 42
6.283185307179586
  0
ELLIPSE
  5
326
330
23E
100
AcDbEntity
  8
0
  6
Continuous
 62
     7
100
AcDbEllipse
 10
146.1458441407
 20
49.09806107819999
 30
0.0
 11
1.0473539356
 21
0.0
 31
0.0
210
0.0
220
0.0
230
1.0
 40
0.4938647983
 41
0.0
 42
6.283185307179586
  0
ELLIPSE
  5
327
330
23E
100
AcDbEntity
  8
0
  6
Continuous
 62
     7
100
AcDbEllipse
 10
146.1458441407
 20
47.7647277449
 30
0.0
 11
1.0473539356
 21
0.0
 31
0.0
210
0.0
220
0.0
230
1.0
 40
0.4938647983
 41
0.0
 42
6.283185307179586
  0
ELLIPSE
  5
328
330
23E
100
AcDbEntity
  8
0
  6
Continuous
 62
     7
100
AcDbEllipse
 10
157.1644797218
 20
50.45091576859999
 30
0.0
 11
1.0473539356
 21
0.0
 31
0.0
210
0.0
220
0.0
230
1.0
 40
0.4938647983
 41
0.0
 42
6.283185307179586
  0
ENDBLK
  5
329
330
23E
100
AcDbEntity
  8
0
  6
ByBlock
 62
     0
100
AcDbBlockEnd
  0
ENDSEC
  0
SECTION
  2
ENTITIES
  0
LWPOLYLINE
  5
154D
330
225
100
AcDbEntity
  8
0
  6
Continuous
 62
     7
100
AcDbPolyline
 90
        9
 70
     0
 43
0.0
 10
21.338417836
 20
80.437220613
 10
21.3611687896
 20
78.56904040979999
 10
21.4293158686
 20
76.7033747076
 10
21.5427374202
 20
74.8408392062
 10
21.7014687226
 20
72.98092642330001
 10
21.9056023024
 20
71.1237991154
 10
22.1552463886
 20
69.2697427362
 10
22.4506763479
 20
67.41825277869999
 10
22.7921393052
 20
65.570049168
  0
LWPOLYLINE
  5
154E
330
225
100
AcDbEntity
  8
0
  6
Continuous
 62
     7
100
AcDbPolyline
 90
        9
 70
     0
 43
0.0
 10
22.7921393998
 20
95.30439253999999
 10
22.4506802594
 20
93.45621103579999
 10
22.1552512665
 20
91.60473172290002
 10
21.905606558
 20
89.7506768983
 10
21.7014716433
 20
87.89354473200001
 10
21.542738974
 20
86.0336232747
 10
21.4293164295
 20
84.1710780372
 10
21.3611688735
 20
82.30540426420001
 10
21.338417836
 20
80.437220613
  0
LWPOLYLINE
  5
154F
330
225
100
AcDbEntity
  8
0
  6
Continuous
 62
     7
100
AcDbPolyline
 90
        9
 70
     0
 43
0.0
 10
23.1885556564
 20
95.22617021200002
 10
22.8471598416
 20
93.37764671290001
 10
22.5620127383
 20
91.5934449218
 10
22.3192405922
 20
89.8038020869
 10
22.1188128723
 20
88.00831806559999
 10
21.9612833182
 20
86.21306033809998
 10
21.8426781974
 20
84.34705333720001
 10
21.7679805893
 20
82.4099321103
 10
21.7424779565
 20
80.4372206148
  0
LWPOLYLINE
  5
1550
330
225
100
AcDbEntity
  8
0
  6
Continuous
 62
     7
100
AcDbPolyline
 90
       16
 70
     0
 43
0.0
 10
22.7921393052
 20
65.570049168
 10
22.8194666662
 20
65.45550777799999
 10
22.8558435196
 20
65.3431345954
 10
22.9009650459
 20
65.2340219138
 10
22.954306619
 20
65.12923301179999
 10
23.0158247658
 20
65.02881427189999
 10
23.0852470974
 20
64.9333099655
 10
23.1618659423
 20
64.8437076283
 10
23.2450557405
 20
64.7606466304
 10
23.3348350863
 20
64.68411586880001
 10
23.43056495969999
 20
64.614751499
 10
23.5312498102
 20
64.5532748098
 10
23.6363364885
 20
64.4999673314
 10
23.7457731912
 20
64.4548807471
 10
23.858487618
 20
64.41854131399999
 10
23.9733726797
 20
64.3912586867
  0
LWPOLYLINE
  5
1551
330
225
100
AcDbEntity
  8
0
  6
Continuous
 62
     7
100
AcDbPolyline
 90
       29
 70
     0
 43
0.0
 10
23.1885555884
 20
65.6482713605
 10
23.1990674572
 20
65.6006262856
 10
23.2107912215
 20
65.5566309261
 10
23.2239206667
 20
65.5144108385
 10
23.2384580932
 20
65.47352307149999
 10
23.2545169158
 20
65.4334781037
 10
23.2721754426
 20
65.3940293352
 10
23.2913926908
 20
65.35528084550001
 10
23.3121213727
 20
65.31734809550001
 10
23.3343432633
 20
65.2802594093
 10
23.3580207959
 20
65.2440723636
 10
23.3831174394
 20
65.2088508385
 10
23.4096058975
 20
65.17463141659999
 10
23.4374406021
 20
65.14147396750001
 10
23.4665903317
 20
65.1094258712
 10
23.4970095108
 20
65.0785379867
 10
23.5286339717
 20
65.0488757824
 10
23.5614116176
 20
65.0204929733
 10
23.5952907316
 20
64.9934315095
 10
23.6302072103
 20
64.96773790979999
 10
23.6661538984
 20
64.94342625379999
 10
23.7030442307
 20
64.92055378649999
 10
23.7406734579
 20
64.89923590700001
 10
23.7795273664
 20
64.87922257609999
 10
23.8211617578
 20
64.8598861089
 10
23.8676857464
 20
64.8407058643
 10
23.9209009632
 20
64.8217470718
 10
23.9818198613
 20
64.8037243607
 10
24.0512025398
 20
64.7877521847
  0
LWPOLYLINE
  5
1552
330
225
100
AcDbEntity
  8
0
  6
Continuous
 62
     7
100
AcDbPolyline
 90
      102
 70
     0
 43
0.0
 10
23.613171077
 20
80.4372206138
 10
23.6288459905
 20
79.7631836485
 10
23.6758010384
 20
79.0906491848
 10
23.7539278375
 20
78.4210568272
 10
23.86307602
 20
77.75596947229999
 10
24.0030220199
 20
77.0967654965
 10
24.1734428862
 20
76.4447234598
 10
24.373938092
 20
75.80137198520001
 10
24.6041627436
 20
75.1679832589
 10
24.8636887239
 20
74.5457368248
 10
25.1519179652
 20
73.93602185520001
 10
25.4681191855
 20
73.3404285527
 10
25.8117404306
 20
72.76007769039999
 10
26.1822861643
 20
72.1957993674
 10
26.5787007807
 20
71.64923659590001
 10
26.9995818515
 20
71.12229575090001
 10
27.4450540619
 20
70.61483520989999
 10
27.9149311818
 20
70.127243399
 10
28.3994678598
 20
69.6687802312
 10
28.87637172050001
 20
69.2562333358
 10
29.3272079684
 20
68.89779027340001
 10
29.7434169934
 20
68.59162406680001
 10
30.1223532908
 20
68.3319612409
 10
30.46618946340001
 20
68.1110859355
 10
30.7797984518
 20
67.9212049774
 10
31.0676897337
 20
67.75617849719999
 10
31.3325394044
 20
67.61190290520001
 10
31.5758962406
 20
67.4854962438
 10
31.7993497049
 20
67.3744754472
 10
32.004663019
 20
67.2766159252
 10
32.1933256112
 20
67.1901128482
 10
32.3661545547
 20
67.11368526470001
 10
32.5236135471
 20
67.0463563287
 10
32.6662006
 20
66.9872506027
 10
32.79441644
 20
66.93559438359999
 10
32.9087693463
 20
66.89070349499999
 10
33.0102403638
 20
66.85179750999999
 10
33.101197859
 20
66.8176622639
 10
33.1850573104
 20
66.7868089598
 10
33.2655627794
 20
66.75774649680001
 10
33.3457246084
 20
66.72934915529999
 10
33.4268728662
 20
66.7011486906
 10
33.5071457325
 20
66.6737738985
 10
33.5817390116
 20
66.64877922249999
 10
33.6478585026
 20
66.6269648648
 10
33.7058826107
 20
66.6080791413
 10
33.7572506705
 20
66.59157412609999
 10
33.8034960464
 20
66.576900478
 10
33.8463193154
 20
66.56347925289999
 10
33.8874654767
 20
66.5507427608
 10
33.92823459040001
 20
66.5382842612
 10
33.9690419338
 20
66.5259812702
 10
34.0098463881
 20
66.513839994
 10
34.0508598121
 20
66.5017818164
 10
34.0929712675
 20
66.4895343464
 10
34.1379262793
 20
66.4765883428
 10
34.1878046882
 20
66.4623527714
 10
34.2439942871
 20
66.446439864
 10
34.3064385982
 20
66.4288673211
 10
34.3741700067
 20
66.40992404560001
 10
34.4455241587
 20
66.3900892938
 10
34.51863078320001
 20
66.3698856737
 10
34.5927062138
 20
66.349525923
 10
34.6680567119
 20
66.32893155739999
 10
34.7452346952
 20
66.3079650407
 10
34.8245363247
 20
66.2865625238
 10
34.905354525
 20
66.2648998196
 10
34.9864628547
 20
66.2432907237
 10
35.0669313899
 20
66.2219562284
 10
35.1470521443
 20
66.2007915993
 10
35.2291606379
 20
66.179168081
 10
35.3170181001
 20
66.1561102852
 10
35.41453950050001
 20
66.13062226779999
 10
35.5242122352
 20
66.1021048131
 10
35.6465136842
 20
66.07050462620001
 10
35.7816924729
 20
66.03584760069999
 10
35.9308020599
 20
65.9979576298
 10
36.095422625
 20
65.9565274376
 10
36.2772073204
 20
65.9112506264
 10
36.4782404323
 20
65.86173937939999
 10
36.7013360756
 20
65.8074778584
 10
36.94945598469999
 20
65.7479756532
 10
37.2247990141
 20
65.6829894546
 10
37.5287295626
 20
65.6125343872
 10
37.86243665300001
 20
65.53672236770001
 10
38.2275537662
 20
65.4556212379
 10
38.62738707550001
 20
65.3690125202
 10
39.066732269
 20
65.2764888146
 10
39.5508023601
 20
65.1777352717
 10
40.0852675564
 20
65.0725634793
 10
40.6764510147
 20
64.96092781209999
 10
41.3318759109
 20
64.8428995267
 10
42.0606576098
 20
64.7187094686
 10
42.873665748
 20
64.58887710589999
 10
43.7839474545
 20
64.4543458196
 10
44.8076145659
 20
64.31664436750001
 10
45.96443405289999
 20
64.1782317185
 10
47.2799775839
 20
64.0428626073
 10
48.785586547
 20
63.9165311709
 10
50.51577385419999
 20
63.8088236764
 10
52.4010468446
 20
63.7368377704
 10
54.33839516489999
 20
63.7119786737
  0
LWPOLYLINE
  5
1553
330
225
100
AcDbEntity
  8
0
  6
Continuous
 62
     7
100
AcDbPolyline
 90
        9
 70
     0
 43
0.0
 10
21.7424779565
 20
80.4372206148
 10
21.7655692604
 20
78.5600824738
 10
21.8312773059
 20
76.7564480332
 10
21.9395822637
 20
74.9549328894
 10
22.0905711167
 20
73.1550785469
 10
22.2836764696
 20
71.36293157859999
 10
22.528792611
 20
69.50826713169999
 10
22.8309259667
 20
67.5915318806
 10
23.1885555884
 20
65.6482713605
  0
LWPOLYLINE
  5
1554
330
225
100
AcDbEntity
  8
0
  6
Continuous
 62
     7
100
AcDbPolyline
 90
      110
 70
     0
 43
0.0
 10
30.365228886
 20
80.4372206138
 10
30.3739301382
 20
80.0112892677
 10
30.3999632469
 20
79.59429391589999
 10
30.4388574125
 20
79.22015249090001
 10
30.4863980762
 20
78.8875015543
 10
30.5397922197
 20
78.58974847919999
 10
30.5965479569
 20
78.32355535010001
 10
30.6549647276
 20
78.0848680263
 10
30.7138066742
 20
77.8702855696
 10
30.7716907395
 20
77.67838540529999
 10
30.8294372594
 20
77.50195834020001
 10
30.8909825099
 20
77.3273775013
 10
30.9581014376
 20
77.1500772101
 10
31.0292925083
 20
76.9744808951
 10
31.1038330918
 20
76.80219200479999
 10
31.1825244792
 20
76.63120139890001
 10
31.266830531
 20
76.45868612920001
 10
31.3557794215
 20
76.28705706339999
 10
31.4470888477
 20
76.1205487642
 10
31.5442590568
 20
75.952790748
 10
31.6551174104
 20
75.771829357
 10
31.78529767260001
 20
75.5717175062
 10
31.938075591
 20
75.35163081340001
 10
32.1176596724
 20
75.1103771265
 10
32.3307892
 20
74.8449413955
 10
32.5850263074
 20
74.5533890319
 10
32.8890150609
 20
74.23471028459999
 10
33.2458345057
 20
73.8950126784
 10
33.6278550567
 20
73.5654297458
 10
33.9947184094
 20
73.27683045579999
 10
34.3289731028
 20
73.03427478100001
 10
34.6316943296
 20
72.82933587089999
 10
34.9077661252
 20
72.6534390737
 10
35.1596326903
 20
72.50134399709999
 10
35.3887422647
 20
72.3694181896
 10
35.5987893913
 20
72.2534953006
 10
35.79313706940001
 20
72.1502684776
 10
35.9719067679
 20
72.05856916020001
 10
36.1349188027
 20
71.9775535336
 10
36.2839090836
 20
71.9055934014
 10
36.421375103
 20
71.8409069107
 10
36.5496956141
 20
71.78195718319999
 10
36.6698546324
 20
71.7279753854
 10
36.7808127597
 20
71.67914621279999
 10
36.8813924353
 20
71.6357095556
 10
36.9717267269
 20
71.59735209619999
 10
37.0526919761
 20
71.5634892474
 10
37.12531948570001
 20
71.5335211222
 10
37.19081161590001
 20
71.5068219219
 10
37.25054403
 20
71.4827361957
 10
37.3059648631
 20
71.46061313299999
 10
37.3585848007
 20
71.43980590529999
 10
37.409877891
 20
71.4197071154
 10
37.4608656874
 20
71.39990621649999
 10
37.5118666827
 20
71.3802792681
 10
37.5628482852
 20
71.36084021319999
 10
37.6137883055
 20
71.3415940526
 10
37.6647051749
 20
71.3225305183
 10
37.7157186385
 20
71.30359224590001
 10
37.7668540738
 20
71.2847588257
 10
37.81815563030001
 20
71.2660181831
 10
37.8703812387
 20
71.2471008243
 10
37.9245537729
 20
71.2276797479
 10
37.9811605841
 20
71.2076288144
 10
38.040036087
 20
71.1870225818
 10
38.1002591376
 20
71.16618771529999
 10
38.1607551843
 20
71.14546205180001
 10
38.2209351125
 20
71.1250343404
 10
38.2809761672
 20
71.1048386817
 10
38.3418980756
 20
71.0845284432
 10
38.4050778889
 20
71.06365204239999
 10
38.4713369903
 20
71.0419607526
 10
38.5404973041
 20
71.01954263839999
 10
38.61135715079999
 20
70.99681593869999
 10
38.6824009401
 20
70.9742702751
 10
38.7531542369
 20
70.95204520999999
 10
38.82455204820001
 20
70.92983428550001
 10
38.8985387716
 20
70.9070450095
 10
38.9778217252
 20
70.8828790421
 10
39.0653444867
 20
70.8565051423
 10
39.1636748206
 20
70.82725180439999
 10
39.2738320754
 20
70.7949537451
 10
39.3954009376
 20
70.7598821735
 10
39.5286110252
 20
70.72212754979999
 10
39.6758880643
 20
70.6811887755
 10
39.8400390735
 20
70.63652806090001
 10
40.02024369099999
 20
70.5886468075
 10
40.2150138032
 20
70.5382103027
 10
40.42706419549999
 20
70.48480851259999
 10
40.6607047457
 20
70.42773642420001
 10
40.91780208769999
 20
70.36700802270001
 10
41.1981994438
 20
70.3031712651
 10
41.5056214032
 20
70.235951977
 10
41.8448225226
 20
70.1650174213
 10
42.2173057267
 20
70.0908691689
 10
42.62776217099999
 20
70.0135007713
 10
43.0814580038
 20
69.93303265299999
 10
43.58294609659999
 20
69.8499604713
 10
44.1392160315
 20
69.7646487154
 10
44.7569990314
 20
69.67785195569999
 10
45.44515033829999
 20
69.5904390403
 10
46.2141243263
 20
69.5035868682
 10
47.07558516229999
 20
69.4189318483
 10
48.0453916445
 20
69.3384611125
 10
49.14642897229999
 20
69.2646251776
 10
50.34985316310001
 20
69.2033979756
 10
51.498007879
 20
69.16222831189999
 10
52.5341621767
 20
69.1382546255
 10
53.4725609371
 20
69.12638797149999
 10
54.338395163
 20
69.12299660810001
  0
LWPOLYLINE
  5
1555
330
225
100
AcDbEntity
  8
0
  6
Continuous
 62
     7
100
AcDbPolyline
 90
       16
 70
     0
 43
0.0
 10
84.70341763630001
 20
64.39125868499999
 10
84.818313743
 20
64.41854440430001
 10
84.9310356808
 20
64.45488755390001
 10
85.0404752733
 20
64.4999771775
 10
85.14556442129999
 20
64.5532881581
 10
85.2462504562
 20
64.6147682243
 10
85.3419796128
 20
64.6841350591
 10
85.43175683359999
 20
64.7606671873
 10
85.51494499350001
 20
64.84372991509999
 10
85.59156256119999
 20
64.93333449800001
 10
85.6609824697
 20
65.0288396167
 10
85.72249725569999
 20
65.12925725869999
 10
85.7758353224
 20
65.2340437782
 10
85.8209537781
 20
65.3431536047
 10
85.85732679000001
 20
65.4555190019
 10
85.88465095560001
 20
65.5700488377
  0
LWPOLYLINE
  5
1556
330
225
100
AcDbEntity
  8
0
  6
Continuous
 62
     7
100
AcDbPolyline
 90
       29
 70
     0
 43
0.0
 10
84.62558775019999
 20
64.7877521779
 10
84.67343608970001
 20
64.7982575728
 10
84.7176256832
 20
64.8099810538
 10
84.7600362588
 20
64.82311436
 10
84.80110455130001
 20
64.83765665029999
 10
84.84131663779999
 20
64.8537191734
 10
84.88092228819999
 20
64.8713810454
 10
84.9198209813
 20
64.8906022866
 10
84.9578965172
 20
64.91133454859999
 10
84.9951205432
 20
64.93355926229999
 10
85.0314378258
 20
64.9572405291
 10
85.06678565379999
 20
64.9823434126
 10
85.1011204601
 20
65.00883555060001
 10
85.1343701649
 20
65.0366595713
 10
85.1664863597
 20
65.0657801209
 10
85.19742553189999
 20
65.0961554127
 10
85.2271231419
 20
65.1277192447
 10
85.2555224678
 20
65.16041288869999
 10
85.2825829987
 20
65.19418244429999
 10
85.30826524730001
 20
65.22896832029999
 10
85.3325648716
 20
65.26477384829999
 10
85.35543122159999
 20
65.3015234808
 10
85.3767469275
 20
65.33901221020001
 10
85.39675700949999
 20
65.37771573159999
 10
85.4160886616
 20
65.419180572
 10
85.43526463960001
 20
65.46550758169999
 10
85.454221979
 20
65.51849519609999
 10
85.47224894439999
 20
65.5791620009
 10
85.4882346912
 20
65.64827112579999
  0
LWPOLYLINE
  5
1557
330
225
100
AcDbEntity
  8
0
  6
Continuous
 62
     7
100
AcDbPolyline
 90
       13
 70
     0
 43
0.0
 10
23.9733726797
 20
64.3912586867
 10
26.4840316042
 20
63.9192260151
 10
28.9971165606
 20
63.4887571767
 10
31.5136448
 20
63.09948563169999
 10
34.03455962010001
 20
62.7511196784
 10
36.5605009367
 20
62.4435465066
 10
39.0910524767
 20
62.1768205628
 10
41.6254914042
 20
61.9510314127
 10
44.1634589526
 20
61.76619499640001
 10
46.70442895979999
 20
61.6223481998
 10
49.2477186536
 20
61.5195428421
 10
51.7926841891
 20
61.45782389189999
 10
54.338382051
 20
61.43724318069999
  0
LWPOLYLINE
  5
1558
330
225
100
AcDbEntity
  8
0
  6
Continuous
 62
     7
100
AcDbPolyline
 90
       19
 70
     0
 43
0.0
 10
24.0512025398
 20
64.7877521847
 10
26.2656073885
 20
64.36928261289999
 10
28.3974491796
 20
63.9973285218
 10
30.51477316590001
 20
63.6577946189
 10
32.4824480724
 20
63.3687110085
 10
34.227269688
 20
63.13359658239999
 10
35.7613530755
 20
62.9432870614
 10
37.1555850365
 20
62.7835950923
 10
38.4983462262
 20
62.6417102194
 10
39.8529769762
 20
62.5103842971
 10
41.2241567555
 20
62.3895073668
 10
42.5930352939
 20
62.2808959164
 10
43.9550369696
 20
62.1847644146
 10
45.3357754841
 20
62.0994373261
 10
46.7937431042
 20
62.02256603
 10
48.40123698420001
 20
61.9535392612
 10
50.21143837770001
 20
61.8955311202
 10
52.20359444199999
 20
61.8558132611
 10
54.33838206359999
 20
61.8413033013
  0
LWPOLYLINE
  5
1559
330
225
100
AcDbEntity
  8
0
  6
Continuous
 62
     7
100
AcDbPolyline
 90
       13
 70
     0
 43
0.0
 10
54.338382051
 20
61.43724318069999
 10
56.8840922611
 20
61.45782366199999
 10
59.4290635014
 20
61.51954257919999
 10
61.9723555652
 20
61.62234792319999
 10
64.5133258922
 20
61.7661946352
 10
67.05129381409999
 20
61.9510310017
 10
69.5857331831
 20
62.17682010709999
 10
72.11628469129999
 20
62.4435459748
 10
74.64222708040001
 20
62.75111920819999
 10
77.1631451658
 20
63.0994855774
 10
79.67967697849999
 20
63.48875770310001
 10
82.192763165
 20
63.919226813
 10
84.70341763630001
 20
64.39125868499999
  0
LWPOLYLINE
  5
155A
330
225
100
AcDbEntity
  8
0
  6
Continuous
 62
     7
100
AcDbPolyline
 90
       19
 70
     0
 43
0.0
 10
54.33838206359999
 20
61.8413033013
 10
56.3942116678
 20
61.85475940039999
 10
58.2111744136
 20
61.8890571426
 10
59.8288473983
 20
61.9372838114
 10
61.2979198797
 20
61.99553192959999
 10
62.67293025549999
 20
62.06252715359999
 10
64.00788210520001
 20
62.13912559829999
 10
65.3408863642
 20
62.2269891496
 10
66.6813406139
 20
62.32683007569999
 10
68.0166093523
 20
62.43775891689999
 10
69.33358062399999
 20
62.5584135349
 10
70.6570962972
 20
62.6909491486
 10
72.0685718436
 20
62.8447848164
 10
73.6593401305
 20
63.03365852529999
 10
75.4815930509
 20
63.2702628145
 10
77.4869011402
 20
63.5557426107
 10
79.6345452545
 20
63.8907943038
 10
81.98500414719999
 20
64.2924908055
 10
84.62558775019999
 20
64.7877521779
  0
LWPOLYLINE
  5
155B
330
225
100
AcDbEntity
  8
0
  6
Continuous
 62
     7
100
AcDbPolyline
 90
       84
 70
     0
 43
0.0
 10
54.33839516489999
 20
63.7119786737
 10
56.2417460486
 20
63.7360144292
 10
57.9776113678
 20
63.79990041380001
 10
59.51758655789999
 20
63.8902033603
 10
60.8831105419
 20
63.99684603439999
 10
62.1010687516
 20
64.1131426541
 10
63.19184659899999
 20
64.23433832749999
 10
64.17247335749999
 20
64.3571203054
 10
65.0570480553
 20
64.4791704688
 10
65.85728240129999
 20
64.5988651831
 10
66.5829132484
 20
64.7150658435
 10
67.24261402329999
 20
64.8270695498
 10
67.8443800146
 20
64.9345480195
 10
68.394427642
 20
65.0372440279
 10
68.89609518
 20
65.13463498490001
 10
69.3517673396
 20
65.226192722
 10
69.76662354359999
 20
65.3121230446
 10
70.14962403040001
 20
65.39364115800001
 10
70.5113463311
 20
65.47256475489999
 10
70.86099443970001
 20
65.55064639619999
 10
71.2008519483
 20
65.62823642739999
 10
71.52624958869999
 20
65.7040965952
 10
71.8301077869
 20
65.77632884429999
 10
72.1048850435
 20
65.8428115156
 10
72.3481012529
 20
65.902583252
 10
72.5632915906
 20
65.95619391380001
 10
72.75621843499999
 20
66.0048371025
 10
72.9315127839
 20
66.0495080797
 10
73.09146539609999
 20
66.0906627043
 10
73.2370121693
 20
66.12844091859999
 10
73.36888726479999
 20
66.16294652909999
 10
73.4879181651
 20
66.19432002939999
 10
73.5955424431
 20
66.22287604979999
 10
73.6942109801
 20
66.2492119004
 10
73.78694343859999
 20
66.27409495090001
 10
73.8766398004
 20
66.29828062779999
 10
73.9653412806
 20
66.3223077138
 10
74.05397108949999
 20
66.3464206033
 10
74.1425749775
 20
66.37062793040001
 10
74.23128044090001
 20
66.3949845438
 10
74.3219516884
 20
66.4200880946
 10
74.4180528671
 20
66.4470261085
 10
74.5234478717
 20
66.47708939170001
 10
74.64209137100001
 20
66.51175910880001
 10
74.7779906935
 20
66.552802773
 10
74.9325631758
 20
66.6013908802
 10
75.0995904091
 20
66.65614039020001
 10
75.27037223159999
 20
66.7144786719
 10
75.4427912986
 20
66.7757448957
 10
75.6181463611
 20
66.8405176656
 10
75.7952506155
 20
66.90851881
 10
75.9714218184
 20
66.9788006855
 10
76.1450758835
 20
67.0507064913
 10
76.3181576827
 20
67.12501150060001
 10
76.4975881819
 20
67.20486498539999
 10
76.69294267259999
 20
67.2951305986
 10
76.91260610029999
 20
67.40085300369999
 10
77.1598049788
 20
67.5253049593
 10
77.43384342279999
 20
67.670244293
 10
77.7363520892
 20
67.83905431939999
 10
78.07303536
 20
68.0382642614
 10
78.45014691850001
 20
68.2762821068
 10
78.8706996028
 20
68.5613864821
 10
79.33112360169999
 20
68.8990673661
 10
79.82191604170001
 20
69.29109654300001
 10
80.3226955577
 20
69.72895291319999
 10
80.8090385032
 20
70.19538863520001
 10
81.2700568576
 20
70.6802902355
 10
81.70648780090001
 20
71.1837126143
 10
82.12009176149999
 20
71.70762671050001
 10
82.5096373635
 20
72.2506677229
 10
82.8736325608
 20
72.8107628785
 10
83.21127380750001
 20
73.3866396471
 10
83.52197380799999
 20
73.9773058808
 10
83.80521015720001
 20
74.58165735279999
 10
84.06041585590001
 20
75.19848054429999
 10
84.2869492172
 20
75.8263600912
 10
84.48428112610001
 20
76.46382452800001
 10
84.65211861970001
 20
77.10971227539999
 10
84.7901688253
 20
77.7629982334
 10
84.8980275779
 20
78.4221981841
 10
84.97576329600001
 20
79.08918493109999
 10
85.02274621879999
 20
79.7619946958
 10
85.0384596179
 20
80.4372206138
  0
LWPOLYLINE
  5
155C
330
225
100
AcDbEntity
  8
0
  6
Continuous
 62
     7
100
AcDbPolyline
 90
       80
 70
     0
 43
0.0
 10
54.338395163
 20
69.12299660810001
 10
55.19521866229999
 20
69.127072108
 10
56.16671081439999
 20
69.1422256811
 10
57.26827931829999
 20
69.17430887790001
 10
58.36942276430001
 20
69.223776219
 10
59.35646345520001
 20
69.2843144573
 10
60.2390243963
 20
69.3525940117
 10
61.0344633971
 20
69.42652407779999
 10
61.75248148479999
 20
69.50412112879999
 10
62.4031736139
 20
69.5839732541
 10
62.9937206085
 20
69.6648154377
 10
63.5303649799
 20
69.7456267396
 10
64.01873820109999
 20
69.82560904999999
 10
64.46363394800001
 20
69.9041133801
 10
64.86948118569999
 20
69.980674069
 10
65.23995308329999
 20
70.05489023149999
 10
65.57843061709999
 20
70.12647893340001
 10
65.88829475229999
 20
70.1953227602
 10
66.1720086082
 20
70.26124954859999
 10
66.4318736031
 20
70.32416018540001
 10
66.67035064869999
 20
70.3840988198
 10
66.8896162038
 20
70.44113797989999
 10
67.0913935938
 20
70.4953150279
 10
67.27681650529999
 20
70.54657104399999
 10
67.44650749759999
 20
70.59474852520001
 10
67.601568589
 20
70.6398648034
 10
67.74459010859999
 20
70.6824276903
 10
67.8795908961
 20
70.7234606016
 10
68.0101635603
 20
70.763958295
 10
68.1364361551
 20
70.8038981347
 10
68.2560071448
 20
70.842437103
 10
68.36829944529999
 20
70.87928026330001
 10
68.47562646970001
 20
70.91509503569999
 10
68.5806362409
 20
70.9507162826
 10
68.6847601913
 20
70.9866157373
 10
68.78899952240001
 20
71.0231443235
 10
68.89435960109999
 20
71.0606774312
 10
69.0005724712
 20
71.09914859949999
 10
69.10562104410001
 20
71.13783341680001
 10
69.20741808459999
 20
71.1759353655
 10
69.30513321810001
 20
71.21308853790001
 10
69.399297351
 20
71.24949740869999
 10
69.49128610319999
 20
71.2857249619
 10
69.5828874029
 20
71.3224907285
 10
69.67506670739999
 20
71.36023007359999
 10
69.76714434199999
 20
71.39865467029999
 10
69.8597317352
 20
71.4379798792
 10
69.9566804072
 20
71.47990563100001
 10
70.0627749869
 20
71.5266758972
 10
70.1812877305
 20
71.58005926439999
 10
70.3133547981
 20
71.6410146492
 10
70.4587831115
 20
71.70998223149999
 10
70.61720198
 20
71.787383852
 10
70.7898635306
 20
71.87454923539999
 10
70.98009612350001
 20
71.97412384489999
 10
71.19097633069999
 20
72.08906355270001
 10
71.42379115029999
 20
72.2218519668
 10
71.6810177353
 20
72.376245149
 10
71.96782678069999
 20
72.55867227
 10
72.28840633729999
 20
72.77668772529999
 10
72.6441782046
 20
73.03816722109999
 10
73.0206738129
 20
73.3404642446
 10
73.38911058239999
 20
73.6661028809
 10
73.7334679875
 20
74.00228823119999
 10
74.05175802310001
 20
74.3460071366
 10
74.34550882819999
 20
74.69754630779999
 10
74.6164866573
 20
75.0580994296
 10
74.86583041899999
 20
75.4285154659
 10
75.09387141339999
 20
75.80875318069999
 10
75.3012054505
 20
76.1996783765
 10
75.48839317079999
 20
76.6025772469
 10
75.65571017159999
 20
77.0185974522
 10
75.80274458069999
 20
77.4477532936
 10
75.929406033
 20
77.89163390369999
 10
76.03573834939999
 20
78.3534338453
 10
76.11943508989999
 20
78.8244849121
 10
76.1775199993
 20
79.2743556274
 10
76.21347720580001
 20
79.6925061439
 10
76.23215582189999
 20
80.07941563500001
 10
76.23762456119999
 20
80.4372206138
  0
LWPOLYLINE
  5
155D
330
225
100
AcDbEntity
  8
0
  6
Continuous
 62
     7
100
AcDbPolyline
 90
       31
 70
     0
 43
0.0
 10
52.338395163
 20
95.9474304657
 10
52.3389947415
 20
95.95326008169999
 10
52.3407918338
 20
95.959073719
 10
52.34378151399999
 20
95.964855443
 10
52.34795558770001
 20
95.9705894064
 10
52.35330261399999
 20
95.97625989269999
 10
52.3598079371
 20
95.98185135959999
 10
52.3674537264
 20
95.98734848120001
 10
52.37621902529999
 20
95.99273619020001
 10
52.3860798087
 20
95.9979997195
 10
52.3970090488
 20
96.0031246419
 10
52.40897678949999
 20
96.00809691049999
 10
52.421950228
 20
96.0129028965
 10
52.4358938049
 20
96.01752942719999
 10
52.45076930189999
 20
96.02196382149999
 10
52.46653594619999
 20
96.02619392500001
 10
52.48315052270001
 20
96.0302081434
 10
52.50056749189999
 20
96.03399547389999
 10
52.5187391151
 20
96.03754553569999
 10
52.5376155852
 20
96.0408485984
 10
52.557145163
 20
96.04389560850002
 10
52.5772743194
 20
96.04667821440001
 10
52.5979478817
 20
96.04918878900001
 10
52.6191091851
 20
96.0514204512
 10
52.640700228
 20
96.0533670841
 10
52.66266183079999
 20
96.055023352
 10
52.6849337983
 20
96.05638471530001
 10
52.7074550845
 20
96.0574474426
 10
52.7301639603
 20
96.05820862100001
 10
52.7529981821
 20
96.05866616420001
 10
52.775895163
 20
96.05881881809999
  0
LWPOLYLINE
  5
155E
330
225
100
AcDbEntity
  8
0
  6
Continuous
 62
     7
100
AcDbPolyline
 90
        4
 70
     0
 43
0.0
 10
57.14178900149999
 20
96.03258751950001
 10
57.1920308366
 20
96.18089916569999
 10
57.243197721
 20
96.3308835181
 10
57.2953353759
 20
96.4832121292
  0
LWPOLYLINE
  5
155F
330
225
100
AcDbEntity
  8
0
  6
Continuous
 62
     7
100
AcDbPolyline
 90
       25
 70
     0
 43
0.0
 10
56.51475619479999
 20
96.09064406160001
 10
56.4977250624
 20
96.0411274434
 10
56.4820350074
 20
95.9953047672
 10
56.4673829111
 20
95.9529387291
 10
56.4543269006
 20
95.9136895149
 10
56.4369685212
 20
95.87864458270001
 10
56.4113089159
 20
95.84652839790001
 10
56.3754602203
 20
95.81461275269999
 10
56.3290101584
 20
95.78273400280002
 10
56.27242621729999
 20
95.7515365783
 10
56.2054753425
 20
95.72101851559999
 10
56.1282970306
 20
95.6913814542
 10
56.0408934003
 20
95.66277243280001
 10
55.9433010426
 20
95.63536034059998
 10
55.835750738
 20
95.60935723850001
 10
55.7185606194
 20
95.58496978079999
 10
55.5920834481
 20
95.56239234370002
 10
55.4568706592
 20
95.5418381992
 10
55.3135455317
 20
95.52350941170001
 10
55.1629646663
 20
95.5076116658
 10
55.0060462566
 20
95.4943246684
 10
54.8438650868
 20
95.48380947810001
 10
54.67765751289999
 20
95.4762004942
 10
54.5086411387
 20
95.47159348420001
 10
54.338395163
 20
95.47005262819999
  0
LWPOLYLINE
  5
1560
330
225
100
AcDbEntity
  8
0
  6
Continuous
 62
     7
100
AcDbPolyline
 90
        5
 70
     0
 43
0.0
 10
56.51475619479999
 20
96.09064406160001
 10
56.54804217209999
 20
96.18031865219998
 10
56.5845387735
 20
96.2723933222
 10
56.624792475
 20
96.37898516180001
 10
56.6688405358
 20
96.50528524249999
  0
LWPOLYLINE
  5
1561
330
225
100
AcDbEntity
  8
0
  6
Continuous
 62
     7
100
AcDbPolyline
 90
       24
 70
     0
 43
0.0
 10
55.8372323929
 20
95.88069106090001
 10
55.8367910745
 20
95.87955024540001
 10
55.8347924031
 20
95.87646809170001
 10
55.8320062555
 20
95.8734258185
 10
55.8284445624
 20
95.8704364533
 10
55.8241225755
 20
95.86751279709998
 10
55.8190588022
 20
95.86466736930001
 10
55.81327492649999
 20
95.86191235459999
 10
55.80679571560001
 20
95.85925955030001
 10
55.7996489147
 20
95.85672031620001
 10
55.7918651274
 20
95.8543055256
 10
55.783477685
 20
95.852025519
 10
55.774522504
 20
95.84989005979998
 10
55.7650379317
 20
95.84790829239999
 10
55.7550645826
 20
95.84608870290001
 10
55.74464516399999
 20
95.8444390832
 10
55.73382429329999
 20
95.84296649709999
 10
55.7226483075
 20
95.8416772506
 10
55.7111650641
 20
95.8405768643
 10
55.6994237356
 20
95.8396700503
 10
55.6874745996
 20
95.83896069159999
 10
55.67536882489999
 20
95.8384518259
 10
55.66315825020001
 20
95.83814563229999
 10
55.650895163
 20
95.8380434218
  0
LWPOLYLINE
  5
1562
330
225
100
AcDbEntity
  8
0
  6
Continuous
 62
     7
100
AcDbPolyline
 90
       22
 70
     0
 43
0.0
 10
52.3646027688
 20
80.4372206138
 10
52.3701906658
 20
80.2890410152
 10
52.38669280029999
 20
80.1432180872
 10
52.4140219002
 20
79.9990088986
 10
52.45201259729999
 20
79.85727331449999
 10
52.50046355609999
 20
79.71875405590001
 10
52.5591040683
 20
79.58422733049999
 10
52.6276261177
 20
79.4544111935
 10
52.7056549667
 20
79.3300328981
 10
52.79274299029999
 20
79.2118088519
 10
52.88843826069999
 20
79.1003607204
 10
52.9922277263
 20
78.99629982100001
 10
53.1035573642
 20
78.9001975054
 10
53.22182704300001
 20
78.81259282890001
 10
53.3463429109
 20
78.7340092445
 10
53.47641336289999
 20
78.66488872339999
 10
53.6112989128
 20
78.6056280564
 10
53.7502323938
 20
78.55656378519999
 10
53.8923667498
 20
78.5179900265
 10
54.0389267758
 20
78.4897984223
 10
54.18846490039999
 20
78.4726488436
 10
54.338395163
 20
78.4669424514
  0
LINE
  5
1563
330
225
100
AcDbEntity
  8
0
  6
Continuous
 62
     7
100
AcDbLine
 10
52.338395163
 20
95.9244631247
 30
0.0
 11
52.338395163
 21
95.9474304657
 31
0.0
  0
LINE
  5
1564
330
225
100
AcDbEntity
  8
0
  6
Continuous
 62
     7
100
AcDbLine
 10
52.775895163
 20
95.7608969087
 30
0.0
 11
52.775895163
 21
95.76320369299999
 31
0.0
  0
LINE
  5
1565
330
225
100
AcDbEntity
  8
0
  6
Continuous
 62
     7
100
AcDbLine
 10
53.025895163
 20
95.9121458327
 30
0.0
 11
53.025895163
 21
95.9111572109
 31
0.0
  0
LINE
  5
1566
330
225
100
AcDbEntity
  8
DEFAULT_1
  6
CENTER
 62
     7
100
AcDbLine
 10
54.338395163
 20
80.4372206138
 30
0.0
 11
54.338395163
 21
78.62969864770001
 31
0.0
  0
LINE
  5
1567
330
225
100
AcDbEntity
  8
DEFAULT_1
  6
CENTER
 62
     7
100
AcDbLine
 10
54.338395163
 20
78.4669424514
 30
0.0
 11
54.338395163
 21
76.6365608512
 31
0.0
  0
LINE
  5
1568
330
225
100
AcDbEntity
  8
0
  6
Continuous
 62
     7
100
AcDbLine
 10
54.338395163
 20
78.62969864770001
 30
0.0
 11
54.338395163
 21
78.4669424514
 31
0.0
  0
LINE
  5
1569
330
225
100
AcDbEntity
  8
DEFAULT_1
  6
CENTER
 62
     7
100
AcDbLine
 10
54.338395163
 20
80.4372206138
 30
0.0
 11
54.338395163
 21
84.2378803763
 31
0.0
  0
LWPOLYLINE
  5
156A
330
225
100
AcDbEntity
  8
0
  6
Continuous
 62
     7
100
AcDbPolyline
 90
       22
 70
     0
 43
0.0
 10
54.338395163
 20
78.4669424514
 10
54.4868785034
 20
78.47253910069999
 10
54.63317009149999
 20
78.48908386819999
 10
54.7779218632
 20
78.5164945053
 10
54.920237372
 20
78.55460469909999
 10
55.05932658969999
 20
78.6032011158
 10
55.1943786414
 20
78.66199476930001
 10
55.32463400850001
 20
78.73064959109999
 10
55.4493678916
 20
78.8087768166
 10
55.5678502008
 20
78.89590587659999
 10
55.679440531
 20
78.99155058489999
 10
55.78354151390001
 20
79.0951823165
 10
55.87959603459999
 20
79.2062362904
 10
55.96710350449999
 20
79.32413205679999
 10
56.0455621664
 20
79.4481895934
 10
56.1145402062
 20
79.5777178389
 10
56.17367085529999
 20
79.7120189047
 10
56.2226323164
 20
79.8503626846
 10
56.2611401455
 20
79.9919412032
 10
56.2892881484
 20
80.13791128619999
 10
56.306451025
 20
80.2870860308
 10
56.3121875572
 20
80.4372206138
  0
LINE
  5
156B
330
225
100
AcDbEntity
  8
DEFAULT_1
  6
CENTER
 62
     7
100
AcDbLine
 10
54.338395163
 20
80.4372206138
 30
0.0
 11
50.5377354005
 21
80.4372206138
 31
0.0
  0
LINE
  5
156C
330
225
100
AcDbEntity
  8
DEFAULT_1
  6
CENTER
 62
     7
100
AcDbLine
 10
54.338395163
 20
80.4372206138
 30
0.0
 11
58.1390549255
 21
80.4372206138
 31
0.0
  0
LWPOLYLINE
  5
156D
330
225
100
AcDbEntity
  8
0
  6
Continuous
 62
     7
100
AcDbPolyline
 90
       22
 70
     0
 43
0.0
 10
56.3121875572
 20
80.4372206138
 10
56.30659988319999
 20
80.58539725979999
 10
56.2900978635
 20
80.7312209048
 10
56.26276867859999
 20
80.8754312225
 10
56.2247777557
 20
81.01716782549999
 10
56.17632637239999
 20
81.15568818520001
 10
56.1176852826
 20
81.29021592409999
 10
56.0491625524
 20
81.42003290640001
 10
55.97113290060001
 20
81.54441194189999
 10
55.8840439513
 20
81.66263662829999
 10
55.7883476125
 20
81.7740853177
 10
55.6845569791
 20
81.87814663659999
 10
55.5732261271
 20
81.9742491909
 10
55.4549551756
 20
82.0618539482
 10
55.3304379893
 20
82.1404374517
 10
55.2003661947
 20
82.20955772179999
 10
55.06547928739999
 20
82.2688179682
 10
54.92654448999999
 20
82.3178816334
 10
54.78440878069999
 20
82.3564546305
 10
54.6378510581
 20
82.3846447224
 10
54.48831854149999
 20
82.4017929086
 10
54.338395163
 20
82.4074987762
  0
LINE
  5
156E
330
225
100
AcDbEntity
  8
0
  6
Continuous
 62
     7
100
AcDbLine
 10
55.650895163
 20
95.9121458327
 30
0.0
 11
55.650895163
 21
95.9111572109
 31
0.0
  0
LINE
  5
156F
330
225
100
AcDbEntity
  8
0
  6
Continuous
 62
     7
100
AcDbLine
 10
55.900895163
 20
95.7608969087
 30
0.0
 11
55.900895163
 21
95.76320369299999
 31
0.0
  0
LINE
  5
1570
330
225
100
AcDbEntity
  8
0
  6
Continuous
 62
     7
100
AcDbLine
 10
56.338395163
 20
95.9474304657
 30
0.0
 11
56.338395163
 21
95.9244631247
 31
0.0
  0
LWPOLYLINE
  5
1571
330
225
100
AcDbEntity
  8
0
  6
Continuous
 62
     7
100
AcDbPolyline
 90
       22
 70
     0
 43
0.0
 10
54.338395163
 20
82.4074987762
 10
54.1899093775
 20
82.40190194230001
 10
54.0436186239
 20
82.38535711609999
 10
53.8988678857
 20
82.3579465905
 10
53.7565533301
 20
82.3198366443
 10
53.61746504550001
 20
82.27124062459999
 10
53.48241386329999
 20
82.21244750489999
 10
53.3521592765
 20
82.1437933398
 10
53.227426083
 20
82.06566689010001
 10
53.1089443588
 20
81.9785387143
 10
52.9973545064
 20
81.8828949955
 10
52.8932538739
 20
81.7792643403
 10
52.7971995586
 20
81.6682115066
 10
52.7096921466
 20
81.5503169341
 10
52.63123339079999
 20
81.42626063159999
 10
52.5622551273
 20
81.29673370109999
 10
52.5031240858
 20
81.1624339635
 10
52.45416205499999
 20
81.02409148939999
 10
52.4156534368
 20
80.88251404020001
 10
52.3875039532
 20
80.73654147760001
 10
52.3703397852
 20
80.58736152260001
 10
52.3646027688
 20
80.4372206138
  0
LWPOLYLINE
  5
1572
330
225
100
AcDbEntity
  8
0
  6
Continuous
 62
     7
100
AcDbPolyline
 90
        4
 70
     0
 43
0.0
 10
51.38143607039999
 20
96.48360950819999
 10
51.43354276
 20
96.33149837860001
 10
51.4846772092
 20
96.18171875420001
 10
51.5349307404
 20
96.033503466
  0
LWPOLYLINE
  5
1573
330
225
100
AcDbEntity
  8
0
  6
Continuous
 62
     7
100
AcDbPolyline
 90
       26
 70
     0
 43
0.0
 10
51.53493041369999
 20
96.03350345489999
 10
51.5543563259
 20
95.9759070067
 10
51.5723070675
 20
95.9225105696
 10
51.5887618374
 20
95.8729712983
 10
51.60480285529999
 20
95.82733303319999
 10
51.6266602858
 20
95.7850392892
 10
51.6612913405
 20
95.74266455889999
 10
51.7082093592
 20
95.70090719259999
 10
51.7669580311
 20
95.6602572663
 10
51.836563425
 20
95.6212089725
 10
51.9181976937
 20
95.58342219120001
 10
52.0143705349
 20
95.54562011549998
 10
52.1174862668
 20
95.5111207506
 10
52.2348164129
 20
95.4774256533
 10
52.36573472899999
 20
95.44487095459999
 10
52.503425848
 20
95.41529166569999
 10
52.6508701438
 20
95.38799256110001
 10
52.8098053129
 20
95.36273334110001
 10
52.9799091272
 20
95.33968762319998
 10
53.1580942808
 20
95.31935721319999
 10
53.34168667810001
 20
95.30207058010001
 10
53.53217419569999
 20
95.2877056978
 10
53.72922029459999
 20
95.2763323383
 10
53.9306654502
 20
95.26812033749999
 10
54.1344094688
 20
95.26316845790001
 10
54.338395163
 20
95.26151601889999
  0
LWPOLYLINE
  5
1574
330
225
100
AcDbEntity
  8
0
  6
Continuous
 62
     7
100
AcDbPolyline
 90
       31
 70
     0
 43
0.0
 10
56.338395163
 20
95.9474304657
 10
56.3377955845
 20
95.95326008169999
 10
56.33599849220001
 20
95.959073719
 10
56.333008812
 20
95.964855443
 10
56.32883473829999
 20
95.9705894064
 10
56.323487712
 20
95.97625989269999
 10
56.3169823889
 20
95.98185135959999
 10
56.3093365996
 20
95.98734848120001
 10
56.30057130069999
 20
95.99273619020001
 10
56.29071051729999
 20
95.9979997195
 10
56.2797812772
 20
96.0031246419
 10
56.26781353649999
 20
96.00809691049999
 10
56.254840098
 20
96.0129028965
 10
56.2408965211
 20
96.01752942719999
 10
56.2260210241
 20
96.02196382149999
 10
56.2102543798
 20
96.02619392500001
 10
56.1936398033
 20
96.0302081434
 10
56.1762228341
 20
96.03399547389999
 10
56.1580512109
 20
96.03754553569999
 10
56.1391747408
 20
96.0408485984
 10
56.119645163
 20
96.04389560850002
 10
56.0995160066
 20
96.04667821440001
 10
56.0788424443
 20
96.04918878900001
 10
56.0576811409
 20
96.0514204512
 10
56.036090098
 20
96.0533670841
 10
56.0141284952
 20
96.055023352
 10
55.9918565277
 20
96.05638471530001
 10
55.96933524149999
 20
96.0574474426
 10
55.94662636569999
 20
96.05820862100001
 10
55.9237921439
 20
96.05866616420001
 10
55.900895163
 20
96.05881881809999
  0
LWPOLYLINE
  5
1575
330
225
100
AcDbEntity
  8
0
  6
Continuous
 62
     7
100
AcDbPolyline
 90
        5
 70
     0
 43
0.0
 10
52.1620341312
 20
96.09064406160001
 10
52.1287097314
 20
96.18049853590001
 10
52.09219628319999
 20
96.27276633930001
 10
52.0519562309
 20
96.3794157399
 10
52.0079563043
 20
96.505531929
  0
LINE
  5
1576
330
225
100
AcDbEntity
  8
0
  6
Continuous
 62
     7
100
AcDbLine
 10
52.17891408749999
 20
96.0410886542
 30
0.0
 11
52.1620341312
 21
96.09064406160001
 31
0.0
  0
LWPOLYLINE
  5
1577
330
225
100
AcDbEntity
  8
0
  6
Continuous
 62
     7
100
AcDbPolyline
 90
      109
 70
     0
 43
0.0
 10
54.338395163
 20
91.75144461909999
 10
53.5095461783
 20
91.74834130269999
 10
52.5742841268
 20
91.7368790909
 10
51.4985083225
 20
91.71222741360001
 10
50.3335764412
 20
91.67034242079999
 10
49.22429648939999
 20
91.61437324239999
 10
48.23169900799999
 20
91.549741624
 10
47.34158955379999
 20
91.479094731
 10
46.5380638352
 20
91.40420515509999
 10
45.81153383979999
 20
91.3267622348
 10
45.1532405187
 20
91.2480772908
 10
44.5551323157
 20
91.16911830819999
 10
44.0110451485
 20
91.0907524443
 10
43.5154187355
 20
91.01364270209998
 10
43.0627414755
 20
90.938190664
 10
42.6493981005
 20
90.86489635120001
 10
42.27129775229999
 20
90.79400462649999
 10
41.9240196416
 20
90.7255117789
 10
41.6062094196
 20
90.65987227369999
 10
41.31514792419999
 20
90.59717702929999
 10
41.04624924249999
 20
90.5369812314
 10
40.79863281939999
 20
90.4795502568
 10
40.5722184868
 20
90.42530430129998
 10
40.3645795143
 20
90.37405769620001
 10
40.17247033639999
 20
90.3253288402
 10
39.993542
 20
90.2787742417
 10
39.8272073605
 20
90.2344582689
 10
39.6736588991
 20
90.19263898530001
 10
39.5329521424
 20
90.15353233809999
 10
39.4049712537
 20
90.11729485809999
 10
39.2896121229
 20
90.08407356299999
 10
39.1866215811
 20
90.05395855200001
 10
39.0948977649
 20
90.02677008799999
 10
39.0122782056
 20
90.0019831066
 10
38.9360095221
 20
89.97885026649999
 10
38.8632151714
 20
89.9565446205
 10
38.791540687
 20
89.93436437700001
 10
38.7199305196
 20
89.9119867583
 10
38.64826239780001
 20
89.8893666797
 10
38.5767784592
 20
89.86656525649999
 10
38.50633887380001
 20
89.8438555247
 10
38.4384360199
 20
89.8217354812
 10
38.3739465401
 20
89.80052616889999
 10
38.3123551589
 20
89.7800858645
 10
38.25246876099999
 20
89.76003647190001
 10
38.1932161906
 20
89.74002113639999
 10
38.1339353553
 20
89.71981461270001
 10
38.0745030295
 20
89.69937054569999
 10
38.0152895667
 20
89.67878734920001
 10
37.95727808530001
 20
89.65838225700002
 10
37.9012387927
 20
89.6384315381
 10
37.84709551280001
 20
89.61892601530001
 10
37.7943889592
 20
89.59976034489999
 10
37.74239924760001
 20
89.58069450120001
 10
37.69054996739999
 20
89.56152392879998
 10
37.6387292367
 20
89.54220671989999
 10
37.5869252761
 20
89.5227196473
 10
37.535100617
 20
89.50304314200002
 10
37.4832648051
 20
89.48317736739999
 10
37.4313755592
 20
89.46310422549998
 10
37.3788890316
 20
89.44261298040002
 10
37.324568567
 20
89.4212063822
 10
37.2668961527
 20
89.39825486190001
 10
37.2043323762
 20
89.3730933119
 10
37.1353167133
 20
89.34501549249999
 10
37.05831201
 20
89.31328460939999
 10
36.9717786557
 20
89.27711100439999
 10
36.8743652479
 20
89.23572201489999
 10
36.7660149424
 20
89.18883861839999
 10
36.6483483477
 20
89.1368892156
 10
36.52221803630001
 20
89.07997534360001
 10
36.3859020133
 20
89.01699591699999
 10
36.23636561290001
 20
88.9460970942
 10
36.0707511708
 20
88.86528643940001
 10
35.8879626165
 20
88.7731922362
 10
35.688655015
 20
88.66914645360001
 10
35.4704845537
 20
88.55069029479999
 10
35.2280730698
 20
88.4131275098
 10
34.95888908219999
 20
88.252498767
 10
34.6599999067
 20
88.06360541350001
 10
34.3243616583
 20
87.83694072459999
 10
33.94954980860001
 20
87.5634081197
 10
33.5530550319
 20
87.24696791120001
 10
33.17199855510001
 20
86.9118544852
 10
32.82613272010001
 20
86.5762061332
 10
32.519329595
 20
86.2480807975
 10
32.2570408368
 20
85.94000178749999
 10
32.0354535329
 20
85.65579269709999
 10
31.8477186294
 20
85.39444236859999
 10
31.68807649110001
 20
85.15447192229999
 10
31.5510292306
 20
84.9330066773
 10
31.4335376604
 20
84.729751601
 10
31.3330664787
 20
84.54449398020001
 10
31.2462384946
 20
84.3745549554
 10
31.1680352422
 20
84.21252122689999
 10
31.0921783939
 20
84.04601534020001
 10
31.0171663073
 20
83.87086475489999
 10
30.946960294
 20
83.69577915129999
 10
30.8829078299
 20
83.5248610614
 10
30.8214745105
 20
83.3489366072
 10
30.75840131670001
 20
83.15344999770001
 10
30.6934136187
 20
82.93227273460001
 10
30.6278936102
 20
82.6826374274
 10
30.5632360353
 20
82.39963411700001
 10
30.5017227346
 20
82.07859903600001
 10
30.4462870377
 20
81.7125689715
 10
30.4011702803
 20
81.29439235399999
 10
30.3736084728
 20
80.85528111589999
 10
30.3652288869
 20
80.4372206138
  0
LINE
  5
1578
330
225
100
AcDbEntity
  8
0
  6
Continuous
 62
     7
100
AcDbLine
 10
52.6741667735
 20
95.9466799419
 30
0.0
 11
52.6941277939
 21
95.9479907518
 31
0.0
  0
LINE
  5
1579
330
225
100
AcDbEntity
  8
0
  6
Continuous
 62
     7
100
AcDbLine
 10
52.6941277939
 20
95.9479907518
 30
0.0
 11
52.71434646260001
 21
95.94901455510001
 31
0.0
  0
LWPOLYLINE
  5
157A
330
225
100
AcDbEntity
  8
0
  6
Continuous
 62
     7
100
AcDbPolyline
 90
        4
 70
     0
 43
0.0
 10
52.71434646260001
 20
95.94901455510001
 10
52.7347577312
 20
95.9497480731
 10
52.7553001897
 20
95.950189084
 10
52.775895163
 20
95.95033612489999
  0
LWPOLYLINE
  5
157B
330
225
100
AcDbEntity
  8
0
  6
Continuous
 62
     7
100
AcDbPolyline
 90
       25
 70
     0
 43
0.0
 10
53.025895163
 20
95.9111572109
 10
53.0128053743
 20
95.9110531708
 10
52.9997764789
 20
95.9107417304
 10
52.9868701018
 20
95.91022498139999
 10
52.97414668930001
 20
95.90950641419999
 10
52.9616674021
 20
95.9085910643
 10
52.9494927922
 20
95.90748557399999
 10
52.9376814684
 20
95.90619816799998
 10
52.92629183369999
 20
95.9047389576
 10
52.91538244159999
 20
95.90312029799999
 10
52.90500946569999
 20
95.9013567795
 10
52.8952248014
 20
95.8994651381
 10
52.8860833487
 20
95.8974661375
 10
52.87763454989999
 20
95.89538372579999
 10
52.8699236658
 20
95.89324592229999
 10
52.8629880921
 20
95.8910846028
 10
52.8568627795
 20
95.88893822139999
 10
52.8515694685
 20
95.88684964770001
 10
52.8471161887
 20
95.8848664719
 10
52.84349398239999
 20
95.8830399108
 10
52.84067430069999
 20
95.8814229865
 10
52.8386080169
 20
95.8800682662
 10
52.83722683
 20
95.87902588959998
 10
52.8364473467
 20
95.8783431986
 10
52.8363556128
 20
95.87825394299999
  0
LWPOLYLINE
  5
157C
330
225
100
AcDbEntity
  8
0
  6
Continuous
 62
     7
100
AcDbPolyline
 90
       27
 70
     0
 43
0.0
 10
54.338395163
 20
95.26151601889999
 10
54.53307599470001
 20
95.2629897271
 10
54.7302034159
 20
95.26756195790001
 10
54.92564086409999
 20
95.27517698790001
 10
55.11630259109999
 20
95.2857027267
 10
55.3009218108
 20
95.2990190186
 10
55.4796211631
 20
95.31509578059999
 10
55.6534717687
 20
95.33401470459999
 10
55.81956625250001
 20
95.35542924579999
 10
55.9749832382
 20
95.37887310549999
 10
56.12007058959999
 20
95.40428490209999
 10
56.2566813383
 20
95.43192600240001
 10
56.3852652977
 20
95.46185945479999
 10
56.5023136099
 20
95.49319170190001
 10
56.6088320457
 20
95.5260934034
 10
56.7052200868
 20
95.5606263786
 10
56.790885083
 20
95.59647557719999
 10
56.8650197936
 20
95.633195687
 10
56.9285506849
 20
95.6712014206
 10
56.9828654721
 20
95.7114566002
 10
57.02394588749999
 20
95.75052945780001
 10
57.0548600128
 20
95.79152152620002
 10
57.0744548851
 20
95.8330419516
 10
57.08973435459999
 20
95.87739340149999
 10
57.1057201311
 20
95.9253880926
 10
57.123067083
 20
95.97702467030002
 10
57.1417881349
 20
96.0325875496
  0
LWPOLYLINE
  5
157D
330
225
100
AcDbEntity
  8
0
  6
Continuous
 62
     7
100
AcDbPolyline
 90
       32
 70
     0
 43
0.0
 10
55.900895163
 20
95.7608969087
 10
55.9229053645
 20
95.7610570839
 10
55.9448612089
 20
95.7615375295
 10
55.9667105213
 20
95.7623381053
 10
55.9884020557
 20
95.7634587115
 10
56.0098858303
 20
95.76489941110001
 10
56.0311114066
 20
95.76666041860001
 10
56.0520353324
 20
95.76874293440001
 10
56.0726156189
 20
95.77114916159999
 10
56.09281448069999
 20
95.7738830375
 10
56.112596625
 20
95.77695066489999
 10
56.1319346734
 20
95.78036206760002
 10
56.1508140775
 20
95.78413389020001
 10
56.1692282582
 20
95.78829117299999
 10
56.187176925
 20
95.7928703067
 10
56.20468173009999
 20
95.7979286135
 10
56.2217846742
 20
95.80355457709998
 10
56.23850084569999
 20
95.80986596129999
 10
56.2547673595
 20
95.8169995415
 10
56.2702089823
 20
95.8249798685
 10
56.2839557287
 20
95.83345258100001
 10
56.2953928166
 20
95.841889978
 10
56.3047375968
 20
95.8501202757
 10
56.31241061359999
 20
95.8581692889
 10
56.3187863045
 20
95.8661486177
 10
56.32408567529999
 20
95.87412016389999
 10
56.3284688971
 20
95.88216339389999
 10
56.3320527932
 20
95.89040585979999
 10
56.3348038487
 20
95.8986922585
 10
56.3367991084
 20
95.90721333549998
 10
56.33799157310001
 20
95.91576788160001
 10
56.338395163
 20
95.9244631247
  0
LINE
  5
157E
330
225
100
AcDbEntity
  8
0
  6
Continuous
 62
     7
100
AcDbLine
 10
55.900895163
 20
95.7608969087
 30
0.0
 11
52.775895163
 21
95.7608969087
 31
0.0
  0
LINE
  5
157F
330
225
100
AcDbEntity
  8
0
  6
Continuous
 62
     7
100
AcDbLine
 10
55.900895163
 20
95.76320369299999
 30
0.0
 11
52.775895163
 21
95.76320369299999
 31
0.0
  0
LINE
  5
1580
330
225
100
AcDbEntity
  8
0
  6
Continuous
 62
     7
100
AcDbLine
 10
55.650895163
 20
95.80139398520001
 30
0.0
 11
53.025895163
 21
95.80139398520001
 31
0.0
  0
LINE
  5
1581
330
225
100
AcDbEntity
  8
0
  6
Continuous
 62
     7
100
AcDbLine
 10
55.650895163
 20
95.8380434218
 30
0.0
 11
53.025895163
 21
95.8380434218
 31
0.0
  0
LINE
  5
1582
330
225
100
AcDbEntity
  8
0
  6
Continuous
 62
     7
100
AcDbLine
 10
53.025895163
 20
95.9111572109
 30
0.0
 11
55.650895163
 21
95.9111572109
 31
0.0
  0
LINE
  5
1583
330
225
100
AcDbEntity
  8
0
  6
Continuous
 62
     7
100
AcDbLine
 10
53.025895163
 20
95.9121458327
 30
0.0
 11
55.650895163
 21
95.9121458327
 31
0.0
  0
LINE
  5
1584
330
225
100
AcDbEntity
  8
0
  6
Continuous
 62
     7
100
AcDbLine
 10
52.775895163
 20
95.95033612489999
 30
0.0
 11
55.900895163
 21
95.95033612489999
 31
0.0
  0
LWPOLYLINE
  5
1585
330
225
100
AcDbEntity
  8
0
  6
Continuous
 62
     7
100
AcDbPolyline
 90
       52
 70
     0
 43
0.0
 10
52.775895163
 20
95.76320369299999
 10
52.7553001941
 20
95.7633507339
 10
52.7347577346
 20
95.76379174480001
 10
52.7143464655
 20
95.76452526270001
 10
52.6941277972
 20
95.76554906590001
 10
52.67416677649999
 20
95.76685987579999
 10
52.6545257191
 20
95.7684535948
 10
52.6352665892
 20
95.7703251969
 10
52.6164499334
 20
95.7724687976
 10
52.5981349738
 20
95.77487765040002
 10
52.5803793338
 20
95.77754417639999
 10
52.5632388825
 20
95.78045998530001
 10
52.5467675518
 20
95.7836159026
 10
52.53101716869999
 20
95.78700199809999
 10
52.5160372916
 20
95.7906076177
 10
52.5018750545
 20
95.79442141620001
 10
52.48857501879999
 20
95.79843139350002
 10
52.4761790328
 20
95.8026249323
 10
52.4647261003
 20
95.8069888378
 10
52.454252258
 20
95.8115093788
 10
52.4447904616
 20
95.81617233160001
 10
52.4363704826
 20
95.8209630243
 10
52.4290188143
 20
95.82586638290001
 10
52.4227585887
 20
95.83086697909999
 10
52.41760950359999
 20
95.83594907870001
 10
52.4135877604
 20
95.8410966907
 10
52.4107060136
 20
95.84629361839999
 10
52.4089733305
 20
95.85152350959999
 10
52.408395163
 20
95.85676990859999
 10
52.4089733303
 20
95.8620163075
 10
52.4107060132
 20
95.8672461987
 10
52.4135877599
 20
95.87244312640001
 10
52.4176095029
 20
95.8775907384
 10
52.4227585878
 20
95.88267283799998
 10
52.42901881319999
 20
95.8876734342
 10
52.4363704813
 20
95.89257679290001
 10
52.4447904602
 20
95.8973674856
 10
52.4542522564
 20
95.9020304384
 10
52.46472609859999
 20
95.90655097950001
 10
52.4761790309
 20
95.91091488489999
 10
52.4885750168
 20
95.91510842379999
 10
52.50187505239999
 20
95.91911840120001
 10
52.5160372894
 20
95.92293219970001
 10
52.5310171664
 20
95.92653781920001
 10
52.5467675493
 20
95.92992391480001
 10
52.56323887989999
 20
95.93307983209999
 10
52.58037933109999
 20
95.9359956411
 10
52.598134971
 20
95.93866216709999
 10
52.6164499305
 20
95.94107102
 10
52.6352665862
 20
95.94321462069999
 10
52.6545257161
 20
95.94508622280001
 10
52.6741667735
 20
95.9466799419
  0
LWPOLYLINE
  5
1586
330
225
100
AcDbEntity
  8
0
  6
Continuous
 62
     7
100
AcDbPolyline
 90
        4
 70
     0
 43
0.0
 10
55.900895163
 20
95.95033612489999
 10
55.9214901363
 20
95.950189084
 10
55.9420325948
 20
95.9497480731
 10
55.9624438634
 20
95.94901455510001
  0
LWPOLYLINE
  5
1587
330
225
100
AcDbEntity
  8
0
  6
Continuous
 62
     7
100
AcDbPolyline
 90
       32
 70
     0
 43
0.0
 10
52.775895163
 20
95.7608969087
 10
52.7538849615
 20
95.7610570839
 10
52.7319291171
 20
95.7615375295
 10
52.7100798047
 20
95.7623381053
 10
52.68838827029999
 20
95.7634587115
 10
52.66690449569999
 20
95.76489941110001
 10
52.6456789194
 20
95.76666041860001
 10
52.6247549936
 20
95.76874293440001
 10
52.6041747071
 20
95.77114916159999
 10
52.58397584529999
 20
95.7738830375
 10
52.564193701
 20
95.77695066489999
 10
52.5448556526
 20
95.78036206760002
 10
52.5259762485
 20
95.78413389020001
 10
52.5075620678
 20
95.78829117299999
 10
52.48961340100001
 20
95.7928703067
 10
52.4721085959
 20
95.7979286135
 10
52.4550056518
 20
95.80355457709998
 10
52.43828948029999
 20
95.80986596129999
 10
52.42202296649999
 20
95.8169995415
 10
52.4065813437
 20
95.8249798685
 10
52.3928345974
 20
95.83345258100001
 10
52.3813975094
 20
95.841889978
 10
52.3720527292
 20
95.8501202757
 10
52.36437971239999
 20
95.8581692889
 10
52.35800402149999
 20
95.8661486177
 10
52.3527046507
 20
95.87412016389999
 10
52.3483214289
 20
95.88216339389999
 10
52.34473753279999
 20
95.89040585979999
 10
52.3419864773
 20
95.8986922585
 10
52.3399912176
 20
95.90721333549998
 10
52.3387987529
 20
95.91576788160001
 10
52.338395163
 20
95.9244631247
  0
LWPOLYLINE
  5
1588
330
225
100
AcDbEntity
  8
0
  6
Continuous
 62
     7
100
AcDbPolyline
 90
       51
 70
     0
 43
0.0
 10
53.025895163
 20
95.80139398520001
 10
53.01224862529999
 20
95.8015030904
 10
52.99864428310001
 20
95.8018303483
 10
52.98514895939999
 20
95.8023743967
 10
52.9718136579
 20
95.8031331631
 10
52.95869199670001
 20
95.8041036116
 10
52.94583552069999
 20
95.8052819264
 10
52.9332950343
 20
95.8066634524
 10
52.92112002100001
 20
95.80824273780001
 10
52.9093585334
 20
95.81001354950002
 10
52.89805699
 20
95.81196889860001
 10
52.8872599963
 20
95.81410106780001
 10
52.8770101663
 20
95.81640164179999
 10
52.8673479536
 20
95.81886154059999
 10
52.85831149279999
 20
95.82147105569999
 10
52.84993644890001
 20
95.82421988790001
 10
52.8422558764
 20
95.82709718790001
 10
52.8353000889
 20
95.8300915999
 10
52.8290965394
 20
95.8331913055
 10
52.823669712
 20
95.83638407069999
 10
52.81904102529999
 20
95.83965729459999
 10
52.8152287475
 20
95.8429980582
 10
52.8122479251
 20
95.8463931764
 10
52.81011032270001
 20
95.84982924930001
 10
52.8088243768
 20
95.85329271559999
 10
52.808395163
 20
95.85676990549998
 10
52.8088243752
 20
95.86024709549999
 10
52.8101103193
 20
95.8637105618
 10
52.8122479201
 20
95.8671466348
 10
52.8152287408
 20
95.87054175309999
 10
52.81904101689999
 20
95.87388251680001
 10
52.8236697021
 20
95.87715574079998
 10
52.829096528
 20
95.88034850620001
 10
52.8353000759
 20
95.88344821200001
 10
52.84225586199999
 20
95.8864426242
 10
52.8499364331
 20
95.8893199245
 10
52.8583114756
 20
95.89206875690001
 10
52.8673479352
 20
95.8946782723
 10
52.8770101467
 20
95.89713817139999
 10
52.8872599756
 20
95.8994387457
 10
52.8980569682
 20
95.9015709153
 10
52.90935851069999
 20
95.90352626479999
 10
52.9211199973
 20
95.9052970768
 10
52.93329501
 20
95.9068763626
 10
52.9458354954
 20
95.90825788889999
 10
52.9586919718
 20
95.9094362042
 10
52.97181362989999
 20
95.91040665299999
 10
52.9851489358
 20
95.91116541999999
 10
52.9986442541
 20
95.91170946870001
 10
53.0122485885
 20
95.91203672689999
 10
53.025895163
 20
95.9121458327
  0
LWPOLYLINE
  5
1589
330
225
100
AcDbEntity
  8
0
  6
Continuous
 62
     7
100
AcDbPolyline
 90
       25
 70
     0
 43
0.0
 10
55.650895163
 20
95.9111572109
 10
55.6639849517
 20
95.9110531708
 10
55.6770138471
 20
95.9107417304
 10
55.6899202242
 20
95.91022498139999
 10
55.7026436367
 20
95.90950641419999
 10
55.7151229239
 20
95.9085910643
 10
55.72729753379999
 20
95.90748557399999
 10
55.7391088576
 20
95.90619816799998
 10
55.7504984923
 20
95.9047389576
 10
55.7614078844
 20
95.90312029799999
 10
55.77178086029999
 20
95.9013567795
 10
55.7815655246
 20
95.8994651381
 10
55.79070697729999
 20
95.8974661375
 10
55.79915577609999
 20
95.89538372579999
 10
55.8068666602
 20
95.89324592229999
 10
55.8138022339
 20
95.8910846028
 10
55.81992754649999
 20
95.88893822139999
 10
55.8252208576
 20
95.88684964770001
 10
55.8296741374
 20
95.8848664719
 10
55.8332963436
 20
95.8830399108
 10
55.8361160253
 20
95.8814229865
 10
55.8381823092
 20
95.8800682662
 10
55.83956349600001
 20
95.87902588959998
 10
55.8403429793
 20
95.8783431986
 10
55.8404347132
 20
95.87825394299999
  0
LWPOLYLINE
  5
158A
330
225
100
AcDbEntity
  8
0
  6
Continuous
 62
     7
100
AcDbPolyline
 90
       51
 70
     0
 43
0.0
 10
55.650895163
 20
95.9121458327
 10
55.6645417374
 20
95.91203672689999
 10
55.6781460718
 20
95.91170946870001
 10
55.6916413901
 20
95.91116541999999
 10
55.704976696
 20
95.91040665299999
 10
55.7180983542
 20
95.90943620430001
 10
55.73095483060001
 20
95.90825788889999
 10
55.743495316
 20
95.9068763626
 10
55.7556703287
 20
95.9052970768
 10
55.7674318153
 20
95.90352626479999
 10
55.7787333578
 20
95.9015709153
 10
55.7895303504
 20
95.8994387457
 10
55.7997801793
 20
95.89713817139999
 10
55.8094423908
 20
95.8946782723
 10
55.8184788503
 20
95.89206875690001
 10
55.82685389289999
 20
95.8893199245
 10
55.834534464
 20
95.8864426242
 10
55.8414902501
 20
95.88344821200001
 10
55.847693798
 20
95.88034850620001
 10
55.8531206239
 20
95.87715574079998
 10
55.857749309
 20
95.87388251690001
 10
55.8615615851
 20
95.87054175309999
 10
55.86454240590001
 20
95.8671466348
 10
55.8666800067
 20
95.8637105618
 10
55.8679659508
 20
95.86024709549999
 10
55.868395163
 20
95.85676990549998
 10
55.8679659492
 20
95.85329271559999
 10
55.8666800033
 20
95.84982924930001
 10
55.8645424009
 20
95.8463931764
 10
55.8615615785
 20
95.8429980582
 10
55.8577493008
 20
95.83965729459999
 10
55.85312061399999
 20
95.8363840708
 10
55.84769378659999
 20
95.8331913055
 10
55.84149023710001
 20
95.8300915999
 10
55.83453444959999
 20
95.827097188
 10
55.8268538772
 20
95.82421988790001
 10
55.8184788332
 20
95.82147105569999
 10
55.8094423724
 20
95.81886154059999
 10
55.7997801597
 20
95.81640164179999
 10
55.7895303297
 20
95.81410106780001
 10
55.778733336
 20
95.81196889860001
 10
55.7674317926
 20
95.81001354950002
 10
55.75567030510001
 20
95.80824273780001
 10
55.7434952918
 20
95.8066634524
 10
55.7309548053
 20
95.8052819264
 10
55.71809832939999
 20
95.8041036116
 10
55.70497666819999
 20
95.8031331631
 10
55.6916413667
 20
95.8023743967
 10
55.67814604289999
 20
95.8018303483
 10
55.6645417008
 20
95.8015030904
 10
55.650895163
 20
95.80139398520001
  0
LWPOLYLINE
  5
158B
330
225
100
AcDbEntity
  8
0
  6
Continuous
 62
     7
100
AcDbPolyline
 90
       24
 70
     0
 43
0.0
 10
53.025895163
 20
95.8380434218
 10
53.01363207579999
 20
95.83814563229999
 10
53.0014215011
 20
95.8384518259
 10
52.9893157264
 20
95.83896069159999
 10
52.9773665904
 20
95.8396700503
 10
52.96562526189999
 20
95.8405768643
 10
52.9541420185
 20
95.8416772506
 10
52.94296603270001
 20
95.84296649709999
 10
52.93214516199999
 20
95.8444390832
 10
52.9217257434
 20
95.84608870290001
 10
52.9117523943
 20
95.84790829239999
 10
52.902267822
 20
95.84989005979998
 10
52.893312641
 20
95.852025519
 10
52.8849251986
 20
95.8543055256
 10
52.8771414113
 20
95.85672031620001
 10
52.8699946104
 20
95.85925955030001
 10
52.8635153995
 20
95.86191235459999
 10
52.8577315238
 20
95.86466736930001
 10
52.85266775050001
 20
95.86751279709998
 10
52.84834576359999
 20
95.8704364533
 10
52.8447840705
 20
95.8734258185
 10
52.84199792289999
 20
95.87646809170001
 10
52.83999925149999
 20
95.87955024540001
 10
52.8395579331
 20
95.88069106090001
  0
LWPOLYLINE
  5
158C
330
225
100
AcDbEntity
  8
0
  6
Continuous
 62
     7
100
AcDbPolyline
 90
       23
 70
     0
 43
0.0
 10
54.338395163
 20
95.47005262819999
 10
54.1681676428
 20
95.47159315950001
 10
53.99916843869999
 20
95.4761992951
 10
53.83297749789999
 20
95.48380684860001
 10
53.67081166649999
 20
95.4943199496
 10
53.5139067524
 20
95.50760413959999
 10
53.3633371567
 20
95.5234984392
 10
53.2200210376
 20
95.5418234422
 10
53.08481597270001
 20
95.56237392879998
 10
52.9583465453
 20
95.58494819419999
 10
52.8411637138
 20
95.6093326362
 10
52.73361343819999
 20
95.63533100139999
 10
52.6360043789
 20
95.662735357
 10
52.548581121
 20
95.6913375292
 10
52.47141479729999
 20
95.72096758889999
 10
52.4044841749
 20
95.75147882500001
 10
52.3479339152
 20
95.78265255389998
 10
52.3014157751
 20
95.8145162423
 10
52.2655087189
 20
95.846471126
 10
52.239871565
 20
95.8786144361
 10
52.22248149449999
 20
95.91364160919999
 10
52.20942414899999
 20
95.95288788149998
 10
52.17891408749999
 20
96.0410886542
  0
LINE
  5
158D
330
225
100
AcDbEntity
  8
0
  6
Continuous
 62
     7
100
AcDbLine
 10
55.9624438634
 20
95.94901455510001
 30
0.0
 11
55.9826625321
 21
95.9479907518
 31
0.0
  0
LWPOLYLINE
  5
158E
330
225
100
AcDbEntity
  8
0
  6
Continuous
 62
     7
100
AcDbPolyline
 90
       53
 70
     0
 43
0.0
 10
55.9826625321
 20
95.9479907518
 10
56.00262355249999
 20
95.9466799419
 10
56.02226461
 20
95.94508622280001
 10
56.04152373979999
 20
95.94321462069999
 10
56.06034039549999
 20
95.94107102
 10
56.078655355
 20
95.93866216709999
 10
56.0964109949
 20
95.9359956411
 10
56.1135514461
 20
95.93307983209999
 10
56.1300227767
 20
95.92992391480001
 10
56.1457731596
 20
95.92653781920001
 10
56.1607530366
 20
95.92293219970001
 10
56.1749152736
 20
95.91911840120001
 10
56.1882153092
 20
95.91510842379999
 10
56.2006112951
 20
95.91091488489999
 10
56.2120642274
 20
95.90655097950001
 10
56.22253806959999
 20
95.9020304384
 10
56.2319998658
 20
95.8973674856
 10
56.2404198447
 20
95.89257679290001
 10
56.24777151279999
 20
95.8876734342
 10
56.2540317382
 20
95.88267283799998
 10
56.25918082310001
 20
95.8775907384
 10
56.2632025661
 20
95.87244312640001
 10
56.2660843128
 20
95.8672461987
 10
56.26781699569999
 20
95.8620163075
 10
56.268395163
 20
95.85676990859999
 10
56.2678169955
 20
95.85152350959999
 10
56.2660843124
 20
95.84629361839999
 10
56.2632025656
 20
95.8410966907
 10
56.2591808224
 20
95.83594907870001
 10
56.25403173729999
 20
95.83086697909999
 10
56.2477715117
 20
95.82586638290001
 10
56.2404198435
 20
95.8209630243
 10
56.23199986439999
 20
95.81617233160001
 10
56.22253806799999
 20
95.8115093788
 10
56.2120642257
 20
95.8069888378
 10
56.2006112933
 20
95.8026249323
 10
56.1882153072
 20
95.79843139350002
 10
56.1749152715
 20
95.79442141620001
 10
56.16075303439999
 20
95.7906076177
 10
56.1457731573
 20
95.78700199809999
 10
56.1300227742
 20
95.7836159026
 10
56.1135514435
 20
95.78045998530001
 10
56.0964109922
 20
95.77754417639999
 10
56.0786553522
 20
95.77487765040002
 10
56.0603403926
 20
95.7724687976
 10
56.04152373689999
 20
95.7703251969
 10
56.02226460689999
 20
95.7684535948
 10
56.0026235495
 20
95.76685987579999
 10
55.9826625288
 20
95.76554906590001
 10
55.9624438605
 20
95.76452526270001
 10
55.9420325914
 20
95.76379174480001
 10
55.92149013189999
 20
95.7633507339
 10
55.900895163
 20
95.76320369299999
  0
LWPOLYLINE
  5
158F
330
225
100
AcDbEntity
  8
0
  6
Continuous
 62
     7
100
AcDbPolyline
 90
      102
 70
     0
 43
0.0
 10
54.33839516489999
 20
97.16246255379999
 10
52.402966813
 20
97.1376527161
 10
50.6135725847
 20
97.0705136615
 10
49.0266118124
 20
96.97531163809999
 10
47.6223631083
 20
96.8629819915
 10
46.37236750069999
 20
96.7406873846
 10
45.25509327239999
 20
96.61349549589999
 10
44.2523350718
 20
96.48488152770001
 10
43.3492967049
 20
96.3572815018
 10
42.5335347721
 20
96.2323616874
 10
41.79464853939999
 20
96.11125942960001
 10
41.12373736019999
 20
95.9947123305
 10
40.5131878818
 20
95.88317551120001
 10
39.9566319986
 20
95.7769341688
 10
39.44853581949999
 20
95.6761205957
 10
38.9838282229
 20
95.58070454620001
 10
38.5577653935
 20
95.4905129944
 10
38.1660912942
 20
95.40530244560001
 10
37.80602795650001
 20
95.32501726360001
 10
37.47611128219999
 20
95.24980536719999
 10
37.175150562
 20
95.17981508410001
 10
36.9019345809
 20
95.1151383826
 10
36.655181001
 20
95.0557965245
 10
36.4335509805
 20
95.0017459791
 10
36.2352122121
 20
94.9527741332
 10
36.0576507672
 20
94.90844425450001
 10
35.8980270432
 20
94.86818520989999
 10
35.7537557921
 20
94.8314553818
 10
35.6234624008
 20
94.79799776190001
 10
35.5071519947
 20
94.76791112319999
 10
35.4043574108
 20
94.74116330870002
 10
35.31266416
 20
94.71719032999999
 10
35.2282971012
 20
94.69504609389998
 10
35.1472947926
 20
94.67371362979999
 10
35.0667353484
 20
94.65243312810001
 10
34.98565907320001
 20
94.6309369183
 10
34.9048493496
 20
94.6094064326
 10
34.8258379591
 20
94.5882287687
 10
34.7492263481
 20
94.5675569544
 10
34.6741930373
 20
94.5471814899
 10
34.5994813696
 20
94.52677191819999
 10
34.5241536392
 20
94.50607730440001
 10
34.449183547
 20
94.48536598629999
 10
34.3775550961
 20
94.46546089600001
 10
34.3116656387
 20
94.4470400452
 10
34.2525533928
 20
94.4304164034
 10
34.2003413589
 20
94.4156487875
 10
34.1538617596
 20
94.4024142487
 10
34.1111653747
 20
94.3901611222
 10
34.0701488734
 20
94.37828502889999
 10
34.0293679843
 20
94.3663578059
 10
33.9884782816
 20
94.35426225639998
 10
33.9476432596
 20
94.3420294967
 10
33.9069988012
 20
94.32968807120001
 10
33.8659426097
 20
94.31705614790001
 10
33.8229870369
 20
94.30366982489999
 10
33.7763687494
 20
94.28895524639999
 10
33.7243230819
 20
94.2723112114
 10
33.6651848932
 20
94.25314141980001
 10
33.5978226305
 20
94.23099728870001
 10
33.523772708
 20
94.20627493419999
 10
33.44690949530001
 20
94.18017305799999
 10
33.3693427987
 20
94.15335599169999
 10
33.2909394687
 20
94.12574279080001
 10
33.2099697496
 20
94.096683892
 10
33.1234802638
 20
94.06503483780001
 10
33.0282752247
 20
94.0294675037
 10
32.9215692494
 20
93.9886935034
 10
32.8013617976
 20
93.9416050135
 10
32.6661807037
 20
93.88718249969999
 10
32.5151206543
 20
93.824508759
 10
32.3477703047
 20
93.75275258950001
 10
32.1637360633
 20
93.6709750348
 10
31.9619727497
 20
93.57779985589999
 10
31.7404350074
 20
93.4711561832
 10
31.4968095201
 20
93.34850105780001
 10
31.2290711324
 20
93.20701814899999
 10
30.934776419
 20
93.04315359889999
 10
30.6092346184
 20
92.85130177319999
 10
30.2459121348
 20
92.62342236280002
 10
29.8398034477
 20
92.3505371235
 10
29.3912748563
 20
92.02527362339999
 10
28.9073124381
 20
91.64375055609999
 10
28.4066441359
 20
91.21214174459998
 10
27.9154320853
 20
90.74769397909999
 10
27.446628116
 20
90.26131703270001
 10
27.001325565
 20
89.75422706519999
 10
26.5799288061
 20
89.2268173465
 10
26.1835942655
 20
88.68053616860001
 10
25.8131898573
 20
88.11668614290001
 10
25.4694490263
 20
87.5363822279
 10
25.1531335879
 20
86.94084295120001
 10
24.8648946639
 20
86.3314159617
 10
24.6053108685
 20
85.70940052600001
 10
24.3749390751
 20
85.0760354618
 10
24.1742931533
 20
84.43268611769999
 10
24.0037451874
 20
83.7807294397
 10
23.8636405109
 20
83.1214708159
 10
23.7543349101
 20
82.4562836595
 10
23.6760065145
 20
81.78599508259999
 10
23.6288947187
 20
81.112304235
 10
23.613171077
 20
80.4372206138
  0
LINE
  5
1590
330
225
100
AcDbEntity
  8
0
  6
Continuous
 62
     7
100
AcDbLine
 10
52.775895163
 20
96.05881881809999
 30
0.0
 11
55.900895163
 21
96.05881881809999
 31
0.0
  0
LWPOLYLINE
  5
1591
330
225
100
AcDbEntity
  8
0
  6
Continuous
 62
     7
100
AcDbPolyline
 90
       13
 70
     0
 43
0.0
 10
54.33838204989999
 20
99.4371980468
 10
51.7926846634
 20
99.41661734290001
 10
49.24771906060001
 20
99.35489839889999
 10
46.70442895649999
 20
99.25209302749999
 10
44.16345843560001
 20
99.1082461977
 10
41.62549045739999
 20
98.9234097387
 10
39.0910512665
 20
98.69762054669999
 10
36.5604998303
 20
98.43089459479999
 10
34.0345574907
 20
98.12332127090002
 10
31.5136394591
 20
97.7749548154
 10
28.9971082396
 20
97.38568269259999
 10
26.4840237854
 20
96.95521380649999
 10
23.9733727297
 20
96.4831825491
  0
LWPOLYLINE
  5
1592
330
225
100
AcDbEntity
  8
0
  6
Continuous
 62
     7
100
AcDbPolyline
 90
       19
 70
     0
 43
0.0
 10
54.33838206499999
 20
99.03313792620002
 10
52.2825458714
 20
99.01968141250002
 10
50.4655772547
 20
98.98538310639999
 10
48.84789905379999
 20
98.93715589370001
 10
47.37882146859999
 20
98.8789071413
 10
46.00380413749999
 20
98.8119110965
 10
44.66884296009999
 20
98.73531159569999
 10
43.335827661
 20
98.64744672469999
 10
41.9953614194
 20
98.54760419959999
 10
40.6600833305
 20
98.43667377910001
 10
39.34310643110001
 20
98.31601779030002
 10
38.0195824767
 20
98.18348043040002
 10
36.6080826423
 20
98.0296409858
 10
35.0172626145
 20
97.84075946040001
 10
33.1949496604
 20
97.60414478840001
 10
31.1896258498
 20
97.318659395
 10
29.0420580872
 20
96.9836164296
 10
26.6917183676
 20
96.5819382989
 10
24.0512026144
 20
96.086689056
  0
LWPOLYLINE
  5
1593
330
225
100
AcDbEntity
  8
0
  6
Continuous
 62
     7
100
AcDbPolyline
 90
       91
 70
     0
 43
0.0
 10
76.23762456119999
 20
80.4372206138
 10
76.2322185789
 20
80.79298452279999
 10
76.2136340366
 20
81.17955644069999
 10
76.17664137910001
 20
81.6083167454
 10
76.11583197059999
 20
82.073415459
 10
76.0319590521
 20
82.5394778785
 10
75.92791367370001
 20
82.98859188319999
 10
75.80399727159999
 20
83.4226926588
 10
75.6600847188
 20
83.8440626919
 10
75.4962237247
 20
84.25372316429999
 10
75.31227757759999
 20
84.65240489779999
 10
75.1075540754
 20
85.04135949350001
 10
74.88116718189999
 20
85.42171487039999
 10
74.6325996776
 20
85.79362218909999
 10
74.3613310035
 20
86.1568775305
 10
74.06566075729999
 20
86.5125955381
 10
73.7437414228
 20
86.861587699
 10
73.3959118356
 20
87.20201544129999
 10
73.03444087779999
 20
87.5223712752
 10
72.6864382106
 20
87.8037229307
 10
72.3668927049
 20
88.0419216928
 10
72.0759585455
 20
88.2439721847
 10
71.81119998949999
 20
88.4167916718
 10
71.5693167384
 20
88.56626862270001
 10
71.34717560359999
 20
88.69699394780001
 10
71.1437501443
 20
88.8115478189
 10
70.9580141853
 20
88.912071826
 10
70.7876648668
 20
89.0010208508
 10
70.63019633749999
 20
89.08060061870001
 10
70.4838336002
 20
89.15237948819999
 10
70.3478654395
 20
89.2172376002
 10
70.2227746416
 20
89.2754024165
 10
70.1095226475
 20
89.32685438700001
 10
70.00737232899999
 20
89.3723057815
 10
69.9131398442
 20
89.41346014670001
 10
69.8226630244
 20
89.45228905829999
 10
69.7329159904
 20
89.49014959760001
 10
69.64309408830001
 20
89.52738789740001
 10
69.5535342224
 20
89.56380966319999
 10
69.4640556309
 20
89.59951084020001
 10
69.3739197901
 20
89.6348214686
 10
69.2822218747
 20
89.67011580110002
 10
69.18784633699999
 20
89.70587891319999
 10
69.0904635441
 20
89.742229129
 10
68.990796486
 20
89.7788603849
 10
68.8897071888
 20
89.8154343116
 10
68.78789077899999
 20
89.85168858649998
 10
68.6859627563
 20
89.88740746030002
 10
68.5844448241
 20
89.92242206590001
 10
68.4826820612
 20
89.95697090680002
 10
68.3777379157
 20
89.9920350884
 10
68.2660420722
 20
90.02873748330001
 10
68.1464353424
 20
90.0673472521
 10
68.0197434914
 20
90.1074797773
 10
67.8854943055
 20
90.1491670044
 10
67.74107376669999
 20
90.19307110379999
 10
67.5834561984
 20
90.2399011177
 10
67.4104371321
 20
90.29003697769999
 10
67.22058524560001
 20
90.34356533649999
 10
67.01256798590001
 20
90.400486601
 10
66.78475383770001
 20
90.46081647740001
 10
66.53499030430001
 20
90.52462740700001
 10
66.2604600559
 20
90.5920543867
 10
65.9582790376
 20
90.66311767379998
 10
65.625631259
 20
90.7376831194
 10
65.25872815719999
 20
90.81567616870001
 10
64.85334910529999
 20
90.8969035145
 10
64.40508785829999
 20
90.98097668950002
 10
63.90850582449999
 20
91.0674395216
 10
63.357696748
 20
91.1556053644
 10
62.7448803678
 20
91.2446950858
 10
62.0632548886
 20
91.3333506336
 10
61.34825733020001
 20
91.41531740359999
 10
60.6804570556
 20
91.4823295641
 10
60.0905708694
 20
91.5343152029
 10
59.5673559299
 20
91.575068919
 10
59.0965598254
 20
91.60763358610001
 10
58.6733324634
 20
91.6337242714
 10
58.29652459680001
 20
91.65451077809999
 10
57.9590045051
 20
91.67124131280001
 10
57.64645922239999
 20
91.68518794200002
 10
57.3444718793
 20
91.69728863080001
 10
57.04060996119999
 20
91.70813578469999
 10
56.7334219658
 20
91.7177821841
 10
56.4264180446
 20
91.72613259950001
 10
56.1226515051
 20
91.7331599623
 10
55.8207315811
 20
91.73896102290001
 10
55.50695805310001
 20
91.7437753133
 10
55.165667733
 20
91.74764962469998
 10
54.781306867
 20
91.7503726874
 10
54.338395163
 20
91.75144461909999
  0
LWPOLYLINE
  5
1594
330
225
100
AcDbEntity
  8
0
  6
Continuous
 62
     7
100
AcDbPolyline
 90
       16
 70
     0
 43
0.0
 10
23.9733727297
 20
96.4831825491
 10
23.8584765545
 20
96.45589681250001
 10
23.7457545592
 20
96.41955363800001
 10
23.636314931
 20
96.37446399040001
 10
23.5312257549
 20
96.32115298009999
 10
23.430539695
 20
96.2596728806
 10
23.3348105209
 20
96.19030601010001
 10
23.2450332892
 20
96.11377384409999
 10
23.1618451205
 20
96.0307110741
 10
23.0852275498
 20
95.94110644569999
 10
23.0158076545
 20
95.84560129549998
 10
22.9542929004
 20
95.74518365160001
 10
22.9009548744
 20
95.64039714719999
 10
22.8558364641
 20
95.5312873729
 10
22.8194635183
 20
95.41892213590001
 10
22.7921393998
 20
95.30439253999999
  0
LWPOLYLINE
  5
1595
330
225
100
AcDbEntity
  8
0
  6
Continuous
 62
     7
100
AcDbPolyline
 90
       29
 70
     0
 43
0.0
 10
24.0512026144
 20
96.086689056
 10
24.00335425
 20
96.0761836558
 10
23.9591646339
 20
96.0644601683
 10
23.9167540348
 20
96.05132685290001
 10
23.875685721
 20
96.03678455290001
 10
23.8354736187
 20
96.02072202120002
 10
23.7958679566
 20
96.00306014
 10
23.7569692529
 20
95.98383888829999
 10
23.7188937077
 20
95.9631066154
 10
23.6816696737
 20
95.94088189089999
 10
23.6453523838
 20
95.917200613
 10
23.6100045497
 20
95.89209771770001
 10
23.5756697398
 20
95.86560556829999
 10
23.5424200373
 20
95.8377815402
 10
23.5103038518
 20
95.80866098979999
 10
23.4793646936
 20
95.77828570299999
 10
23.4496671002
 20
95.7467218807
 10
23.4212677914
 20
95.7140282483
 10
23.3942072765
 20
95.6802587053
 10
23.3685250425
 20
95.64547284299999
 10
23.3442254311
 20
95.6096673302
 10
23.3213590936
 20
95.5729177154
 10
23.3000434005
 20
95.5354290066
 10
23.2800333292
 20
95.49672550309999
 10
23.2607016822
 20
95.45526067309999
 10
23.2415257074
 20
95.4089336778
 10
23.2225683746
 20
95.35594609010001
 10
23.2045414072
 20
95.29527929990001
 10
23.1885556564
 20
95.22617021200002
  0
LWPOLYLINE
  5
1596
330
225
100
AcDbEntity
  8
0
  6
Continuous
 62
     7
100
AcDbPolyline
 90
       13
 70
     0
 43
0.0
 10
84.70341763399998
 20
96.48318254459999
 10
82.19275866439998
 20
96.95521522159999
 10
79.6796731492
 20
97.38568415110002
 10
77.1631441841
 20
97.77495579229999
 10
74.6422286338
 20
98.12332181850001
 10
72.1162866918
 20
98.4308950257
 10
69.58573462310001
 20
98.6976209806
 10
67.0512950093
 20
98.92341012879999
 10
64.51332698449999
 20
99.1082465216
 10
61.972356631
 20
99.25209325270001
 10
59.4290644916
 20
99.354898616
 10
56.88409295
 20
99.4166175548
 10
54.33838204989999
 20
99.4371980468
  0
LWPOLYLINE
  5
1597
330
225
100
AcDbEntity
  8
0
  6
Continuous
 62
     7
100
AcDbPolyline
 90
       19
 70
     0
 43
0.0
 10
84.62558777519999
 20
96.0866890464
 10
82.41054588409999
 20
96.50527430990001
 10
80.2784569073
 20
96.8772606883
 10
78.1612908761
 20
97.21675800680001
 10
76.1940722477
 20
97.5057681432
 10
74.44975287220001
 20
97.7408146752
 10
72.9160980763
 20
97.931075483
 10
71.5223371811
 20
98.09072160520001
 10
70.18009801179999
 20
98.23256342290001
 10
68.82599122170001
 20
98.36385530420001
 10
67.45529459770001
 20
98.4847109975
 10
66.08687208069999
 20
98.59331165770001
 10
64.72535164229999
 20
98.68943850950001
 10
63.34522307979999
 20
98.77476237719999
 10
61.8881325301
 20
98.85163066110001
 10
60.28185741699999
 20
98.9206634411
 10
58.47302778439999
 20
98.9787082249
 10
56.4797833237
 20
99.0185382651
 10
54.33838206499999
 20
99.03313792620002
  0
LWPOLYLINE
  5
1598
330
225
100
AcDbEntity
  8
0
  6
Continuous
 62
     7
100
AcDbPolyline
 90
       83
 70
     0
 43
0.0
 10
85.0384596179
 20
80.4372206138
 10
85.02298373649999
 20
81.1073248293
 10
84.9769124136
 20
81.7728672333
 10
84.9003321932
 20
82.4357182932
 10
84.7934115636
 20
83.0940791927
 10
84.6564066094
 20
83.7464656428
 10
84.4896139843
 20
84.3918263906
 10
84.2933176398
 20
85.0290245182
 10
84.06790082449999
 20
85.6565809918
 10
83.8139113735
 20
86.2730103356
 10
83.53191911340001
 20
86.87708587729998
 10
83.2224172189
 20
87.46771359360002
 10
82.8858510008
 20
88.0438608356
 10
82.52296541179999
 20
88.60422748979999
 10
82.13521868049999
 20
89.14668320430001
 10
81.72383792359999
 20
89.6697218979
 10
81.28705342649999
 20
90.17539752120001
 10
80.8235886877
 20
90.66441577979999
 10
80.3425991824
 20
91.12723123629999
 10
79.86466185810001
 20
91.5475231861
 10
79.4074928522
 20
91.9166253808
 10
78.98091165069999
 20
92.23473287290001
 10
78.5900834941
 20
92.5056590812
 10
78.2351063263
 20
92.7358598326
 10
77.91240774229999
 20
92.93274024510001
 10
77.6173502485
 20
93.1029194497
 10
77.34696711069999
 20
93.25095392580001
 10
77.10160645270001
 20
93.37896630219999
 10
76.8820738001
 20
93.48855443540001
 10
76.68542573519999
 20
93.5828488247
 10
76.50477236100001
 20
93.6663184903
 10
76.3316675921
 20
93.7435179192
 10
76.1589617531
 20
93.8178710911
 10
75.98429322279999
 20
93.8904008415
 10
75.80872578970001
 20
93.96064040809999
 10
75.6328624299
 20
94.028372893
 10
75.45617082689999
 20
94.0938424528
 10
75.2775022643
 20
94.15747597819999
 10
75.1005566994
 20
94.21797741049999
 10
74.93584481960001
 20
94.27199697499998
 10
74.79004397689999
 20
94.31792248399998
 10
74.6621509248
 20
94.35671962549999
 10
74.5489584987
 20
94.38997759709998
 10
74.44702719830001
 20
94.4192103291
 10
74.35285291879999
 20
94.44573347889999
 10
74.2627923857
 20
94.4707605774
 10
74.1740459963
 20
94.49518943959999
 10
74.0856281148
 20
94.51938313259999
 10
73.9971994018
 20
94.54347801350001
 10
73.9080037409
 20
94.5676771379
 10
73.8163745667
 20
94.59242300879999
 10
73.7195845935
 20
94.61843327270001
 10
73.6143853004
 20
94.6465471666
 10
73.49793583430001
 20
94.6774708064
 10
73.36876230109999
 20
94.7115275211
 10
73.2263279958
 20
94.7487843142
 10
73.0701751612
 20
94.78927812489999
 10
72.89964761330001
 20
94.8330869599
 10
72.7124447044
 20
94.88068886090001
 10
72.5039827856
 20
94.9330910629
 10
72.26923854769999
 20
94.99133430889999
 10
72.00653341589999
 20
95.0555532445
 10
71.7196324468
 20
95.12453031040001
 10
71.4132723334
 20
95.1968576908
 10
71.08922030399999
 20
95.2718751165
 10
70.74617614410001
 20
95.34963016989999
 10
70.3790978093
 20
95.4309499126
 10
69.9801331822
 20
95.517134037
 10
69.5412954766
 20
95.6092959567
 10
69.05601926820001
 20
95.70800920280001
 10
68.5196681656
 20
95.81321745469999
 10
67.9273628364
 20
95.9246730493
 10
67.2717967128
 20
96.0422766211
 10
66.54362821710001
 20
96.1658537231
 10
65.7321332394
 20
96.2948788399
 10
64.8246208476
 20
96.4283812715
 10
63.80539010229999
 20
96.56482043010001
 10
62.6551051739
 20
96.7017582559
 10
61.3491204439
 20
96.83546287200002
 10
59.85641239149999
 20
96.9601112111
 10
58.1410792152
 20
97.0664575872
 10
56.2685796285
 20
97.13774414399999
 10
54.33839516489999
 20
97.16246255379999
  0
LWPOLYLINE
  5
1599
330
225
100
AcDbEntity
  8
0
  6
Continuous
 62
     7
100
AcDbPolyline
 90
        9
 70
     0
 43
0.0
 10
86.93431236950001
 20
80.43722061329999
 10
86.91122105279999
 20
82.3143592733
 10
86.84551294770001
 20
84.117994694
 10
86.73720789289999
 20
85.9195106916
 10
86.58621894579999
 20
87.719365432
 10
86.39311352620001
 20
89.51151239979999
 10
86.14799743559999
 20
91.36617605179999
 10
85.8458642012
 20
93.28291022309999
 10
85.48823464159999
 20
95.2261703819
  0
LWPOLYLINE
  5
159A
330
225
100
AcDbEntity
  8
0
  6
Continuous
 62
     7
100
AcDbPolyline
 90
        9
 70
     0
 43
0.0
 10
87.33837249009999
 20
80.43722061409999
 10
87.31562149049999
 20
82.3054027024
 10
87.24747414099999
 20
84.17107301639999
 10
87.134052015
 20
86.03361420659998
 10
86.9753199109
 20
87.89353214429999
 10
86.7711855407
 20
89.75066241669999
 10
86.52154106469998
 20
91.6047180356
 10
86.22611165549999
 20
93.45620191589999
 10
85.88465091160001
 20
95.3043926415
  0
LWPOLYLINE
  5
159B
330
225
100
AcDbEntity
  8
0
  6
Continuous
 62
     7
100
AcDbPolyline
 90
        9
 70
     0
 43
0.0
 10
85.4882346912
 20
65.64827112579999
 10
85.8296304571
 20
67.4967943164
 10
86.1147776175
 20
69.2809965214
 10
86.3575497981
 20
71.0706396582
 10
86.55797750229998
 20
72.8661236491
 10
86.71550701280001
 20
74.661380956
 10
86.8341121137
 20
76.5273876004
 10
86.90880972829999
 20
78.46450879079999
 10
86.93431236950001
 20
80.43722061329999
  0
LWPOLYLINE
  5
159C
330
225
100
AcDbEntity
  8
0
  6
Continuous
 62
     7
100
AcDbPolyline
 90
        9
 70
     0
 43
0.0
 10
85.88465095560001
 20
65.5700488377
 10
86.22611147769999
 20
67.41823835089999
 10
86.5215408126
 20
69.26972144289999
 10
86.77118528700001
 20
71.1237767475
 10
86.97531971649999
 20
72.9809070882
 10
87.1340518929
 20
74.8408253518
 10
87.24747408620002
 20
76.70336708489999
 10
87.3156214788
 20
78.5690380438
 10
87.33837249009999
 20
80.43722061409999
  0
LWPOLYLINE
  5
159D
330
225
100
AcDbEntity
  8
0
  6
Continuous
 62
     7
100
AcDbPolyline
 90
       16
 70
     0
 43
0.0
 10
85.88465091160001
 20
95.3043926415
 10
85.8573237483
 20
95.4189331391
 10
85.820947143
 20
95.53130572950001
 10
85.77582576819999
 20
95.64041823670001
 10
85.72248432850001
 20
95.7452071143
 10
85.66096626489999
 20
95.84562589969999
 10
85.591543942
 20
95.9411303565
 10
85.51492504409999
 20
96.03073288719999
 10
85.43173516720001
 20
96.11379405960001
 10
85.34195573199999
 20
96.1903249718
 10
85.24622575869999
 20
96.259689467
 10
85.1455408117
 20
96.32116625260001
 10
85.04045403970001
 20
96.37447380360001
 10
84.93101724989999
 20
96.419560438
 10
84.8183027489
 20
96.4558999023
 10
84.70341763399998
 20
96.48318254459999
  0
LWPOLYLINE
  5
159E
330
225
100
AcDbEntity
  8
0
  6
Continuous
 62
     7
100
AcDbPolyline
 90
       29
 70
     0
 43
0.0
 10
85.48823464159999
 20
95.2261703819
 10
85.4777227912
 20
95.2738152857
 10
85.4659990458
 20
95.3178105079
 10
85.45286964479998
 20
95.3600304483
 10
85.43833226729999
 20
95.40091807389998
 10
85.42227347859999
 20
95.4409629477
 10
85.4046149937
 20
95.48041164249999
 10
85.3853978126
 20
95.51916004270001
 10
85.36466920649999
 20
95.55709270040001
 10
85.3424473886
 20
95.59418130379999
 10
85.3187699244
 20
95.63036828280001
 10
85.2936733491
 20
95.66558976059999
 10
85.2671849646
 20
95.69980914620002
 10
85.2393503286
 20
95.7329665714
 10
85.2102006483
 20
95.76501466599999
 10
85.1797815017
 20
95.79590256939999
 10
85.14815706189999
 20
95.8255648068
 10
85.1153794216
 20
95.85394766150001
 10
85.0815002925
 20
95.8810091832
 10
85.04658378
 20
95.9067028489
 10
85.01063704739999
 20
95.93101457180001
 10
84.97374666829999
 20
95.9538871011
 10
84.9361173928
 20
95.97520503670001
 10
84.8972634314
 20
95.99521842040001
 10
84.8556289785
 20
96.0145549387
 10
84.80910491459999
 20
96.03373523389999
 10
84.75588960379999
 20
96.05269407639999
 10
84.694970592
 20
96.0707168336
 10
84.62558777519999
 20
96.0866890464
  0
CIRCLE
  5
1708
330
225
100
AcDbEntity
  8
0
  6
Continuous
 62
     7
100
AcDbCircle
 10
54.338395163
 20
80.4372206138
 30
0.0
 40
1.448223304699999
  0
ENDSEC
  0
SECTION
  2
OBJECTS
  0
DICTIONARY
  5
C
330
0
100
AcDbDictionary
281
     1
  3
ACAD_CIP_PREVIOUS_PRODUCT_INFO
350
1821
  3
ACAD_COLOR
350
1752
  3
ACAD_DETAILVIEWSTYLE
350
181A
  3
ACAD_GROUP
350
D
  3
ACAD_LAYOUT
350
1A
  3
ACAD_MATERIAL
350
1725
  3
ACAD_MLEADERSTYLE
350
1777
  3
ACAD_MLINESTYLE
350
17
  3
ACAD_PLOTSETTINGS
350
19
  3
ACAD_PLOTSTYLENAME
350
E
  3
ACAD_SCALELIST
350
1755
  3
ACAD_SECTIONVIEWSTYLE
350
1818
  3
ACAD_TABLESTYLE
350
1753
  3
ACAD_VISUALSTYLE
350
173E
  3
ACDB_RECOMPOSE_DATA
350
186B
  3
AcDbVariableDictionary
350
17AD
  0
DICTIONARY
  5
177C
330
8
100
AcDbDictionary
280
     1
281
     1
  0
DICTIONARY
  5
17BC
330
10
100
AcDbDictionary
280
     1
281
     1
  3
ADSK_XREC_LAYER_RECONCILED
360
17BD
  0
DICTIONARY
  5
17BE
330
1FA
100
AcDbDictionary
280
     1
281
     1
  3
ADSK_XREC_LAYER_RECONCILED
360
17BF
  0
DICTIONARY
  5
17C0
330
1FB
100
AcDbDictionary
280
     1
281
     1
  3
ADSK_XREC_LAYER_RECONCILED
360
17C1
  0
DICTIONARY
  5
17C2
330
1FC
100
AcDbDictionary
280
     1
281
     1
  3
ADSK_XREC_LAYER_RECONCILED
360
17C3
  0
DICTIONARY
  5
17C4
330
1FD
100
AcDbDictionary
280
     1
281
     1
  3
ADSK_XREC_LAYER_RECONCILED
360
17C5
  0
DICTIONARY
  5
17C6
330
1FE
100
AcDbDictionary
280
     1
281
     1
  3
ADSK_XREC_LAYER_RECONCILED
360
17C7
  0
DICTIONARY
  5
17C8
330
1FF
100
AcDbDictionary
280
     1
281
     1
  3
ADSK_XREC_LAYER_RECONCILED
360
17C9
  0
DICTIONARY
  5
17CA
330
200
100
AcDbDictionary
280
     1
281
     1
  3
ADSK_XREC_LAYER_RECONCILED
360
17CB
  0
DICTIONARY
  5
17CC
330
201
100
AcDbDictionary
280
     1
281
     1
  3
ADSK_XREC_LAYER_RECONCILED
360
17CD
  0
DICTIONARY
  5
17CE
330
202
100
AcDbDictionary
280
     1
281
     1
  3
ADSK_XREC_LAYER_RECONCILED
360
17CF
  0
DICTIONARY
  5
17D0
330
203
100
AcDbDictionary
280
     1
281
     1
  3
ADSK_XREC_LAYER_RECONCILED
360
17D1
  0
DICTIONARY
  5
17D2
330
204
100
AcDbDictionary
280
     1
281
     1
  3
ADSK_XREC_LAYER_RECONCILED
360
17D3
  0
DICTIONARY
  5
17D4
330
205
100
AcDbDictionary
280
     1
281
     1
  3
ADSK_XREC_LAYER_RECONCILED
360
17D5
  0
DICTIONARY
  5
17D6
330
206
100
AcDbDictionary
280
     1
281
     1
  3
ADSK_XREC_LAYER_RECONCILED
360
17D7
  0
DICTIONARY
  5
17D8
330
207
100
AcDbDictionary
280
     1
281
     1
  3
ADSK_XREC_LAYER_RECONCILED
360
17D9
  0
DICTIONARY
  5
17DA
330
208
100
AcDbDictionary
280
     1
281
     1
  3
ADSK_XREC_LAYER_RECONCILED
360
17DB
  0
DICTIONARY
  5
17DC
330
209
100
AcDbDictionary
280
     1
281
     1
  3
ADSK_XREC_LAYER_RECONCILED
360
17DD
  0
DICTIONARY
  5
17DE
330
20A
100
AcDbDictionary
280
     1
281
     1
  3
ADSK_XREC_LAYER_RECONCILED
360
17DF
  0
DICTIONARY
  5
17E0
330
20B
100
AcDbDictionary
280
     1
281
     1
  3
ADSK_XREC_LAYER_RECONCILED
360
17E1
  0
DICTIONARY
  5
17E2
330
20C
100
AcDbDictionary
280
     1
281
     1
  3
ADSK_XREC_LAYER_RECONCILED
360
17E3
  0
DICTIONARY
  5
17E4
330
20D
100
AcDbDictionary
280
     1
281
     1
  3
ADSK_XREC_LAYER_RECONCILED
360
17E5
  0
DICTIONARY
  5
17E6
330
20E
100
AcDbDictionary
280
     1
281
     1
  3
ADSK_XREC_LAYER_RECONCILED
360
17E7
  0
DICTIONARY
  5
17E8
330
20F
100
AcDbDictionary
280
     1
281
     1
  3
ADSK_XREC_LAYER_RECONCILED
360
17E9
  0
DICTIONARY
  5
17EA
330
210
100
AcDbDictionary
280
     1
281
     1
  3
ADSK_XREC_LAYER_RECONCILED
360
17EB
  0
DICTIONARY
  5
17EC
330
211
100
AcDbDictionary
280
     1
281
     1
  3
ADSK_XREC_LAYER_RECONCILED
360
17ED
  0
DICTIONARY
  5
17EE
330
212
100
AcDbDictionary
280
     1
281
     1
  3
ADSK_XREC_LAYER_RECONCILED
360
17EF
  0
DICTIONARY
  5
17F0
330
213
100
AcDbDictionary
280
     1
281
     1
  3
ADSK_XREC_LAYER_RECONCILED
360
17F1
  0
DICTIONARY
  5
17F2
330
214
100
AcDbDictionary
280
     1
281
     1
  3
ADSK_XREC_LAYER_RECONCILED
360
17F3
  0
DICTIONARY
  5
17F4
330
215
100
AcDbDictionary
280
     1
281
     1
  3
ADSK_XREC_LAYER_RECONCILED
360
17F5
  0
DICTIONARY
  5
17F6
330
216
100
AcDbDictionary
280
     1
281
     1
  3
ADSK_XREC_LAYER_RECONCILED
360
17F7
  0
DICTIONARY
  5
17F8
330
217
100
AcDbDictionary
280
     1
281
     1
  3
ADSK_XREC_LAYER_RECONCILED
360
17F9
  0
DICTIONARY
  5
17FA
330
218
100
AcDbDictionary
280
     1
281
     1
  3
ADSK_XREC_LAYER_RECONCILED
360
17FB
  0
DICTIONARY
  5
17FC
330
219
100
AcDbDictionary
280
     1
281
     1
  3
ADSK_XREC_LAYER_RECONCILED
360
17FD
  0
DICTIONARY
  5
17FE
330
21A
100
AcDbDictionary
280
     1
281
     1
  3
ADSK_XREC_LAYER_RECONCILED
360
17FF
  0
DICTIONARY
  5
1800
330
21B
100
AcDbDictionary
280
     1
281
     1
  3
ADSK_XREC_LAYER_RECONCILED
360
1801
  0
DICTIONARY
  5
1802
330
21C
100
AcDbDictionary
280
     1
281
     1
  3
ADSK_XREC_LAYER_RECONCILED
360
1803
  0
XRECORD
  5
1821
102
{ACAD_REACTORS
330
C
102
}
330
C
100
AcDbXrecord
280
     1
300
ACDLT
300
2016
300
ACDLT_F_S
  0
DICTIONARY
  5
1752
102
{ACAD_REACTORS
330
C
102
}
330
C
100
AcDbDictionary
281
     1
  0
DICTIONARY
  5
181A
102
{ACAD_REACTORS
330
C
102
}
330
C
100
AcDbDictionary
281
     1
  3
Imperial24
350
181B
  0
DICTIONARY
  5
D
102
{ACAD_REACTORS
330
C
102
}
330
C
100
AcDbDictionary
281
     1
  0
DICTIONARY
  5
1A
102
{ACAD_REACTORS
330
C
102
}
330
C
100
AcDbDictionary
281
     1
  3
Layout1
350
1722
  3
Model
350
1721
  0
DICTIONARY
  5
1725
102
{ACAD_REACTORS
330
C
102
}
330
C
100
AcDbDictionary
281
     1
  3
ByBlock
350
172E
  3
ByLayer
350
1726
  3
Global
350
1736
  0
DICTIONARY
  5
1777
102
{ACAD_REACTORS
330
C
102
}
330
C
100
AcDbDictionary
281
     1
  3
Standard
350
1778
  0
DICTIONARY
  5
17
102
{ACAD_REACTORS
330
C
102
}
330
C
100
AcDbDictionary
281
     1
  3
Standard
350
18
  0
DICTIONARY
  5
19
102
{ACAD_REACTORS
330
C
102
}
330
C
100
AcDbDictionary
281
     1
  0
ACDBDICTIONARYWDFLT
  5
E
102
{ACAD_REACTORS
330
C
102
}
330
C
100
AcDbDictionary
281
     1
  3
Normal
350
F
100
AcDbDictionaryWithDefault
340
F
  0
DICTIONARY
  5
1755
102
{ACAD_REACTORS
330
C
102
}
330
C
100
AcDbDictionary
281
     1
  3
A0
350
1756
  3
A1
350
1757
  3
A2
350
1758
  3
A3
350
1759
  3
A4
350
175A
  3
A5
350
175B
  3
A6
350
175C
  3
A7
350
175D
  3
A8
350
175E
  3
A9
350
175F
  3
B0
350
1760
  3
B1
350
1761
  3
B2
350
1762
  3
B3
350
1763
  3
B4
350
1764
  3
B5
350
1765
  3
B6
350
1766
  3
B7
350
1767
  3
B8
350
1768
  3
B9
350
1769
  3
C0
350
176A
  3
C1
350
176B
  3
C2
350
176C
  3
C3
350
176D
  3
C4
350
176E
  3
C5
350
176F
  3
C6
350
1770
  3
C7
350
1771
  3
C8
350
1772
  3
C9
350
1773
  3
D0
350
1774
  3
D1
350
1775
  3
D2
350
1776
  0
DICTIONARY
  5
1818
102
{ACAD_REACTORS
330
C
102
}
330
C
100
AcDbDictionary
281
     1
  3
Imperial24
350
1819
  0
DICTIONARY
  5
1753
102
{ACAD_REACTORS
330
C
102
}
330
C
100
AcDbDictionary
281
     1
  3
Standard
350
1754
  0
DICTIONARY
  5
173E
102
{ACAD_REACTORS
330
C
102
}
330
C
100
AcDbDictionary
281
     1
  3
2dWireframe
350
1744
  3
3D Hidden
350
1746
  3
3dWireframe
350
1745
  3
Basic
350
1743
  3
Brighten
350
174A
  3
ColorChange
350
174E
  3
Conceptual
350
1747
  3
Dim
350
1749
  3
EdgeColorOff
350
1751
  3
Facepattern
350
174D
  3
Flat
350
173F
  3
FlatWithEdges
350
1740
  3
Gouraud
350
1741
  3
GouraudWithEdges
350
1742
  3
Hidden
350
1812
  3
JitterOff
350
174F
  3
Linepattern
350
174C
  3
OverhangOff
350
1750
  3
Realistic
350
1748
  3
Shaded
350
1817
  3
Shaded with edges
350
1816
  3
Shades of Gray
350
1813
  3
Sketchy
350
1814
  3
Thicken
350
174B
  3
Wireframe
350
1811
  3
X-Ray
350
1815
  0
XRECORD
  5
186B
102
{ACAD_REACTORS
330
C
102
}
330
C
100
AcDbXrecord
280
     1
 90
        1
330
1754
  0
DICTIONARY
  5
17AD
102
{ACAD_REACTORS
330
C
102
}
330
C
100
AcDbDictionary
281
     1
  3
CANNOSCALE
350
17B0
  3
CMLEADERSTYLE
350
17AF
  3
CTABLESTYLE
350
17AE
  3
CVIEWDETAILSTYLE
350
1866
  3
CVIEWSECTIONSTYLE
350
1867
  3
DIMASSOC
350
17B3
  3
INDEXCTL
350
17B2
  3
LAYEREVAL
350
1807
  3
LAYERNOTIFY
350
1808
  3
LIGHTINGUNITS
350
1806
  3
MSLTSCALE
350
1805
  3
SOLIDHIST
350
1868
  3
SORTENTS
350
17B1
  3
XCLIPFRAME
350
1869
  0
XRECORD
  5
17BD
102
{ACAD_REACTORS
330
17BC
102
}
330
17BC
100
AcDbXrecord
280
     1
290
     1
  0
XRECORD
  5
17BF
102
{ACAD_REACTORS
330
17BE
102
}
330
17BE
100
AcDbXrecord
280
     1
290
     1
  0
XRECORD
  5
17C1
102
{ACAD_REACTORS
330
17C0
102
}
330
17C0
100
AcDbXrecord
280
     1
290
     1
  0
XRECORD
  5
17C3
102
{ACAD_REACTORS
330
17C2
102
}
330
17C2
100
AcDbXrecord
280
     1
290
     1
  0
XRECORD
  5
17C5
102
{ACAD_REACTORS
330
17C4
102
}
330
17C4
100
AcDbXrecord
280
     1
290
     1
  0
XRECORD
  5
17C7
102
{ACAD_REACTORS
330
17C6
102
}
330
17C6
100
AcDbXrecord
280
     1
290
     1
  0
XRECORD
  5
17C9
102
{ACAD_REACTORS
330
17C8
102
}
330
17C8
100
AcDbXrecord
280
     1
290
     1
  0
XRECORD
  5
17CB
102
{ACAD_REACTORS
330
17CA
102
}
330
17CA
100
AcDbXrecord
280
     1
290
     1
  0
XRECORD
  5
17CD
102
{ACAD_REACTORS
330
17CC
102
}
330
17CC
100
AcDbXrecord
280
     1
290
     1
  0
XRECORD
  5
17CF
102
{ACAD_REACTORS
330
17CE
102
}
330
17CE
100
AcDbXrecord
280
     1
290
     1
  0
XRECORD
  5
17D1
102
{ACAD_REACTORS
330
17D0
102
}
330
17D0
100
AcDbXrecord
280
     1
290
     1
  0
XRECORD
  5
17D3
102
{ACAD_REACTORS
330
17D2
102
}
330
17D2
100
AcDbXrecord
280
     1
290
     1
  0
XRECORD
  5
17D5
102
{ACAD_REACTORS
330
17D4
102
}
330
17D4
100
AcDbXrecord
280
     1
290
     1
  0
XRECORD
  5
17D7
102
{ACAD_REACTORS
330
17D6
102
}
330
17D6
100
AcDbXrecord
280
     1
290
     1
  0
XRECORD
  5
17D9
102
{ACAD_REACTORS
330
17D8
102
}
330
17D8
100
AcDbXrecord
280
     1
290
     1
  0
XRECORD
  5
17DB
102
{ACAD_REACTORS
330
17DA
102
}
330
17DA
100
AcDbXrecord
280
     1
290
     1
  0
XRECORD
  5
17DD
102
{ACAD_REACTORS
330
17DC
102
}
330
17DC
100
AcDbXrecord
280
     1
290
     1
  0
XRECORD
  5
17DF
102
{ACAD_REACTORS
330
17DE
102
}
330
17DE
100
AcDbXrecord
280
     1
290
     1
  0
XRECORD
  5
17E1
102
{ACAD_REACTORS
330
17E0
102
}
330
17E0
100
AcDbXrecord
280
     1
290
     1
  0
XRECORD
  5
17E3
102
{ACAD_REACTORS
330
17E2
102
}
330
17E2
100
AcDbXrecord
280
     1
290
     1
  0
XRECORD
  5
17E5
102
{ACAD_REACTORS
330
17E4
102
}
330
17E4
100
AcDbXrecord
280
     1
290
     1
  0
XRECORD
  5
17E7
102
{ACAD_REACTORS
330
17E6
102
}
330
17E6
100
AcDbXrecord
280
     1
290
     1
  0
XRECORD
  5
17E9
102
{ACAD_REACTORS
330
17E8
102
}
330
17E8
100
AcDbXrecord
280
     1
290
     1
  0
XRECORD
  5
17EB
102
{ACAD_REACTORS
330
17EA
102
}
330
17EA
100
AcDbXrecord
280
     1
290
     1
  0
XRECORD
  5
17ED
102
{ACAD_REACTORS
330
17EC
102
}
330
17EC
100
AcDbXrecord
280
     1
290
     1
  0
XRECORD
  5
17EF
102
{ACAD_REACTORS
330
17EE
102
}
330
17EE
100
AcDbXrecord
280
     1
290
     1
  0
XRECORD
  5
17F1
102
{ACAD_REACTORS
330
17F0
102
}
330
17F0
100
AcDbXrecord
280
     1
290
     1
  0
XRECORD
  5
17F3
102
{ACAD_REACTORS
330
17F2
102
}
330
17F2
100
AcDbXrecord
280
     1
290
     1
  0
XRECORD
  5
17F5
102
{ACAD_REACTORS
330
17F4
102
}
330
17F4
100
AcDbXrecord
280
     1
290
     1
  0
XRECORD
  5
17F7
102
{ACAD_REACTORS
330
17F6
102
}
330
17F6
100
AcDbXrecord
280
     1
290
     1
  0
XRECORD
  5
17F9
102
{ACAD_REACTORS
330
17F8
102
}
330
17F8
100
AcDbXrecord
280
     1
290
     1
  0
XRECORD
  5
17FB
102
{ACAD_REACTORS
330
17FA
102
}
330
17FA
100
AcDbXrecord
280
     1
290
     1
  0
XRECORD
  5
17FD
102
{ACAD_REACTORS
330
17FC
102
}
330
17FC
100
AcDbXrecord
280
     1
290
     1
  0
XRECORD
  5
17FF
102
{ACAD_REACTORS
330
17FE
102
}
330
17FE
100
AcDbXrecord
280
     1
290
     1
  0
XRECORD
  5
1801
102
{ACAD_REACTORS
330
1800
102
}
330
1800
100
AcDbXrecord
280
     1
290
     1
  0
XRECORD
  5
1803
102
{ACAD_REACTORS
330
1802
102
}
330
1802
100
AcDbXrecord
280
     1
290
     1
  0
ACDBDETAILVIEWSTYLE
  5
181B
102
{ACAD_XDICTIONARY
360
18A6
102
}
102
{ACAD_REACTORS
330
181A
102
}
330
181A
100
AcDbModelDocViewStyle
 70
     0
  3
Imperial24
290
     0
100
AcDbDetailViewStyle
 70
     0
 71
     0
 90
        3
 71
     1
340
11
 62
   256
 40
0.24
340
0
 62
   256
 40
0.24
300

 40
0.36
280
     3
 71
     2
340
16
 90
       25
 62
   256
 71
     3
340
11
 62
   256
 40
0.24
 90
        1
 40
0.75
 90
        1
300
%<\AcVar ViewType \f "%tc1">% %<\AcVar ViewDetailId>%\PSCALE %<\AcVar ViewScale \f "%sn">%
 71
     4
340
16
 90
       25
 62
   256
340
16
 90
       25
 62
   256
280
     0
  0
LAYOUT
  5
1722
102
{ACAD_REACTORS
330
1A
102
}
330
1A
100
AcDbPlotSettings
  1

  2
none_device
  4
ANSI_B_(17.00_x_11.00_Inches)
  6

 40
0.0
 41
0.0
 42
0.0
 43
0.0
 44
431.8
 45
279.4
 46
0.0
 47
0.0
 48
0.0
 49
0.0
140
0.0
141
0.0
142
1.0
143
1.0
 70
     0
 72
     0
 73
     0
 74
     0
  7

 75
     0
147
1.0
 76
     0
 77
     2
 78
   300
148
0.0
149
0.0
100
AcDbLayout
  1
Layout1
 70
     1
 71
     1
 10
0.0
 20
0.0
 11
12.0
 21
9.0
 12
0.0
 22
0.0
 32
0.0
 14
1.000000000000000E+20
 24
1.000000000000000E+20
 34
1.000000000000000E+20
 15
-1.000000000000000E+20
 25
-1.000000000000000E+20
 35
-1.000000000000000E+20
146
0.0
 13
0.0
 23
0.0
 33
0.0
 16
1.0
 26
0.0
 36
0.0
 17
0.0
 27
1.0
 37
0.0
 76
     0
330
226
  0
LAYOUT
  5
1721
102
{ACAD_REACTORS
330
1A
102
}
330
1A
100
AcDbPlotSettings
  1

  2
none_device
  4
ANSI_B_(17.00_x_11.00_Inches)
  6

 40
0.0
 41
0.0
 42
0.0
 43
0.0
 44
431.8
 45
279.4
 46
0.0
 47
0.0
 48
0.0
 49
0.0
140
0.0
141
0.0
142
1.0
143
1.0
 70
  1024
 72
     0
 73
     0
 74
     0
  7

 75
     0
147
1.0
 76
     0
 77
     2
 78
   300
148
0.0
149
0.0
100
AcDbLayout
  1
Model
 70
     0
 71
     0
 10
0.0
 20
0.0
 11
17.0
 21
11.0
 12
0.0
 22
0.0
 32
0.0
 14
0.0
 24
0.0
 34
0.0
 15
0.0
 25
0.0
 35
0.0
146
0.0
 13
0.0
 23
0.0
 33
0.0
 16
1.0
 26
0.0
 36
0.0
 17
0.0
 27
1.0
 37
0.0
 76
     0
330
225
331
1F4
  0
MATERIAL
  5
172E
102
{ACAD_XDICTIONARY
360
172F
102
}
102
{ACAD_REACTORS
330
1725
102
}
330
1725
100
AcDbMaterial
  1
ByBlock
 72
     0
 43
0.0208333333333333
 43
0.0
 43
0.0
 43
0.0
 43
0.0
 43
0.0208333333333333
 43
0.0
 43
0.0
 43
0.0
 43
0.0
 43
1.0
 43
0.0
 43
0.0
 43
0.0
 43
0.0
 43
1.0
 77
     0
 47
0.0208333333333333
 47
0.0
 47
0.0
 47
0.0
 47
0.0
 47
0.0208333333333333
 47
0.0
 47
0.0
 47
0.0
 47
0.0
 47
1.0
 47
0.0
 47
0.0
 47
0.0
 47
0.0
 47
1.0
171
     0
 49
0.0208333333333333
 49
0.0
 49
0.0
 49
0.0
 49
0.0
 49
0.0208333333333333
 49
0.0
 49
0.0
 49
0.0
 49
0.0
 49
1.0
 49
0.0
 49
0.0
 49
0.0
 49
0.0
 49
1.0
175
     0
142
0.0208333333333333
142
0.0
142
0.0
142
0.0
142
0.0
142
0.0208333333333333
142
0.0
142
0.0
142
0.0
142
0.0
142
1.0
142
0.0
142
0.0
142
0.0
142
0.0
142
1.0
179
     0
144
0.0208333333333333
144
0.0
144
0.0
144
0.0
144
0.0
144
0.0208333333333333
144
0.0
144
0.0
144
0.0
144
0.0
144
1.0
144
0.0
144
0.0
144
0.0
144
0.0
144
1.0
147
0.0208333333333333
147
0.0
147
0.0
147
0.0
147
0.0
147
0.0208333333333333
147
0.0
147
0.0
147
0.0
147
0.0
147
1.0
147
0.0
147
0.0
147
0.0
147
0.0
147
1.0
  0
MATERIAL
  5
1726
102
{ACAD_XDICTIONARY
360
1727
102
}
102
{ACAD_REACTORS
330
1725
102
}
330
1725
100
AcDbMaterial
  1
ByLayer
 72
     0
 43
0.0208333333333333
 43
0.0
 43
0.0
 43
0.0
 43
0.0
 43
0.0208333333333333
 43
0.0
 43
0.0
 43
0.0
 43
0.0
 43
1.0
 43
0.0
 43
0.0
 43
0.0
 43
0.0
 43
1.0
 77
     0
 47
0.0208333333333333
 47
0.0
 47
0.0
 47
0.0
 47
0.0
 47
0.0208333333333333
 47
0.0
 47
0.0
 47
0.0
 47
0.0
 47
1.0
 47
0.0
 47
0.0
 47
0.0
 47
0.0
 47
1.0
171
     0
 49
0.0208333333333333
 49
0.0
 49
0.0
 49
0.0
 49
0.0
 49
0.0208333333333333
 49
0.0
 49
0.0
 49
0.0
 49
0.0
 49
1.0
 49
0.0
 49
0.0
 49
0.0
 49
0.0
 49
1.0
175
     0
142
0.0208333333333333
142
0.0
142
0.0
142
0.0
142
0.0
142
0.0208333333333333
142
0.0
142
0.0
142
0.0
142
0.0
142
1.0
142
0.0
142
0.0
142
0.0
142
0.0
142
1.0
179
     0
144
0.0208333333333333
144
0.0
144
0.0
144
0.0
144
0.0
144
0.0208333333333333
144
0.0
144
0.0
144
0.0
144
0.0
144
1.0
144
0.0
144
0.0
144
0.0
144
0.0
144
1.0
147
0.0208333333333333
147
0.0
147
0.0
147
0.0
147
0.0
147
0.0208333333333333
147
0.0
147
0.0
147
0.0
147
0.0
147
1.0
147
0.0
147
0.0
147
0.0
147
0.0
147
1.0
  0
MATERIAL
  5
1736
102
{ACAD_XDICTIONARY
360
1737
102
}
102
{ACAD_REACTORS
330
1725
102
}
330
1725
100
AcDbMaterial
  1
Global
 72
     0
 43
0.0208333333333333
 43
0.0
 43
0.0
 43
0.0
 43
0.0
 43
0.0208333333333333
 43
0.0
 43
0.0
 43
0.0
 43
0.0
 43
1.0
 43
0.0
 43
0.0
 43
0.0
 43
0.0
 43
1.0
 77
     0
 47
0.0208333333333333
 47
0.0
 47
0.0
 47
0.0
 47
0.0
 47
0.0208333333333333
 47
0.0
 47
0.0
 47
0.0
 47
0.0
 47
1.0
 47
0.0
 47
0.0
 47
0.0
 47
0.0
 47
1.0
171
     0
 49
0.0208333333333333
 49
0.0
 49
0.0
 49
0.0
 49
0.0
 49
0.0208333333333333
 49
0.0
 49
0.0
 49
0.0
 49
0.0
 49
1.0
 49
0.0
 49
0.0
 49
0.0
 49
0.0
 49
1.0
175
     0
142
0.0208333333333333
142
0.0
142
0.0
142
0.0
142
0.0
142
0.0208333333333333
142
0.0
142
0.0
142
0.0
142
0.0
142
1.0
142
0.0
142
0.0
142
0.0
142
0.0
142
1.0
179
     0
144
0.0208333333333333
144
0.0
144
0.0
144
0.0
144
0.0
144
0.0208333333333333
144
0.0
144
0.0
144
0.0
144
0.0
144
1.0
144
0.0
144
0.0
144
0.0
144
0.0
144
1.0
147
0.0208333333333333
147
0.0
147
0.0
147
0.0
147
0.0
147
0.0208333333333333
147
0.0
147
0.0
147
0.0
147
0.0
147
1.0
147
0.0
147
0.0
147
0.0
147
0.0
147
1.0
  0
MLEADERSTYLE
  5
1778
102
{ACAD_REACTORS
330
1777
102
}
330
1777
100
AcDbMLeaderStyle
170
     2
171
     1
172
     0
 90
        2
 40
0.0
 41
0.0
173
     1
 91
-1056964608
340
14
 92
       -2
290
     1
 42
0.09
291
     1
 43
0.36
  3
Standard
 44
0.18
300

342
11
174
     1
178
     6
175
     1
176
     0
 93
-1056964608
 45
0.18
292
     0
297
     0
 46
0.18
 94
-1056964608
 47
1.0
 49
1.0
140
1.0
293
     1
141
0.0
294
     1
177
     0
142
1.0
295
     0
296
     0
143
0.125
1001
ACAD_MLEADERVER
1070
     2
  0
MLINESTYLE
  5
18
102
{ACAD_REACTORS
330
17
102
}
330
17
100
AcDbMlineStyle
  2
STANDARD
 70
     0
  3

 62
   256
 51
90.0
 52
90.0
 71
     2
 49
0.5
 62
   256
  6
BYLAYER
 49
-0.5
 62
   256
  6
BYLAYER
  0
ACDBPLACEHOLDER
  5
F
102
{ACAD_REACTORS
330
E
102
}
330
E
  0
SCALE
  5
1756
102
{ACAD_REACTORS
330
1755
102
}
330
1755
100
AcDbScale
 70
     0
300
1:1
140
1.0
141
1.0
290
     1
  0
SCALE
  5
1757
102
{ACAD_REACTORS
330
1755
102
}
330
1755
100
AcDbScale
 70
     0
300
1:2
140
1.0
141
2.0
290
     0
  0
SCALE
  5
1758
102
{ACAD_REACTORS
330
1755
102
}
330
1755
100
AcDbScale
 70
     0
300
1:4
140
1.0
141
4.0
290
     0
  0
SCALE
  5
1759
102
{ACAD_REACTORS
330
1755
102
}
330
1755
100
AcDbScale
 70
     0
300
1:5
140
1.0
141
5.0
290
     0
  0
SCALE
  5
175A
102
{ACAD_REACTORS
330
1755
102
}
330
1755
100
AcDbScale
 70
     0
300
1:8
140
1.0
141
8.0
290
     0
  0
SCALE
  5
175B
102
{ACAD_REACTORS
330
1755
102
}
330
1755
100
AcDbScale
 70
     0
300
1:10
140
1.0
141
10.0
290
     0
  0
SCALE
  5
175C
102
{ACAD_REACTORS
330
1755
102
}
330
1755
100
AcDbScale
 70
     0
300
1:16
140
1.0
141
16.0
290
     0
  0
SCALE
  5
175D
102
{ACAD_REACTORS
330
1755
102
}
330
1755
100
AcDbScale
 70
     0
300
1:20
140
1.0
141
20.0
290
     0
  0
SCALE
  5
175E
102
{ACAD_REACTORS
330
1755
102
}
330
1755
100
AcDbScale
 70
     0
300
1:30
140
1.0
141
30.0
290
     0
  0
SCALE
  5
175F
102
{ACAD_REACTORS
330
1755
102
}
330
1755
100
AcDbScale
 70
     0
300
1:40
140
1.0
141
40.0
290
     0
  0
SCALE
  5
1760
102
{ACAD_REACTORS
330
1755
102
}
330
1755
100
AcDbScale
 70
     0
300
1:50
140
1.0
141
50.0
290
     0
  0
SCALE
  5
1761
102
{ACAD_REACTORS
330
1755
102
}
330
1755
100
AcDbScale
 70
     0
300
1:100
140
1.0
141
100.0
290
     0
  0
SCALE
  5
1762
102
{ACAD_REACTORS
330
1755
102
}
330
1755
100
AcDbScale
 70
     0
300
2:1
140
2.0
141
1.0
290
     0
  0
SCALE
  5
1763
102
{ACAD_REACTORS
330
1755
102
}
330
1755
100
AcDbScale
 70
     0
300
4:1
140
4.0
141
1.0
290
     0
  0
SCALE
  5
1764
102
{ACAD_REACTORS
330
1755
102
}
330
1755
100
AcDbScale
 70
     0
300
8:1
140
8.0
141
1.0
290
     0
  0
SCALE
  5
1765
102
{ACAD_REACTORS
330
1755
102
}
330
1755
100
AcDbScale
 70
     0
300
10:1
140
10.0
141
1.0
290
     0
  0
SCALE
  5
1766
102
{ACAD_REACTORS
330
1755
102
}
330
1755
100
AcDbScale
 70
     0
300
100:1
140
100.0
141
1.0
290
     0
  0
SCALE
  5
1767
102
{ACAD_REACTORS
330
1755
102
}
330
1755
100
AcDbScale
 70
     0
300
1/128" = 1'-0"
140
0.0078125
141
12.0
290
     0
  0
SCALE
  5
1768
102
{ACAD_REACTORS
330
1755
102
}
330
1755
100
AcDbScale
 70
     0
300
1/64" = 1'-0"
140
0.015625
141
12.0
290
     0
  0
SCALE
  5
1769
102
{ACAD_REACTORS
330
1755
102
}
330
1755
100
AcDbScale
 70
     0
300
1/32" = 1'-0"
140
0.03125
141
12.0
290
     0
  0
SCALE
  5
176A
102
{ACAD_REACTORS
330
1755
102
}
330
1755
100
AcDbScale
 70
     0
300
1/16" = 1'-0"
140
0.0625
141
12.0
290
     0
  0
SCALE
  5
176B
102
{ACAD_REACTORS
330
1755
102
}
330
1755
100
AcDbScale
 70
     0
300
3/32" = 1'-0"
140
0.09375
141
12.0
290
     0
  0
SCALE
  5
176C
102
{ACAD_REACTORS
330
1755
102
}
330
1755
100
AcDbScale
 70
     0
300
1/8" = 1'-0"
140
0.125
141
12.0
290
     0
  0
SCALE
  5
176D
102
{ACAD_REACTORS
330
1755
102
}
330
1755
100
AcDbScale
 70
     0
300
3/16" = 1'-0"
140
0.1875
141
12.0
290
     0
  0
SCALE
  5
176E
102
{ACAD_REACTORS
330
1755
102
}
330
1755
100
AcDbScale
 70
     0
300
1/4" = 1'-0"
140
0.25
141
12.0
290
     0
  0
SCALE
  5
176F
102
{ACAD_REACTORS
330
1755
102
}
330
1755
100
AcDbScale
 70
     0
300
3/8" = 1'-0"
140
0.375
141
12.0
290
     0
  0
SCALE
  5
1770
102
{ACAD_REACTORS
330
1755
102
}
330
1755
100
AcDbScale
 70
     0
300
1/2" = 1'-0"
140
0.5
141
12.0
290
     0
  0
SCALE
  5
1771
102
{ACAD_REACTORS
330
1755
102
}
330
1755
100
AcDbScale
 70
     0
300
3/4" = 1'-0"
140
0.75
141
12.0
290
     0
  0
SCALE
  5
1772
102
{ACAD_REACTORS
330
1755
102
}
330
1755
100
AcDbScale
 70
     0
300
1" = 1'-0"
140
1.0
141
12.0
290
     0
  0
SCALE
  5
1773
102
{ACAD_REACTORS
330
1755
102
}
330
1755
100
AcDbScale
 70
     0
300
1-1/2" = 1'-0"
140
1.5
141
12.0
290
     0
  0
SCALE
  5
1774
102
{ACAD_REACTORS
330
1755
102
}
330
1755
100
AcDbScale
 70
     0
300
3" = 1'-0"
140
3.0
141
12.0
290
     0
  0
SCALE
  5
1775
102
{ACAD_REACTORS
330
1755
102
}
330
1755
100
AcDbScale
 70
     0
300
6" = 1'-0"
140
6.0
141
12.0
290
     0
  0
SCALE
  5
1776
102
{ACAD_REACTORS
330
1755
102
}
330
1755
100
AcDbScale
 70
     0
300
1'-0" = 1'-0"
140
12.0
141
12.0
290
     0
  0
ACDBSECTIONVIEWSTYLE
  5
1819
102
{ACAD_XDICTIONARY
360
18A4
102
}
102
{ACAD_REACTORS
330
1818
102
}
330
1818
100
AcDbModelDocViewStyle
 70
     0
  3
Imperial24
290
     0
100
AcDbSectionViewStyle
 70
     0
 71
     0
 90
       78
 71
     1
340
11
 62
   256
 40
0.24
340
0
340
0
 62
   256
 40
0.24
300
I, O, Q, S, X, Z
 40
0.48
 90
        3
 40
0.18
 90
        1
 71
     2
340
16
 90
       25
 62
   256
340
16
 90
       50
 62
   256
 40
0.24
 40
0.0
 40
0.24
 71
     3
340
11
 62
   256
 40
0.24
 90
        1
 40
0.75
 90
        1
300
%<\AcVar ViewType \f "%tc1">% %<\AcVar ViewSectionStartId>%-%<\AcVar ViewSectionEndId>%\PSCALE %<\AcVar ViewScale \f "%sn">%
 71
     4
 62
   256
 62
   257
300
ANSI31
 40
1.0
 90
        0
290
     0
290
     0
 90
        6
 40
0.0
 40
1.570796326794896
 40
0.2617993877991494
 40
1.308996938995747
 40
-0.2617993877991494
 40
1.832595714594046
  0
TABLESTYLE
  5
1754
102
{ACAD_XDICTIONARY
360
1779
102
}
102
{ACAD_REACTORS
330
1753
102
}
330
1753
100
AcDbTableStyle
  3
Standard
 70
     0
 71
     0
 40
0.06
 41
0.06
280
     0
281
     0
  7
STANDARD
140
0.18
170
     2
 62
     0
 63
     7
283
     0
274
    -2
284
     1
 64
     0
275
    -2
285
     1
 65
     0
276
    -2
286
     1
 66
     0
277
    -2
287
     1
 67
     0
278
    -2
288
     1
 68
     0
279
    -2
289
     1
 69
     0
  7
STANDARD
140
0.25
170
     5
 62
     0
 63
     7
283
     0
274
    -2
284
     1
 64
     0
275
    -2
285
     1
 65
     0
276
    -2
286
     1
 66
     0
277
    -2
287
     1
 67
     0
278
    -2
288
     1
 68
     0
279
    -2
289
     1
 69
     0
  7
STANDARD
140
0.18
170
     5
 62
     0
 63
     7
283
     0
274
    -2
284
     1
 64
     0
275
    -2
285
     1
 65
     0
276
    -2
286
     1
 66
     0
277
    -2
287
     1
 67
     0
278
    -2
288
     1
 68
     0
279
    -2
289
     1
 69
     0
  0
VISUALSTYLE
  5
1744
102
{ACAD_XDICTIONARY
360
1879
102
}
102
{ACAD_REACTORS
330
173E
102
}
330
173E
100
AcDbVisualStyle
  2
2dWireframe
 70
     4
 71
     0
 72
     2
 73
     0
 90
        0
 40
-0.6
 41
-30.0
 62
     5
 63
     7
 74
     1
 91
        4
 64
     7
 65
   257
 75
     1
175
     1
 42
1.0
 92
        0
 66
   257
 43
1.0
 76
     1
 77
     6
 78
     2
 67
     7
 79
     5
170
     0
171
     0
290
     0
174
     0
 93
        1
 44
0.0
173
     0
291
     0
 45
0.0
1001
ACAD
1000
AcDbSavedByObjectVersion
1070
     0
  0
VISUALSTYLE
  5
1746
102
{ACAD_XDICTIONARY
360
187D
102
}
102
{ACAD_REACTORS
330
173E
102
}
330
173E
100
AcDbVisualStyle
  2
3D Hidden
 70
     6
 71
     1
 72
     2
 73
     2
 90
        0
 40
-0.6
 41
-30.0
 62
     5
 63
     7
 74
     2
 91
        2
 64
     7
 65
   257
 75
     2
175
     1
 42
179.0
 92
        0
 66
   257
 43
1.0
 76
     1
 77
     6
 78
     2
 67
     7
 79
     3
170
     0
171
     0
290
     0
174
     0
 93
        1
 44
0.0
173
     0
291
     0
 45
0.0
1001
ACAD
1000
AcDbSavedByObjectVersion
1070
     0
  0
VISUALSTYLE
  5
1745
102
{ACAD_XDICTIONARY
360
187B
102
}
102
{ACAD_REACTORS
330
173E
102
}
330
173E
100
AcDbVisualStyle
  2
3dWireframe
 70
     5
 71
     0
 72
     2
 73
     0
 90
        0
 40
-0.6
 41
-30.0
 62
     5
 63
     7
 74
     1
 91
        4
 64
     7
 65
   257
 75
     1
175
     1
 42
1.0
 92
        0
 66
   257
 43
1.0
 76
     1
 77
     6
 78
     2
 67
     7
 79
     5
170
     0
171
     0
290
     0
174
     0
 93
        1
 44
0.0
173
     0
291
     0
 45
0.0
1001
ACAD
1000
AcDbSavedByObjectVersion
1070
     0
  0
VISUALSTYLE
  5
1743
102
{ACAD_XDICTIONARY
360
1877
102
}
102
{ACAD_REACTORS
330
173E
102
}
330
173E
100
AcDbVisualStyle
  2
Basic
 70
     7
 71
     1
 72
     0
 73
     1
 90
        0
 40
-0.6
 41
-30.0
 62
     5
 63
     7
 74
     0
 91
        4
 64
     7
 65
   257
 75
     1
175
     1
 42
1.0
 92
        8
 66
     7
 43
1.0
 76
     1
 77
     6
 78
     2
 67
     7
 79
     5
170
     0
171
     0
290
     0
174
     0
 93
        1
 44
0.0
173
     0
291
     1
 45
0.0
1001
ACAD
1000
AcDbSavedByObjectVersion
1070
     0
  0
VISUALSTYLE
  5
174A
102
{ACAD_XDICTIONARY
360
1885
102
}
102
{ACAD_REACTORS
330
173E
102
}
330
173E
100
AcDbVisualStyle
  2
Brighten
 70
    12
 71
     2
 72
     2
 73
     0
 90
        0
 40
-0.6
 41
-30.0
 62
     5
 63
     7
 74
     1
 91
        4
 64
     7
 65
   257
 75
     1
175
     1
 42
1.0
 92
        8
 66
     7
 43
1.0
 76
     1
 77
     6
 78
     2
 67
     7
 79
     5
170
     0
171
     0
290
     0
174
     0
 93
        1
 44
50.0
173
     0
291
     1
 45
0.0
1001
ACAD
1000
AcDbSavedByObjectVersion
1070
     0
  0
VISUALSTYLE
  5
174E
102
{ACAD_XDICTIONARY
360
188D
102
}
102
{ACAD_REACTORS
330
173E
102
}
330
173E
100
AcDbVisualStyle
  2
ColorChange
 70
    16
 71
     2
 72
     2
 73
     3
 90
        0
 40
-0.6
 41
-30.0
 62
     5
 63
     8
 74
     1
 91
        4
 64
     7
 65
   257
 75
     1
175
     1
 42
1.0
 92
        8
 66
     8
 43
1.0
 76
     1
 77
     6
 78
     2
 67
     7
 79
     5
170
     0
171
     0
290
     0
174
     0
 93
        1
 44
0.0
173
     0
291
     1
 45
0.0
1001
ACAD
1000
AcDbSavedByObjectVersion
1070
     0
  0
VISUALSTYLE
  5
1747
102
{ACAD_XDICTIONARY
360
187F
102
}
102
{ACAD_REACTORS
330
173E
102
}
330
173E
100
AcDbVisualStyle
  2
Conceptual
 70
     9
 71
     3
 72
     2
 73
     0
 90
        0
 40
-0.6
 41
-30.0
 62
     5
 63
     7
 74
     2
 91
        2
 64
     7
 65
   257
 75
     1
175
     1
 42
179.0
 92
        8
 66
     7
 43
1.0
 76
     1
 77
     6
 78
     2
 67
     7
 79
     3
170
     0
171
     0
290
     0
174
     0
 93
        1
 44
0.0
173
     0
291
     0
 45
0.0
1001
ACAD
1000
AcDbSavedByObjectVersion
1070
     0
  0
VISUALSTYLE
  5
1749
102
{ACAD_XDICTIONARY
360
1883
102
}
102
{ACAD_REACTORS
330
173E
102
}
330
173E
100
AcDbVisualStyle
  2
Dim
 70
    11
 71
     2
 72
     2
 73
     0
 90
        0
 40
-0.6
 41
-30.0
 62
     5
 63
     7
 74
     1
 91
        4
 64
     7
 65
   257
 75
     1
175
     1
 42
1.0
 92
        8
 66
     7
 43
1.0
 76
     1
 77
     6
 78
     2
 67
     7
 79
     5
170
     0
171
     0
290
     0
174
     0
 93
        1
 44
-50.0
173
     0
291
     1
 45
0.0
1001
ACAD
1000
AcDbSavedByObjectVersion
1070
     0
  0
VISUALSTYLE
  5
1751
102
{ACAD_XDICTIONARY
360
1893
102
}
102
{ACAD_REACTORS
330
173E
102
}
330
173E
100
AcDbVisualStyle
  2
EdgeColorOff
 70
    22
 71
     2
 72
     2
 73
     0
 90
        0
 40
-0.6
 41
-30.0
 62
     5
 63
     7
 74
     1
 91
        4
 64
     7
 65
   257
 75
     1
175
     1
 42
1.0
 92
        8
 66
     7
 43
1.0
 76
     1
 77
     6
 78
     2
 67
     7
 79
     5
170
     0
171
     0
290
     0
174
     0
 93
        1
 44
0.0
173
     0
291
     1
 45
0.0
1001
ACAD
1000
AcDbSavedByObjectVersion
1070
     0
  0
VISUALSTYLE
  5
174D
102
{ACAD_XDICTIONARY
360
188B
102
}
102
{ACAD_REACTORS
330
173E
102
}
330
173E
100
AcDbVisualStyle
  2
Facepattern
 70
    15
 71
     2
 72
     2
 73
     0
 90
        0
 40
-0.6
 41
-30.0
 62
     5
 63
     7
 74
     1
 91
        4
 64
     7
 65
   257
 75
     1
175
     1
 42
1.0
 92
        8
 66
     7
 43
1.0
 76
     1
 77
     6
 78
     2
 67
     7
 79
     5
170
     0
171
     0
290
     0
174
     0
 93
        1
 44
0.0
173
     0
291
     1
 45
0.0
1001
ACAD
1000
AcDbSavedByObjectVersion
1070
     0
  0
VISUALSTYLE
  5
173F
102
{ACAD_XDICTIONARY
360
186F
102
}
102
{ACAD_REACTORS
330
173E
102
}
330
173E
100
AcDbVisualStyle
  2
Flat
 70
     0
 71
     2
 72
     1
 73
     1
 90
        2
 40
-0.6
 41
30.0
 62
     5
 63
     7
 74
     0
 91
        4
 64
     7
 65
   257
 75
     1
175
     1
 42
1.0
 92
        8
 66
     7
 43
1.0
 76
     1
 77
     6
 78
     2
 67
     7
 79
     5
170
     0
171
     0
290
     0
174
     0
 93
       13
 44
0.0
173
     0
291
     1
 45
0.0
1001
ACAD
1000
AcDbSavedByObjectVersion
1070
     0
  0
VISUALSTYLE
  5
1740
102
{ACAD_XDICTIONARY
360
1871
102
}
102
{ACAD_REACTORS
330
173E
102
}
330
173E
100
AcDbVisualStyle
  2
FlatWithEdges
 70
     1
 71
     2
 72
     1
 73
     1
 90
        2
 40
-0.6
 41
30.0
 62
     5
 63
     7
 74
     1
 91
        4
 64
     7
 65
   257
 75
     1
175
     1
 42
1.0
 92
        0
 66
   257
 43
1.0
 76
     1
 77
     6
 78
     2
 67
     7
 79
     5
170
     0
171
     0
290
     0
174
     0
 93
       13
 44
0.0
173
     0
291
     1
 45
0.0
1001
ACAD
1000
AcDbSavedByObjectVersion
1070
     0
  0
VISUALSTYLE
  5
1741
102
{ACAD_XDICTIONARY
360
1873
102
}
102
{ACAD_REACTORS
330
173E
102
}
330
173E
100
AcDbVisualStyle
  2
Gouraud
 70
     2
 71
     2
 72
     2
 73
     1
 90
        2
 40
-0.6
 41
30.0
 62
     5
 63
     7
 74
     0
 91
        4
 64
     7
 65
   257
 75
     1
175
     1
 42
1.0
 92
        0
 66
     7
 43
1.0
 76
     1
 77
     6
 78
     2
 67
     7
 79
     5
170
     0
171
     0
290
     0
174
     0
 93
       13
 44
0.0
173
     0
291
     1
 45
0.0
1001
ACAD
1000
AcDbSavedByObjectVersion
1070
     0
  0
VISUALSTYLE
  5
1742
102
{ACAD_XDICTIONARY
360
1875
102
}
102
{ACAD_REACTORS
330
173E
102
}
330
173E
100
AcDbVisualStyle
  2
GouraudWithEdges
 70
     3
 71
     2
 72
     2
 73
     1
 90
        2
 40
-0.6
 41
30.0
 62
     5
 63
     7
 74
     1
 91
        4
 64
     7
 65
   257
 75
     1
175
     1
 42
1.0
 92
        0
 66
   257
 43
1.0
 76
     1
 77
     6
 78
     2
 67
     7
 79
     5
170
     0
171
     0
290
     0
174
     0
 93
       13
 44
0.0
173
     0
291
     1
 45
0.0
1001
ACAD
1000
AcDbSavedByObjectVersion
1070
     0
  0
VISUALSTYLE
  5
1812
102
{ACAD_XDICTIONARY
360
1898
102
}
102
{ACAD_REACTORS
330
173E
102
}
330
173E
100
AcDbVisualStyle
  2
Hidden
 70
     6
 71
     1
 72
     2
 73
     2
 90
        0
 40
-0.6
 41
-30.0
 62
     5
 63
     7
421
 16777215
 74
     2
 91
        2
 64
     7
 65
   257
 75
     2
175
     1
 42
40.0
 92
        0
 66
   257
 43
1.0
 76
     1
 77
     6
 78
     2
 67
     7
 79
     3
170
     0
171
     0
290
     0
174
     0
 93
        1
 44
0.0
173
     0
291
     0
 45
0.0
1001
ACAD
1000
AcDbSavedByObjectVersion
1070
     0
  0
VISUALSTYLE
  5
174F
102
{ACAD_XDICTIONARY
360
188F
102
}
102
{ACAD_REACTORS
330
173E
102
}
330
173E
100
AcDbVisualStyle
  2
JitterOff
 70
    20
 71
     2
 72
     2
 73
     0
 90
        0
 40
-0.6
 41
-30.0
 62
     5
 63
     7
 74
     1
 91
        4
 64
     7
 65
   257
 75
     1
175
     1
 42
1.0
 92
       10
 66
     7
 43
1.0
 76
     1
 77
     6
 78
     2
 67
     7
 79
     5
170
     0
171
     0
290
     0
174
     0
 93
        1
 44
0.0
173
     0
291
     1
 45
0.0
1001
ACAD
1000
AcDbSavedByObjectVersion
1070
     0
  0
VISUALSTYLE
  5
174C
102
{ACAD_XDICTIONARY
360
1889
102
}
102
{ACAD_REACTORS
330
173E
102
}
330
173E
100
AcDbVisualStyle
  2
Linepattern
 70
    14
 71
     2
 72
     2
 73
     0
 90
        0
 40
-0.6
 41
-30.0
 62
     5
 63
     7
 74
     1
 91
        4
 64
     7
 65
   257
 75
     7
175
     7
 42
1.0
 92
        8
 66
     7
 43
1.0
 76
     1
 77
     6
 78
     2
 67
     7
 79
     5
170
     0
171
     0
290
     0
174
     0
 93
        1
 44
0.0
173
     0
291
     1
 45
0.0
1001
ACAD
1000
AcDbSavedByObjectVersion
1070
     0
  0
VISUALSTYLE
  5
1750
102
{ACAD_XDICTIONARY
360
1891
102
}
102
{ACAD_REACTORS
330
173E
102
}
330
173E
100
AcDbVisualStyle
  2
OverhangOff
 70
    21
 71
     2
 72
     2
 73
     0
 90
        0
 40
-0.6
 41
-30.0
 62
     5
 63
     7
 74
     1
 91
        4
 64
     7
 65
   257
 75
     1
175
     1
 42
1.0
 92
        9
 66
     7
 43
1.0
 76
     1
 77
     6
 78
     2
 67
     7
 79
     5
170
     0
171
     0
290
     0
174
     0
 93
        1
 44
0.0
173
     0
291
     1
 45
0.0
1001
ACAD
1000
AcDbSavedByObjectVersion
1070
     0
  0
VISUALSTYLE
  5
1748
102
{ACAD_XDICTIONARY
360
1881
102
}
102
{ACAD_REACTORS
330
173E
102
}
330
173E
100
AcDbVisualStyle
  2
Realistic
 70
     8
 71
     2
 72
     2
 73
     0
 90
        0
 40
-0.6
 41
-30.0
 62
     5
 63
     7
 74
     1
 91
        0
 64
     7
 65
   257
 75
     1
175
     1
 42
1.0
 92
        8
 66
     8
 43
1.0
 76
     1
 77
     6
 78
     2
 67
     7
 79
     5
170
     0
171
     0
290
     0
174
     0
 93
       13
 44
0.0
173
     0
291
     0
 45
0.0
1001
ACAD
1000
AcDbSavedByObjectVersion
1070
     0
  0
VISUALSTYLE
  5
1817
102
{ACAD_XDICTIONARY
360
18A2
102
}
102
{ACAD_REACTORS
330
173E
102
}
330
173E
100
AcDbVisualStyle
  2
Shaded
 70
    27
 71
     2
 72
     2
 73
     1
 90
        2
 40
-0.6
 41
30.0
 62
     5
 63
     7
421
 16777215
 74
     0
 91
        4
 64
     7
 65
   257
 75
     1
175
     1
 42
1.0
 92
        8
 66
   257
 43
1.0
 76
     1
 77
     6
 78
     2
 67
     8
425
  7895160
 79
     3
170
     0
171
     0
290
     0
174
     0
 93
        5
 44
0.0
173
     0
291
     0
 45
0.0
1001
ACAD
1000
AcDbSavedByObjectVersion
1070
     0
  0
VISUALSTYLE
  5
1816
102
{ACAD_XDICTIONARY
360
18A0
102
}
102
{ACAD_REACTORS
330
173E
102
}
330
173E
100
AcDbVisualStyle
  2
Shaded with edges
 70
    26
 71
     2
 72
     2
 73
     1
 90
        2
 40
-0.6
 41
30.0
 62
     5
 63
     7
421
 16777215
 74
     1
 91
       10
 64
     7
 65
   257
 75
     2
175
     1
 42
1.0
 92
        8
 66
   257
 43
1.0
 76
     1
 77
     6
 78
     2
 67
     7
 79
     3
170
     0
171
     0
290
     0
174
     0
 93
        5
 44
0.0
173
     0
291
     0
 45
0.0
1001
ACAD
1000
AcDbSavedByObjectVersion
1070
     0
  0
VISUALSTYLE
  5
1813
102
{ACAD_XDICTIONARY
360
189A
102
}
102
{ACAD_REACTORS
330
173E
102
}
330
173E
100
AcDbVisualStyle
  2
Shades of Gray
 70
    23
 71
     2
 72
     2
 73
     3
 90
        0
 40
-0.6
 41
-30.0
 62
     5
 63
     7
421
 16777215
 74
     2
 91
        2
 64
     7
 65
     7
 75
     1
175
     1
 42
40.0
 92
        8
 66
     7
 43
1.0
 76
     1
 77
     6
 78
     2
 67
     7
 79
     3
170
     0
171
     0
290
     0
174
     0
 93
        1
 44
0.0
173
     0
291
     0
 45
0.0
1001
ACAD
1000
AcDbSavedByObjectVersion
1070
     0
  0
VISUALSTYLE
  5
1814
102
{ACAD_XDICTIONARY
360
189C
102
}
102
{ACAD_REACTORS
330
173E
102
}
330
173E
100
AcDbVisualStyle
  2
Sketchy
 70
    24
 71
     1
 72
     2
 73
     2
 90
        0
 40
-0.6
 41
-30.0
 62
     5
 63
     7
421
 16777215
 74
     2
 91
        2
 64
     7
 65
     7
 75
     1
175
     1
 42
40.0
 92
       11
 66
     7
 43
1.0
 76
     1
 77
     6
 78
     2
 67
     7
 79
     6
170
     0
171
     0
290
     0
174
     0
 93
        1
 44
0.0
173
     0
291
     0
 45
0.0
1001
ACAD
1000
AcDbSavedByObjectVersion
1070
     0
  0
VISUALSTYLE
  5
174B
102
{ACAD_XDICTIONARY
360
1887
102
}
102
{ACAD_REACTORS
330
173E
102
}
330
173E
100
AcDbVisualStyle
  2
Thicken
 70
    13
 71
     2
 72
     2
 73
     0
 90
        0
 40
-0.6
 41
-30.0
 62
     5
 63
     7
 74
     1
 91
        4
 64
     7
 65
   257
 75
     1
175
     1
 42
1.0
 92
       12
 66
     7
 43
1.0
 76
     1
 77
     6
 78
     2
 67
     7
 79
     5
170
     0
171
     0
290
     0
174
     0
 93
        1
 44
0.0
173
     0
291
     1
 45
0.0
1001
ACAD
1000
AcDbSavedByObjectVersion
1070
     0
  0
VISUALSTYLE
  5
1811
102
{ACAD_XDICTIONARY
360
1896
102
}
102
{ACAD_REACTORS
330
173E
102
}
330
173E
100
AcDbVisualStyle
  2
Wireframe
 70
     5
 71
     0
 72
     2
 73
     0
 90
        0
 40
-0.6
 41
-30.0
 62
     5
 63
     7
421
 16777215
 74
     1
 91
        4
 64
     7
 65
   257
 75
     1
175
     1
 42
1.0
 92
        0
 66
   257
 43
1.0
 76
     1
 77
     6
 78
     2
 67
     7
 79
     3
170
     0
171
     0
290
     0
174
     0
 93
        1
 44
0.0
173
     0
291
     0
 45
0.0
1001
ACAD
1000
AcDbSavedByObjectVersion
1070
     0
  0
VISUALSTYLE
  5
1815
102
{ACAD_XDICTIONARY
360
189E
102
}
102
{ACAD_REACTORS
330
173E
102
}
330
173E
100
AcDbVisualStyle
  2
X-Ray
 70
    25
 71
     2
 72
     2
 73
     1
 90
        1
 40
0.5
 41
-30.0
 62
     5
 63
     7
421
 16777215
 74
     1
 91
        0
 64
     7
 65
   257
 75
     1
175
     1
 42
1.0
 92
        8
 66
     7
 43
1.0
 76
     1
 77
     6
 78
     2
 67
     7
 79
     3
170
     0
171
     0
290
     0
174
     0
 93
       13
 44
0.0
173
     0
291
     0
 45
0.0
1001
ACAD
1000
AcDbSavedByObjectVersion
1070
     0
  0
DICTIONARYVAR
  5
17B0
102
{ACAD_REACTORS
330
17AD
102
}
330
17AD
100
DictionaryVariables
280
     0
  1
1:1
  0
DICTIONARYVAR
  5
17AF
102
{ACAD_REACTORS
330
17AD
102
}
330
17AD
100
DictionaryVariables
280
     0
  1
STANDARD
  0
DICTIONARYVAR
  5
17AE
102
{ACAD_REACTORS
330
17AD
102
}
330
17AD
100
DictionaryVariables
280
     0
  1
STANDARD
  0
DICTIONARYVAR
  5
1866
102
{ACAD_REACTORS
330
17AD
102
}
330
17AD
100
DictionaryVariables
280
     0
  1
Imperial24
  0
DICTIONARYVAR
  5
1867
102
{ACAD_REACTORS
330
17AD
102
}
330
17AD
100
DictionaryVariables
280
     0
  1
Imperial24
  0
DICTIONARYVAR
  5
17B3
102
{ACAD_REACTORS
330
17AD
102
}
330
17AD
100
DictionaryVariables
280
     0
  1
1
  0
DICTIONARYVAR
  5
17B2
102
{ACAD_REACTORS
330
17AD
102
}
330
17AD
100
DictionaryVariables
280
     0
  1
0
  0
DICTIONARYVAR
  5
1807
102
{ACAD_REACTORS
330
17AD
102
}
330
17AD
100
DictionaryVariables
280
     0
  1
1
  0
DICTIONARYVAR
  5
1808
102
{ACAD_REACTORS
330
17AD
102
}
330
17AD
100
DictionaryVariables
280
     0
  1
15
  0
DICTIONARYVAR
  5
1806
102
{ACAD_REACTORS
330
17AD
102
}
330
17AD
100
DictionaryVariables
280
     0
  1
0
  0
DICTIONARYVAR
  5
1805
102
{ACAD_REACTORS
330
17AD
102
}
330
17AD
100
DictionaryVariables
280
     0
  1
0
  0
DICTIONARYVAR
  5
1868
102
{ACAD_REACTORS
330
17AD
102
}
330
17AD
100
DictionaryVariables
280
     0
  1
1
  0
DICTIONARYVAR
  5
17B1
102
{ACAD_REACTORS
330
17AD
102
}
330
17AD
100
DictionaryVariables
280
     0
  1
127
  0
DICTIONARYVAR
  5
1869
102
{ACAD_REACTORS
330
17AD
102
}
330
17AD
100
DictionaryVariables
280
     0
  1
2
  0
DICTIONARY
  5
18A6
330
181B
100
AcDbDictionary
280
     1
281
     1
  3
ACAD_XREC_ROUNDTRIP
360
18A7
  0
DICTIONARY
  5
172F
330
172E
100
AcDbDictionary
280
     1
281
     1
  3
ACAD_XREC_ROUNDTRIP
360
186D
  3
BUMPTILE
360
1731
  3
DIFFUSETILE
360
1730
  3
OPACITYTILE
360
1734
  3
REFLECTIONTILE
360
1733
  3
REFRACTIONTILE
360
1735
  3
SPECULARTILE
360
1732
  0
DICTIONARY
  5
1727
330
1726
100
AcDbDictionary
280
     1
281
     1
  3
ACAD_XREC_ROUNDTRIP
360
186C
  3
BUMPTILE
360
1729
  3
DIFFUSETILE
360
1728
  3
OPACITYTILE
360
172C
  3
REFLECTIONTILE
360
172B
  3
REFRACTIONTILE
360
172D
  3
SPECULARTILE
360
172A
  0
DICTIONARY
  5
1737
330
1736
100
AcDbDictionary
280
     1
281
     1
  3
ACAD_XREC_ROUNDTRIP
360
186E
  3
BUMPTILE
360
1739
  3
DIFFUSETILE
360
1738
  3
OPACITYTILE
360
173C
  3
REFLECTIONTILE
360
173B
  3
REFRACTIONTILE
360
173D
  3
SPECULARTILE
360
173A
  0
DICTIONARY
  5
18A4
330
1819
100
AcDbDictionary
280
     1
281
     1
  3
ACAD_XREC_ROUNDTRIP
360
18A5
  0
DICTIONARY
  5
1779
330
1754
100
AcDbDictionary
280
     1
281
     1
  3
ACAD_ROUNDTRIP_2008_TABLESTYLE_CELLSTYLEMAP
360
186A
  3
ACAD_XREC_ROUNDTRIP
360
1895
  0
DICTIONARY
  5
1879
330
1744
100
AcDbDictionary
280
     1
281
     1
  3
ACAD_XREC_ROUNDTRIP
360
187A
  0
DICTIONARY
  5
187D
330
1746
100
AcDbDictionary
280
     1
281
     1
  3
ACAD_XREC_ROUNDTRIP
360
187E
  0
DICTIONARY
  5
187B
330
1745
100
AcDbDictionary
280
     1
281
     1
  3
ACAD_XREC_ROUNDTRIP
360
187C
  0
DICTIONARY
  5
1877
330
1743
100
AcDbDictionary
280
     1
281
     1
  3
ACAD_XREC_ROUNDTRIP
360
1878
  0
DICTIONARY
  5
1885
330
174A
100
AcDbDictionary
280
     1
281
     1
  3
ACAD_XREC_ROUNDTRIP
360
1886
  0
DICTIONARY
  5
188D
330
174E
100
AcDbDictionary
280
     1
281
     1
  3
ACAD_XREC_ROUNDTRIP
360
188E
  0
DICTIONARY
  5
187F
330
1747
100
AcDbDictionary
280
     1
281
     1
  3
ACAD_XREC_ROUNDTRIP
360
1880
  0
DICTIONARY
  5
1883
330
1749
100
AcDbDictionary
280
     1
281
     1
  3
ACAD_XREC_ROUNDTRIP
360
1884
  0
DICTIONARY
  5
1893
330
1751
100
AcDbDictionary
280
     1
281
     1
  3
ACAD_XREC_ROUNDTRIP
360
1894
  0
DICTIONARY
  5
188B
330
174D
100
AcDbDictionary
280
     1
281
     1
  3
ACAD_XREC_ROUNDTRIP
360
188C
  0
DICTIONARY
  5
186F
330
173F
100
AcDbDictionary
280
     1
281
     1
  3
ACAD_XREC_ROUNDTRIP
360
1870
  0
DICTIONARY
  5
1871
330
1740
100
AcDbDictionary
280
     1
281
     1
  3
ACAD_XREC_ROUNDTRIP
360
1872
  0
DICTIONARY
  5
1873
330
1741
100
AcDbDictionary
280
     1
281
     1
  3
ACAD_XREC_ROUNDTRIP
360
1874
  0
DICTIONARY
  5
1875
330
1742
100
AcDbDictionary
280
     1
281
     1
  3
ACAD_XREC_ROUNDTRIP
360
1876
  0
DICTIONARY
  5
1898
330
1812
100
AcDbDictionary
280
     1
281
     1
  3
ACAD_XREC_ROUNDTRIP
360
1899
  0
DICTIONARY
  5
188F
330
174F
100
AcDbDictionary
280
     1
281
     1
  3
ACAD_XREC_ROUNDTRIP
360
1890
  0
DICTIONARY
  5
1889
330
174C
100
AcDbDictionary
280
     1
281
     1
  3
ACAD_XREC_ROUNDTRIP
360
188A
  0
DICTIONARY
  5
1891
330
1750
100
AcDbDictionary
280
     1
281
     1
  3
ACAD_XREC_ROUNDTRIP
360
1892
  0
DICTIONARY
  5
1881
330
1748
100
AcDbDictionary
280
     1
281
     1
  3
ACAD_XREC_ROUNDTRIP
360
1882
  0
DICTIONARY
  5
18A2
330
1817
100
AcDbDictionary
280
     1
281
     1
  3
ACAD_XREC_ROUNDTRIP
360
18A3
  0
DICTIONARY
  5
18A0
330
1816
100
AcDbDictionary
280
     1
281
     1
  3
ACAD_XREC_ROUNDTRIP
360
18A1
  0
DICTIONARY
  5
189A
330
1813
100
AcDbDictionary
280
     1
281
     1
  3
ACAD_XREC_ROUNDTRIP
360
189B
  0
DICTIONARY
  5
189C
330
1814
100
AcDbDictionary
280
     1
281
     1
  3
ACAD_XREC_ROUNDTRIP
360
189D
  0
DICTIONARY
  5
1887
330
174B
100
AcDbDictionary
280
     1
281
     1
  3
ACAD_XREC_ROUNDTRIP
360
1888
  0
DICTIONARY
  5
1896
330
1811
100
AcDbDictionary
280
     1
281
     1
  3
ACAD_XREC_ROUNDTRIP
360
1897
  0
DICTIONARY
  5
189E
330
1815
100
AcDbDictionary
280
     1
281
     1
  3
ACAD_XREC_ROUNDTRIP
360
189F
  0
XRECORD
  5
18A7
102
{ACAD_REACTORS
330
18A6
102
}
330
18A6
100
AcDbXrecord
280
     1
102
DISPLAYNAME
  1
Imperial24
102
FLAGS
 90
        0
  0
XRECORD
  5
186D
102
{ACAD_REACTORS
330
172F
102
}
330
172F
100
AcDbXrecord
280
     1
102
MATERIAL
148
0.0
149
0.0
149
0.0
 93
        0
 94
      127
282
     0
 72
     0
 77
     0
171
     0
175
     0
179
     0
273
     0
  0
XRECORD
  5
1731
102
{ACAD_REACTORS
330
172F
102
}
330
172F
100
AcDbXrecord
280
     1
270
     1
271
     1
  0
XRECORD
  5
1730
102
{ACAD_REACTORS
330
172F
102
}
330
172F
100
AcDbXrecord
280
     1
270
     1
271
     1
  0
XRECORD
  5
1734
102
{ACAD_REACTORS
330
172F
102
}
330
172F
100
AcDbXrecord
280
     1
270
     1
271
     1
  0
XRECORD
  5
1733
102
{ACAD_REACTORS
330
172F
102
}
330
172F
100
AcDbXrecord
280
     1
270
     1
271
     1
  0
XRECORD
  5
1735
102
{ACAD_REACTORS
330
172F
102
}
330
172F
100
AcDbXrecord
280
     1
270
     1
271
     1
  0
XRECORD
  5
1732
102
{ACAD_REACTORS
330
172F
102
}
330
172F
100
AcDbXrecord
280
     1
270
     1
271
     1
  0
XRECORD
  5
186C
102
{ACAD_REACTORS
330
1727
102
}
330
1727
100
AcDbXrecord
280
     1
102
MATERIAL
148
0.0
149
0.0
149
0.0
 93
        0
 94
      127
282
     0
 72
     0
 77
     0
171
     0
175
     0
179
     0
273
     0
  0
XRECORD
  5
1729
102
{ACAD_REACTORS
330
1727
102
}
330
1727
100
AcDbXrecord
280
     1
270
     1
271
     1
  0
XRECORD
  5
1728
102
{ACAD_REACTORS
330
1727
102
}
330
1727
100
AcDbXrecord
280
     1
270
     1
271
     1
  0
XRECORD
  5
172C
102
{ACAD_REACTORS
330
1727
102
}
330
1727
100
AcDbXrecord
280
     1
270
     1
271
     1
  0
XRECORD
  5
172B
102
{ACAD_REACTORS
330
1727
102
}
330
1727
100
AcDbXrecord
280
     1
270
     1
271
     1
  0
XRECORD
  5
172D
102
{ACAD_REACTORS
330
1727
102
}
330
1727
100
AcDbXrecord
280
     1
270
     1
271
     1
  0
XRECORD
  5
172A
102
{ACAD_REACTORS
330
1727
102
}
330
1727
100
AcDbXrecord
280
     1
270
     1
271
     1
  0
XRECORD
  5
186E
102
{ACAD_REACTORS
330
1737
102
}
330
1737
100
AcDbXrecord
280
     1
102
MATERIAL
148
0.0
149
0.0
149
0.0
 93
        0
 94
      127
282
     0
 72
     0
 77
     0
171
     0
175
     0
179
     0
273
     0
  0
XRECORD
  5
1739
102
{ACAD_REACTORS
330
1737
102
}
330
1737
100
AcDbXrecord
280
     1
270
     1
271
     1
  0
XRECORD
  5
1738
102
{ACAD_REACTORS
330
1737
102
}
330
1737
100
AcDbXrecord
280
     1
270
     1
271
     1
  0
XRECORD
  5
173C
102
{ACAD_REACTORS
330
1737
102
}
330
1737
100
AcDbXrecord
280
     1
270
     1
271
     1
  0
XRECORD
  5
173B
102
{ACAD_REACTORS
330
1737
102
}
330
1737
100
AcDbXrecord
280
     1
270
     1
271
     1
  0
XRECORD
  5
173D
102
{ACAD_REACTORS
330
1737
102
}
330
1737
100
AcDbXrecord
280
     1
270
     1
271
     1
  0
XRECORD
  5
173A
102
{ACAD_REACTORS
330
1737
102
}
330
1737
100
AcDbXrecord
280
     1
270
     1
271
     1
  0
XRECORD
  5
18A5
102
{ACAD_REACTORS
330
18A4
102
}
330
18A4
100
AcDbXrecord
280
     1
102
DISPLAYNAME
  1
Imperial24
102
FLAGS
 90
        0
  0
CELLSTYLEMAP
  5
186A
102
{ACAD_REACTORS
330
1779
102
}
330
1779
100
AcDbCellStyleMap
 90
        3
300
CELLSTYLE
  1
TABLEFORMAT_BEGIN
 90
        5
170
     1
 91
        0
 92
    32768
 62
   257
 93
        1
300
CONTENTFORMAT
  1
CONTENTFORMAT_BEGIN
 90
        0
 91
        0
 92
      512
 93
        0
300

 40
0.0
140
1.0
 94
        5
 62
     0
340
11
144
0.25
309
CONTENTFORMAT_END
171
     0
 94
        0
309
TABLEFORMAT_END
  1
CELLSTYLE_BEGIN
 90
        1
 91
        1
300
_TITLE
309
CELLSTYLE_END
300
CELLSTYLE
  1
TABLEFORMAT_BEGIN
 90
        5
170
     1
 91
        0
 92
        0
 62
   257
 93
        1
300
CONTENTFORMAT
  1
CONTENTFORMAT_BEGIN
 90
        0
 91
        0
 92
      512
 93
        0
300

 40
0.0
140
1.0
 94
        5
 62
     0
340
11
144
0.18
309
CONTENTFORMAT_END
171
     0
 94
        0
309
TABLEFORMAT_END
  1
CELLSTYLE_BEGIN
 90
        2
 91
        1
300
_HEADER
309
CELLSTYLE_END
300
CELLSTYLE
  1
TABLEFORMAT_BEGIN
 90
        5
170
     1
 91
        0
 92
        0
 62
   257
 93
        1
300
CONTENTFORMAT
  1
CONTENTFORMAT_BEGIN
 90
        0
 91
        0
 92
      512
 93
        0
300

 40
0.0
140
1.0
 94
        2
 62
     0
340
11
144
0.18
309
CONTENTFORMAT_END
171
     0
 94
        0
309
TABLEFORMAT_END
  1
CELLSTYLE_BEGIN
 90
        3
 91
        2
300
_DATA
309
CELLSTYLE_END
  0
XRECORD
  5
1895
102
{ACAD_REACTORS
330
1779
102
}
330
1779
100
AcDbXrecord
280
     1
102
ACAD_ROUNDTRIP_PRE2007_TABLESTYLE
 90
      512
 91
        0
  1

 92
      512
 93
        0
  2

 94
      512
 95
        0
  3

  0
XRECORD
  5
187A
102
{ACAD_REACTORS
330
1879
102
}
330
1879
100
AcDbXrecord
280
     1
102
RTVSPost2010Prop28
280
     1
102
RTVSPost2010PropOp28
 70
     1
102
RTVSPost2010Prop29
280
     1
102
RTVSPost2010PropOp29
 70
     1
102
RTVSPost2010Prop30
280
     0
102
RTVSPost2010PropOp30
 70
     1
102
RTVSPost2010Prop31
280
     0
102
RTVSPost2010PropOp31
 70
     1
102
RTVSPost2010Prop32
280
     0
102
RTVSPost2010PropOp32
 70
     1
102
RTVSPost2010Prop33
280
     0
102
RTVSPost2010PropOp33
 70
     1
102
RTVSPost2010Prop34
280
     0
102
RTVSPost2010PropOp34
 70
     1
102
RTVSPost2010Prop35
280
     0
102
RTVSPost2010PropOp35
 70
     1
102
RTVSPost2010Prop36
280
     0
102
RTVSPost2010PropOp36
 70
     1
102
RTVSPost2010Prop37
 90
       50
102
RTVSPost2010PropOp37
 70
     1
102
RTVSPost2010Prop38
140
0.0
102
RTVSPost2010PropOp38
 70
     1
102
RTVSPost2010Prop39
140
1.0
102
RTVSPost2010PropOp39
 70
     1
102
RTVSPost2010Prop40
 90
        0
102
RTVSPost2010PropOp40
 70
     1
102
RTVSPost2010Prop41ColorIndex
 90
       18
102
RTVSPost2010Prop41ColorRGB
 90
        0
102
RTVSPost2010PropOp41
 70
     1
102
RTVSPost2010Prop42
 90
       50
102
RTVSPost2010PropOp42
 70
     1
102
RTVSPost2010Prop43
 90
        3
102
RTVSPost2010PropOp43
 70
     1
102
RTVSPost2010Prop44ColorIndex
 90
        5
102
RTVSPost2010Prop44ColorRGB
 90
      255
102
RTVSPost2010PropOp44
 70
     1
102
RTVSPost2010Prop45
280
     0
102
RTVSPost2010PropOp45
 70
     1
102
RTVSPost2010Prop46
 90
       50
102
RTVSPost2010PropOp46
 70
     1
102
RTVSPost2010Prop47
 90
       50
102
RTVSPost2010PropOp47
 70
     1
102
RTVSPost2010Prop48
 90
       50
102
RTVSPost2010PropOp48
 70
     1
102
RTVSPost2010Prop49
280
     0
102
RTVSPost2010PropOp49
 70
     1
102
RTVSPost2010Prop50
 90
       50
102
RTVSPost2010PropOp50
 70
     1
102
RTVSPost2010Prop51ColorIndex
 90
      256
102
RTVSPost2010Prop51ColorRGB
 90
-16777216
102
RTVSPost2010PropOp51
 70
     0
102
RTVSPost2010Prop52
140
1.0
102
RTVSPost2010PropOp52
 70
     0
102
RTVSPost2010Prop53
 90
        2
102
RTVSPost2010PropOp53
 70
     1
102
RTVSPost2010Prop54
  1
strokes_ogs.tif
102
RTVSPost2010PropOp54
 70
     1
102
RTVSPost2010Prop55
280
     0
102
RTVSPost2010PropOp55
 70
     1
102
RTVSPost2010Prop56
140
1.0
102
RTVSPost2010PropOp56
 70
     1
102
RTVSPost2010Prop57
140
1.0
102
RTVSPost2010PropOp57
 70
     1
102
RTVSPropertyOp0
 70
     1
102
RTVSPropertyOp1
 70
     1
102
RTVSPropertyOp2
 70
     1
102
RTVSPropertyOp3
 70
     1
102
RTVSPropertyOp4
 70
     1
102
RTVSPropertyOp5
 70
     1
102
RTVSPropertyOp6
 70
     1
102
RTVSPropertyOp7
 70
     1
102
RTVSPropertyOp8
 70
     1
102
RTVSPropertyOp9
 70
     1
102
RTVSPropertyOp10
 70
     1
102
RTVSPropertyOp11
 70
     1
102
RTVSPropertyOp12
 70
     1
102
RTVSPropertyOp13
 70
     1
102
RTVSPropertyOp14
 70
     1
102
RTVSPropertyOp15
 70
     1
102
RTVSPropertyOp16
 70
     1
102
RTVSPropertyOp17
 70
     1
102
RTVSPropertyOp18
 70
     1
102
RTVSPropertyOp19
 70
     1
102
RTVSPropertyOp20
 70
     1
102
RTVSPropertyOp21
 70
     1
102
RTVSPropertyOp22
 70
     1
102
RTVSPropertyOp23
 70
     1
102
RTVSPropertyOp24
 70
     1
102
RTVSPropertyOp25
 70
     1
102
RTVSPropertyOp26
 70
     1
102
RTVSPropertyOp27
 70
     1
102
RTVSPropertyOp28
 70
     1
102
RTVSPropertyOp29
 70
     1
102
RTVSPropertyOp30
 70
     1
102
RTVSPropertyOp31
 70
     1
102
RTVSPropertyOp32
 70
     1
102
RTVSPropertyOp33
 70
     1
102
RTVSPropertyOp34
 70
     1
102
RTVSPropertyOp35
 70
     1
102
RTVSPropertyOp36
 70
     1
102
RTVSPropertyOp37
 70
     1
102
RTVSPropertyOp38
 70
     1
102
RTVSPropertyOp39
 70
     1
102
RTVSPropertyOp40
 70
     1
102
RTVSPropertyOp41
 70
     1
102
RTVSPropertyOp42
 70
     1
102
RTVSPropertyOp43
 70
     1
102
RTVSPropertyOp44
 70
     1
102
RTVSPropertyOp45
 70
     1
102
RTVSPropertyOp46
 70
     1
102
RTVSPropertyOp47
 70
     1
102
RTVSPropertyOp48
 70
     1
102
RTVSPropertyOp49
 70
     1
102
RTVSPropertyOp50
 70
     1
102
RTVSPropertyOp51
 70
     0
102
RTVSPropertyOp52
 70
     0
102
RTVSPropertyOp53
 70
     1
102
RTVSPropertyOp54
 70
     1
102
RTVSPropertyOp55
 70
     1
102
RTVSPropertyOp56
 70
     1
102
RTVSPropertyOp57
 70
     1
102
RTVSPropertyOp58
 70
     1
102
RTVSPropertyOp59
 70
     1
102
RTVSPropertyOp60
 70
     1
102
RTVSPropertyOp61
 70
     1
102
RTVSPropertyOp62
 70
     1
  0
XRECORD
  5
187E
102
{ACAD_REACTORS
330
187D
102
}
330
187D
100
AcDbXrecord
280
     1
102
RTVSPost2010Prop28
280
     0
102
RTVSPost2010PropOp28
 70
     1
102
RTVSPost2010Prop29
280
     1
102
RTVSPost2010PropOp29
 70
     1
102
RTVSPost2010Prop30
280
     1
102
RTVSPost2010PropOp30
 70
     1
102
RTVSPost2010Prop31
280
     0
102
RTVSPost2010PropOp31
 70
     1
102
RTVSPost2010Prop32
280
     0
102
RTVSPost2010PropOp32
 70
     1
102
RTVSPost2010Prop33
280
     0
102
RTVSPost2010PropOp33
 70
     1
102
RTVSPost2010Prop34
280
     0
102
RTVSPost2010PropOp34
 70
     1
102
RTVSPost2010Prop35
280
     0
102
RTVSPost2010PropOp35
 70
     1
102
RTVSPost2010Prop36
280
     0
102
RTVSPost2010PropOp36
 70
     1
102
RTVSPost2010Prop37
 90
       50
102
RTVSPost2010PropOp37
 70
     1
102
RTVSPost2010Prop38
140
0.0
102
RTVSPost2010PropOp38
 70
     1
102
RTVSPost2010Prop39
140
1.0
102
RTVSPost2010PropOp39
 70
     1
102
RTVSPost2010Prop40
 90
        0
102
RTVSPost2010PropOp40
 70
     1
102
RTVSPost2010Prop41ColorIndex
 90
       18
102
RTVSPost2010Prop41ColorRGB
 90
        0
102
RTVSPost2010PropOp41
 70
     1
102
RTVSPost2010Prop42
 90
       50
102
RTVSPost2010PropOp42
 70
     1
102
RTVSPost2010Prop43
 90
        3
102
RTVSPost2010PropOp43
 70
     1
102
RTVSPost2010Prop44ColorIndex
 90
        5
102
RTVSPost2010Prop44ColorRGB
 90
      255
102
RTVSPost2010PropOp44
 70
     1
102
RTVSPost2010Prop45
280
     0
102
RTVSPost2010PropOp45
 70
     1
102
RTVSPost2010Prop46
 90
       50
102
RTVSPost2010PropOp46
 70
     1
102
RTVSPost2010Prop47
 90
       50
102
RTVSPost2010PropOp47
 70
     1
102
RTVSPost2010Prop48
 90
       50
102
RTVSPost2010PropOp48
 70
     1
102
RTVSPost2010Prop49
280
     0
102
RTVSPost2010PropOp49
 70
     1
102
RTVSPost2010Prop50
 90
       50
102
RTVSPost2010PropOp50
 70
     1
102
RTVSPost2010Prop51ColorIndex
 90
      256
102
RTVSPost2010Prop51ColorRGB
 90
-16777216
102
RTVSPost2010PropOp51
 70
     0
102
RTVSPost2010Prop52
140
1.0
102
RTVSPost2010PropOp52
 70
     0
102
RTVSPost2010Prop53
 90
        2
102
RTVSPost2010PropOp53
 70
     1
102
RTVSPost2010Prop54
  1
strokes_ogs.tif
102
RTVSPost2010PropOp54
 70
     1
102
RTVSPost2010Prop55
280
     0
102
RTVSPost2010PropOp55
 70
     1
102
RTVSPost2010Prop56
140
1.0
102
RTVSPost2010PropOp56
 70
     1
102
RTVSPost2010Prop57
140
1.0
102
RTVSPost2010PropOp57
 70
     1
102
RTVSPropertyOp0
 70
     1
102
RTVSPropertyOp1
 70
     1
102
RTVSPropertyOp2
 70
     1
102
RTVSPropertyOp3
 70
     1
102
RTVSPropertyOp4
 70
     1
102
RTVSPropertyOp5
 70
     1
102
RTVSPropertyOp6
 70
     1
102
RTVSPropertyOp7
 70
     1
102
RTVSPropertyOp8
 70
     1
102
RTVSPropertyOp9
 70
     1
102
RTVSPropertyOp10
 70
     1
102
RTVSPropertyOp11
 70
     1
102
RTVSPropertyOp12
 70
     1
102
RTVSPropertyOp13
 70
     1
102
RTVSPropertyOp14
 70
     1
102
RTVSPropertyOp15
 70
     1
102
RTVSPropertyOp16
 70
     1
102
RTVSPropertyOp17
 70
     1
102
RTVSPropertyOp18
 70
     1
102
RTVSPropertyOp19
 70
     1
102
RTVSPropertyOp20
 70
     1
102
RTVSPropertyOp21
 70
     1
102
RTVSPropertyOp22
 70
     1
102
RTVSPropertyOp23
 70
     1
102
RTVSPropertyOp24
 70
     1
102
RTVSPropertyOp25
 70
     1
102
RTVSPropertyOp26
 70
     1
102
RTVSPropertyOp27
 70
     1
102
RTVSPropertyOp28
 70
     1
102
RTVSPropertyOp29
 70
     1
102
RTVSPropertyOp30
 70
     1
102
RTVSPropertyOp31
 70
     1
102
RTVSPropertyOp32
 70
     1
102
RTVSPropertyOp33
 70
     1
102
RTVSPropertyOp34
 70
     1
102
RTVSPropertyOp35
 70
     1
102
RTVSPropertyOp36
 70
     1
102
RTVSPropertyOp37
 70
     1
102
RTVSPropertyOp38
 70
     1
102
RTVSPropertyOp39
 70
     1
102
RTVSPropertyOp40
 70
     1
102
RTVSPropertyOp41
 70
     1
102
RTVSPropertyOp42
 70
     1
102
RTVSPropertyOp43
 70
     1
102
RTVSPropertyOp44
 70
     1
102
RTVSPropertyOp45
 70
     1
102
RTVSPropertyOp46
 70
     1
102
RTVSPropertyOp47
 70
     1
102
RTVSPropertyOp48
 70
     1
102
RTVSPropertyOp49
 70
     1
102
RTVSPropertyOp50
 70
     1
102
RTVSPropertyOp51
 70
     0
102
RTVSPropertyOp52
 70
     0
102
RTVSPropertyOp53
 70
     1
102
RTVSPropertyOp54
 70
     1
102
RTVSPropertyOp55
 70
     1
102
RTVSPropertyOp56
 70
     1
102
RTVSPropertyOp57
 70
     1
102
RTVSPropertyOp58
 70
     1
102
RTVSPropertyOp59
 70
     1
102
RTVSPropertyOp60
 70
     1
102
RTVSPropertyOp61
 70
     1
102
RTVSPropertyOp62
 70
     1
  0
XRECORD
  5
187C
102
{ACAD_REACTORS
330
187B
102
}
330
187B
100
AcDbXrecord
280
     1
102
RTVSPost2010Prop28
280
     0
102
RTVSPost2010PropOp28
 70
     1
102
RTVSPost2010Prop29
280
     1
102
RTVSPost2010PropOp29
 70
     1
102
RTVSPost2010Prop30
280
     1
102
RTVSPost2010PropOp30
 70
     1
102
RTVSPost2010Prop31
280
     0
102
RTVSPost2010PropOp31
 70
     1
102
RTVSPost2010Prop32
280
     0
102
RTVSPost2010PropOp32
 70
     1
102
RTVSPost2010Prop33
280
     0
102
RTVSPost2010PropOp33
 70
     1
102
RTVSPost2010Prop34
280
     0
102
RTVSPost2010PropOp34
 70
     1
102
RTVSPost2010Prop35
280
     0
102
RTVSPost2010PropOp35
 70
     1
102
RTVSPost2010Prop36
280
     0
102
RTVSPost2010PropOp36
 70
     1
102
RTVSPost2010Prop37
 90
       50
102
RTVSPost2010PropOp37
 70
     1
102
RTVSPost2010Prop38
140
0.0
102
RTVSPost2010PropOp38
 70
     1
102
RTVSPost2010Prop39
140
1.0
102
RTVSPost2010PropOp39
 70
     1
102
RTVSPost2010Prop40
 90
        0
102
RTVSPost2010PropOp40
 70
     1
102
RTVSPost2010Prop41ColorIndex
 90
       18
102
RTVSPost2010Prop41ColorRGB
 90
        0
102
RTVSPost2010PropOp41
 70
     1
102
RTVSPost2010Prop42
 90
       50
102
RTVSPost2010PropOp42
 70
     1
102
RTVSPost2010Prop43
 90
        3
102
RTVSPost2010PropOp43
 70
     1
102
RTVSPost2010Prop44ColorIndex
 90
        5
102
RTVSPost2010Prop44ColorRGB
 90
      255
102
RTVSPost2010PropOp44
 70
     1
102
RTVSPost2010Prop45
280
     0
102
RTVSPost2010PropOp45
 70
     1
102
RTVSPost2010Prop46
 90
       50
102
RTVSPost2010PropOp46
 70
     1
102
RTVSPost2010Prop47
 90
       50
102
RTVSPost2010PropOp47
 70
     1
102
RTVSPost2010Prop48
 90
       50
102
RTVSPost2010PropOp48
 70
     1
102
RTVSPost2010Prop49
280
     0
102
RTVSPost2010PropOp49
 70
     1
102
RTVSPost2010Prop50
 90
       50
102
RTVSPost2010PropOp50
 70
     1
102
RTVSPost2010Prop51ColorIndex
 90
      256
102
RTVSPost2010Prop51ColorRGB
 90
-16777216
102
RTVSPost2010PropOp51
 70
     0
102
RTVSPost2010Prop52
140
1.0
102
RTVSPost2010PropOp52
 70
     0
102
RTVSPost2010Prop53
 90
        2
102
RTVSPost2010PropOp53
 70
     1
102
RTVSPost2010Prop54
  1
strokes_ogs.tif
102
RTVSPost2010PropOp54
 70
     1
102
RTVSPost2010Prop55
280
     0
102
RTVSPost2010PropOp55
 70
     1
102
RTVSPost2010Prop56
140
1.0
102
RTVSPost2010PropOp56
 70
     1
102
RTVSPost2010Prop57
140
1.0
102
RTVSPost2010PropOp57
 70
     1
102
RTVSPropertyOp0
 70
     1
102
RTVSPropertyOp1
 70
     1
102
RTVSPropertyOp2
 70
     1
102
RTVSPropertyOp3
 70
     1
102
RTVSPropertyOp4
 70
     1
102
RTVSPropertyOp5
 70
     1
102
RTVSPropertyOp6
 70
     1
102
RTVSPropertyOp7
 70
     1
102
RTVSPropertyOp8
 70
     1
102
RTVSPropertyOp9
 70
     1
102
RTVSPropertyOp10
 70
     1
102
RTVSPropertyOp11
 70
     1
102
RTVSPropertyOp12
 70
     1
102
RTVSPropertyOp13
 70
     1
102
RTVSPropertyOp14
 70
     1
102
RTVSPropertyOp15
 70
     1
102
RTVSPropertyOp16
 70
     1
102
RTVSPropertyOp17
 70
     1
102
RTVSPropertyOp18
 70
     1
102
RTVSPropertyOp19
 70
     1
102
RTVSPropertyOp20
 70
     1
102
RTVSPropertyOp21
 70
     1
102
RTVSPropertyOp22
 70
     1
102
RTVSPropertyOp23
 70
     1
102
RTVSPropertyOp24
 70
     1
102
RTVSPropertyOp25
 70
     1
102
RTVSPropertyOp26
 70
     1
102
RTVSPropertyOp27
 70
     1
102
RTVSPropertyOp28
 70
     1
102
RTVSPropertyOp29
 70
     1
102
RTVSPropertyOp30
 70
     1
102
RTVSPropertyOp31
 70
     1
102
RTVSPropertyOp32
 70
     1
102
RTVSPropertyOp33
 70
     1
102
RTVSPropertyOp34
 70
     1
102
RTVSPropertyOp35
 70
     1
102
RTVSPropertyOp36
 70
     1
102
RTVSPropertyOp37
 70
     1
102
RTVSPropertyOp38
 70
     1
102
RTVSPropertyOp39
 70
     1
102
RTVSPropertyOp40
 70
     1
102
RTVSPropertyOp41
 70
     1
102
RTVSPropertyOp42
 70
     1
102
RTVSPropertyOp43
 70
     1
102
RTVSPropertyOp44
 70
     1
102
RTVSPropertyOp45
 70
     1
102
RTVSPropertyOp46
 70
     1
102
RTVSPropertyOp47
 70
     1
102
RTVSPropertyOp48
 70
     1
102
RTVSPropertyOp49
 70
     1
102
RTVSPropertyOp50
 70
     1
102
RTVSPropertyOp51
 70
     0
102
RTVSPropertyOp52
 70
     0
102
RTVSPropertyOp53
 70
     1
102
RTVSPropertyOp54
 70
     1
102
RTVSPropertyOp55
 70
     1
102
RTVSPropertyOp56
 70
     1
102
RTVSPropertyOp57
 70
     1
102
RTVSPropertyOp58
 70
     1
102
RTVSPropertyOp59
 70
     1
102
RTVSPropertyOp60
 70
     1
102
RTVSPropertyOp61
 70
     1
102
RTVSPropertyOp62
 70
     1
  0
XRECORD
  5
1878
102
{ACAD_REACTORS
330
1877
102
}
330
1877
100
AcDbXrecord
280
     1
102
RTVSPost2010Prop28
280
     0
102
RTVSPost2010PropOp28
 70
     1
102
RTVSPost2010Prop29
280
     1
102
RTVSPost2010PropOp29
 70
     1
102
RTVSPost2010Prop30
280
     1
102
RTVSPost2010PropOp30
 70
     1
102
RTVSPost2010Prop31
280
     0
102
RTVSPost2010PropOp31
 70
     1
102
RTVSPost2010Prop32
280
     0
102
RTVSPost2010PropOp32
 70
     1
102
RTVSPost2010Prop33
280
     0
102
RTVSPost2010PropOp33
 70
     1
102
RTVSPost2010Prop34
280
     0
102
RTVSPost2010PropOp34
 70
     1
102
RTVSPost2010Prop35
280
     0
102
RTVSPost2010PropOp35
 70
     1
102
RTVSPost2010Prop36
280
     0
102
RTVSPost2010PropOp36
 70
     1
102
RTVSPost2010Prop37
 90
       50
102
RTVSPost2010PropOp37
 70
     1
102
RTVSPost2010Prop38
140
0.0
102
RTVSPost2010PropOp38
 70
     1
102
RTVSPost2010Prop39
140
1.0
102
RTVSPost2010PropOp39
 70
     1
102
RTVSPost2010Prop40
 90
        0
102
RTVSPost2010PropOp40
 70
     1
102
RTVSPost2010Prop41ColorIndex
 90
       18
102
RTVSPost2010Prop41ColorRGB
 90
        0
102
RTVSPost2010PropOp41
 70
     1
102
RTVSPost2010Prop42
 90
       50
102
RTVSPost2010PropOp42
 70
     1
102
RTVSPost2010Prop43
 90
        3
102
RTVSPost2010PropOp43
 70
     1
102
RTVSPost2010Prop44ColorIndex
 90
        5
102
RTVSPost2010Prop44ColorRGB
 90
      255
102
RTVSPost2010PropOp44
 70
     1
102
RTVSPost2010Prop45
280
     0
102
RTVSPost2010PropOp45
 70
     1
102
RTVSPost2010Prop46
 90
       50
102
RTVSPost2010PropOp46
 70
     1
102
RTVSPost2010Prop47
 90
       50
102
RTVSPost2010PropOp47
 70
     1
102
RTVSPost2010Prop48
 90
       50
102
RTVSPost2010PropOp48
 70
     1
102
RTVSPost2010Prop49
280
     0
102
RTVSPost2010PropOp49
 70
     1
102
RTVSPost2010Prop50
 90
       50
102
RTVSPost2010PropOp50
 70
     1
102
RTVSPost2010Prop51ColorIndex
 90
      256
102
RTVSPost2010Prop51ColorRGB
 90
-16777216
102
RTVSPost2010PropOp51
 70
     0
102
RTVSPost2010Prop52
140
1.0
102
RTVSPost2010PropOp52
 70
     0
102
RTVSPost2010Prop53
 90
        2
102
RTVSPost2010PropOp53
 70
     1
102
RTVSPost2010Prop54
  1
strokes_ogs.tif
102
RTVSPost2010PropOp54
 70
     1
102
RTVSPost2010Prop55
280
     0
102
RTVSPost2010PropOp55
 70
     1
102
RTVSPost2010Prop56
140
1.0
102
RTVSPost2010PropOp56
 70
     1
102
RTVSPost2010Prop57
140
1.0
102
RTVSPost2010PropOp57
 70
     1
102
RTVSPropertyOp0
 70
     1
102
RTVSPropertyOp1
 70
     1
102
RTVSPropertyOp2
 70
     1
102
RTVSPropertyOp3
 70
     1
102
RTVSPropertyOp4
 70
     1
102
RTVSPropertyOp5
 70
     1
102
RTVSPropertyOp6
 70
     1
102
RTVSPropertyOp7
 70
     1
102
RTVSPropertyOp8
 70
     1
102
RTVSPropertyOp9
 70
     1
102
RTVSPropertyOp10
 70
     1
102
RTVSPropertyOp11
 70
     1
102
RTVSPropertyOp12
 70
     1
102
RTVSPropertyOp13
 70
     1
102
RTVSPropertyOp14
 70
     1
102
RTVSPropertyOp15
 70
     1
102
RTVSPropertyOp16
 70
     1
102
RTVSPropertyOp17
 70
     1
102
RTVSPropertyOp18
 70
     1
102
RTVSPropertyOp19
 70
     1
102
RTVSPropertyOp20
 70
     1
102
RTVSPropertyOp21
 70
     1
102
RTVSPropertyOp22
 70
     1
102
RTVSPropertyOp23
 70
     1
102
RTVSPropertyOp24
 70
     1
102
RTVSPropertyOp25
 70
     1
102
RTVSPropertyOp26
 70
     1
102
RTVSPropertyOp27
 70
     1
102
RTVSPropertyOp28
 70
     1
102
RTVSPropertyOp29
 70
     1
102
RTVSPropertyOp30
 70
     1
102
RTVSPropertyOp31
 70
     1
102
RTVSPropertyOp32
 70
     1
102
RTVSPropertyOp33
 70
     1
102
RTVSPropertyOp34
 70
     1
102
RTVSPropertyOp35
 70
     1
102
RTVSPropertyOp36
 70
     1
102
RTVSPropertyOp37
 70
     1
102
RTVSPropertyOp38
 70
     1
102
RTVSPropertyOp39
 70
     1
102
RTVSPropertyOp40
 70
     1
102
RTVSPropertyOp41
 70
     1
102
RTVSPropertyOp42
 70
     1
102
RTVSPropertyOp43
 70
     1
102
RTVSPropertyOp44
 70
     1
102
RTVSPropertyOp45
 70
     1
102
RTVSPropertyOp46
 70
     1
102
RTVSPropertyOp47
 70
     1
102
RTVSPropertyOp48
 70
     1
102
RTVSPropertyOp49
 70
     1
102
RTVSPropertyOp50
 70
     1
102
RTVSPropertyOp51
 70
     0
102
RTVSPropertyOp52
 70
     0
102
RTVSPropertyOp53
 70
     1
102
RTVSPropertyOp54
 70
     1
102
RTVSPropertyOp55
 70
     1
102
RTVSPropertyOp56
 70
     1
102
RTVSPropertyOp57
 70
     1
102
RTVSPropertyOp58
 70
     1
102
RTVSPropertyOp59
 70
     1
102
RTVSPropertyOp60
 70
     1
102
RTVSPropertyOp61
 70
     1
102
RTVSPropertyOp62
 70
     1
  0
XRECORD
  5
1886
102
{ACAD_REACTORS
330
1885
102
}
330
1885
100
AcDbXrecord
280
     1
102
RTVSPost2010Prop28
280
     0
102
RTVSPost2010PropOp28
 70
     1
102
RTVSPost2010Prop29
280
     1
102
RTVSPost2010PropOp29
 70
     1
102
RTVSPost2010Prop30
280
     1
102
RTVSPost2010PropOp30
 70
     1
102
RTVSPost2010Prop31
280
     0
102
RTVSPost2010PropOp31
 70
     1
102
RTVSPost2010Prop32
280
     0
102
RTVSPost2010PropOp32
 70
     1
102
RTVSPost2010Prop33
280
     0
102
RTVSPost2010PropOp33
 70
     1
102
RTVSPost2010Prop34
280
     0
102
RTVSPost2010PropOp34
 70
     1
102
RTVSPost2010Prop35
280
     0
102
RTVSPost2010PropOp35
 70
     1
102
RTVSPost2010Prop36
280
     0
102
RTVSPost2010PropOp36
 70
     1
102
RTVSPost2010Prop37
 90
       50
102
RTVSPost2010PropOp37
 70
     1
102
RTVSPost2010Prop38
140
0.0
102
RTVSPost2010PropOp38
 70
     1
102
RTVSPost2010Prop39
140
1.0
102
RTVSPost2010PropOp39
 70
     1
102
RTVSPost2010Prop40
 90
        0
102
RTVSPost2010PropOp40
 70
     1
102
RTVSPost2010Prop41ColorIndex
 90
       18
102
RTVSPost2010Prop41ColorRGB
 90
        0
102
RTVSPost2010PropOp41
 70
     1
102
RTVSPost2010Prop42
 90
       50
102
RTVSPost2010PropOp42
 70
     1
102
RTVSPost2010Prop43
 90
        3
102
RTVSPost2010PropOp43
 70
     1
102
RTVSPost2010Prop44ColorIndex
 90
        5
102
RTVSPost2010Prop44ColorRGB
 90
      255
102
RTVSPost2010PropOp44
 70
     1
102
RTVSPost2010Prop45
280
     0
102
RTVSPost2010PropOp45
 70
     1
102
RTVSPost2010Prop46
 90
       50
102
RTVSPost2010PropOp46
 70
     1
102
RTVSPost2010Prop47
 90
       50
102
RTVSPost2010PropOp47
 70
     1
102
RTVSPost2010Prop48
 90
       50
102
RTVSPost2010PropOp48
 70
     1
102
RTVSPost2010Prop49
280
     0
102
RTVSPost2010PropOp49
 70
     1
102
RTVSPost2010Prop50
 90
       50
102
RTVSPost2010PropOp50
 70
     1
102
RTVSPost2010Prop51ColorIndex
 90
      256
102
RTVSPost2010Prop51ColorRGB
 90
-16777216
102
RTVSPost2010PropOp51
 70
     0
102
RTVSPost2010Prop52
140
1.0
102
RTVSPost2010PropOp52
 70
     0
102
RTVSPost2010Prop53
 90
        2
102
RTVSPost2010PropOp53
 70
     1
102
RTVSPost2010Prop54
  1
strokes_ogs.tif
102
RTVSPost2010PropOp54
 70
     1
102
RTVSPost2010Prop55
280
     0
102
RTVSPost2010PropOp55
 70
     1
102
RTVSPost2010Prop56
140
1.0
102
RTVSPost2010PropOp56
 70
     1
102
RTVSPost2010Prop57
140
1.0
102
RTVSPost2010PropOp57
 70
     1
102
RTVSPropertyOp0
 70
     1
102
RTVSPropertyOp1
 70
     1
102
RTVSPropertyOp2
 70
     1
102
RTVSPropertyOp3
 70
     1
102
RTVSPropertyOp4
 70
     1
102
RTVSPropertyOp5
 70
     1
102
RTVSPropertyOp6
 70
     1
102
RTVSPropertyOp7
 70
     1
102
RTVSPropertyOp8
 70
     1
102
RTVSPropertyOp9
 70
     1
102
RTVSPropertyOp10
 70
     1
102
RTVSPropertyOp11
 70
     1
102
RTVSPropertyOp12
 70
     1
102
RTVSPropertyOp13
 70
     1
102
RTVSPropertyOp14
 70
     1
102
RTVSPropertyOp15
 70
     1
102
RTVSPropertyOp16
 70
     1
102
RTVSPropertyOp17
 70
     1
102
RTVSPropertyOp18
 70
     1
102
RTVSPropertyOp19
 70
     1
102
RTVSPropertyOp20
 70
     1
102
RTVSPropertyOp21
 70
     1
102
RTVSPropertyOp22
 70
     1
102
RTVSPropertyOp23
 70
     1
102
RTVSPropertyOp24
 70
     1
102
RTVSPropertyOp25
 70
     1
102
RTVSPropertyOp26
 70
     1
102
RTVSPropertyOp27
 70
     1
102
RTVSPropertyOp28
 70
     1
102
RTVSPropertyOp29
 70
     1
102
RTVSPropertyOp30
 70
     1
102
RTVSPropertyOp31
 70
     1
102
RTVSPropertyOp32
 70
     1
102
RTVSPropertyOp33
 70
     1
102
RTVSPropertyOp34
 70
     1
102
RTVSPropertyOp35
 70
     1
102
RTVSPropertyOp36
 70
     1
102
RTVSPropertyOp37
 70
     1
102
RTVSPropertyOp38
 70
     1
102
RTVSPropertyOp39
 70
     1
102
RTVSPropertyOp40
 70
     1
102
RTVSPropertyOp41
 70
     1
102
RTVSPropertyOp42
 70
     1
102
RTVSPropertyOp43
 70
     1
102
RTVSPropertyOp44
 70
     1
102
RTVSPropertyOp45
 70
     1
102
RTVSPropertyOp46
 70
     1
102
RTVSPropertyOp47
 70
     1
102
RTVSPropertyOp48
 70
     1
102
RTVSPropertyOp49
 70
     1
102
RTVSPropertyOp50
 70
     1
102
RTVSPropertyOp51
 70
     0
102
RTVSPropertyOp52
 70
     0
102
RTVSPropertyOp53
 70
     1
102
RTVSPropertyOp54
 70
     1
102
RTVSPropertyOp55
 70
     1
102
RTVSPropertyOp56
 70
     1
102
RTVSPropertyOp57
 70
     1
102
RTVSPropertyOp58
 70
     1
102
RTVSPropertyOp59
 70
     1
102
RTVSPropertyOp60
 70
     1
102
RTVSPropertyOp61
 70
     1
102
RTVSPropertyOp62
 70
     1
  0
XRECORD
  5
188E
102
{ACAD_REACTORS
330
188D
102
}
330
188D
100
AcDbXrecord
280
     1
102
RTVSPost2010Prop28
280
     0
102
RTVSPost2010PropOp28
 70
     1
102
RTVSPost2010Prop29
280
     1
102
RTVSPost2010PropOp29
 70
     1
102
RTVSPost2010Prop30
280
     1
102
RTVSPost2010PropOp30
 70
     1
102
RTVSPost2010Prop31
280
     0
102
RTVSPost2010PropOp31
 70
     1
102
RTVSPost2010Prop32
280
     0
102
RTVSPost2010PropOp32
 70
     1
102
RTVSPost2010Prop33
280
     0
102
RTVSPost2010PropOp33
 70
     1
102
RTVSPost2010Prop34
280
     0
102
RTVSPost2010PropOp34
 70
     1
102
RTVSPost2010Prop35
280
     0
102
RTVSPost2010PropOp35
 70
     1
102
RTVSPost2010Prop36
280
     0
102
RTVSPost2010PropOp36
 70
     1
102
RTVSPost2010Prop37
 90
       50
102
RTVSPost2010PropOp37
 70
     1
102
RTVSPost2010Prop38
140
0.0
102
RTVSPost2010PropOp38
 70
     1
102
RTVSPost2010Prop39
140
1.0
102
RTVSPost2010PropOp39
 70
     1
102
RTVSPost2010Prop40
 90
        0
102
RTVSPost2010PropOp40
 70
     1
102
RTVSPost2010Prop41ColorIndex
 90
       18
102
RTVSPost2010Prop41ColorRGB
 90
        0
102
RTVSPost2010PropOp41
 70
     1
102
RTVSPost2010Prop42
 90
       50
102
RTVSPost2010PropOp42
 70
     1
102
RTVSPost2010Prop43
 90
        3
102
RTVSPost2010PropOp43
 70
     1
102
RTVSPost2010Prop44ColorIndex
 90
        5
102
RTVSPost2010Prop44ColorRGB
 90
      255
102
RTVSPost2010PropOp44
 70
     1
102
RTVSPost2010Prop45
280
     0
102
RTVSPost2010PropOp45
 70
     1
102
RTVSPost2010Prop46
 90
       50
102
RTVSPost2010PropOp46
 70
     1
102
RTVSPost2010Prop47
 90
       50
102
RTVSPost2010PropOp47
 70
     1
102
RTVSPost2010Prop48
 90
       50
102
RTVSPost2010PropOp48
 70
     1
102
RTVSPost2010Prop49
280
     0
102
RTVSPost2010PropOp49
 70
     1
102
RTVSPost2010Prop50
 90
       50
102
RTVSPost2010PropOp50
 70
     1
102
RTVSPost2010Prop51ColorIndex
 90
      256
102
RTVSPost2010Prop51ColorRGB
 90
-16777216
102
RTVSPost2010PropOp51
 70
     0
102
RTVSPost2010Prop52
140
1.0
102
RTVSPost2010PropOp52
 70
     0
102
RTVSPost2010Prop53
 90
        2
102
RTVSPost2010PropOp53
 70
     1
102
RTVSPost2010Prop54
  1
strokes_ogs.tif
102
RTVSPost2010PropOp54
 70
     1
102
RTVSPost2010Prop55
280
     0
102
RTVSPost2010PropOp55
 70
     1
102
RTVSPost2010Prop56
140
1.0
102
RTVSPost2010PropOp56
 70
     1
102
RTVSPost2010Prop57
140
1.0
102
RTVSPost2010PropOp57
 70
     1
102
RTVSPropertyOp0
 70
     1
102
RTVSPropertyOp1
 70
     1
102
RTVSPropertyOp2
 70
     1
102
RTVSPropertyOp3
 70
     1
102
RTVSPropertyOp4
 70
     1
102
RTVSPropertyOp5
 70
     1
102
RTVSPropertyOp6
 70
     1
102
RTVSPropertyOp7
 70
     1
102
RTVSPropertyOp8
 70
     1
102
RTVSPropertyOp9
 70
     1
102
RTVSPropertyOp10
 70
     1
102
RTVSPropertyOp11
 70
     1
102
RTVSPropertyOp12
 70
     1
102
RTVSPropertyOp13
 70
     1
102
RTVSPropertyOp14
 70
     1
102
RTVSPropertyOp15
 70
     1
102
RTVSPropertyOp16
 70
     1
102
RTVSPropertyOp17
 70
     1
102
RTVSPropertyOp18
 70
     1
102
RTVSPropertyOp19
 70
     1
102
RTVSPropertyOp20
 70
     1
102
RTVSPropertyOp21
 70
     1
102
RTVSPropertyOp22
 70
     1
102
RTVSPropertyOp23
 70
     1
102
RTVSPropertyOp24
 70
     1
102
RTVSPropertyOp25
 70
     1
102
RTVSPropertyOp26
 70
     1
102
RTVSPropertyOp27
 70
     1
102
RTVSPropertyOp28
 70
     1
102
RTVSPropertyOp29
 70
     1
102
RTVSPropertyOp30
 70
     1
102
RTVSPropertyOp31
 70
     1
102
RTVSPropertyOp32
 70
     1
102
RTVSPropertyOp33
 70
     1
102
RTVSPropertyOp34
 70
     1
102
RTVSPropertyOp35
 70
     1
102
RTVSPropertyOp36
 70
     1
102
RTVSPropertyOp37
 70
     1
102
RTVSPropertyOp38
 70
     1
102
RTVSPropertyOp39
 70
     1
102
RTVSPropertyOp40
 70
     1
102
RTVSPropertyOp41
 70
     1
102
RTVSPropertyOp42
 70
     1
102
RTVSPropertyOp43
 70
     1
102
RTVSPropertyOp44
 70
     1
102
RTVSPropertyOp45
 70
     1
102
RTVSPropertyOp46
 70
     1
102
RTVSPropertyOp47
 70
     1
102
RTVSPropertyOp48
 70
     1
102
RTVSPropertyOp49
 70
     1
102
RTVSPropertyOp50
 70
     1
102
RTVSPropertyOp51
 70
     0
102
RTVSPropertyOp52
 70
     0
102
RTVSPropertyOp53
 70
     1
102
RTVSPropertyOp54
 70
     1
102
RTVSPropertyOp55
 70
     1
102
RTVSPropertyOp56
 70
     1
102
RTVSPropertyOp57
 70
     1
102
RTVSPropertyOp58
 70
     1
102
RTVSPropertyOp59
 70
     1
102
RTVSPropertyOp60
 70
     1
102
RTVSPropertyOp61
 70
     1
102
RTVSPropertyOp62
 70
     1
  0
XRECORD
  5
1880
102
{ACAD_REACTORS
330
187F
102
}
330
187F
100
AcDbXrecord
280
     1
102
RTVSPost2010Prop28
280
     0
102
RTVSPost2010PropOp28
 70
     1
102
RTVSPost2010Prop29
280
     1
102
RTVSPost2010PropOp29
 70
     1
102
RTVSPost2010Prop30
280
     1
102
RTVSPost2010PropOp30
 70
     1
102
RTVSPost2010Prop31
280
     0
102
RTVSPost2010PropOp31
 70
     1
102
RTVSPost2010Prop32
280
     0
102
RTVSPost2010PropOp32
 70
     1
102
RTVSPost2010Prop33
280
     0
102
RTVSPost2010PropOp33
 70
     1
102
RTVSPost2010Prop34
280
     0
102
RTVSPost2010PropOp34
 70
     1
102
RTVSPost2010Prop35
280
     0
102
RTVSPost2010PropOp35
 70
     1
102
RTVSPost2010Prop36
280
     0
102
RTVSPost2010PropOp36
 70
     1
102
RTVSPost2010Prop37
 90
       50
102
RTVSPost2010PropOp37
 70
     1
102
RTVSPost2010Prop38
140
0.0
102
RTVSPost2010PropOp38
 70
     1
102
RTVSPost2010Prop39
140
1.0
102
RTVSPost2010PropOp39
 70
     1
102
RTVSPost2010Prop40
 90
        0
102
RTVSPost2010PropOp40
 70
     1
102
RTVSPost2010Prop41ColorIndex
 90
       18
102
RTVSPost2010Prop41ColorRGB
 90
        0
102
RTVSPost2010PropOp41
 70
     1
102
RTVSPost2010Prop42
 90
       50
102
RTVSPost2010PropOp42
 70
     1
102
RTVSPost2010Prop43
 90
        3
102
RTVSPost2010PropOp43
 70
     1
102
RTVSPost2010Prop44ColorIndex
 90
        5
102
RTVSPost2010Prop44ColorRGB
 90
      255
102
RTVSPost2010PropOp44
 70
     1
102
RTVSPost2010Prop45
280
     0
102
RTVSPost2010PropOp45
 70
     1
102
RTVSPost2010Prop46
 90
       50
102
RTVSPost2010PropOp46
 70
     1
102
RTVSPost2010Prop47
 90
       50
102
RTVSPost2010PropOp47
 70
     1
102
RTVSPost2010Prop48
 90
       50
102
RTVSPost2010PropOp48
 70
     1
102
RTVSPost2010Prop49
280
     0
102
RTVSPost2010PropOp49
 70
     1
102
RTVSPost2010Prop50
 90
       50
102
RTVSPost2010PropOp50
 70
     1
102
RTVSPost2010Prop51ColorIndex
 90
      256
102
RTVSPost2010Prop51ColorRGB
 90
-16777216
102
RTVSPost2010PropOp51
 70
     0
102
RTVSPost2010Prop52
140
1.0
102
RTVSPost2010PropOp52
 70
     0
102
RTVSPost2010Prop53
 90
        2
102
RTVSPost2010PropOp53
 70
     1
102
RTVSPost2010Prop54
  1
strokes_ogs.tif
102
RTVSPost2010PropOp54
 70
     1
102
RTVSPost2010Prop55
280
     0
102
RTVSPost2010PropOp55
 70
     1
102
RTVSPost2010Prop56
140
1.0
102
RTVSPost2010PropOp56
 70
     1
102
RTVSPost2010Prop57
140
1.0
102
RTVSPost2010PropOp57
 70
     1
102
RTVSPropertyOp0
 70
     1
102
RTVSPropertyOp1
 70
     1
102
RTVSPropertyOp2
 70
     1
102
RTVSPropertyOp3
 70
     1
102
RTVSPropertyOp4
 70
     1
102
RTVSPropertyOp5
 70
     1
102
RTVSPropertyOp6
 70
     1
102
RTVSPropertyOp7
 70
     1
102
RTVSPropertyOp8
 70
     1
102
RTVSPropertyOp9
 70
     1
102
RTVSPropertyOp10
 70
     1
102
RTVSPropertyOp11
 70
     1
102
RTVSPropertyOp12
 70
     1
102
RTVSPropertyOp13
 70
     1
102
RTVSPropertyOp14
 70
     1
102
RTVSPropertyOp15
 70
     1
102
RTVSPropertyOp16
 70
     1
102
RTVSPropertyOp17
 70
     1
102
RTVSPropertyOp18
 70
     1
102
RTVSPropertyOp19
 70
     1
102
RTVSPropertyOp20
 70
     1
102
RTVSPropertyOp21
 70
     1
102
RTVSPropertyOp22
 70
     1
102
RTVSPropertyOp23
 70
     1
102
RTVSPropertyOp24
 70
     1
102
RTVSPropertyOp25
 70
     1
102
RTVSPropertyOp26
 70
     1
102
RTVSPropertyOp27
 70
     1
102
RTVSPropertyOp28
 70
     1
102
RTVSPropertyOp29
 70
     1
102
RTVSPropertyOp30
 70
     1
102
RTVSPropertyOp31
 70
     1
102
RTVSPropertyOp32
 70
     1
102
RTVSPropertyOp33
 70
     1
102
RTVSPropertyOp34
 70
     1
102
RTVSPropertyOp35
 70
     1
102
RTVSPropertyOp36
 70
     1
102
RTVSPropertyOp37
 70
     1
102
RTVSPropertyOp38
 70
     1
102
RTVSPropertyOp39
 70
     1
102
RTVSPropertyOp40
 70
     1
102
RTVSPropertyOp41
 70
     1
102
RTVSPropertyOp42
 70
     1
102
RTVSPropertyOp43
 70
     1
102
RTVSPropertyOp44
 70
     1
102
RTVSPropertyOp45
 70
     1
102
RTVSPropertyOp46
 70
     1
102
RTVSPropertyOp47
 70
     1
102
RTVSPropertyOp48
 70
     1
102
RTVSPropertyOp49
 70
     1
102
RTVSPropertyOp50
 70
     1
102
RTVSPropertyOp51
 70
     0
102
RTVSPropertyOp52
 70
     0
102
RTVSPropertyOp53
 70
     1
102
RTVSPropertyOp54
 70
     1
102
RTVSPropertyOp55
 70
     1
102
RTVSPropertyOp56
 70
     1
102
RTVSPropertyOp57
 70
     1
102
RTVSPropertyOp58
 70
     1
102
RTVSPropertyOp59
 70
     1
102
RTVSPropertyOp60
 70
     1
102
RTVSPropertyOp61
 70
     1
102
RTVSPropertyOp62
 70
     1
  0
XRECORD
  5
1884
102
{ACAD_REACTORS
330
1883
102
}
330
1883
100
AcDbXrecord
280
     1
102
RTVSPost2010Prop28
280
     0
102
RTVSPost2010PropOp28
 70
     1
102
RTVSPost2010Prop29
280
     1
102
RTVSPost2010PropOp29
 70
     1
102
RTVSPost2010Prop30
280
     1
102
RTVSPost2010PropOp30
 70
     1
102
RTVSPost2010Prop31
280
     0
102
RTVSPost2010PropOp31
 70
     1
102
RTVSPost2010Prop32
280
     0
102
RTVSPost2010PropOp32
 70
     1
102
RTVSPost2010Prop33
280
     0
102
RTVSPost2010PropOp33
 70
     1
102
RTVSPost2010Prop34
280
     0
102
RTVSPost2010PropOp34
 70
     1
102
RTVSPost2010Prop35
280
     0
102
RTVSPost2010PropOp35
 70
     1
102
RTVSPost2010Prop36
280
     0
102
RTVSPost2010PropOp36
 70
     1
102
RTVSPost2010Prop37
 90
       50
102
RTVSPost2010PropOp37
 70
     1
102
RTVSPost2010Prop38
140
0.0
102
RTVSPost2010PropOp38
 70
     1
102
RTVSPost2010Prop39
140
1.0
102
RTVSPost2010PropOp39
 70
     1
102
RTVSPost2010Prop40
 90
        0
102
RTVSPost2010PropOp40
 70
     1
102
RTVSPost2010Prop41ColorIndex
 90
       18
102
RTVSPost2010Prop41ColorRGB
 90
        0
102
RTVSPost2010PropOp41
 70
     1
102
RTVSPost2010Prop42
 90
       50
102
RTVSPost2010PropOp42
 70
     1
102
RTVSPost2010Prop43
 90
        3
102
RTVSPost2010PropOp43
 70
     1
102
RTVSPost2010Prop44ColorIndex
 90
        5
102
RTVSPost2010Prop44ColorRGB
 90
      255
102
RTVSPost2010PropOp44
 70
     1
102
RTVSPost2010Prop45
280
     0
102
RTVSPost2010PropOp45
 70
     1
102
RTVSPost2010Prop46
 90
       50
102
RTVSPost2010PropOp46
 70
     1
102
RTVSPost2010Prop47
 90
       50
102
RTVSPost2010PropOp47
 70
     1
102
RTVSPost2010Prop48
 90
       50
102
RTVSPost2010PropOp48
 70
     1
102
RTVSPost2010Prop49
280
     0
102
RTVSPost2010PropOp49
 70
     1
102
RTVSPost2010Prop50
 90
       50
102
RTVSPost2010PropOp50
 70
     1
102
RTVSPost2010Prop51ColorIndex
 90
      256
102
RTVSPost2010Prop51ColorRGB
 90
-16777216
102
RTVSPost2010PropOp51
 70
     0
102
RTVSPost2010Prop52
140
1.0
102
RTVSPost2010PropOp52
 70
     0
102
RTVSPost2010Prop53
 90
        2
102
RTVSPost2010PropOp53
 70
     1
102
RTVSPost2010Prop54
  1
strokes_ogs.tif
102
RTVSPost2010PropOp54
 70
     1
102
RTVSPost2010Prop55
280
     0
102
RTVSPost2010PropOp55
 70
     1
102
RTVSPost2010Prop56
140
1.0
102
RTVSPost2010PropOp56
 70
     1
102
RTVSPost2010Prop57
140
1.0
102
RTVSPost2010PropOp57
 70
     1
102
RTVSPropertyOp0
 70
     1
102
RTVSPropertyOp1
 70
     1
102
RTVSPropertyOp2
 70
     1
102
RTVSPropertyOp3
 70
     1
102
RTVSPropertyOp4
 70
     1
102
RTVSPropertyOp5
 70
     1
102
RTVSPropertyOp6
 70
     1
102
RTVSPropertyOp7
 70
     1
102
RTVSPropertyOp8
 70
     1
102
RTVSPropertyOp9
 70
     1
102
RTVSPropertyOp10
 70
     1
102
RTVSPropertyOp11
 70
     1
102
RTVSPropertyOp12
 70
     1
102
RTVSPropertyOp13
 70
     1
102
RTVSPropertyOp14
 70
     1
102
RTVSPropertyOp15
 70
     1
102
RTVSPropertyOp16
 70
     1
102
RTVSPropertyOp17
 70
     1
102
RTVSPropertyOp18
 70
     1
102
RTVSPropertyOp19
 70
     1
102
RTVSPropertyOp20
 70
     1
102
RTVSPropertyOp21
 70
     1
102
RTVSPropertyOp22
 70
     1
102
RTVSPropertyOp23
 70
     1
102
RTVSPropertyOp24
 70
     1
102
RTVSPropertyOp25
 70
     1
102
RTVSPropertyOp26
 70
     1
102
RTVSPropertyOp27
 70
     1
102
RTVSPropertyOp28
 70
     1
102
RTVSPropertyOp29
 70
     1
102
RTVSPropertyOp30
 70
     1
102
RTVSPropertyOp31
 70
     1
102
RTVSPropertyOp32
 70
     1
102
RTVSPropertyOp33
 70
     1
102
RTVSPropertyOp34
 70
     1
102
RTVSPropertyOp35
 70
     1
102
RTVSPropertyOp36
 70
     1
102
RTVSPropertyOp37
 70
     1
102
RTVSPropertyOp38
 70
     1
102
RTVSPropertyOp39
 70
     1
102
RTVSPropertyOp40
 70
     1
102
RTVSPropertyOp41
 70
     1
102
RTVSPropertyOp42
 70
     1
102
RTVSPropertyOp43
 70
     1
102
RTVSPropertyOp44
 70
     1
102
RTVSPropertyOp45
 70
     1
102
RTVSPropertyOp46
 70
     1
102
RTVSPropertyOp47
 70
     1
102
RTVSPropertyOp48
 70
     1
102
RTVSPropertyOp49
 70
     1
102
RTVSPropertyOp50
 70
     1
102
RTVSPropertyOp51
 70
     0
102
RTVSPropertyOp52
 70
     0
102
RTVSPropertyOp53
 70
     1
102
RTVSPropertyOp54
 70
     1
102
RTVSPropertyOp55
 70
     1
102
RTVSPropertyOp56
 70
     1
102
RTVSPropertyOp57
 70
     1
102
RTVSPropertyOp58
 70
     1
102
RTVSPropertyOp59
 70
     1
102
RTVSPropertyOp60
 70
     1
102
RTVSPropertyOp61
 70
     1
102
RTVSPropertyOp62
 70
     1
  0
XRECORD
  5
1894
102
{ACAD_REACTORS
330
1893
102
}
330
1893
100
AcDbXrecord
280
     1
102
RTVSPost2010Prop28
280
     0
102
RTVSPost2010PropOp28
 70
     1
102
RTVSPost2010Prop29
280
     1
102
RTVSPost2010PropOp29
 70
     1
102
RTVSPost2010Prop30
280
     1
102
RTVSPost2010PropOp30
 70
     1
102
RTVSPost2010Prop31
280
     0
102
RTVSPost2010PropOp31
 70
     1
102
RTVSPost2010Prop32
280
     0
102
RTVSPost2010PropOp32
 70
     1
102
RTVSPost2010Prop33
280
     0
102
RTVSPost2010PropOp33
 70
     1
102
RTVSPost2010Prop34
280
     0
102
RTVSPost2010PropOp34
 70
     1
102
RTVSPost2010Prop35
280
     0
102
RTVSPost2010PropOp35
 70
     1
102
RTVSPost2010Prop36
280
     0
102
RTVSPost2010PropOp36
 70
     1
102
RTVSPost2010Prop37
 90
       50
102
RTVSPost2010PropOp37
 70
     1
102
RTVSPost2010Prop38
140
0.0
102
RTVSPost2010PropOp38
 70
     1
102
RTVSPost2010Prop39
140
1.0
102
RTVSPost2010PropOp39
 70
     1
102
RTVSPost2010Prop40
 90
        0
102
RTVSPost2010PropOp40
 70
     1
102
RTVSPost2010Prop41ColorIndex
 90
       18
102
RTVSPost2010Prop41ColorRGB
 90
        0
102
RTVSPost2010PropOp41
 70
     1
102
RTVSPost2010Prop42
 90
       50
102
RTVSPost2010PropOp42
 70
     1
102
RTVSPost2010Prop43
 90
        3
102
RTVSPost2010PropOp43
 70
     1
102
RTVSPost2010Prop44ColorIndex
 90
        5
102
RTVSPost2010Prop44ColorRGB
 90
      255
102
RTVSPost2010PropOp44
 70
     1
102
RTVSPost2010Prop45
280
     0
102
RTVSPost2010PropOp45
 70
     1
102
RTVSPost2010Prop46
 90
       50
102
RTVSPost2010PropOp46
 70
     1
102
RTVSPost2010Prop47
 90
       50
102
RTVSPost2010PropOp47
 70
     1
102
RTVSPost2010Prop48
 90
       50
102
RTVSPost2010PropOp48
 70
     1
102
RTVSPost2010Prop49
280
     0
102
RTVSPost2010PropOp49
 70
     1
102
RTVSPost2010Prop50
 90
       50
102
RTVSPost2010PropOp50
 70
     1
102
RTVSPost2010Prop51ColorIndex
 90
      256
102
RTVSPost2010Prop51ColorRGB
 90
-16777216
102
RTVSPost2010PropOp51
 70
     0
102
RTVSPost2010Prop52
140
1.0
102
RTVSPost2010PropOp52
 70
     0
102
RTVSPost2010Prop53
 90
        2
102
RTVSPost2010PropOp53
 70
     1
102
RTVSPost2010Prop54
  1
strokes_ogs.tif
102
RTVSPost2010PropOp54
 70
     1
102
RTVSPost2010Prop55
280
     0
102
RTVSPost2010PropOp55
 70
     1
102
RTVSPost2010Prop56
140
1.0
102
RTVSPost2010PropOp56
 70
     1
102
RTVSPost2010Prop57
140
1.0
102
RTVSPost2010PropOp57
 70
     1
102
RTVSPropertyOp0
 70
     0
102
RTVSPropertyOp1
 70
     0
102
RTVSPropertyOp2
 70
     0
102
RTVSPropertyOp3
 70
     0
102
RTVSPropertyOp4
 70
     0
102
RTVSPropertyOp5
 70
     0
102
RTVSPropertyOp6
 70
     0
102
RTVSPropertyOp7
 70
     0
102
RTVSPropertyOp8
 70
     0
102
RTVSPropertyOp9
 70
     0
102
RTVSPropertyOp10
 70
     0
102
RTVSPropertyOp11
 70
     0
102
RTVSPropertyOp12
 70
     0
102
RTVSPropertyOp13
 70
     0
102
RTVSPropertyOp14
 70
     2
102
RTVSPropertyOp15
 70
     0
102
RTVSPropertyOp16
 70
     0
102
RTVSPropertyOp17
 70
     0
102
RTVSPropertyOp18
 70
     0
102
RTVSPropertyOp19
 70
     0
102
RTVSPropertyOp20
 70
     0
102
RTVSPropertyOp21
 70
     0
102
RTVSPropertyOp22
 70
     0
102
RTVSPropertyOp23
 70
     0
102
RTVSPropertyOp24
 70
     0
102
RTVSPropertyOp25
 70
     0
102
RTVSPropertyOp26
 70
     0
102
RTVSPropertyOp27
 70
     0
102
RTVSPropertyOp28
 70
     1
102
RTVSPropertyOp29
 70
     1
102
RTVSPropertyOp30
 70
     1
102
RTVSPropertyOp31
 70
     1
102
RTVSPropertyOp32
 70
     1
102
RTVSPropertyOp33
 70
     1
102
RTVSPropertyOp34
 70
     1
102
RTVSPropertyOp35
 70
     1
102
RTVSPropertyOp36
 70
     1
102
RTVSPropertyOp37
 70
     1
102
RTVSPropertyOp38
 70
     1
102
RTVSPropertyOp39
 70
     1
102
RTVSPropertyOp40
 70
     1
102
RTVSPropertyOp41
 70
     1
102
RTVSPropertyOp42
 70
     1
102
RTVSPropertyOp43
 70
     1
102
RTVSPropertyOp44
 70
     1
102
RTVSPropertyOp45
 70
     1
102
RTVSPropertyOp46
 70
     1
102
RTVSPropertyOp47
 70
     1
102
RTVSPropertyOp48
 70
     1
102
RTVSPropertyOp49
 70
     1
102
RTVSPropertyOp50
 70
     1
102
RTVSPropertyOp51
 70
     0
102
RTVSPropertyOp52
 70
     0
102
RTVSPropertyOp53
 70
     1
102
RTVSPropertyOp54
 70
     1
102
RTVSPropertyOp55
 70
     1
102
RTVSPropertyOp56
 70
     1
102
RTVSPropertyOp57
 70
     1
102
RTVSPropertyOp58
 70
     1
102
RTVSPropertyOp59
 70
     1
102
RTVSPropertyOp60
 70
     1
102
RTVSPropertyOp61
 70
     1
102
RTVSPropertyOp62
 70
     1
  0
XRECORD
  5
188C
102
{ACAD_REACTORS
330
188B
102
}
330
188B
100
AcDbXrecord
280
     1
102
RTVSPost2010Prop28
280
     0
102
RTVSPost2010PropOp28
 70
     1
102
RTVSPost2010Prop29
280
     1
102
RTVSPost2010PropOp29
 70
     1
102
RTVSPost2010Prop30
280
     1
102
RTVSPost2010PropOp30
 70
     1
102
RTVSPost2010Prop31
280
     0
102
RTVSPost2010PropOp31
 70
     1
102
RTVSPost2010Prop32
280
     0
102
RTVSPost2010PropOp32
 70
     1
102
RTVSPost2010Prop33
280
     0
102
RTVSPost2010PropOp33
 70
     1
102
RTVSPost2010Prop34
280
     0
102
RTVSPost2010PropOp34
 70
     1
102
RTVSPost2010Prop35
280
     0
102
RTVSPost2010PropOp35
 70
     1
102
RTVSPost2010Prop36
280
     0
102
RTVSPost2010PropOp36
 70
     1
102
RTVSPost2010Prop37
 90
       50
102
RTVSPost2010PropOp37
 70
     1
102
RTVSPost2010Prop38
140
0.0
102
RTVSPost2010PropOp38
 70
     1
102
RTVSPost2010Prop39
140
1.0
102
RTVSPost2010PropOp39
 70
     1
102
RTVSPost2010Prop40
 90
        0
102
RTVSPost2010PropOp40
 70
     1
102
RTVSPost2010Prop41ColorIndex
 90
       18
102
RTVSPost2010Prop41ColorRGB
 90
        0
102
RTVSPost2010PropOp41
 70
     1
102
RTVSPost2010Prop42
 90
       50
102
RTVSPost2010PropOp42
 70
     1
102
RTVSPost2010Prop43
 90
        3
102
RTVSPost2010PropOp43
 70
     1
102
RTVSPost2010Prop44ColorIndex
 90
        5
102
RTVSPost2010Prop44ColorRGB
 90
      255
102
RTVSPost2010PropOp44
 70
     1
102
RTVSPost2010Prop45
280
     0
102
RTVSPost2010PropOp45
 70
     1
102
RTVSPost2010Prop46
 90
       50
102
RTVSPost2010PropOp46
 70
     1
102
RTVSPost2010Prop47
 90
       50
102
RTVSPost2010PropOp47
 70
     1
102
RTVSPost2010Prop48
 90
       50
102
RTVSPost2010PropOp48
 70
     1
102
RTVSPost2010Prop49
280
     0
102
RTVSPost2010PropOp49
 70
     1
102
RTVSPost2010Prop50
 90
       50
102
RTVSPost2010PropOp50
 70
     1
102
RTVSPost2010Prop51ColorIndex
 90
      256
102
RTVSPost2010Prop51ColorRGB
 90
-16777216
102
RTVSPost2010PropOp51
 70
     0
102
RTVSPost2010Prop52
140
1.0
102
RTVSPost2010PropOp52
 70
     0
102
RTVSPost2010Prop53
 90
        2
102
RTVSPost2010PropOp53
 70
     1
102
RTVSPost2010Prop54
  1
strokes_ogs.tif
102
RTVSPost2010PropOp54
 70
     1
102
RTVSPost2010Prop55
280
     0
102
RTVSPost2010PropOp55
 70
     1
102
RTVSPost2010Prop56
140
1.0
102
RTVSPost2010PropOp56
 70
     1
102
RTVSPost2010Prop57
140
1.0
102
RTVSPost2010PropOp57
 70
     1
102
RTVSPropertyOp0
 70
     1
102
RTVSPropertyOp1
 70
     1
102
RTVSPropertyOp2
 70
     1
102
RTVSPropertyOp3
 70
     1
102
RTVSPropertyOp4
 70
     1
102
RTVSPropertyOp5
 70
     1
102
RTVSPropertyOp6
 70
     1
102
RTVSPropertyOp7
 70
     1
102
RTVSPropertyOp8
 70
     1
102
RTVSPropertyOp9
 70
     1
102
RTVSPropertyOp10
 70
     1
102
RTVSPropertyOp11
 70
     1
102
RTVSPropertyOp12
 70
     1
102
RTVSPropertyOp13
 70
     1
102
RTVSPropertyOp14
 70
     1
102
RTVSPropertyOp15
 70
     1
102
RTVSPropertyOp16
 70
     1
102
RTVSPropertyOp17
 70
     1
102
RTVSPropertyOp18
 70
     1
102
RTVSPropertyOp19
 70
     1
102
RTVSPropertyOp20
 70
     1
102
RTVSPropertyOp21
 70
     1
102
RTVSPropertyOp22
 70
     1
102
RTVSPropertyOp23
 70
     1
102
RTVSPropertyOp24
 70
     1
102
RTVSPropertyOp25
 70
     1
102
RTVSPropertyOp26
 70
     1
102
RTVSPropertyOp27
 70
     1
102
RTVSPropertyOp28
 70
     1
102
RTVSPropertyOp29
 70
     1
102
RTVSPropertyOp30
 70
     1
102
RTVSPropertyOp31
 70
     1
102
RTVSPropertyOp32
 70
     1
102
RTVSPropertyOp33
 70
     1
102
RTVSPropertyOp34
 70
     1
102
RTVSPropertyOp35
 70
     1
102
RTVSPropertyOp36
 70
     1
102
RTVSPropertyOp37
 70
     1
102
RTVSPropertyOp38
 70
     1
102
RTVSPropertyOp39
 70
     1
102
RTVSPropertyOp40
 70
     1
102
RTVSPropertyOp41
 70
     1
102
RTVSPropertyOp42
 70
     1
102
RTVSPropertyOp43
 70
     1
102
RTVSPropertyOp44
 70
     1
102
RTVSPropertyOp45
 70
     1
102
RTVSPropertyOp46
 70
     1
102
RTVSPropertyOp47
 70
     1
102
RTVSPropertyOp48
 70
     1
102
RTVSPropertyOp49
 70
     1
102
RTVSPropertyOp50
 70
     1
102
RTVSPropertyOp51
 70
     0
102
RTVSPropertyOp52
 70
     0
102
RTVSPropertyOp53
 70
     1
102
RTVSPropertyOp54
 70
     1
102
RTVSPropertyOp55
 70
     1
102
RTVSPropertyOp56
 70
     1
102
RTVSPropertyOp57
 70
     1
102
RTVSPropertyOp58
 70
     1
102
RTVSPropertyOp59
 70
     1
102
RTVSPropertyOp60
 70
     1
102
RTVSPropertyOp61
 70
     1
102
RTVSPropertyOp62
 70
     1
  0
XRECORD
  5
1870
102
{ACAD_REACTORS
330
186F
102
}
330
186F
100
AcDbXrecord
280
     1
102
RTVSPost2010Prop28
280
     0
102
RTVSPost2010PropOp28
 70
     1
102
RTVSPost2010Prop29
280
     1
102
RTVSPost2010PropOp29
 70
     1
102
RTVSPost2010Prop30
280
     1
102
RTVSPost2010PropOp30
 70
     1
102
RTVSPost2010Prop31
280
     0
102
RTVSPost2010PropOp31
 70
     1
102
RTVSPost2010Prop32
280
     0
102
RTVSPost2010PropOp32
 70
     1
102
RTVSPost2010Prop33
280
     0
102
RTVSPost2010PropOp33
 70
     1
102
RTVSPost2010Prop34
280
     0
102
RTVSPost2010PropOp34
 70
     1
102
RTVSPost2010Prop35
280
     0
102
RTVSPost2010PropOp35
 70
     1
102
RTVSPost2010Prop36
280
     0
102
RTVSPost2010PropOp36
 70
     1
102
RTVSPost2010Prop37
 90
       50
102
RTVSPost2010PropOp37
 70
     1
102
RTVSPost2010Prop38
140
0.0
102
RTVSPost2010PropOp38
 70
     1
102
RTVSPost2010Prop39
140
1.0
102
RTVSPost2010PropOp39
 70
     1
102
RTVSPost2010Prop40
 90
        0
102
RTVSPost2010PropOp40
 70
     1
102
RTVSPost2010Prop41ColorIndex
 90
       18
102
RTVSPost2010Prop41ColorRGB
 90
        0
102
RTVSPost2010PropOp41
 70
     1
102
RTVSPost2010Prop42
 90
       50
102
RTVSPost2010PropOp42
 70
     1
102
RTVSPost2010Prop43
 90
        3
102
RTVSPost2010PropOp43
 70
     1
102
RTVSPost2010Prop44ColorIndex
 90
        5
102
RTVSPost2010Prop44ColorRGB
 90
      255
102
RTVSPost2010PropOp44
 70
     1
102
RTVSPost2010Prop45
280
     0
102
RTVSPost2010PropOp45
 70
     1
102
RTVSPost2010Prop46
 90
       50
102
RTVSPost2010PropOp46
 70
     1
102
RTVSPost2010Prop47
 90
       50
102
RTVSPost2010PropOp47
 70
     1
102
RTVSPost2010Prop48
 90
       50
102
RTVSPost2010PropOp48
 70
     1
102
RTVSPost2010Prop49
280
     0
102
RTVSPost2010PropOp49
 70
     1
102
RTVSPost2010Prop50
 90
       50
102
RTVSPost2010PropOp50
 70
     1
102
RTVSPost2010Prop51ColorIndex
 90
      256
102
RTVSPost2010Prop51ColorRGB
 90
-16777216
102
RTVSPost2010PropOp51
 70
     0
102
RTVSPost2010Prop52
140
1.0
102
RTVSPost2010PropOp52
 70
     0
102
RTVSPost2010Prop53
 90
        2
102
RTVSPost2010PropOp53
 70
     1
102
RTVSPost2010Prop54
  1
strokes_ogs.tif
102
RTVSPost2010PropOp54
 70
     1
102
RTVSPost2010Prop55
280
     0
102
RTVSPost2010PropOp55
 70
     1
102
RTVSPost2010Prop56
140
1.0
102
RTVSPost2010PropOp56
 70
     1
102
RTVSPost2010Prop57
140
1.0
102
RTVSPost2010PropOp57
 70
     1
102
RTVSPropertyOp0
 70
     1
102
RTVSPropertyOp1
 70
     1
102
RTVSPropertyOp2
 70
     1
102
RTVSPropertyOp3
 70
     1
102
RTVSPropertyOp4
 70
     1
102
RTVSPropertyOp5
 70
     1
102
RTVSPropertyOp6
 70
     1
102
RTVSPropertyOp7
 70
     1
102
RTVSPropertyOp8
 70
     1
102
RTVSPropertyOp9
 70
     1
102
RTVSPropertyOp10
 70
     1
102
RTVSPropertyOp11
 70
     1
102
RTVSPropertyOp12
 70
     1
102
RTVSPropertyOp13
 70
     1
102
RTVSPropertyOp14
 70
     1
102
RTVSPropertyOp15
 70
     1
102
RTVSPropertyOp16
 70
     1
102
RTVSPropertyOp17
 70
     1
102
RTVSPropertyOp18
 70
     1
102
RTVSPropertyOp19
 70
     1
102
RTVSPropertyOp20
 70
     1
102
RTVSPropertyOp21
 70
     1
102
RTVSPropertyOp22
 70
     1
102
RTVSPropertyOp23
 70
     1
102
RTVSPropertyOp24
 70
     1
102
RTVSPropertyOp25
 70
     1
102
RTVSPropertyOp26
 70
     1
102
RTVSPropertyOp27
 70
     1
102
RTVSPropertyOp28
 70
     1
102
RTVSPropertyOp29
 70
     1
102
RTVSPropertyOp30
 70
     1
102
RTVSPropertyOp31
 70
     1
102
RTVSPropertyOp32
 70
     1
102
RTVSPropertyOp33
 70
     1
102
RTVSPropertyOp34
 70
     1
102
RTVSPropertyOp35
 70
     1
102
RTVSPropertyOp36
 70
     1
102
RTVSPropertyOp37
 70
     1
102
RTVSPropertyOp38
 70
     1
102
RTVSPropertyOp39
 70
     1
102
RTVSPropertyOp40
 70
     1
102
RTVSPropertyOp41
 70
     1
102
RTVSPropertyOp42
 70
     1
102
RTVSPropertyOp43
 70
     1
102
RTVSPropertyOp44
 70
     1
102
RTVSPropertyOp45
 70
     1
102
RTVSPropertyOp46
 70
     1
102
RTVSPropertyOp47
 70
     1
102
RTVSPropertyOp48
 70
     1
102
RTVSPropertyOp49
 70
     1
102
RTVSPropertyOp50
 70
     1
102
RTVSPropertyOp51
 70
     0
102
RTVSPropertyOp52
 70
     0
102
RTVSPropertyOp53
 70
     1
102
RTVSPropertyOp54
 70
     1
102
RTVSPropertyOp55
 70
     1
102
RTVSPropertyOp56
 70
     1
102
RTVSPropertyOp57
 70
     1
102
RTVSPropertyOp58
 70
     1
102
RTVSPropertyOp59
 70
     1
102
RTVSPropertyOp60
 70
     1
102
RTVSPropertyOp61
 70
     1
102
RTVSPropertyOp62
 70
     1
  0
XRECORD
  5
1872
102
{ACAD_REACTORS
330
1871
102
}
330
1871
100
AcDbXrecord
280
     1
102
RTVSPost2010Prop28
280
     0
102
RTVSPost2010PropOp28
 70
     1
102
RTVSPost2010Prop29
280
     1
102
RTVSPost2010PropOp29
 70
     1
102
RTVSPost2010Prop30
280
     1
102
RTVSPost2010PropOp30
 70
     1
102
RTVSPost2010Prop31
280
     0
102
RTVSPost2010PropOp31
 70
     1
102
RTVSPost2010Prop32
280
     0
102
RTVSPost2010PropOp32
 70
     1
102
RTVSPost2010Prop33
280
     0
102
RTVSPost2010PropOp33
 70
     1
102
RTVSPost2010Prop34
280
     0
102
RTVSPost2010PropOp34
 70
     1
102
RTVSPost2010Prop35
280
     0
102
RTVSPost2010PropOp35
 70
     1
102
RTVSPost2010Prop36
280
     0
102
RTVSPost2010PropOp36
 70
     1
102
RTVSPost2010Prop37
 90
       50
102
RTVSPost2010PropOp37
 70
     1
102
RTVSPost2010Prop38
140
0.0
102
RTVSPost2010PropOp38
 70
     1
102
RTVSPost2010Prop39
140
1.0
102
RTVSPost2010PropOp39
 70
     1
102
RTVSPost2010Prop40
 90
        0
102
RTVSPost2010PropOp40
 70
     1
102
RTVSPost2010Prop41ColorIndex
 90
       18
102
RTVSPost2010Prop41ColorRGB
 90
        0
102
RTVSPost2010PropOp41
 70
     1
102
RTVSPost2010Prop42
 90
       50
102
RTVSPost2010PropOp42
 70
     1
102
RTVSPost2010Prop43
 90
        3
102
RTVSPost2010PropOp43
 70
     1
102
RTVSPost2010Prop44ColorIndex
 90
        5
102
RTVSPost2010Prop44ColorRGB
 90
      255
102
RTVSPost2010PropOp44
 70
     1
102
RTVSPost2010Prop45
280
     0
102
RTVSPost2010PropOp45
 70
     1
102
RTVSPost2010Prop46
 90
       50
102
RTVSPost2010PropOp46
 70
     1
102
RTVSPost2010Prop47
 90
       50
102
RTVSPost2010PropOp47
 70
     1
102
RTVSPost2010Prop48
 90
       50
102
RTVSPost2010PropOp48
 70
     1
102
RTVSPost2010Prop49
280
     0
102
RTVSPost2010PropOp49
 70
     1
102
RTVSPost2010Prop50
 90
       50
102
RTVSPost2010PropOp50
 70
     1
102
RTVSPost2010Prop51ColorIndex
 90
      256
102
RTVSPost2010Prop51ColorRGB
 90
-16777216
102
RTVSPost2010PropOp51
 70
     0
102
RTVSPost2010Prop52
140
1.0
102
RTVSPost2010PropOp52
 70
     0
102
RTVSPost2010Prop53
 90
        2
102
RTVSPost2010PropOp53
 70
     1
102
RTVSPost2010Prop54
  1
strokes_ogs.tif
102
RTVSPost2010PropOp54
 70
     1
102
RTVSPost2010Prop55
280
     0
102
RTVSPost2010PropOp55
 70
     1
102
RTVSPost2010Prop56
140
1.0
102
RTVSPost2010PropOp56
 70
     1
102
RTVSPost2010Prop57
140
1.0
102
RTVSPost2010PropOp57
 70
     1
102
RTVSPropertyOp0
 70
     1
102
RTVSPropertyOp1
 70
     1
102
RTVSPropertyOp2
 70
     1
102
RTVSPropertyOp3
 70
     1
102
RTVSPropertyOp4
 70
     1
102
RTVSPropertyOp5
 70
     1
102
RTVSPropertyOp6
 70
     1
102
RTVSPropertyOp7
 70
     1
102
RTVSPropertyOp8
 70
     1
102
RTVSPropertyOp9
 70
     1
102
RTVSPropertyOp10
 70
     1
102
RTVSPropertyOp11
 70
     1
102
RTVSPropertyOp12
 70
     1
102
RTVSPropertyOp13
 70
     1
102
RTVSPropertyOp14
 70
     1
102
RTVSPropertyOp15
 70
     1
102
RTVSPropertyOp16
 70
     1
102
RTVSPropertyOp17
 70
     1
102
RTVSPropertyOp18
 70
     1
102
RTVSPropertyOp19
 70
     1
102
RTVSPropertyOp20
 70
     1
102
RTVSPropertyOp21
 70
     1
102
RTVSPropertyOp22
 70
     1
102
RTVSPropertyOp23
 70
     1
102
RTVSPropertyOp24
 70
     1
102
RTVSPropertyOp25
 70
     1
102
RTVSPropertyOp26
 70
     1
102
RTVSPropertyOp27
 70
     1
102
RTVSPropertyOp28
 70
     1
102
RTVSPropertyOp29
 70
     1
102
RTVSPropertyOp30
 70
     1
102
RTVSPropertyOp31
 70
     1
102
RTVSPropertyOp32
 70
     1
102
RTVSPropertyOp33
 70
     1
102
RTVSPropertyOp34
 70
     1
102
RTVSPropertyOp35
 70
     1
102
RTVSPropertyOp36
 70
     1
102
RTVSPropertyOp37
 70
     1
102
RTVSPropertyOp38
 70
     1
102
RTVSPropertyOp39
 70
     1
102
RTVSPropertyOp40
 70
     1
102
RTVSPropertyOp41
 70
     1
102
RTVSPropertyOp42
 70
     1
102
RTVSPropertyOp43
 70
     1
102
RTVSPropertyOp44
 70
     1
102
RTVSPropertyOp45
 70
     1
102
RTVSPropertyOp46
 70
     1
102
RTVSPropertyOp47
 70
     1
102
RTVSPropertyOp48
 70
     1
102
RTVSPropertyOp49
 70
     1
102
RTVSPropertyOp50
 70
     1
102
RTVSPropertyOp51
 70
     0
102
RTVSPropertyOp52
 70
     0
102
RTVSPropertyOp53
 70
     1
102
RTVSPropertyOp54
 70
     1
102
RTVSPropertyOp55
 70
     1
102
RTVSPropertyOp56
 70
     1
102
RTVSPropertyOp57
 70
     1
102
RTVSPropertyOp58
 70
     1
102
RTVSPropertyOp59
 70
     1
102
RTVSPropertyOp60
 70
     1
102
RTVSPropertyOp61
 70
     1
102
RTVSPropertyOp62
 70
     1
  0
XRECORD
  5
1874
102
{ACAD_REACTORS
330
1873
102
}
330
1873
100
AcDbXrecord
280
     1
102
RTVSPost2010Prop28
280
     0
102
RTVSPost2010PropOp28
 70
     1
102
RTVSPost2010Prop29
280
     1
102
RTVSPost2010PropOp29
 70
     1
102
RTVSPost2010Prop30
280
     1
102
RTVSPost2010PropOp30
 70
     1
102
RTVSPost2010Prop31
280
     0
102
RTVSPost2010PropOp31
 70
     1
102
RTVSPost2010Prop32
280
     0
102
RTVSPost2010PropOp32
 70
     1
102
RTVSPost2010Prop33
280
     0
102
RTVSPost2010PropOp33
 70
     1
102
RTVSPost2010Prop34
280
     0
102
RTVSPost2010PropOp34
 70
     1
102
RTVSPost2010Prop35
280
     0
102
RTVSPost2010PropOp35
 70
     1
102
RTVSPost2010Prop36
280
     0
102
RTVSPost2010PropOp36
 70
     1
102
RTVSPost2010Prop37
 90
       50
102
RTVSPost2010PropOp37
 70
     1
102
RTVSPost2010Prop38
140
0.0
102
RTVSPost2010PropOp38
 70
     1
102
RTVSPost2010Prop39
140
1.0
102
RTVSPost2010PropOp39
 70
     1
102
RTVSPost2010Prop40
 90
        0
102
RTVSPost2010PropOp40
 70
     1
102
RTVSPost2010Prop41ColorIndex
 90
       18
102
RTVSPost2010Prop41ColorRGB
 90
        0
102
RTVSPost2010PropOp41
 70
     1
102
RTVSPost2010Prop42
 90
       50
102
RTVSPost2010PropOp42
 70
     1
102
RTVSPost2010Prop43
 90
        3
102
RTVSPost2010PropOp43
 70
     1
102
RTVSPost2010Prop44ColorIndex
 90
        5
102
RTVSPost2010Prop44ColorRGB
 90
      255
102
RTVSPost2010PropOp44
 70
     1
102
RTVSPost2010Prop45
280
     0
102
RTVSPost2010PropOp45
 70
     1
102
RTVSPost2010Prop46
 90
       50
102
RTVSPost2010PropOp46
 70
     1
102
RTVSPost2010Prop47
 90
       50
102
RTVSPost2010PropOp47
 70
     1
102
RTVSPost2010Prop48
 90
       50
102
RTVSPost2010PropOp48
 70
     1
102
RTVSPost2010Prop49
280
     0
102
RTVSPost2010PropOp49
 70
     1
102
RTVSPost2010Prop50
 90
       50
102
RTVSPost2010PropOp50
 70
     1
102
RTVSPost2010Prop51ColorIndex
 90
      256
102
RTVSPost2010Prop51ColorRGB
 90
-16777216
102
RTVSPost2010PropOp51
 70
     0
102
RTVSPost2010Prop52
140
1.0
102
RTVSPost2010PropOp52
 70
     0
102
RTVSPost2010Prop53
 90
        2
102
RTVSPost2010PropOp53
 70
     1
102
RTVSPost2010Prop54
  1
strokes_ogs.tif
102
RTVSPost2010PropOp54
 70
     1
102
RTVSPost2010Prop55
280
     0
102
RTVSPost2010PropOp55
 70
     1
102
RTVSPost2010Prop56
140
1.0
102
RTVSPost2010PropOp56
 70
     1
102
RTVSPost2010Prop57
140
1.0
102
RTVSPost2010PropOp57
 70
     1
102
RTVSPropertyOp0
 70
     1
102
RTVSPropertyOp1
 70
     1
102
RTVSPropertyOp2
 70
     1
102
RTVSPropertyOp3
 70
     1
102
RTVSPropertyOp4
 70
     1
102
RTVSPropertyOp5
 70
     1
102
RTVSPropertyOp6
 70
     1
102
RTVSPropertyOp7
 70
     1
102
RTVSPropertyOp8
 70
     1
102
RTVSPropertyOp9
 70
     1
102
RTVSPropertyOp10
 70
     1
102
RTVSPropertyOp11
 70
     1
102
RTVSPropertyOp12
 70
     1
102
RTVSPropertyOp13
 70
     1
102
RTVSPropertyOp14
 70
     1
102
RTVSPropertyOp15
 70
     1
102
RTVSPropertyOp16
 70
     1
102
RTVSPropertyOp17
 70
     1
102
RTVSPropertyOp18
 70
     1
102
RTVSPropertyOp19
 70
     1
102
RTVSPropertyOp20
 70
     1
102
RTVSPropertyOp21
 70
     1
102
RTVSPropertyOp22
 70
     1
102
RTVSPropertyOp23
 70
     1
102
RTVSPropertyOp24
 70
     1
102
RTVSPropertyOp25
 70
     1
102
RTVSPropertyOp26
 70
     1
102
RTVSPropertyOp27
 70
     1
102
RTVSPropertyOp28
 70
     1
102
RTVSPropertyOp29
 70
     1
102
RTVSPropertyOp30
 70
     1
102
RTVSPropertyOp31
 70
     1
102
RTVSPropertyOp32
 70
     1
102
RTVSPropertyOp33
 70
     1
102
RTVSPropertyOp34
 70
     1
102
RTVSPropertyOp35
 70
     1
102
RTVSPropertyOp36
 70
     1
102
RTVSPropertyOp37
 70
     1
102
RTVSPropertyOp38
 70
     1
102
RTVSPropertyOp39
 70
     1
102
RTVSPropertyOp40
 70
     1
102
RTVSPropertyOp41
 70
     1
102
RTVSPropertyOp42
 70
     1
102
RTVSPropertyOp43
 70
     1
102
RTVSPropertyOp44
 70
     1
102
RTVSPropertyOp45
 70
     1
102
RTVSPropertyOp46
 70
     1
102
RTVSPropertyOp47
 70
     1
102
RTVSPropertyOp48
 70
     1
102
RTVSPropertyOp49
 70
     1
102
RTVSPropertyOp50
 70
     1
102
RTVSPropertyOp51
 70
     0
102
RTVSPropertyOp52
 70
     0
102
RTVSPropertyOp53
 70
     1
102
RTVSPropertyOp54
 70
     1
102
RTVSPropertyOp55
 70
     1
102
RTVSPropertyOp56
 70
     1
102
RTVSPropertyOp57
 70
     1
102
RTVSPropertyOp58
 70
     1
102
RTVSPropertyOp59
 70
     1
102
RTVSPropertyOp60
 70
     1
102
RTVSPropertyOp61
 70
     1
102
RTVSPropertyOp62
 70
     1
  0
XRECORD
  5
1876
102
{ACAD_REACTORS
330
1875
102
}
330
1875
100
AcDbXrecord
280
     1
102
RTVSPost2010Prop28
280
     0
102
RTVSPost2010PropOp28
 70
     1
102
RTVSPost2010Prop29
280
     1
102
RTVSPost2010PropOp29
 70
     1
102
RTVSPost2010Prop30
280
     1
102
RTVSPost2010PropOp30
 70
     1
102
RTVSPost2010Prop31
280
     0
102
RTVSPost2010PropOp31
 70
     1
102
RTVSPost2010Prop32
280
     0
102
RTVSPost2010PropOp32
 70
     1
102
RTVSPost2010Prop33
280
     0
102
RTVSPost2010PropOp33
 70
     1
102
RTVSPost2010Prop34
280
     0
102
RTVSPost2010PropOp34
 70
     1
102
RTVSPost2010Prop35
280
     0
102
RTVSPost2010PropOp35
 70
     1
102
RTVSPost2010Prop36
280
     0
102
RTVSPost2010PropOp36
 70
     1
102
RTVSPost2010Prop37
 90
       50
102
RTVSPost2010PropOp37
 70
     1
102
RTVSPost2010Prop38
140
0.0
102
RTVSPost2010PropOp38
 70
     1
102
RTVSPost2010Prop39
140
1.0
102
RTVSPost2010PropOp39
 70
     1
102
RTVSPost2010Prop40
 90
        0
102
RTVSPost2010PropOp40
 70
     1
102
RTVSPost2010Prop41ColorIndex
 90
       18
102
RTVSPost2010Prop41ColorRGB
 90
        0
102
RTVSPost2010PropOp41
 70
     1
102
RTVSPost2010Prop42
 90
       50
102
RTVSPost2010PropOp42
 70
     1
102
RTVSPost2010Prop43
 90
        3
102
RTVSPost2010PropOp43
 70
     1
102
RTVSPost2010Prop44ColorIndex
 90
        5
102
RTVSPost2010Prop44ColorRGB
 90
      255
102
RTVSPost2010PropOp44
 70
     1
102
RTVSPost2010Prop45
280
     0
102
RTVSPost2010PropOp45
 70
     1
102
RTVSPost2010Prop46
 90
       50
102
RTVSPost2010PropOp46
 70
     1
102
RTVSPost2010Prop47
 90
       50
102
RTVSPost2010PropOp47
 70
     1
102
RTVSPost2010Prop48
 90
       50
102
RTVSPost2010PropOp48
 70
     1
102
RTVSPost2010Prop49
280
     0
102
RTVSPost2010PropOp49
 70
     1
102
RTVSPost2010Prop50
 90
       50
102
RTVSPost2010PropOp50
 70
     1
102
RTVSPost2010Prop51ColorIndex
 90
      256
102
RTVSPost2010Prop51ColorRGB
 90
-16777216
102
RTVSPost2010PropOp51
 70
     0
102
RTVSPost2010Prop52
140
1.0
102
RTVSPost2010PropOp52
 70
     0
102
RTVSPost2010Prop53
 90
        2
102
RTVSPost2010PropOp53
 70
     1
102
RTVSPost2010Prop54
  1
strokes_ogs.tif
102
RTVSPost2010PropOp54
 70
     1
102
RTVSPost2010Prop55
280
     0
102
RTVSPost2010PropOp55
 70
     1
102
RTVSPost2010Prop56
140
1.0
102
RTVSPost2010PropOp56
 70
     1
102
RTVSPost2010Prop57
140
1.0
102
RTVSPost2010PropOp57
 70
     1
102
RTVSPropertyOp0
 70
     1
102
RTVSPropertyOp1
 70
     1
102
RTVSPropertyOp2
 70
     1
102
RTVSPropertyOp3
 70
     1
102
RTVSPropertyOp4
 70
     1
102
RTVSPropertyOp5
 70
     1
102
RTVSPropertyOp6
 70
     1
102
RTVSPropertyOp7
 70
     1
102
RTVSPropertyOp8
 70
     1
102
RTVSPropertyOp9
 70
     1
102
RTVSPropertyOp10
 70
     1
102
RTVSPropertyOp11
 70
     1
102
RTVSPropertyOp12
 70
     1
102
RTVSPropertyOp13
 70
     1
102
RTVSPropertyOp14
 70
     1
102
RTVSPropertyOp15
 70
     1
102
RTVSPropertyOp16
 70
     1
102
RTVSPropertyOp17
 70
     1
102
RTVSPropertyOp18
 70
     1
102
RTVSPropertyOp19
 70
     1
102
RTVSPropertyOp20
 70
     1
102
RTVSPropertyOp21
 70
     1
102
RTVSPropertyOp22
 70
     1
102
RTVSPropertyOp23
 70
     1
102
RTVSPropertyOp24
 70
     1
102
RTVSPropertyOp25
 70
     1
102
RTVSPropertyOp26
 70
     1
102
RTVSPropertyOp27
 70
     1
102
RTVSPropertyOp28
 70
     1
102
RTVSPropertyOp29
 70
     1
102
RTVSPropertyOp30
 70
     1
102
RTVSPropertyOp31
 70
     1
102
RTVSPropertyOp32
 70
     1
102
RTVSPropertyOp33
 70
     1
102
RTVSPropertyOp34
 70
     1
102
RTVSPropertyOp35
 70
     1
102
RTVSPropertyOp36
 70
     1
102
RTVSPropertyOp37
 70
     1
102
RTVSPropertyOp38
 70
     1
102
RTVSPropertyOp39
 70
     1
102
RTVSPropertyOp40
 70
     1
102
RTVSPropertyOp41
 70
     1
102
RTVSPropertyOp42
 70
     1
102
RTVSPropertyOp43
 70
     1
102
RTVSPropertyOp44
 70
     1
102
RTVSPropertyOp45
 70
     1
102
RTVSPropertyOp46
 70
     1
102
RTVSPropertyOp47
 70
     1
102
RTVSPropertyOp48
 70
     1
102
RTVSPropertyOp49
 70
     1
102
RTVSPropertyOp50
 70
     1
102
RTVSPropertyOp51
 70
     0
102
RTVSPropertyOp52
 70
     0
102
RTVSPropertyOp53
 70
     1
102
RTVSPropertyOp54
 70
     1
102
RTVSPropertyOp55
 70
     1
102
RTVSPropertyOp56
 70
     1
102
RTVSPropertyOp57
 70
     1
102
RTVSPropertyOp58
 70
     1
102
RTVSPropertyOp59
 70
     1
102
RTVSPropertyOp60
 70
     1
102
RTVSPropertyOp61
 70
     1
102
RTVSPropertyOp62
 70
     1
  0
XRECORD
  5
1899
102
{ACAD_REACTORS
330
1898
102
}
330
1898
100
AcDbXrecord
280
     1
102
RTVSPost2010Prop28
280
     0
102
RTVSPost2010PropOp28
 70
     1
102
RTVSPost2010Prop29
280
     1
102
RTVSPost2010PropOp29
 70
     1
102
RTVSPost2010Prop30
280
     1
102
RTVSPost2010PropOp30
 70
     1
102
RTVSPost2010Prop31
280
     0
102
RTVSPost2010PropOp31
 70
     1
102
RTVSPost2010Prop32
280
     0
102
RTVSPost2010PropOp32
 70
     1
102
RTVSPost2010Prop33
280
     0
102
RTVSPost2010PropOp33
 70
     1
102
RTVSPost2010Prop34
280
     0
102
RTVSPost2010PropOp34
 70
     1
102
RTVSPost2010Prop35
280
     0
102
RTVSPost2010PropOp35
 70
     1
102
RTVSPost2010Prop36
280
     0
102
RTVSPost2010PropOp36
 70
     1
102
RTVSPost2010Prop37
 90
       50
102
RTVSPost2010PropOp37
 70
     1
102
RTVSPost2010Prop38
140
0.0
102
RTVSPost2010PropOp38
 70
     1
102
RTVSPost2010Prop39
140
1.0
102
RTVSPost2010PropOp39
 70
     1
102
RTVSPost2010Prop40
 90
        0
102
RTVSPost2010PropOp40
 70
     1
102
RTVSPost2010Prop41ColorIndex
 90
       18
102
RTVSPost2010Prop41ColorRGB
 90
        0
102
RTVSPost2010PropOp41
 70
     1
102
RTVSPost2010Prop42
 90
       50
102
RTVSPost2010PropOp42
 70
     1
102
RTVSPost2010Prop43
 90
        3
102
RTVSPost2010PropOp43
 70
     1
102
RTVSPost2010Prop44ColorIndex
 90
        5
102
RTVSPost2010Prop44ColorRGB
 90
      255
102
RTVSPost2010PropOp44
 70
     1
102
RTVSPost2010Prop45
280
     0
102
RTVSPost2010PropOp45
 70
     1
102
RTVSPost2010Prop46
 90
       50
102
RTVSPost2010PropOp46
 70
     1
102
RTVSPost2010Prop47
 90
       50
102
RTVSPost2010PropOp47
 70
     1
102
RTVSPost2010Prop48
 90
       50
102
RTVSPost2010PropOp48
 70
     1
102
RTVSPost2010Prop49
280
     0
102
RTVSPost2010PropOp49
 70
     1
102
RTVSPost2010Prop50
 90
       50
102
RTVSPost2010PropOp50
 70
     1
102
RTVSPost2010Prop51ColorIndex
 90
      256
102
RTVSPost2010Prop51ColorRGB
 90
-16777216
102
RTVSPost2010PropOp51
 70
     0
102
RTVSPost2010Prop52
140
1.0
102
RTVSPost2010PropOp52
 70
     0
102
RTVSPost2010Prop53
 90
        2
102
RTVSPost2010PropOp53
 70
     1
102
RTVSPost2010Prop54
  1
strokes_ogs.tif
102
RTVSPost2010PropOp54
 70
     1
102
RTVSPost2010Prop55
280
     0
102
RTVSPost2010PropOp55
 70
     1
102
RTVSPost2010Prop56
140
1.0
102
RTVSPost2010PropOp56
 70
     1
102
RTVSPost2010Prop57
140
1.0
102
RTVSPost2010PropOp57
 70
     1
102
RTVSPropertyOp0
 70
     1
102
RTVSPropertyOp1
 70
     1
102
RTVSPropertyOp2
 70
     1
102
RTVSPropertyOp3
 70
     1
102
RTVSPropertyOp4
 70
     1
102
RTVSPropertyOp5
 70
     1
102
RTVSPropertyOp6
 70
     1
102
RTVSPropertyOp7
 70
     1
102
RTVSPropertyOp8
 70
     1
102
RTVSPropertyOp9
 70
     1
102
RTVSPropertyOp10
 70
     1
102
RTVSPropertyOp11
 70
     1
102
RTVSPropertyOp12
 70
     1
102
RTVSPropertyOp13
 70
     1
102
RTVSPropertyOp14
 70
     1
102
RTVSPropertyOp15
 70
     1
102
RTVSPropertyOp16
 70
     1
102
RTVSPropertyOp17
 70
     1
102
RTVSPropertyOp18
 70
     1
102
RTVSPropertyOp19
 70
     1
102
RTVSPropertyOp20
 70
     1
102
RTVSPropertyOp21
 70
     1
102
RTVSPropertyOp22
 70
     1
102
RTVSPropertyOp23
 70
     1
102
RTVSPropertyOp24
 70
     1
102
RTVSPropertyOp25
 70
     1
102
RTVSPropertyOp26
 70
     1
102
RTVSPropertyOp27
 70
     1
102
RTVSPropertyOp28
 70
     1
102
RTVSPropertyOp29
 70
     1
102
RTVSPropertyOp30
 70
     1
102
RTVSPropertyOp31
 70
     1
102
RTVSPropertyOp32
 70
     1
102
RTVSPropertyOp33
 70
     1
102
RTVSPropertyOp34
 70
     1
102
RTVSPropertyOp35
 70
     1
102
RTVSPropertyOp36
 70
     1
102
RTVSPropertyOp37
 70
     1
102
RTVSPropertyOp38
 70
     1
102
RTVSPropertyOp39
 70
     1
102
RTVSPropertyOp40
 70
     1
102
RTVSPropertyOp41
 70
     1
102
RTVSPropertyOp42
 70
     1
102
RTVSPropertyOp43
 70
     1
102
RTVSPropertyOp44
 70
     1
102
RTVSPropertyOp45
 70
     1
102
RTVSPropertyOp46
 70
     1
102
RTVSPropertyOp47
 70
     1
102
RTVSPropertyOp48
 70
     1
102
RTVSPropertyOp49
 70
     1
102
RTVSPropertyOp50
 70
     1
102
RTVSPropertyOp51
 70
     0
102
RTVSPropertyOp52
 70
     0
102
RTVSPropertyOp53
 70
     1
102
RTVSPropertyOp54
 70
     1
102
RTVSPropertyOp55
 70
     1
102
RTVSPropertyOp56
 70
     1
102
RTVSPropertyOp57
 70
     1
102
RTVSPropertyOp58
 70
     1
102
RTVSPropertyOp59
 70
     1
102
RTVSPropertyOp60
 70
     1
102
RTVSPropertyOp61
 70
     1
102
RTVSPropertyOp62
 70
     1
  0
XRECORD
  5
1890
102
{ACAD_REACTORS
330
188F
102
}
330
188F
100
AcDbXrecord
280
     1
102
RTVSPost2010Prop28
280
     0
102
RTVSPost2010PropOp28
 70
     1
102
RTVSPost2010Prop29
280
     1
102
RTVSPost2010PropOp29
 70
     1
102
RTVSPost2010Prop30
280
     1
102
RTVSPost2010PropOp30
 70
     1
102
RTVSPost2010Prop31
280
     0
102
RTVSPost2010PropOp31
 70
     1
102
RTVSPost2010Prop32
280
     0
102
RTVSPost2010PropOp32
 70
     1
102
RTVSPost2010Prop33
280
     0
102
RTVSPost2010PropOp33
 70
     1
102
RTVSPost2010Prop34
280
     0
102
RTVSPost2010PropOp34
 70
     1
102
RTVSPost2010Prop35
280
     0
102
RTVSPost2010PropOp35
 70
     1
102
RTVSPost2010Prop36
280
     0
102
RTVSPost2010PropOp36
 70
     1
102
RTVSPost2010Prop37
 90
       50
102
RTVSPost2010PropOp37
 70
     1
102
RTVSPost2010Prop38
140
0.0
102
RTVSPost2010PropOp38
 70
     1
102
RTVSPost2010Prop39
140
1.0
102
RTVSPost2010PropOp39
 70
     1
102
RTVSPost2010Prop40
 90
        0
102
RTVSPost2010PropOp40
 70
     1
102
RTVSPost2010Prop41ColorIndex
 90
       18
102
RTVSPost2010Prop41ColorRGB
 90
        0
102
RTVSPost2010PropOp41
 70
     1
102
RTVSPost2010Prop42
 90
       50
102
RTVSPost2010PropOp42
 70
     1
102
RTVSPost2010Prop43
 90
        3
102
RTVSPost2010PropOp43
 70
     1
102
RTVSPost2010Prop44ColorIndex
 90
        5
102
RTVSPost2010Prop44ColorRGB
 90
      255
102
RTVSPost2010PropOp44
 70
     1
102
RTVSPost2010Prop45
280
     0
102
RTVSPost2010PropOp45
 70
     1
102
RTVSPost2010Prop46
 90
       50
102
RTVSPost2010PropOp46
 70
     1
102
RTVSPost2010Prop47
 90
       50
102
RTVSPost2010PropOp47
 70
     1
102
RTVSPost2010Prop48
 90
       50
102
RTVSPost2010PropOp48
 70
     1
102
RTVSPost2010Prop49
280
     0
102
RTVSPost2010PropOp49
 70
     1
102
RTVSPost2010Prop50
 90
       50
102
RTVSPost2010PropOp50
 70
     1
102
RTVSPost2010Prop51ColorIndex
 90
      256
102
RTVSPost2010Prop51ColorRGB
 90
-16777216
102
RTVSPost2010PropOp51
 70
     0
102
RTVSPost2010Prop52
140
1.0
102
RTVSPost2010PropOp52
 70
     0
102
RTVSPost2010Prop53
 90
        2
102
RTVSPost2010PropOp53
 70
     1
102
RTVSPost2010Prop54
  1
strokes_ogs.tif
102
RTVSPost2010PropOp54
 70
     1
102
RTVSPost2010Prop55
280
     0
102
RTVSPost2010PropOp55
 70
     1
102
RTVSPost2010Prop56
140
1.0
102
RTVSPost2010PropOp56
 70
     1
102
RTVSPost2010Prop57
140
1.0
102
RTVSPost2010PropOp57
 70
     1
102
RTVSPropertyOp0
 70
     0
102
RTVSPropertyOp1
 70
     0
102
RTVSPropertyOp2
 70
     0
102
RTVSPropertyOp3
 70
     0
102
RTVSPropertyOp4
 70
     0
102
RTVSPropertyOp5
 70
     0
102
RTVSPropertyOp6
 70
     0
102
RTVSPropertyOp7
 70
     0
102
RTVSPropertyOp8
 70
     0
102
RTVSPropertyOp9
 70
     0
102
RTVSPropertyOp10
 70
     0
102
RTVSPropertyOp11
 70
     0
102
RTVSPropertyOp12
 70
     0
102
RTVSPropertyOp13
 70
     0
102
RTVSPropertyOp14
 70
     2
102
RTVSPropertyOp15
 70
     0
102
RTVSPropertyOp16
 70
     0
102
RTVSPropertyOp17
 70
     0
102
RTVSPropertyOp18
 70
     0
102
RTVSPropertyOp19
 70
     0
102
RTVSPropertyOp20
 70
     0
102
RTVSPropertyOp21
 70
     0
102
RTVSPropertyOp22
 70
     0
102
RTVSPropertyOp23
 70
     0
102
RTVSPropertyOp24
 70
     0
102
RTVSPropertyOp25
 70
     0
102
RTVSPropertyOp26
 70
     0
102
RTVSPropertyOp27
 70
     0
102
RTVSPropertyOp28
 70
     1
102
RTVSPropertyOp29
 70
     1
102
RTVSPropertyOp30
 70
     1
102
RTVSPropertyOp31
 70
     1
102
RTVSPropertyOp32
 70
     1
102
RTVSPropertyOp33
 70
     1
102
RTVSPropertyOp34
 70
     1
102
RTVSPropertyOp35
 70
     1
102
RTVSPropertyOp36
 70
     1
102
RTVSPropertyOp37
 70
     1
102
RTVSPropertyOp38
 70
     1
102
RTVSPropertyOp39
 70
     1
102
RTVSPropertyOp40
 70
     1
102
RTVSPropertyOp41
 70
     1
102
RTVSPropertyOp42
 70
     1
102
RTVSPropertyOp43
 70
     1
102
RTVSPropertyOp44
 70
     1
102
RTVSPropertyOp45
 70
     1
102
RTVSPropertyOp46
 70
     1
102
RTVSPropertyOp47
 70
     1
102
RTVSPropertyOp48
 70
     1
102
RTVSPropertyOp49
 70
     1
102
RTVSPropertyOp50
 70
     1
102
RTVSPropertyOp51
 70
     0
102
RTVSPropertyOp52
 70
     0
102
RTVSPropertyOp53
 70
     1
102
RTVSPropertyOp54
 70
     1
102
RTVSPropertyOp55
 70
     1
102
RTVSPropertyOp56
 70
     1
102
RTVSPropertyOp57
 70
     1
102
RTVSPropertyOp58
 70
     1
102
RTVSPropertyOp59
 70
     1
102
RTVSPropertyOp60
 70
     1
102
RTVSPropertyOp61
 70
     1
102
RTVSPropertyOp62
 70
     1
  0
XRECORD
  5
188A
102
{ACAD_REACTORS
330
1889
102
}
330
1889
100
AcDbXrecord
280
     1
102
RTVSPost2010Prop28
280
     0
102
RTVSPost2010PropOp28
 70
     1
102
RTVSPost2010Prop29
280
     1
102
RTVSPost2010PropOp29
 70
     1
102
RTVSPost2010Prop30
280
     1
102
RTVSPost2010PropOp30
 70
     1
102
RTVSPost2010Prop31
280
     0
102
RTVSPost2010PropOp31
 70
     1
102
RTVSPost2010Prop32
280
     0
102
RTVSPost2010PropOp32
 70
     1
102
RTVSPost2010Prop33
280
     0
102
RTVSPost2010PropOp33
 70
     1
102
RTVSPost2010Prop34
280
     0
102
RTVSPost2010PropOp34
 70
     1
102
RTVSPost2010Prop35
280
     0
102
RTVSPost2010PropOp35
 70
     1
102
RTVSPost2010Prop36
280
     0
102
RTVSPost2010PropOp36
 70
     1
102
RTVSPost2010Prop37
 90
       50
102
RTVSPost2010PropOp37
 70
     1
102
RTVSPost2010Prop38
140
0.0
102
RTVSPost2010PropOp38
 70
     1
102
RTVSPost2010Prop39
140
1.0
102
RTVSPost2010PropOp39
 70
     1
102
RTVSPost2010Prop40
 90
        0
102
RTVSPost2010PropOp40
 70
     1
102
RTVSPost2010Prop41ColorIndex
 90
       18
102
RTVSPost2010Prop41ColorRGB
 90
        0
102
RTVSPost2010PropOp41
 70
     1
102
RTVSPost2010Prop42
 90
       50
102
RTVSPost2010PropOp42
 70
     1
102
RTVSPost2010Prop43
 90
        3
102
RTVSPost2010PropOp43
 70
     1
102
RTVSPost2010Prop44ColorIndex
 90
        5
102
RTVSPost2010Prop44ColorRGB
 90
      255
102
RTVSPost2010PropOp44
 70
     1
102
RTVSPost2010Prop45
280
     0
102
RTVSPost2010PropOp45
 70
     1
102
RTVSPost2010Prop46
 90
       50
102
RTVSPost2010PropOp46
 70
     1
102
RTVSPost2010Prop47
 90
       50
102
RTVSPost2010PropOp47
 70
     1
102
RTVSPost2010Prop48
 90
       50
102
RTVSPost2010PropOp48
 70
     1
102
RTVSPost2010Prop49
280
     0
102
RTVSPost2010PropOp49
 70
     1
102
RTVSPost2010Prop50
 90
       50
102
RTVSPost2010PropOp50
 70
     1
102
RTVSPost2010Prop51ColorIndex
 90
      256
102
RTVSPost2010Prop51ColorRGB
 90
-16777216
102
RTVSPost2010PropOp51
 70
     0
102
RTVSPost2010Prop52
140
1.0
102
RTVSPost2010PropOp52
 70
     0
102
RTVSPost2010Prop53
 90
        2
102
RTVSPost2010PropOp53
 70
     1
102
RTVSPost2010Prop54
  1
strokes_ogs.tif
102
RTVSPost2010PropOp54
 70
     1
102
RTVSPost2010Prop55
280
     0
102
RTVSPost2010PropOp55
 70
     1
102
RTVSPost2010Prop56
140
1.0
102
RTVSPost2010PropOp56
 70
     1
102
RTVSPost2010Prop57
140
1.0
102
RTVSPost2010PropOp57
 70
     1
102
RTVSPropertyOp0
 70
     1
102
RTVSPropertyOp1
 70
     1
102
RTVSPropertyOp2
 70
     1
102
RTVSPropertyOp3
 70
     1
102
RTVSPropertyOp4
 70
     1
102
RTVSPropertyOp5
 70
     1
102
RTVSPropertyOp6
 70
     1
102
RTVSPropertyOp7
 70
     1
102
RTVSPropertyOp8
 70
     1
102
RTVSPropertyOp9
 70
     1
102
RTVSPropertyOp10
 70
     1
102
RTVSPropertyOp11
 70
     1
102
RTVSPropertyOp12
 70
     1
102
RTVSPropertyOp13
 70
     1
102
RTVSPropertyOp14
 70
     1
102
RTVSPropertyOp15
 70
     1
102
RTVSPropertyOp16
 70
     1
102
RTVSPropertyOp17
 70
     1
102
RTVSPropertyOp18
 70
     1
102
RTVSPropertyOp19
 70
     1
102
RTVSPropertyOp20
 70
     1
102
RTVSPropertyOp21
 70
     1
102
RTVSPropertyOp22
 70
     1
102
RTVSPropertyOp23
 70
     1
102
RTVSPropertyOp24
 70
     1
102
RTVSPropertyOp25
 70
     1
102
RTVSPropertyOp26
 70
     1
102
RTVSPropertyOp27
 70
     1
102
RTVSPropertyOp28
 70
     1
102
RTVSPropertyOp29
 70
     1
102
RTVSPropertyOp30
 70
     1
102
RTVSPropertyOp31
 70
     1
102
RTVSPropertyOp32
 70
     1
102
RTVSPropertyOp33
 70
     1
102
RTVSPropertyOp34
 70
     1
102
RTVSPropertyOp35
 70
     1
102
RTVSPropertyOp36
 70
     1
102
RTVSPropertyOp37
 70
     1
102
RTVSPropertyOp38
 70
     1
102
RTVSPropertyOp39
 70
     1
102
RTVSPropertyOp40
 70
     1
102
RTVSPropertyOp41
 70
     1
102
RTVSPropertyOp42
 70
     1
102
RTVSPropertyOp43
 70
     1
102
RTVSPropertyOp44
 70
     1
102
RTVSPropertyOp45
 70
     1
102
RTVSPropertyOp46
 70
     1
102
RTVSPropertyOp47
 70
     1
102
RTVSPropertyOp48
 70
     1
102
RTVSPropertyOp49
 70
     1
102
RTVSPropertyOp50
 70
     1
102
RTVSPropertyOp51
 70
     0
102
RTVSPropertyOp52
 70
     0
102
RTVSPropertyOp53
 70
     1
102
RTVSPropertyOp54
 70
     1
102
RTVSPropertyOp55
 70
     1
102
RTVSPropertyOp56
 70
     1
102
RTVSPropertyOp57
 70
     1
102
RTVSPropertyOp58
 70
     1
102
RTVSPropertyOp59
 70
     1
102
RTVSPropertyOp60
 70
     1
102
RTVSPropertyOp61
 70
     1
102
RTVSPropertyOp62
 70
     1
  0
XRECORD
  5
1892
102
{ACAD_REACTORS
330
1891
102
}
330
1891
100
AcDbXrecord
280
     1
102
RTVSPost2010Prop28
280
     0
102
RTVSPost2010PropOp28
 70
     1
102
RTVSPost2010Prop29
280
     1
102
RTVSPost2010PropOp29
 70
     1
102
RTVSPost2010Prop30
280
     1
102
RTVSPost2010PropOp30
 70
     1
102
RTVSPost2010Prop31
280
     0
102
RTVSPost2010PropOp31
 70
     1
102
RTVSPost2010Prop32
280
     0
102
RTVSPost2010PropOp32
 70
     1
102
RTVSPost2010Prop33
280
     0
102
RTVSPost2010PropOp33
 70
     1
102
RTVSPost2010Prop34
280
     0
102
RTVSPost2010PropOp34
 70
     1
102
RTVSPost2010Prop35
280
     0
102
RTVSPost2010PropOp35
 70
     1
102
RTVSPost2010Prop36
280
     0
102
RTVSPost2010PropOp36
 70
     1
102
RTVSPost2010Prop37
 90
       50
102
RTVSPost2010PropOp37
 70
     1
102
RTVSPost2010Prop38
140
0.0
102
RTVSPost2010PropOp38
 70
     1
102
RTVSPost2010Prop39
140
1.0
102
RTVSPost2010PropOp39
 70
     1
102
RTVSPost2010Prop40
 90
        0
102
RTVSPost2010PropOp40
 70
     1
102
RTVSPost2010Prop41ColorIndex
 90
       18
102
RTVSPost2010Prop41ColorRGB
 90
        0
102
RTVSPost2010PropOp41
 70
     1
102
RTVSPost2010Prop42
 90
       50
102
RTVSPost2010PropOp42
 70
     1
102
RTVSPost2010Prop43
 90
        3
102
RTVSPost2010PropOp43
 70
     1
102
RTVSPost2010Prop44ColorIndex
 90
        5
102
RTVSPost2010Prop44ColorRGB
 90
      255
102
RTVSPost2010PropOp44
 70
     1
102
RTVSPost2010Prop45
280
     0
102
RTVSPost2010PropOp45
 70
     1
102
RTVSPost2010Prop46
 90
       50
102
RTVSPost2010PropOp46
 70
     1
102
RTVSPost2010Prop47
 90
       50
102
RTVSPost2010PropOp47
 70
     1
102
RTVSPost2010Prop48
 90
       50
102
RTVSPost2010PropOp48
 70
     1
102
RTVSPost2010Prop49
280
     0
102
RTVSPost2010PropOp49
 70
     1
102
RTVSPost2010Prop50
 90
       50
102
RTVSPost2010PropOp50
 70
     1
102
RTVSPost2010Prop51ColorIndex
 90
      256
102
RTVSPost2010Prop51ColorRGB
 90
-16777216
102
RTVSPost2010PropOp51
 70
     0
102
RTVSPost2010Prop52
140
1.0
102
RTVSPost2010PropOp52
 70
     0
102
RTVSPost2010Prop53
 90
        2
102
RTVSPost2010PropOp53
 70
     1
102
RTVSPost2010Prop54
  1
strokes_ogs.tif
102
RTVSPost2010PropOp54
 70
     1
102
RTVSPost2010Prop55
280
     0
102
RTVSPost2010PropOp55
 70
     1
102
RTVSPost2010Prop56
140
1.0
102
RTVSPost2010PropOp56
 70
     1
102
RTVSPost2010Prop57
140
1.0
102
RTVSPost2010PropOp57
 70
     1
102
RTVSPropertyOp0
 70
     0
102
RTVSPropertyOp1
 70
     0
102
RTVSPropertyOp2
 70
     0
102
RTVSPropertyOp3
 70
     0
102
RTVSPropertyOp4
 70
     0
102
RTVSPropertyOp5
 70
     0
102
RTVSPropertyOp6
 70
     0
102
RTVSPropertyOp7
 70
     0
102
RTVSPropertyOp8
 70
     0
102
RTVSPropertyOp9
 70
     0
102
RTVSPropertyOp10
 70
     0
102
RTVSPropertyOp11
 70
     0
102
RTVSPropertyOp12
 70
     0
102
RTVSPropertyOp13
 70
     0
102
RTVSPropertyOp14
 70
     2
102
RTVSPropertyOp15
 70
     0
102
RTVSPropertyOp16
 70
     0
102
RTVSPropertyOp17
 70
     0
102
RTVSPropertyOp18
 70
     0
102
RTVSPropertyOp19
 70
     0
102
RTVSPropertyOp20
 70
     0
102
RTVSPropertyOp21
 70
     0
102
RTVSPropertyOp22
 70
     0
102
RTVSPropertyOp23
 70
     0
102
RTVSPropertyOp24
 70
     0
102
RTVSPropertyOp25
 70
     0
102
RTVSPropertyOp26
 70
     0
102
RTVSPropertyOp27
 70
     0
102
RTVSPropertyOp28
 70
     1
102
RTVSPropertyOp29
 70
     1
102
RTVSPropertyOp30
 70
     1
102
RTVSPropertyOp31
 70
     1
102
RTVSPropertyOp32
 70
     1
102
RTVSPropertyOp33
 70
     1
102
RTVSPropertyOp34
 70
     1
102
RTVSPropertyOp35
 70
     1
102
RTVSPropertyOp36
 70
     1
102
RTVSPropertyOp37
 70
     1
102
RTVSPropertyOp38
 70
     1
102
RTVSPropertyOp39
 70
     1
102
RTVSPropertyOp40
 70
     1
102
RTVSPropertyOp41
 70
     1
102
RTVSPropertyOp42
 70
     1
102
RTVSPropertyOp43
 70
     1
102
RTVSPropertyOp44
 70
     1
102
RTVSPropertyOp45
 70
     1
102
RTVSPropertyOp46
 70
     1
102
RTVSPropertyOp47
 70
     1
102
RTVSPropertyOp48
 70
     1
102
RTVSPropertyOp49
 70
     1
102
RTVSPropertyOp50
 70
     1
102
RTVSPropertyOp51
 70
     0
102
RTVSPropertyOp52
 70
     0
102
RTVSPropertyOp53
 70
     1
102
RTVSPropertyOp54
 70
     1
102
RTVSPropertyOp55
 70
     1
102
RTVSPropertyOp56
 70
     1
102
RTVSPropertyOp57
 70
     1
102
RTVSPropertyOp58
 70
     1
102
RTVSPropertyOp59
 70
     1
102
RTVSPropertyOp60
 70
     1
102
RTVSPropertyOp61
 70
     1
102
RTVSPropertyOp62
 70
     1
  0
XRECORD
  5
1882
102
{ACAD_REACTORS
330
1881
102
}
330
1881
100
AcDbXrecord
280
     1
102
RTVSPost2010Prop28
280
     0
102
RTVSPost2010PropOp28
 70
     1
102
RTVSPost2010Prop29
280
     1
102
RTVSPost2010PropOp29
 70
     1
102
RTVSPost2010Prop30
280
     1
102
RTVSPost2010PropOp30
 70
     1
102
RTVSPost2010Prop31
280
     0
102
RTVSPost2010PropOp31
 70
     1
102
RTVSPost2010Prop32
280
     0
102
RTVSPost2010PropOp32
 70
     1
102
RTVSPost2010Prop33
280
     0
102
RTVSPost2010PropOp33
 70
     1
102
RTVSPost2010Prop34
280
     0
102
RTVSPost2010PropOp34
 70
     1
102
RTVSPost2010Prop35
280
     0
102
RTVSPost2010PropOp35
 70
     1
102
RTVSPost2010Prop36
280
     0
102
RTVSPost2010PropOp36
 70
     1
102
RTVSPost2010Prop37
 90
       50
102
RTVSPost2010PropOp37
 70
     1
102
RTVSPost2010Prop38
140
0.0
102
RTVSPost2010PropOp38
 70
     1
102
RTVSPost2010Prop39
140
1.0
102
RTVSPost2010PropOp39
 70
     1
102
RTVSPost2010Prop40
 90
        0
102
RTVSPost2010PropOp40
 70
     1
102
RTVSPost2010Prop41ColorIndex
 90
       18
102
RTVSPost2010Prop41ColorRGB
 90
        0
102
RTVSPost2010PropOp41
 70
     1
102
RTVSPost2010Prop42
 90
       50
102
RTVSPost2010PropOp42
 70
     1
102
RTVSPost2010Prop43
 90
        3
102
RTVSPost2010PropOp43
 70
     1
102
RTVSPost2010Prop44ColorIndex
 90
        5
102
RTVSPost2010Prop44ColorRGB
 90
      255
102
RTVSPost2010PropOp44
 70
     1
102
RTVSPost2010Prop45
280
     0
102
RTVSPost2010PropOp45
 70
     1
102
RTVSPost2010Prop46
 90
       50
102
RTVSPost2010PropOp46
 70
     1
102
RTVSPost2010Prop47
 90
       50
102
RTVSPost2010PropOp47
 70
     1
102
RTVSPost2010Prop48
 90
       50
102
RTVSPost2010PropOp48
 70
     1
102
RTVSPost2010Prop49
280
     0
102
RTVSPost2010PropOp49
 70
     1
102
RTVSPost2010Prop50
 90
       50
102
RTVSPost2010PropOp50
 70
     1
102
RTVSPost2010Prop51ColorIndex
 90
      256
102
RTVSPost2010Prop51ColorRGB
 90
-16777216
102
RTVSPost2010PropOp51
 70
     0
102
RTVSPost2010Prop52
140
1.0
102
RTVSPost2010PropOp52
 70
     0
102
RTVSPost2010Prop53
 90
        2
102
RTVSPost2010PropOp53
 70
     1
102
RTVSPost2010Prop54
  1
strokes_ogs.tif
102
RTVSPost2010PropOp54
 70
     1
102
RTVSPost2010Prop55
280
     0
102
RTVSPost2010PropOp55
 70
     1
102
RTVSPost2010Prop56
140
1.0
102
RTVSPost2010PropOp56
 70
     1
102
RTVSPost2010Prop57
140
1.0
102
RTVSPost2010PropOp57
 70
     1
102
RTVSPropertyOp0
 70
     1
102
RTVSPropertyOp1
 70
     1
102
RTVSPropertyOp2
 70
     1
102
RTVSPropertyOp3
 70
     1
102
RTVSPropertyOp4
 70
     1
102
RTVSPropertyOp5
 70
     1
102
RTVSPropertyOp6
 70
     1
102
RTVSPropertyOp7
 70
     1
102
RTVSPropertyOp8
 70
     1
102
RTVSPropertyOp9
 70
     1
102
RTVSPropertyOp10
 70
     1
102
RTVSPropertyOp11
 70
     1
102
RTVSPropertyOp12
 70
     1
102
RTVSPropertyOp13
 70
     1
102
RTVSPropertyOp14
 70
     1
102
RTVSPropertyOp15
 70
     1
102
RTVSPropertyOp16
 70
     1
102
RTVSPropertyOp17
 70
     1
102
RTVSPropertyOp18
 70
     1
102
RTVSPropertyOp19
 70
     1
102
RTVSPropertyOp20
 70
     1
102
RTVSPropertyOp21
 70
     1
102
RTVSPropertyOp22
 70
     1
102
RTVSPropertyOp23
 70
     1
102
RTVSPropertyOp24
 70
     1
102
RTVSPropertyOp25
 70
     1
102
RTVSPropertyOp26
 70
     1
102
RTVSPropertyOp27
 70
     1
102
RTVSPropertyOp28
 70
     1
102
RTVSPropertyOp29
 70
     1
102
RTVSPropertyOp30
 70
     1
102
RTVSPropertyOp31
 70
     1
102
RTVSPropertyOp32
 70
     1
102
RTVSPropertyOp33
 70
     1
102
RTVSPropertyOp34
 70
     1
102
RTVSPropertyOp35
 70
     1
102
RTVSPropertyOp36
 70
     1
102
RTVSPropertyOp37
 70
     1
102
RTVSPropertyOp38
 70
     1
102
RTVSPropertyOp39
 70
     1
102
RTVSPropertyOp40
 70
     1
102
RTVSPropertyOp41
 70
     1
102
RTVSPropertyOp42
 70
     1
102
RTVSPropertyOp43
 70
     1
102
RTVSPropertyOp44
 70
     1
102
RTVSPropertyOp45
 70
     1
102
RTVSPropertyOp46
 70
     1
102
RTVSPropertyOp47
 70
     1
102
RTVSPropertyOp48
 70
     1
102
RTVSPropertyOp49
 70
     1
102
RTVSPropertyOp50
 70
     1
102
RTVSPropertyOp51
 70
     0
102
RTVSPropertyOp52
 70
     0
102
RTVSPropertyOp53
 70
     1
102
RTVSPropertyOp54
 70
     1
102
RTVSPropertyOp55
 70
     1
102
RTVSPropertyOp56
 70
     1
102
RTVSPropertyOp57
 70
     1
102
RTVSPropertyOp58
 70
     1
102
RTVSPropertyOp59
 70
     1
102
RTVSPropertyOp60
 70
     1
102
RTVSPropertyOp61
 70
     1
102
RTVSPropertyOp62
 70
     1
  0
XRECORD
  5
18A3
102
{ACAD_REACTORS
330
18A2
102
}
330
18A2
100
AcDbXrecord
280
     1
102
RTVSPost2010Prop28
280
     0
102
RTVSPost2010PropOp28
 70
     1
102
RTVSPost2010Prop29
280
     1
102
RTVSPost2010PropOp29
 70
     1
102
RTVSPost2010Prop30
280
     1
102
RTVSPost2010PropOp30
 70
     1
102
RTVSPost2010Prop31
280
     0
102
RTVSPost2010PropOp31
 70
     1
102
RTVSPost2010Prop32
280
     0
102
RTVSPost2010PropOp32
 70
     1
102
RTVSPost2010Prop33
280
     0
102
RTVSPost2010PropOp33
 70
     1
102
RTVSPost2010Prop34
280
     0
102
RTVSPost2010PropOp34
 70
     1
102
RTVSPost2010Prop35
280
     0
102
RTVSPost2010PropOp35
 70
     1
102
RTVSPost2010Prop36
280
     0
102
RTVSPost2010PropOp36
 70
     1
102
RTVSPost2010Prop37
 90
       50
102
RTVSPost2010PropOp37
 70
     1
102
RTVSPost2010Prop38
140
0.0
102
RTVSPost2010PropOp38
 70
     1
102
RTVSPost2010Prop39
140
1.0
102
RTVSPost2010PropOp39
 70
     1
102
RTVSPost2010Prop40
 90
        0
102
RTVSPost2010PropOp40
 70
     1
102
RTVSPost2010Prop41ColorIndex
 90
       18
102
RTVSPost2010Prop41ColorRGB
 90
        0
102
RTVSPost2010PropOp41
 70
     1
102
RTVSPost2010Prop42
 90
       50
102
RTVSPost2010PropOp42
 70
     1
102
RTVSPost2010Prop43
 90
        3
102
RTVSPost2010PropOp43
 70
     1
102
RTVSPost2010Prop44ColorIndex
 90
        5
102
RTVSPost2010Prop44ColorRGB
 90
      255
102
RTVSPost2010PropOp44
 70
     1
102
RTVSPost2010Prop45
280
     0
102
RTVSPost2010PropOp45
 70
     1
102
RTVSPost2010Prop46
 90
       50
102
RTVSPost2010PropOp46
 70
     1
102
RTVSPost2010Prop47
 90
       50
102
RTVSPost2010PropOp47
 70
     1
102
RTVSPost2010Prop48
 90
       50
102
RTVSPost2010PropOp48
 70
     1
102
RTVSPost2010Prop49
280
     0
102
RTVSPost2010PropOp49
 70
     1
102
RTVSPost2010Prop50
 90
       50
102
RTVSPost2010PropOp50
 70
     1
102
RTVSPost2010Prop51ColorIndex
 90
      256
102
RTVSPost2010Prop51ColorRGB
 90
-16777216
102
RTVSPost2010PropOp51
 70
     0
102
RTVSPost2010Prop52
140
1.0
102
RTVSPost2010PropOp52
 70
     0
102
RTVSPost2010Prop53
 90
        2
102
RTVSPost2010PropOp53
 70
     1
102
RTVSPost2010Prop54
  1
strokes_ogs.tif
102
RTVSPost2010PropOp54
 70
     1
102
RTVSPost2010Prop55
280
     0
102
RTVSPost2010PropOp55
 70
     1
102
RTVSPost2010Prop56
140
1.0
102
RTVSPost2010PropOp56
 70
     1
102
RTVSPost2010Prop57
140
1.0
102
RTVSPost2010PropOp57
 70
     1
102
RTVSPropertyOp0
 70
     1
102
RTVSPropertyOp1
 70
     1
102
RTVSPropertyOp2
 70
     1
102
RTVSPropertyOp3
 70
     1
102
RTVSPropertyOp4
 70
     1
102
RTVSPropertyOp5
 70
     1
102
RTVSPropertyOp6
 70
     1
102
RTVSPropertyOp7
 70
     1
102
RTVSPropertyOp8
 70
     1
102
RTVSPropertyOp9
 70
     1
102
RTVSPropertyOp10
 70
     1
102
RTVSPropertyOp11
 70
     1
102
RTVSPropertyOp12
 70
     1
102
RTVSPropertyOp13
 70
     1
102
RTVSPropertyOp14
 70
     1
102
RTVSPropertyOp15
 70
     1
102
RTVSPropertyOp16
 70
     1
102
RTVSPropertyOp17
 70
     1
102
RTVSPropertyOp18
 70
     1
102
RTVSPropertyOp19
 70
     1
102
RTVSPropertyOp20
 70
     1
102
RTVSPropertyOp21
 70
     1
102
RTVSPropertyOp22
 70
     1
102
RTVSPropertyOp23
 70
     1
102
RTVSPropertyOp24
 70
     1
102
RTVSPropertyOp25
 70
     1
102
RTVSPropertyOp26
 70
     1
102
RTVSPropertyOp27
 70
     1
102
RTVSPropertyOp28
 70
     1
102
RTVSPropertyOp29
 70
     1
102
RTVSPropertyOp30
 70
     1
102
RTVSPropertyOp31
 70
     1
102
RTVSPropertyOp32
 70
     1
102
RTVSPropertyOp33
 70
     1
102
RTVSPropertyOp34
 70
     1
102
RTVSPropertyOp35
 70
     1
102
RTVSPropertyOp36
 70
     1
102
RTVSPropertyOp37
 70
     1
102
RTVSPropertyOp38
 70
     1
102
RTVSPropertyOp39
 70
     1
102
RTVSPropertyOp40
 70
     1
102
RTVSPropertyOp41
 70
     1
102
RTVSPropertyOp42
 70
     1
102
RTVSPropertyOp43
 70
     1
102
RTVSPropertyOp44
 70
     1
102
RTVSPropertyOp45
 70
     1
102
RTVSPropertyOp46
 70
     1
102
RTVSPropertyOp47
 70
     1
102
RTVSPropertyOp48
 70
     1
102
RTVSPropertyOp49
 70
     1
102
RTVSPropertyOp50
 70
     1
102
RTVSPropertyOp51
 70
     0
102
RTVSPropertyOp52
 70
     0
102
RTVSPropertyOp53
 70
     1
102
RTVSPropertyOp54
 70
     1
102
RTVSPropertyOp55
 70
     1
102
RTVSPropertyOp56
 70
     1
102
RTVSPropertyOp57
 70
     1
102
RTVSPropertyOp58
 70
     1
102
RTVSPropertyOp59
 70
     1
102
RTVSPropertyOp60
 70
     1
102
RTVSPropertyOp61
 70
     1
102
RTVSPropertyOp62
 70
     1
  0
XRECORD
  5
18A1
102
{ACAD_REACTORS
330
18A0
102
}
330
18A0
100
AcDbXrecord
280
     1
102
RTVSPost2010Prop28
280
     0
102
RTVSPost2010PropOp28
 70
     1
102
RTVSPost2010Prop29
280
     1
102
RTVSPost2010PropOp29
 70
     1
102
RTVSPost2010Prop30
280
     1
102
RTVSPost2010PropOp30
 70
     1
102
RTVSPost2010Prop31
280
     0
102
RTVSPost2010PropOp31
 70
     1
102
RTVSPost2010Prop32
280
     0
102
RTVSPost2010PropOp32
 70
     1
102
RTVSPost2010Prop33
280
     0
102
RTVSPost2010PropOp33
 70
     1
102
RTVSPost2010Prop34
280
     0
102
RTVSPost2010PropOp34
 70
     1
102
RTVSPost2010Prop35
280
     0
102
RTVSPost2010PropOp35
 70
     1
102
RTVSPost2010Prop36
280
     0
102
RTVSPost2010PropOp36
 70
     1
102
RTVSPost2010Prop37
 90
       50
102
RTVSPost2010PropOp37
 70
     1
102
RTVSPost2010Prop38
140
0.0
102
RTVSPost2010PropOp38
 70
     1
102
RTVSPost2010Prop39
140
1.0
102
RTVSPost2010PropOp39
 70
     1
102
RTVSPost2010Prop40
 90
        0
102
RTVSPost2010PropOp40
 70
     1
102
RTVSPost2010Prop41ColorIndex
 90
       18
102
RTVSPost2010Prop41ColorRGB
 90
        0
102
RTVSPost2010PropOp41
 70
     1
102
RTVSPost2010Prop42
 90
       50
102
RTVSPost2010PropOp42
 70
     1
102
RTVSPost2010Prop43
 90
        3
102
RTVSPost2010PropOp43
 70
     1
102
RTVSPost2010Prop44ColorIndex
 90
        5
102
RTVSPost2010Prop44ColorRGB
 90
      255
102
RTVSPost2010PropOp44
 70
     1
102
RTVSPost2010Prop45
280
     0
102
RTVSPost2010PropOp45
 70
     1
102
RTVSPost2010Prop46
 90
       50
102
RTVSPost2010PropOp46
 70
     1
102
RTVSPost2010Prop47
 90
       50
102
RTVSPost2010PropOp47
 70
     1
102
RTVSPost2010Prop48
 90
       50
102
RTVSPost2010PropOp48
 70
     1
102
RTVSPost2010Prop49
280
     0
102
RTVSPost2010PropOp49
 70
     1
102
RTVSPost2010Prop50
 90
       50
102
RTVSPost2010PropOp50
 70
     1
102
RTVSPost2010Prop51ColorIndex
 90
      256
102
RTVSPost2010Prop51ColorRGB
 90
-16777216
102
RTVSPost2010PropOp51
 70
     0
102
RTVSPost2010Prop52
140
1.0
102
RTVSPost2010PropOp52
 70
     0
102
RTVSPost2010Prop53
 90
        2
102
RTVSPost2010PropOp53
 70
     1
102
RTVSPost2010Prop54
  1
strokes_ogs.tif
102
RTVSPost2010PropOp54
 70
     1
102
RTVSPost2010Prop55
280
     0
102
RTVSPost2010PropOp55
 70
     1
102
RTVSPost2010Prop56
140
1.0
102
RTVSPost2010PropOp56
 70
     1
102
RTVSPost2010Prop57
140
1.0
102
RTVSPost2010PropOp57
 70
     1
102
RTVSPropertyOp0
 70
     1
102
RTVSPropertyOp1
 70
     1
102
RTVSPropertyOp2
 70
     1
102
RTVSPropertyOp3
 70
     1
102
RTVSPropertyOp4
 70
     1
102
RTVSPropertyOp5
 70
     1
102
RTVSPropertyOp6
 70
     1
102
RTVSPropertyOp7
 70
     1
102
RTVSPropertyOp8
 70
     1
102
RTVSPropertyOp9
 70
     1
102
RTVSPropertyOp10
 70
     1
102
RTVSPropertyOp11
 70
     1
102
RTVSPropertyOp12
 70
     1
102
RTVSPropertyOp13
 70
     1
102
RTVSPropertyOp14
 70
     1
102
RTVSPropertyOp15
 70
     1
102
RTVSPropertyOp16
 70
     1
102
RTVSPropertyOp17
 70
     1
102
RTVSPropertyOp18
 70
     1
102
RTVSPropertyOp19
 70
     1
102
RTVSPropertyOp20
 70
     1
102
RTVSPropertyOp21
 70
     1
102
RTVSPropertyOp22
 70
     1
102
RTVSPropertyOp23
 70
     1
102
RTVSPropertyOp24
 70
     1
102
RTVSPropertyOp25
 70
     1
102
RTVSPropertyOp26
 70
     1
102
RTVSPropertyOp27
 70
     1
102
RTVSPropertyOp28
 70
     1
102
RTVSPropertyOp29
 70
     1
102
RTVSPropertyOp30
 70
     1
102
RTVSPropertyOp31
 70
     1
102
RTVSPropertyOp32
 70
     1
102
RTVSPropertyOp33
 70
     1
102
RTVSPropertyOp34
 70
     1
102
RTVSPropertyOp35
 70
     1
102
RTVSPropertyOp36
 70
     1
102
RTVSPropertyOp37
 70
     1
102
RTVSPropertyOp38
 70
     1
102
RTVSPropertyOp39
 70
     1
102
RTVSPropertyOp40
 70
     1
102
RTVSPropertyOp41
 70
     1
102
RTVSPropertyOp42
 70
     1
102
RTVSPropertyOp43
 70
     1
102
RTVSPropertyOp44
 70
     1
102
RTVSPropertyOp45
 70
     1
102
RTVSPropertyOp46
 70
     1
102
RTVSPropertyOp47
 70
     1
102
RTVSPropertyOp48
 70
     1
102
RTVSPropertyOp49
 70
     1
102
RTVSPropertyOp50
 70
     1
102
RTVSPropertyOp51
 70
     0
102
RTVSPropertyOp52
 70
     0
102
RTVSPropertyOp53
 70
     1
102
RTVSPropertyOp54
 70
     1
102
RTVSPropertyOp55
 70
     1
102
RTVSPropertyOp56
 70
     1
102
RTVSPropertyOp57
 70
     1
102
RTVSPropertyOp58
 70
     1
102
RTVSPropertyOp59
 70
     1
102
RTVSPropertyOp60
 70
     1
102
RTVSPropertyOp61
 70
     1
102
RTVSPropertyOp62
 70
     1
  0
XRECORD
  5
189B
102
{ACAD_REACTORS
330
189A
102
}
330
189A
100
AcDbXrecord
280
     1
102
RTVSPost2010Prop28
280
     0
102
RTVSPost2010PropOp28
 70
     1
102
RTVSPost2010Prop29
280
     1
102
RTVSPost2010PropOp29
 70
     1
102
RTVSPost2010Prop30
280
     1
102
RTVSPost2010PropOp30
 70
     1
102
RTVSPost2010Prop31
280
     0
102
RTVSPost2010PropOp31
 70
     1
102
RTVSPost2010Prop32
280
     0
102
RTVSPost2010PropOp32
 70
     1
102
RTVSPost2010Prop33
280
     0
102
RTVSPost2010PropOp33
 70
     1
102
RTVSPost2010Prop34
280
     0
102
RTVSPost2010PropOp34
 70
     1
102
RTVSPost2010Prop35
280
     0
102
RTVSPost2010PropOp35
 70
     1
102
RTVSPost2010Prop36
280
     0
102
RTVSPost2010PropOp36
 70
     1
102
RTVSPost2010Prop37
 90
       50
102
RTVSPost2010PropOp37
 70
     1
102
RTVSPost2010Prop38
140
0.0
102
RTVSPost2010PropOp38
 70
     1
102
RTVSPost2010Prop39
140
1.0
102
RTVSPost2010PropOp39
 70
     1
102
RTVSPost2010Prop40
 90
        0
102
RTVSPost2010PropOp40
 70
     1
102
RTVSPost2010Prop41ColorIndex
 90
       18
102
RTVSPost2010Prop41ColorRGB
 90
        0
102
RTVSPost2010PropOp41
 70
     1
102
RTVSPost2010Prop42
 90
       50
102
RTVSPost2010PropOp42
 70
     1
102
RTVSPost2010Prop43
 90
        3
102
RTVSPost2010PropOp43
 70
     1
102
RTVSPost2010Prop44ColorIndex
 90
        5
102
RTVSPost2010Prop44ColorRGB
 90
      255
102
RTVSPost2010PropOp44
 70
     1
102
RTVSPost2010Prop45
280
     0
102
RTVSPost2010PropOp45
 70
     1
102
RTVSPost2010Prop46
 90
       50
102
RTVSPost2010PropOp46
 70
     1
102
RTVSPost2010Prop47
 90
       50
102
RTVSPost2010PropOp47
 70
     1
102
RTVSPost2010Prop48
 90
       50
102
RTVSPost2010PropOp48
 70
     1
102
RTVSPost2010Prop49
280
     0
102
RTVSPost2010PropOp49
 70
     1
102
RTVSPost2010Prop50
 90
       50
102
RTVSPost2010PropOp50
 70
     1
102
RTVSPost2010Prop51ColorIndex
 90
      256
102
RTVSPost2010Prop51ColorRGB
 90
-16777216
102
RTVSPost2010PropOp51
 70
     0
102
RTVSPost2010Prop52
140
1.0
102
RTVSPost2010PropOp52
 70
     0
102
RTVSPost2010Prop53
 90
        2
102
RTVSPost2010PropOp53
 70
     1
102
RTVSPost2010Prop54
  1
strokes_ogs.tif
102
RTVSPost2010PropOp54
 70
     1
102
RTVSPost2010Prop55
280
     0
102
RTVSPost2010PropOp55
 70
     1
102
RTVSPost2010Prop56
140
1.0
102
RTVSPost2010PropOp56
 70
     1
102
RTVSPost2010Prop57
140
1.0
102
RTVSPost2010PropOp57
 70
     1
102
RTVSPropertyOp0
 70
     1
102
RTVSPropertyOp1
 70
     1
102
RTVSPropertyOp2
 70
     1
102
RTVSPropertyOp3
 70
     1
102
RTVSPropertyOp4
 70
     1
102
RTVSPropertyOp5
 70
     1
102
RTVSPropertyOp6
 70
     1
102
RTVSPropertyOp7
 70
     1
102
RTVSPropertyOp8
 70
     1
102
RTVSPropertyOp9
 70
     1
102
RTVSPropertyOp10
 70
     1
102
RTVSPropertyOp11
 70
     1
102
RTVSPropertyOp12
 70
     1
102
RTVSPropertyOp13
 70
     1
102
RTVSPropertyOp14
 70
     1
102
RTVSPropertyOp15
 70
     1
102
RTVSPropertyOp16
 70
     1
102
RTVSPropertyOp17
 70
     1
102
RTVSPropertyOp18
 70
     1
102
RTVSPropertyOp19
 70
     1
102
RTVSPropertyOp20
 70
     1
102
RTVSPropertyOp21
 70
     1
102
RTVSPropertyOp22
 70
     1
102
RTVSPropertyOp23
 70
     1
102
RTVSPropertyOp24
 70
     1
102
RTVSPropertyOp25
 70
     1
102
RTVSPropertyOp26
 70
     1
102
RTVSPropertyOp27
 70
     1
102
RTVSPropertyOp28
 70
     1
102
RTVSPropertyOp29
 70
     1
102
RTVSPropertyOp30
 70
     1
102
RTVSPropertyOp31
 70
     1
102
RTVSPropertyOp32
 70
     1
102
RTVSPropertyOp33
 70
     1
102
RTVSPropertyOp34
 70
     1
102
RTVSPropertyOp35
 70
     1
102
RTVSPropertyOp36
 70
     1
102
RTVSPropertyOp37
 70
     1
102
RTVSPropertyOp38
 70
     1
102
RTVSPropertyOp39
 70
     1
102
RTVSPropertyOp40
 70
     1
102
RTVSPropertyOp41
 70
     1
102
RTVSPropertyOp42
 70
     1
102
RTVSPropertyOp43
 70
     1
102
RTVSPropertyOp44
 70
     1
102
RTVSPropertyOp45
 70
     1
102
RTVSPropertyOp46
 70
     1
102
RTVSPropertyOp47
 70
     1
102
RTVSPropertyOp48
 70
     1
102
RTVSPropertyOp49
 70
     1
102
RTVSPropertyOp50
 70
     1
102
RTVSPropertyOp51
 70
     0
102
RTVSPropertyOp52
 70
     0
102
RTVSPropertyOp53
 70
     1
102
RTVSPropertyOp54
 70
     1
102
RTVSPropertyOp55
 70
     1
102
RTVSPropertyOp56
 70
     1
102
RTVSPropertyOp57
 70
     1
102
RTVSPropertyOp58
 70
     1
102
RTVSPropertyOp59
 70
     1
102
RTVSPropertyOp60
 70
     1
102
RTVSPropertyOp61
 70
     1
102
RTVSPropertyOp62
 70
     1
  0
XRECORD
  5
189D
102
{ACAD_REACTORS
330
189C
102
}
330
189C
100
AcDbXrecord
280
     1
102
RTVSPost2010Prop28
280
     0
102
RTVSPost2010PropOp28
 70
     1
102
RTVSPost2010Prop29
280
     1
102
RTVSPost2010PropOp29
 70
     1
102
RTVSPost2010Prop30
280
     1
102
RTVSPost2010PropOp30
 70
     1
102
RTVSPost2010Prop31
280
     0
102
RTVSPost2010PropOp31
 70
     1
102
RTVSPost2010Prop32
280
     0
102
RTVSPost2010PropOp32
 70
     1
102
RTVSPost2010Prop33
280
     0
102
RTVSPost2010PropOp33
 70
     1
102
RTVSPost2010Prop34
280
     0
102
RTVSPost2010PropOp34
 70
     1
102
RTVSPost2010Prop35
280
     0
102
RTVSPost2010PropOp35
 70
     1
102
RTVSPost2010Prop36
280
     0
102
RTVSPost2010PropOp36
 70
     1
102
RTVSPost2010Prop37
 90
       50
102
RTVSPost2010PropOp37
 70
     1
102
RTVSPost2010Prop38
140
0.0
102
RTVSPost2010PropOp38
 70
     1
102
RTVSPost2010Prop39
140
1.0
102
RTVSPost2010PropOp39
 70
     1
102
RTVSPost2010Prop40
 90
        0
102
RTVSPost2010PropOp40
 70
     1
102
RTVSPost2010Prop41ColorIndex
 90
       18
102
RTVSPost2010Prop41ColorRGB
 90
        0
102
RTVSPost2010PropOp41
 70
     1
102
RTVSPost2010Prop42
 90
       50
102
RTVSPost2010PropOp42
 70
     1
102
RTVSPost2010Prop43
 90
        3
102
RTVSPost2010PropOp43
 70
     1
102
RTVSPost2010Prop44ColorIndex
 90
        5
102
RTVSPost2010Prop44ColorRGB
 90
      255
102
RTVSPost2010PropOp44
 70
     1
102
RTVSPost2010Prop45
280
     0
102
RTVSPost2010PropOp45
 70
     1
102
RTVSPost2010Prop46
 90
       50
102
RTVSPost2010PropOp46
 70
     1
102
RTVSPost2010Prop47
 90
       50
102
RTVSPost2010PropOp47
 70
     1
102
RTVSPost2010Prop48
 90
       50
102
RTVSPost2010PropOp48
 70
     1
102
RTVSPost2010Prop49
280
     0
102
RTVSPost2010PropOp49
 70
     1
102
RTVSPost2010Prop50
 90
       50
102
RTVSPost2010PropOp50
 70
     1
102
RTVSPost2010Prop51ColorIndex
 90
      256
102
RTVSPost2010Prop51ColorRGB
 90
-16777216
102
RTVSPost2010PropOp51
 70
     0
102
RTVSPost2010Prop52
140
1.0
102
RTVSPost2010PropOp52
 70
     0
102
RTVSPost2010Prop53
 90
        2
102
RTVSPost2010PropOp53
 70
     1
102
RTVSPost2010Prop54
  1
strokes_ogs.tif
102
RTVSPost2010PropOp54
 70
     1
102
RTVSPost2010Prop55
280
     0
102
RTVSPost2010PropOp55
 70
     1
102
RTVSPost2010Prop56
140
1.0
102
RTVSPost2010PropOp56
 70
     1
102
RTVSPost2010Prop57
140
1.0
102
RTVSPost2010PropOp57
 70
     1
102
RTVSPropertyOp0
 70
     1
102
RTVSPropertyOp1
 70
     1
102
RTVSPropertyOp2
 70
     1
102
RTVSPropertyOp3
 70
     1
102
RTVSPropertyOp4
 70
     1
102
RTVSPropertyOp5
 70
     1
102
RTVSPropertyOp6
 70
     1
102
RTVSPropertyOp7
 70
     1
102
RTVSPropertyOp8
 70
     1
102
RTVSPropertyOp9
 70
     1
102
RTVSPropertyOp10
 70
     1
102
RTVSPropertyOp11
 70
     1
102
RTVSPropertyOp12
 70
     1
102
RTVSPropertyOp13
 70
     1
102
RTVSPropertyOp14
 70
     1
102
RTVSPropertyOp15
 70
     1
102
RTVSPropertyOp16
 70
     1
102
RTVSPropertyOp17
 70
     1
102
RTVSPropertyOp18
 70
     1
102
RTVSPropertyOp19
 70
     1
102
RTVSPropertyOp20
 70
     1
102
RTVSPropertyOp21
 70
     1
102
RTVSPropertyOp22
 70
     1
102
RTVSPropertyOp23
 70
     1
102
RTVSPropertyOp24
 70
     1
102
RTVSPropertyOp25
 70
     1
102
RTVSPropertyOp26
 70
     1
102
RTVSPropertyOp27
 70
     1
102
RTVSPropertyOp28
 70
     1
102
RTVSPropertyOp29
 70
     1
102
RTVSPropertyOp30
 70
     1
102
RTVSPropertyOp31
 70
     1
102
RTVSPropertyOp32
 70
     1
102
RTVSPropertyOp33
 70
     1
102
RTVSPropertyOp34
 70
     1
102
RTVSPropertyOp35
 70
     1
102
RTVSPropertyOp36
 70
     1
102
RTVSPropertyOp37
 70
     1
102
RTVSPropertyOp38
 70
     1
102
RTVSPropertyOp39
 70
     1
102
RTVSPropertyOp40
 70
     1
102
RTVSPropertyOp41
 70
     1
102
RTVSPropertyOp42
 70
     1
102
RTVSPropertyOp43
 70
     1
102
RTVSPropertyOp44
 70
     1
102
RTVSPropertyOp45
 70
     1
102
RTVSPropertyOp46
 70
     1
102
RTVSPropertyOp47
 70
     1
102
RTVSPropertyOp48
 70
     1
102
RTVSPropertyOp49
 70
     1
102
RTVSPropertyOp50
 70
     1
102
RTVSPropertyOp51
 70
     0
102
RTVSPropertyOp52
 70
     0
102
RTVSPropertyOp53
 70
     1
102
RTVSPropertyOp54
 70
     1
102
RTVSPropertyOp55
 70
     1
102
RTVSPropertyOp56
 70
     1
102
RTVSPropertyOp57
 70
     1
102
RTVSPropertyOp58
 70
     1
102
RTVSPropertyOp59
 70
     1
102
RTVSPropertyOp60
 70
     1
102
RTVSPropertyOp61
 70
     1
102
RTVSPropertyOp62
 70
     1
  0
XRECORD
  5
1888
102
{ACAD_REACTORS
330
1887
102
}
330
1887
100
AcDbXrecord
280
     1
102
RTVSPost2010Prop28
280
     0
102
RTVSPost2010PropOp28
 70
     1
102
RTVSPost2010Prop29
280
     1
102
RTVSPost2010PropOp29
 70
     1
102
RTVSPost2010Prop30
280
     1
102
RTVSPost2010PropOp30
 70
     1
102
RTVSPost2010Prop31
280
     0
102
RTVSPost2010PropOp31
 70
     1
102
RTVSPost2010Prop32
280
     0
102
RTVSPost2010PropOp32
 70
     1
102
RTVSPost2010Prop33
280
     0
102
RTVSPost2010PropOp33
 70
     1
102
RTVSPost2010Prop34
280
     0
102
RTVSPost2010PropOp34
 70
     1
102
RTVSPost2010Prop35
280
     0
102
RTVSPost2010PropOp35
 70
     1
102
RTVSPost2010Prop36
280
     0
102
RTVSPost2010PropOp36
 70
     1
102
RTVSPost2010Prop37
 90
       50
102
RTVSPost2010PropOp37
 70
     1
102
RTVSPost2010Prop38
140
0.0
102
RTVSPost2010PropOp38
 70
     1
102
RTVSPost2010Prop39
140
1.0
102
RTVSPost2010PropOp39
 70
     1
102
RTVSPost2010Prop40
 90
        0
102
RTVSPost2010PropOp40
 70
     1
102
RTVSPost2010Prop41ColorIndex
 90
       18
102
RTVSPost2010Prop41ColorRGB
 90
        0
102
RTVSPost2010PropOp41
 70
     1
102
RTVSPost2010Prop42
 90
       50
102
RTVSPost2010PropOp42
 70
     1
102
RTVSPost2010Prop43
 90
        3
102
RTVSPost2010PropOp43
 70
     1
102
RTVSPost2010Prop44ColorIndex
 90
        5
102
RTVSPost2010Prop44ColorRGB
 90
      255
102
RTVSPost2010PropOp44
 70
     1
102
RTVSPost2010Prop45
280
     0
102
RTVSPost2010PropOp45
 70
     1
102
RTVSPost2010Prop46
 90
       50
102
RTVSPost2010PropOp46
 70
     1
102
RTVSPost2010Prop47
 90
       50
102
RTVSPost2010PropOp47
 70
     1
102
RTVSPost2010Prop48
 90
       50
102
RTVSPost2010PropOp48
 70
     1
102
RTVSPost2010Prop49
280
     0
102
RTVSPost2010PropOp49
 70
     1
102
RTVSPost2010Prop50
 90
       50
102
RTVSPost2010PropOp50
 70
     1
102
RTVSPost2010Prop51ColorIndex
 90
      256
102
RTVSPost2010Prop51ColorRGB
 90
-16777216
102
RTVSPost2010PropOp51
 70
     0
102
RTVSPost2010Prop52
140
1.0
102
RTVSPost2010PropOp52
 70
     0
102
RTVSPost2010Prop53
 90
        2
102
RTVSPost2010PropOp53
 70
     1
102
RTVSPost2010Prop54
  1
strokes_ogs.tif
102
RTVSPost2010PropOp54
 70
     1
102
RTVSPost2010Prop55
280
     0
102
RTVSPost2010PropOp55
 70
     1
102
RTVSPost2010Prop56
140
1.0
102
RTVSPost2010PropOp56
 70
     1
102
RTVSPost2010Prop57
140
1.0
102
RTVSPost2010PropOp57
 70
     1
102
RTVSPropertyOp0
 70
     1
102
RTVSPropertyOp1
 70
     1
102
RTVSPropertyOp2
 70
     1
102
RTVSPropertyOp3
 70
     1
102
RTVSPropertyOp4
 70
     1
102
RTVSPropertyOp5
 70
     1
102
RTVSPropertyOp6
 70
     1
102
RTVSPropertyOp7
 70
     1
102
RTVSPropertyOp8
 70
     1
102
RTVSPropertyOp9
 70
     1
102
RTVSPropertyOp10
 70
     1
102
RTVSPropertyOp11
 70
     1
102
RTVSPropertyOp12
 70
     1
102
RTVSPropertyOp13
 70
     1
102
RTVSPropertyOp14
 70
     1
102
RTVSPropertyOp15
 70
     1
102
RTVSPropertyOp16
 70
     1
102
RTVSPropertyOp17
 70
     1
102
RTVSPropertyOp18
 70
     1
102
RTVSPropertyOp19
 70
     1
102
RTVSPropertyOp20
 70
     1
102
RTVSPropertyOp21
 70
     1
102
RTVSPropertyOp22
 70
     1
102
RTVSPropertyOp23
 70
     1
102
RTVSPropertyOp24
 70
     1
102
RTVSPropertyOp25
 70
     1
102
RTVSPropertyOp26
 70
     1
102
RTVSPropertyOp27
 70
     1
102
RTVSPropertyOp28
 70
     1
102
RTVSPropertyOp29
 70
     1
102
RTVSPropertyOp30
 70
     1
102
RTVSPropertyOp31
 70
     1
102
RTVSPropertyOp32
 70
     1
102
RTVSPropertyOp33
 70
     1
102
RTVSPropertyOp34
 70
     1
102
RTVSPropertyOp35
 70
     1
102
RTVSPropertyOp36
 70
     1
102
RTVSPropertyOp37
 70
     1
102
RTVSPropertyOp38
 70
     1
102
RTVSPropertyOp39
 70
     1
102
RTVSPropertyOp40
 70
     1
102
RTVSPropertyOp41
 70
     1
102
RTVSPropertyOp42
 70
     1
102
RTVSPropertyOp43
 70
     1
102
RTVSPropertyOp44
 70
     1
102
RTVSPropertyOp45
 70
     1
102
RTVSPropertyOp46
 70
     1
102
RTVSPropertyOp47
 70
     1
102
RTVSPropertyOp48
 70
     1
102
RTVSPropertyOp49
 70
     1
102
RTVSPropertyOp50
 70
     1
102
RTVSPropertyOp51
 70
     0
102
RTVSPropertyOp52
 70
     0
102
RTVSPropertyOp53
 70
     1
102
RTVSPropertyOp54
 70
     1
102
RTVSPropertyOp55
 70
     1
102
RTVSPropertyOp56
 70
     1
102
RTVSPropertyOp57
 70
     1
102
RTVSPropertyOp58
 70
     1
102
RTVSPropertyOp59
 70
     1
102
RTVSPropertyOp60
 70
     1
102
RTVSPropertyOp61
 70
     1
102
RTVSPropertyOp62
 70
     1
  0
XRECORD
  5
1897
102
{ACAD_REACTORS
330
1896
102
}
330
1896
100
AcDbXrecord
280
     1
102
RTVSPost2010Prop28
280
     0
102
RTVSPost2010PropOp28
 70
     1
102
RTVSPost2010Prop29
280
     1
102
RTVSPost2010PropOp29
 70
     1
102
RTVSPost2010Prop30
280
     1
102
RTVSPost2010PropOp30
 70
     1
102
RTVSPost2010Prop31
280
     0
102
RTVSPost2010PropOp31
 70
     1
102
RTVSPost2010Prop32
280
     0
102
RTVSPost2010PropOp32
 70
     1
102
RTVSPost2010Prop33
280
     0
102
RTVSPost2010PropOp33
 70
     1
102
RTVSPost2010Prop34
280
     0
102
RTVSPost2010PropOp34
 70
     1
102
RTVSPost2010Prop35
280
     0
102
RTVSPost2010PropOp35
 70
     1
102
RTVSPost2010Prop36
280
     0
102
RTVSPost2010PropOp36
 70
     1
102
RTVSPost2010Prop37
 90
       50
102
RTVSPost2010PropOp37
 70
     1
102
RTVSPost2010Prop38
140
0.0
102
RTVSPost2010PropOp38
 70
     1
102
RTVSPost2010Prop39
140
1.0
102
RTVSPost2010PropOp39
 70
     1
102
RTVSPost2010Prop40
 90
        0
102
RTVSPost2010PropOp40
 70
     1
102
RTVSPost2010Prop41ColorIndex
 90
       18
102
RTVSPost2010Prop41ColorRGB
 90
        0
102
RTVSPost2010PropOp41
 70
     1
102
RTVSPost2010Prop42
 90
       50
102
RTVSPost2010PropOp42
 70
     1
102
RTVSPost2010Prop43
 90
        3
102
RTVSPost2010PropOp43
 70
     1
102
RTVSPost2010Prop44ColorIndex
 90
        5
102
RTVSPost2010Prop44ColorRGB
 90
      255
102
RTVSPost2010PropOp44
 70
     1
102
RTVSPost2010Prop45
280
     0
102
RTVSPost2010PropOp45
 70
     1
102
RTVSPost2010Prop46
 90
       50
102
RTVSPost2010PropOp46
 70
     1
102
RTVSPost2010Prop47
 90
       50
102
RTVSPost2010PropOp47
 70
     1
102
RTVSPost2010Prop48
 90
       50
102
RTVSPost2010PropOp48
 70
     1
102
RTVSPost2010Prop49
280
     0
102
RTVSPost2010PropOp49
 70
     1
102
RTVSPost2010Prop50
 90
       50
102
RTVSPost2010PropOp50
 70
     1
102
RTVSPost2010Prop51ColorIndex
 90
      256
102
RTVSPost2010Prop51ColorRGB
 90
-16777216
102
RTVSPost2010PropOp51
 70
     0
102
RTVSPost2010Prop52
140
1.0
102
RTVSPost2010PropOp52
 70
     0
102
RTVSPost2010Prop53
 90
        2
102
RTVSPost2010PropOp53
 70
     1
102
RTVSPost2010Prop54
  1
strokes_ogs.tif
102
RTVSPost2010PropOp54
 70
     1
102
RTVSPost2010Prop55
280
     0
102
RTVSPost2010PropOp55
 70
     1
102
RTVSPost2010Prop56
140
1.0
102
RTVSPost2010PropOp56
 70
     1
102
RTVSPost2010Prop57
140
1.0
102
RTVSPost2010PropOp57
 70
     1
102
RTVSPropertyOp0
 70
     1
102
RTVSPropertyOp1
 70
     1
102
RTVSPropertyOp2
 70
     1
102
RTVSPropertyOp3
 70
     1
102
RTVSPropertyOp4
 70
     1
102
RTVSPropertyOp5
 70
     1
102
RTVSPropertyOp6
 70
     1
102
RTVSPropertyOp7
 70
     1
102
RTVSPropertyOp8
 70
     1
102
RTVSPropertyOp9
 70
     1
102
RTVSPropertyOp10
 70
     1
102
RTVSPropertyOp11
 70
     1
102
RTVSPropertyOp12
 70
     1
102
RTVSPropertyOp13
 70
     1
102
RTVSPropertyOp14
 70
     1
102
RTVSPropertyOp15
 70
     1
102
RTVSPropertyOp16
 70
     1
102
RTVSPropertyOp17
 70
     1
102
RTVSPropertyOp18
 70
     1
102
RTVSPropertyOp19
 70
     1
102
RTVSPropertyOp20
 70
     1
102
RTVSPropertyOp21
 70
     1
102
RTVSPropertyOp22
 70
     1
102
RTVSPropertyOp23
 70
     1
102
RTVSPropertyOp24
 70
     1
102
RTVSPropertyOp25
 70
     1
102
RTVSPropertyOp26
 70
     1
102
RTVSPropertyOp27
 70
     1
102
RTVSPropertyOp28
 70
     1
102
RTVSPropertyOp29
 70
     1
102
RTVSPropertyOp30
 70
     1
102
RTVSPropertyOp31
 70
     1
102
RTVSPropertyOp32
 70
     1
102
RTVSPropertyOp33
 70
     1
102
RTVSPropertyOp34
 70
     1
102
RTVSPropertyOp35
 70
     1
102
RTVSPropertyOp36
 70
     1
102
RTVSPropertyOp37
 70
     1
102
RTVSPropertyOp38
 70
     1
102
RTVSPropertyOp39
 70
     1
102
RTVSPropertyOp40
 70
     1
102
RTVSPropertyOp41
 70
     1
102
RTVSPropertyOp42
 70
     1
102
RTVSPropertyOp43
 70
     1
102
RTVSPropertyOp44
 70
     1
102
RTVSPropertyOp45
 70
     1
102
RTVSPropertyOp46
 70
     1
102
RTVSPropertyOp47
 70
     1
102
RTVSPropertyOp48
 70
     1
102
RTVSPropertyOp49
 70
     1
102
RTVSPropertyOp50
 70
     1
102
RTVSPropertyOp51
 70
     0
102
RTVSPropertyOp52
 70
     0
102
RTVSPropertyOp53
 70
     1
102
RTVSPropertyOp54
 70
     1
102
RTVSPropertyOp55
 70
     1
102
RTVSPropertyOp56
 70
     1
102
RTVSPropertyOp57
 70
     1
102
RTVSPropertyOp58
 70
     1
102
RTVSPropertyOp59
 70
     1
102
RTVSPropertyOp60
 70
     1
102
RTVSPropertyOp61
 70
     1
102
RTVSPropertyOp62
 70
     1
  0
XRECORD
  5
189F
102
{ACAD_REACTORS
330
189E
102
}
330
189E
100
AcDbXrecord
280
     1
102
RTVSPost2010Prop28
280
     0
102
RTVSPost2010PropOp28
 70
     1
102
RTVSPost2010Prop29
280
     1
102
RTVSPost2010PropOp29
 70
     1
102
RTVSPost2010Prop30
280
     1
102
RTVSPost2010PropOp30
 70
     1
102
RTVSPost2010Prop31
280
     0
102
RTVSPost2010PropOp31
 70
     1
102
RTVSPost2010Prop32
280
     0
102
RTVSPost2010PropOp32
 70
     1
102
RTVSPost2010Prop33
280
     0
102
RTVSPost2010PropOp33
 70
     1
102
RTVSPost2010Prop34
280
     0
102
RTVSPost2010PropOp34
 70
     1
102
RTVSPost2010Prop35
280
     0
102
RTVSPost2010PropOp35
 70
     1
102
RTVSPost2010Prop36
280
     0
102
RTVSPost2010PropOp36
 70
     1
102
RTVSPost2010Prop37
 90
       50
102
RTVSPost2010PropOp37
 70
     1
102
RTVSPost2010Prop38
140
0.0
102
RTVSPost2010PropOp38
 70
     1
102
RTVSPost2010Prop39
140
1.0
102
RTVSPost2010PropOp39
 70
     1
102
RTVSPost2010Prop40
 90
        0
102
RTVSPost2010PropOp40
 70
     1
102
RTVSPost2010Prop41ColorIndex
 90
       18
102
RTVSPost2010Prop41ColorRGB
 90
        0
102
RTVSPost2010PropOp41
 70
     1
102
RTVSPost2010Prop42
 90
       50
102
RTVSPost2010PropOp42
 70
     1
102
RTVSPost2010Prop43
 90
        3
102
RTVSPost2010PropOp43
 70
     1
102
RTVSPost2010Prop44ColorIndex
 90
        5
102
RTVSPost2010Prop44ColorRGB
 90
      255
102
RTVSPost2010PropOp44
 70
     1
102
RTVSPost2010Prop45
280
     0
102
RTVSPost2010PropOp45
 70
     1
102
RTVSPost2010Prop46
 90
       50
102
RTVSPost2010PropOp46
 70
     1
102
RTVSPost2010Prop47
 90
       50
102
RTVSPost2010PropOp47
 70
     1
102
RTVSPost2010Prop48
 90
       50
102
RTVSPost2010PropOp48
 70
     1
102
RTVSPost2010Prop49
280
     0
102
RTVSPost2010PropOp49
 70
     1
102
RTVSPost2010Prop50
 90
       50
102
RTVSPost2010PropOp50
 70
     1
102
RTVSPost2010Prop51ColorIndex
 90
      256
102
RTVSPost2010Prop51ColorRGB
 90
-16777216
102
RTVSPost2010PropOp51
 70
     0
102
RTVSPost2010Prop52
140
1.0
102
RTVSPost2010PropOp52
 70
     0
102
RTVSPost2010Prop53
 90
        2
102
RTVSPost2010PropOp53
 70
     1
102
RTVSPost2010Prop54
  1
strokes_ogs.tif
102
RTVSPost2010PropOp54
 70
     1
102
RTVSPost2010Prop55
280
     0
102
RTVSPost2010PropOp55
 70
     1
102
RTVSPost2010Prop56
140
1.0
102
RTVSPost2010PropOp56
 70
     1
102
RTVSPost2010Prop57
140
1.0
102
RTVSPost2010PropOp57
 70
     1
102
RTVSPropertyOp0
 70
     1
102
RTVSPropertyOp1
 70
     1
102
RTVSPropertyOp2
 70
     1
102
RTVSPropertyOp3
 70
     1
102
RTVSPropertyOp4
 70
     1
102
RTVSPropertyOp5
 70
     1
102
RTVSPropertyOp6
 70
     1
102
RTVSPropertyOp7
 70
     1
102
RTVSPropertyOp8
 70
     1
102
RTVSPropertyOp9
 70
     1
102
RTVSPropertyOp10
 70
     1
102
RTVSPropertyOp11
 70
     1
102
RTVSPropertyOp12
 70
     1
102
RTVSPropertyOp13
 70
     1
102
RTVSPropertyOp14
 70
     1
102
RTVSPropertyOp15
 70
     1
102
RTVSPropertyOp16
 70
     1
102
RTVSPropertyOp17
 70
     1
102
RTVSPropertyOp18
 70
     1
102
RTVSPropertyOp19
 70
     1
102
RTVSPropertyOp20
 70
     1
102
RTVSPropertyOp21
 70
     1
102
RTVSPropertyOp22
 70
     1
102
RTVSPropertyOp23
 70
     1
102
RTVSPropertyOp24
 70
     1
102
RTVSPropertyOp25
 70
     1
102
RTVSPropertyOp26
 70
     1
102
RTVSPropertyOp27
 70
     1
102
RTVSPropertyOp28
 70
     1
102
RTVSPropertyOp29
 70
     1
102
RTVSPropertyOp30
 70
     1
102
RTVSPropertyOp31
 70
     1
102
RTVSPropertyOp32
 70
     1
102
RTVSPropertyOp33
 70
     1
102
RTVSPropertyOp34
 70
     1
102
RTVSPropertyOp35
 70
     1
102
RTVSPropertyOp36
 70
     1
102
RTVSPropertyOp37
 70
     1
102
RTVSPropertyOp38
 70
     1
102
RTVSPropertyOp39
 70
     1
102
RTVSPropertyOp40
 70
     1
102
RTVSPropertyOp41
 70
     1
102
RTVSPropertyOp42
 70
     1
102
RTVSPropertyOp43
 70
     1
102
RTVSPropertyOp44
 70
     1
102
RTVSPropertyOp45
 70
     1
102
RTVSPropertyOp46
 70
     1
102
RTVSPropertyOp47
 70
     1
102
RTVSPropertyOp48
 70
     1
102
RTVSPropertyOp49
 70
     1
102
RTVSPropertyOp50
 70
     1
102
RTVSPropertyOp51
 70
     0
102
RTVSPropertyOp52
 70
     0
102
RTVSPropertyOp53
 70
     1
102
RTVSPropertyOp54
 70
     1
102
RTVSPropertyOp55
 70
     1
102
RTVSPropertyOp56
 70
     1
102
RTVSPropertyOp57
 70
     1
102
RTVSPropertyOp58
 70
     1
102
RTVSPropertyOp59
 70
     1
102
RTVSPropertyOp60
 70
     1
102
RTVSPropertyOp61
 70
     1
102
RTVSPropertyOp62
 70
     1
  0
ENDSEC
  0
EOF
