  0
SECTION
  2
HEADER
  9
$ACADVER
  1
AC1015
  9
$ACADMAINTVER
 70
    20
  9
$DWGCODEPAGE
  3
ANSI_1252
  9
$INSBASE
 10
0.0
 20
0.0
 30
0.0
  9
$EXTMIN
 10
17.16324914009379
 20
63.13362664875057
 30
-0.0015258207003583
  9
$EXTMAX
 10
91.17854849431223
 20
103.1482749962284
 30
0.0000000349246037
  9
$LIMMIN
 10
0.0
 20
0.0
  9
$LIMMAX
 10
181.3333333333
 20
117.3333333333
  9
$ORTHOMODE
 70
     0
  9
$REGENMODE
 70
     1
  9
$FILLMODE
 70
     1
  9
$QTEXTMODE
 70
     0
  9
$MIRRTEXT
 70
     0
  9
$LTSCALE
 40
9.973333333300001
  9
$ATTMODE
 70
     1
  9
$TEXTSIZE
 40
0.2
  9
$TRACEWID
 40
0.05
  9
$TEXTSTYLE
  7
STANDARD
  9
$CLAYER
  8
0
  9
$CELTYPE
  6
BYLAYER
  9
$CECOLOR
 62
   256
  9
$CELTSCALE
 40
1.0
  9
$DISPSILH
 70
     0
  9
$DIMSCALE
 40
1.0
  9
$DIMASZ
 40
2.0
  9
$DIMEXO
 40
0.0625
  9
$DIMDLI
 40
6.890666666699999
  9
$DIMRND
 40
0.0
  9
$DIMDLE
 40
0.0
  9
$DIMEXE
 40
0.125
  9
$DIMTP
 40
0.00001
  9
$DIMTM
 40
0.00001
  9
$DIMTXT
 40
1.333333333299999
  9
$DIMCEN
 40
1.631999999999999
  9
$DIMTSZ
 40
0.0
  9
$DIMTOL
 70
     1
  9
$DIMLIM
 70
     0
  9
$DIMTIH
 70
     1
  9
$DIMTOH
 70
     1
  9
$DIMSE1
 70
     0
  9
$DIMSE2
 70
     0
  9
$DIMTAD
 70
     0
  9
$DIMZIN
 70
     0
  9
$DIMBLK
  1

  9
$DIMASO
 70
     1
  9
$DIMSHO
 70
     1
  9
$DIMPOST
  1

  9
$DIMAPOST
  1

  9
$DIMALT
 70
     1
  9
$DIMALTD
 70
     4
  9
$DIMALTF
 40
2.54
  9
$DIMLFAC
 40
1.0
  9
$DIMTOFL
 70
     0
  9
$DIMTVP
 40
0.0
  9
$DIMTIX
 70
     0
  9
$DIMSOXD
 70
     0
  9
$DIMSAH
 70
     0
  9
$DIMBLK1
  1

  9
$DIMBLK2
  1

  9
$DIMSTYLE
  2
STANDARD
  9
$DIMCLRD
 70
     0
  9
$DIMCLRE
 70
     0
  9
$DIMCLRT
 70
     0
  9
$DIMTFAC
 40
1.0
  9
$DIMGAP
 40
0.09
  9
$DIMJUST
 70
     0
  9
$DIMSD1
 70
     0
  9
$DIMSD2
 70
     0
  9
$DIMTOLJ
 70
     1
  9
$DIMTZIN
 70
     0
  9
$DIMALTZ
 70
     0
  9
$DIMALTTZ
 70
     0
  9
$DIMUPT
 70
     0
  9
$DIMDEC
 70
     4
  9
$DIMTDEC
 70
     4
  9
$DIMALTU
 70
     2
  9
$DIMALTTD
 70
     2
  9
$DIMTXSTY
  7
STANDARD
  9
$DIMAUNIT
 70
     0
  9
$DIMADEC
 70
     0
  9
$DIMALTRND
 40
0.0
  9
$DIMAZIN
 70
     0
  9
$DIMDSEP
 70
    46
  9
$DIMATFIT
 70
     3
  9
$DIMFRAC
 70
     0
  9
$DIMLDRBLK
  1

  9
$DIMLUNIT
 70
     2
  9
$DIMLWD
 70
    -2
  9
$DIMLWE
 70
    -2
  9
$DIMTMOVE
 70
     0
  9
$LUNITS
 70
     2
  9
$LUPREC
 70
     4
  9
$SKETCHINC
 40
0.1
  9
$FILLETRAD
 40
0.0
  9
$AUNITS
 70
     0
  9
$AUPREC
 70
     0
  9
$MENU
  1
.
  9
$ELEVATION
 40
0.0
  9
$PELEVATION
 40
0.0
  9
$THICKNESS
 40
0.0
  9
$LIMCHECK
 70
     0
  9
$CHAMFERA
 40
0.0
  9
$CHAMFERB
 40
0.0
  9
$CHAMFERC
 40
0.0
  9
$CHAMFERD
 40
0.0
  9
$SKPOLY
 70
     0
  9
$TDCREATE
 40
2458017.465393519
  9
$TDUCREATE
 40
2458017.632060475
  9
$TDUPDATE
 40
2458017.469930556
  9
$TDUUPDATE
 40
2458017.636597222
  9
$TDINDWG
 40
0.0004284259
  9
$TDUSRTIMER
 40
0.0004284259
  9
$USRTIMER
 70
     1
  9
$ANGBASE
 50
0.0
  9
$ANGDIR
 70
     0
  9
$PDMODE
 70
     3
  9
$PDSIZE
 40
0.03125
  9
$PLINEWID
 40
0.0
  9
$SPLFRAME
 70
     0
  9
$SPLINETYPE
 70
     6
  9
$SPLINESEGS
 70
     8
  9
$HANDSEED
  5
454
  9
$SURFTAB1
 70
     6
  9
$SURFTAB2
 70
     6
  9
$SURFTYPE
 70
     6
  9
$SURFU
 70
     6
  9
$SURFV
 70
     6
  9
$UCSBASE
  2

  9
$UCSNAME
  2

  9
$UCSORG
 10
0.0
 20
0.0
 30
0.0
  9
$UCSXDIR
 10
1.0
 20
0.0
 30
0.0
  9
$UCSYDIR
 10
0.0
 20
1.0
 30
0.0
  9
$UCSORTHOREF
  2

  9
$UCSORTHOVIEW
 70
     0
  9
$UCSORGTOP
 10
0.0
 20
0.0
 30
0.0
  9
$UCSORGBOTTOM
 10
0.0
 20
0.0
 30
0.0
  9
$UCSORGLEFT
 10
0.0
 20
0.0
 30
0.0
  9
$UCSORGRIGHT
 10
0.0
 20
0.0
 30
0.0
  9
$UCSORGFRONT
 10
0.0
 20
0.0
 30
0.0
  9
$UCSORGBACK
 10
0.0
 20
0.0
 30
0.0
  9
$PUCSBASE
  2

  9
$PUCSNAME
  2

  9
$PUCSORG
 10
0.0
 20
0.0
 30
0.0
  9
$PUCSXDIR
 10
1.0
 20
0.0
 30
0.0
  9
$PUCSYDIR
 10
0.0
 20
1.0
 30
0.0
  9
$PUCSORTHOREF
  2

  9
$PUCSORTHOVIEW
 70
     0
  9
$PUCSORGTOP
 10
0.0
 20
0.0
 30
0.0
  9
$PUCSORGBOTTOM
 10
0.0
 20
0.0
 30
0.0
  9
$PUCSORGLEFT
 10
0.0
 20
0.0
 30
0.0
  9
$PUCSORGRIGHT
 10
0.0
 20
0.0
 30
0.0
  9
$PUCSORGFRONT
 10
0.0
 20
0.0
 30
0.0
  9
$PUCSORGBACK
 10
0.0
 20
0.0
 30
0.0
  9
$USERI1
 70
     0
  9
$USERI2
 70
     0
  9
$USERI3
 70
     0
  9
$USERI4
 70
     0
  9
$USERI5
 70
     0
  9
$USERR1
 40
0.0
  9
$USERR2
 40
0.0
  9
$USERR3
 40
0.0
  9
$USERR4
 40
0.0
  9
$USERR5
 40
0.0
  9
$WORLDVIEW
 70
     1
  9
$SHADEDGE
 70
     3
  9
$SHADEDIF
 70
    70
  9
$TILEMODE
 70
     1
  9
$MAXACTVP
 70
    64
  9
$PINSBASE
 10
0.0
 20
0.0
 30
0.0
  9
$PLIMCHECK
 70
     0
  9
$PEXTMIN
 10
1.000000000000000E+20
 20
1.000000000000000E+20
 30
1.000000000000000E+20
  9
$PEXTMAX
 10
-1.000000000000000E+20
 20
-1.000000000000000E+20
 30
-1.000000000000000E+20
  9
$PLIMMIN
 10
0.0
 20
0.0
  9
$PLIMMAX
 10
12.0
 20
9.0
  9
$UNITMODE
 70
     0
  9
$VISRETAIN
 70
     1
  9
$PLINEGEN
 70
     0
  9
$PSLTSCALE
 70
     1
  9
$TREEDEPTH
 70
  3020
  9
$CMLSTYLE
  2
Standard
  9
$CMLJUST
 70
     0
  9
$CMLSCALE
 40
1.0
  9
$PROXYGRAPHICS
 70
     1
  9
$MEASUREMENT
 70
     0
  9
$CELWEIGHT
370
    -1
  9
$ENDCAPS
280
     0
  9
$JOINSTYLE
280
     0
  9
$LWDISPLAY
290
     0
  9
$INSUNITS
 70
     1
  9
$HYPERLINKBASE
  1

  9
$STYLESHEET
  1

  9
$XEDIT
290
     1
  9
$CEPSNTYPE
380
     0
  9
$PSTYLEMODE
290
     1
  9
$FINGERPRINTGUID
  2
{E04023C6-BB25-4CA6-B7DE-265E014AC763}
  9
$VERSIONGUID
  2
{71FA4EB6-642F-1F40-876B-AA2AFD47051F}
  9
$EXTNAMES
290
     1
  9
$PSVPSCALE
 40
0.0
  9
$OLESTARTUP
290
     0
  0
ENDSEC
  0
SECTION
  2
CLASSES
  0
CLASS
  1
ACDBDICTIONARYWDFLT
  2
AcDbDictionaryWithDefault
  3
ObjectDBX Classes
 90
        0
280
     0
281
     0
  0
CLASS
  1
ACDBPLACEHOLDER
  2
AcDbPlaceHolder
  3
ObjectDBX Classes
 90
        0
280
     0
281
     0
  0
CLASS
  1
LAYOUT
  2
AcDbLayout
  3
ObjectDBX Classes
 90
        0
280
     0
281
     0
  0
CLASS
  1
MATERIAL
  2
AcDbMaterial
  3
ObjectDBX Classes
 90
     1153
280
     0
281
     0
  0
CLASS
  1
VISUALSTYLE
  2
AcDbVisualStyle
  3
ObjectDBX Classes
 90
     4095
280
     0
281
     0
  0
CLASS
  1
TABLESTYLE
  2
AcDbTableStyle
  3
ObjectDBX Classes
 90
     4095
280
     0
281
     0
  0
CLASS
  1
SCALE
  2
AcDbScale
  3
ObjectDBX Classes
 90
     1153
280
     0
281
     0
  0
CLASS
  1
MLEADERSTYLE
  2
AcDbMLeaderStyle
  3
ACDB_MLEADERSTYLE_CLASS
 90
     4095
280
     0
281
     0
  0
CLASS
  1
ACDBSECTIONVIEWSTYLE
  2
AcDbSectionViewStyle
  3
ObjectDBX Classes
 90
     1025
280
     0
281
     0
  0
CLASS
  1
ACDBDETAILVIEWSTYLE
  2
AcDbDetailViewStyle
  3
ObjectDBX Classes
 90
     1025
280
     0
281
     0
  0
CLASS
  1
CELLSTYLEMAP
  2
AcDbCellStyleMap
  3
ObjectDBX Classes
 90
     1152
280
     0
281
     0
  0
CLASS
  1
DICTIONARYVAR
  2
AcDbDictionaryVar
  3
ObjectDBX Classes
 90
        0
280
     0
281
     0
  0
ENDSEC
  0
SECTION
  2
TABLES
  0
TABLE
  2
VPORT
  5
8
102
{ACAD_XDICTIONARY
360
330
102
}
330
0
100
AcDbSymbolTable
 70
     1
  0
VPORT
  5
1F4
330
8
100
AcDbSymbolTableRecord
100
AcDbViewportTableRecord
  2
*ACTIVE
 70
     0
 10
0.0
 20
0.0
 11
1.0
 21
1.0
 12
54.17089881720301
 22
83.14095082248952
 13
0.0
 23
0.0
 14
1.0
 24
1.0
 15
0.0
 25
0.0
 16
0.0
 26
0.0
 36
1.0
 17
0.0
 27
0.0
 37
0.0
 40
40.26267302731762
 41
1.98448810754912
 42
50.0
 43
0.0
 44
0.0
 50
0.0
 51
0.0
 71
     0
 72
   100
 73
     1
 74
     1
 75
     0
 76
     0
 77
     0
 78
     0
281
     0
 65
     1
110
0.0
120
0.0
130
0.0
111
1.0
121
0.0
131
0.0
112
0.0
122
1.0
132
0.0
 79
     0
146
0.0
1001
ACAD_NAV_VCDISPLAY
1070
     3
  0
ENDTAB
  0
TABLE
  2
LTYPE
  5
5
330
0
100
AcDbSymbolTable
 70
     7
  0
LTYPE
  5
14
330
5
100
AcDbSymbolTableRecord
100
AcDbLinetypeTableRecord
  2
BYBLOCK
 70
     0
  3

 72
    65
 73
     0
 40
0.0
  0
LTYPE
  5
15
330
5
100
AcDbSymbolTableRecord
100
AcDbLinetypeTableRecord
  2
BYLAYER
 70
     0
  3

 72
    65
 73
     0
 40
0.0
  0
LTYPE
  5
16
330
5
100
AcDbSymbolTableRecord
100
AcDbLinetypeTableRecord
  2
CONTINUOUS
 70
     0
  3
Solid line
 72
    65
 73
     0
 40
0.0
  0
LTYPE
  5
1F5
330
5
100
AcDbSymbolTableRecord
100
AcDbLinetypeTableRecord
  2
CENTER
 70
     0
  3
____ _ ____ _ ____ _ ____ _ ____ _ ____ _ ____
 72
    65
 73
     4
 40
0.6
 49
0.375
 74
     0
 49
-0.075
 74
     0
 49
0.075
 74
     0
 49
-0.075
 74
     0
  0
LTYPE
  5
1F6
330
5
100
AcDbSymbolTableRecord
100
AcDbLinetypeTableRecord
  2
HIDDEN
 70
     0
  3
- - - - - - - - - - - - - - - - - - - -
 72
    65
 73
     2
 40
0.2
 49
0.1
 74
     0
 49
-0.1
 74
     0
  0
LTYPE
  5
1F7
330
5
100
AcDbSymbolTableRecord
100
AcDbLinetypeTableRecord
  2
PHANTOM
 70
     0
  3
_____ _ _ _____ _ _ _____ _ _ _____
 72
    65
 73
     6
 40
0.8
 49
0.45
 74
     0
 49
-0.05
 74
     0
 49
0.1
 74
     0
 49
-0.05
 74
     0
 49
0.1
 74
     0
 49
-0.05
 74
     0
  0
LTYPE
  5
1F8
330
5
100
AcDbSymbolTableRecord
100
AcDbLinetypeTableRecord
  2
DOT
 70
     0
  3
. . . . . . . . . . . . . . . . . . . .
 72
    65
 73
     2
 40
0.2
 49
0.1
 74
     0
 49
-0.1
 74
     0
  0
LTYPE
  5
1F9
330
5
100
AcDbSymbolTableRecord
100
AcDbLinetypeTableRecord
  2
DASHED
 70
     0
  3
- - - - - - - - - - - - - - - - - - - -
 72
    65
 73
     2
 40
0.2
 49
0.1
 74
     0
 49
-0.1
 74
     0
  0
LTYPE
  5
329
330
5
100
AcDbSymbolTableRecord
100
AcDbLinetypeTableRecord
  2
PHANTOM2
 70
     0
  3
___ _ _ ___ _ _ ___ _ _ ___ _ _
 72
    65
 73
     6
 40
1.25
 49
0.625
 74
     0
 49
-0.125
 74
     0
 49
0.125
 74
     0
 49
-0.125
 74
     0
 49
0.125
 74
     0
 49
-0.125
 74
     0
  0
ENDTAB
  0
TABLE
  2
LAYER
  5
2
102
{ACAD_XDICTIONARY
360
3B7
102
}
330
0
100
AcDbSymbolTable
 70
    29
  0
LAYER
  5
10
102
{ACAD_XDICTIONARY
360
37A
102
}
330
2
100
AcDbSymbolTableRecord
100
AcDbLayerTableRecord
  2
0
 70
     0
 62
     7
  6
CONTINUOUS
370
    -3
390
F
  0
LAYER
  5
1FA
102
{ACAD_XDICTIONARY
360
37C
102
}
330
2
100
AcDbSymbolTableRecord
100
AcDbLayerTableRecord
  2
DEFAULT_1
 70
     0
 62
     7
  6
CENTER
370
    -3
390
F
  0
LAYER
  5
1FB
102
{ACAD_XDICTIONARY
360
37E
102
}
330
2
100
AcDbSymbolTableRecord
100
AcDbLayerTableRecord
  2
DEFAULT_2
 70
     0
 62
     8
  6
HIDDEN
370
    -3
390
F
  0
LAYER
  5
1FC
102
{ACAD_XDICTIONARY
360
380
102
}
330
2
100
AcDbSymbolTableRecord
100
AcDbLayerTableRecord
  2
DEFAULT_3
 70
     0
 62
     7
  6
PHANTOM
370
    -3
390
F
  0
LAYER
  5
1FD
102
{ACAD_XDICTIONARY
360
382
102
}
330
2
100
AcDbSymbolTableRecord
100
AcDbLayerTableRecord
  2
1_CURVES
 70
     0
 62
     7
  6
CONTINUOUS
370
    -3
390
F
  0
LAYER
  5
1FE
102
{ACAD_XDICTIONARY
360
384
102
}
330
2
100
AcDbSymbolTableRecord
100
AcDbLayerTableRecord
  2
1_CURVES_CHROMO_INV
 70
     0
 62
     7
  6
CONTINUOUS
370
    -3
390
F
  0
LAYER
  5
1FF
102
{ACAD_XDICTIONARY
360
386
102
}
330
2
100
AcDbSymbolTableRecord
100
AcDbLayerTableRecord
  2
1_CURVES_CONTROLE_AROMA
 70
     0
 62
     7
  6
CONTINUOUS
370
    -3
390
F
  0
LAYER
  5
200
102
{ACAD_XDICTIONARY
360
388
102
}
330
2
100
AcDbSymbolTableRecord
100
AcDbLayerTableRecord
  2
1_CURVES_CONTROLE_AROMA_2
 70
     0
 62
     7
  6
CONTINUOUS
370
    -3
390
F
  0
LAYER
  5
201
102
{ACAD_XDICTIONARY
360
38A
102
}
330
2
100
AcDbSymbolTableRecord
100
AcDbLayerTableRecord
  2
1_CURVES_DOT
 70
     0
 62
     7
  6
CONTINUOUS
370
    -3
390
F
  0
LAYER
  5
202
102
{ACAD_XDICTIONARY
360
38C
102
}
330
2
100
AcDbSymbolTableRecord
100
AcDbLayerTableRecord
  2
1_CURVES_JETS
 70
     0
 62
     7
  6
CONTINUOUS
370
    -3
390
F
  0
LAYER
  5
203
102
{ACAD_XDICTIONARY
360
38E
102
}
330
2
100
AcDbSymbolTableRecord
100
AcDbLayerTableRecord
  2
1_CURVES_SPEC_FRONT
 70
     0
 62
     7
  6
CONTINUOUS
370
    -3
390
F
  0
LAYER
  5
204
102
{ACAD_XDICTIONARY
360
390
102
}
330
2
100
AcDbSymbolTableRecord
100
AcDbLayerTableRecord
  2
1_CURVES_SPEC_RIGHT
 70
     0
 62
     7
  6
CONTINUOUS
370
    -3
390
F
  0
LAYER
  5
205
102
{ACAD_XDICTIONARY
360
392
102
}
330
2
100
AcDbSymbolTableRecord
100
AcDbLayerTableRecord
  2
2_PLANES
 70
     0
 62
     7
  6
CONTINUOUS
370
    -3
390
F
  0
LAYER
  5
206
102
{ACAD_XDICTIONARY
360
394
102
}
330
2
100
AcDbSymbolTableRecord
100
AcDbLayerTableRecord
  2
2_PLANES_CHROMO_INV
 70
     0
 62
     7
  6
CONTINUOUS
370
    -3
390
F
  0
LAYER
  5
207
102
{ACAD_XDICTIONARY
360
396
102
}
330
2
100
AcDbSymbolTableRecord
100
AcDbLayerTableRecord
  2
2_PLANES_JETS
 70
     0
 62
     7
  6
CONTINUOUS
370
    -3
390
F
  0
LAYER
  5
208
102
{ACAD_XDICTIONARY
360
398
102
}
330
2
100
AcDbSymbolTableRecord
100
AcDbLayerTableRecord
  2
3_POINTS
 70
     0
 62
     7
  6
CONTINUOUS
370
    -3
390
F
  0
LAYER
  5
209
102
{ACAD_XDICTIONARY
360
39A
102
}
330
2
100
AcDbSymbolTableRecord
100
AcDbLayerTableRecord
  2
3_POINTS_JETS
 70
     0
 62
     7
  6
CONTINUOUS
370
    -3
390
F
  0
LAYER
  5
20A
102
{ACAD_XDICTIONARY
360
39C
102
}
330
2
100
AcDbSymbolTableRecord
100
AcDbLayerTableRecord
  2
3_POINTS_SPEC
 70
     0
 62
     7
  6
CONTINUOUS
370
    -3
390
F
  0
LAYER
  5
20B
102
{ACAD_XDICTIONARY
360
39E
102
}
330
2
100
AcDbSymbolTableRecord
100
AcDbLayerTableRecord
  2
4_CSYS
 70
     0
 62
     7
  6
CONTINUOUS
370
    -3
390
F
  0
LAYER
  5
20C
102
{ACAD_XDICTIONARY
360
3A0
102
}
330
2
100
AcDbSymbolTableRecord
100
AcDbLayerTableRecord
  2
5_AXIS
 70
     0
 62
     7
  6
CONTINUOUS
370
    -3
390
F
  0
LAYER
  5
20D
102
{ACAD_XDICTIONARY
360
3A2
102
}
330
2
100
AcDbSymbolTableRecord
100
AcDbLayerTableRecord
  2
5_AXIS_CHROMO_INV
 70
     0
 62
     7
  6
CONTINUOUS
370
    -3
390
F
  0
LAYER
  5
20E
102
{ACAD_XDICTIONARY
360
3A4
102
}
330
2
100
AcDbSymbolTableRecord
100
AcDbLayerTableRecord
  2
5_AXIS_JETS
 70
     0
 62
     7
  6
CONTINUOUS
370
    -3
390
F
  0
LAYER
  5
20F
102
{ACAD_XDICTIONARY
360
3A6
102
}
330
2
100
AcDbSymbolTableRecord
100
AcDbLayerTableRecord
  2
6_SURFACES
 70
     0
 62
     7
  6
CONTINUOUS
370
    -3
390
F
  0
LAYER
  5
210
102
{ACAD_XDICTIONARY
360
3A8
102
}
330
2
100
AcDbSymbolTableRecord
100
AcDbLayerTableRecord
  2
6_SURFACES_OFFSET_FIBRE_ACRYLIQ
 70
     0
 62
     7
  6
CONTINUOUS
370
    -3
390
F
  0
LAYER
  5
211
102
{ACAD_XDICTIONARY
360
3AA
102
}
330
2
100
AcDbSymbolTableRecord
100
AcDbLayerTableRecord
  2
6_SURFACES_TOOLING
 70
     0
 62
     7
  6
CONTINUOUS
370
    -3
390
F
  0
LAYER
  5
212
102
{ACAD_XDICTIONARY
360
3AC
102
}
330
2
100
AcDbSymbolTableRecord
100
AcDbLayerTableRecord
  2
6_SURFACES_TOOLING_FS
 70
     0
 62
     7
  6
CONTINUOUS
370
    -3
390
F
  0
LAYER
  5
213
102
{ACAD_XDICTIONARY
360
3AE
102
}
330
2
100
AcDbSymbolTableRecord
100
AcDbLayerTableRecord
  2
6_SURFACES_TOOLING_O
 70
     0
 62
     7
  6
CONTINUOUS
370
    -3
390
F
  0
LAYER
  5
214
102
{ACAD_XDICTIONARY
360
3B0
102
}
330
2
100
AcDbSymbolTableRecord
100
AcDbLayerTableRecord
  2
7_NOTES
 70
     0
 62
     7
  6
CONTINUOUS
370
    -3
390
F
  0
LAYER
  5
215
102
{ACAD_XDICTIONARY
360
3B2
102
}
330
2
100
AcDbSymbolTableRecord
100
AcDbLayerTableRecord
  2
XSEC_DATUMS
 70
     0
 62
     7
  6
CONTINUOUS
370
    -3
390
F
  0
ENDTAB
  0
TABLE
  2
STYLE
  5
3
330
0
100
AcDbSymbolTable
 70
     2
  0
STYLE
  5
11
330
3
100
AcDbSymbolTableRecord
100
AcDbTextStyleTableRecord
  2
STANDARD
 70
     0
 40
0.0
 41
0.8
 50
0.0
 71
     0
 42
0.2
  3
txt
  4

  0
STYLE
  5
216
330
3
100
AcDbSymbolTableRecord
100
AcDbTextStyleTableRecord
  2
TEXTSTYLE_1
 70
     0
 40
0.0
 41
0.8
 50
0.0
 71
     0
 42
0.2
  3
gdt
  4

  0
ENDTAB
  0
TABLE
  2
VIEW
  5
6
330
0
100
AcDbSymbolTable
 70
     1
  0
ENDTAB
  0
TABLE
  2
UCS
  5
7
330
0
100
AcDbSymbolTable
 70
     0
  0
ENDTAB
  0
TABLE
  2
APPID
  5
9
330
0
100
AcDbSymbolTable
 70
     3
  0
APPID
  5
217
330
9
100
AcDbSymbolTableRecord
100
AcDbRegAppTableRecord
  2
ACAD
 70
     0
  0
APPID
  5
36A
330
9
100
AcDbSymbolTableRecord
100
AcDbRegAppTableRecord
  2
ACAD_MLEADERVER
 70
     0
  0
APPID
  5
3BD
330
9
100
AcDbSymbolTableRecord
100
AcDbRegAppTableRecord
  2
ACAD_NAV_VCDISPLAY
 70
     0
  0
ENDTAB
  0
TABLE
  2
DIMSTYLE
  5
A
330
0
100
AcDbSymbolTable
 70
     1
100
AcDbDimStyleTable
 71
     0
  0
DIMSTYLE
105
21A
330
A
100
AcDbSymbolTableRecord
100
AcDbDimStyleTableRecord
  2
STANDARD
 70
     0
 41
2.0
 44
0.125
 47
0.00001
 48
0.00001
 71
     1
 78
     4
140
1.333333333299999
143
2.54
170
     1
171
     4
271
     5
272
     5
284
     4
340
11
  0
ENDTAB
  0
TABLE
  2
BLOCK_RECORD
  5
1
330
0
100
AcDbSymbolTable
 70
     0
  0
BLOCK_RECORD
  5
218
330
1
100
AcDbSymbolTableRecord
100
AcDbBlockTableRecord
  2
*Model_Space
340
2DB
  0
BLOCK_RECORD
  5
219
330
1
100
AcDbSymbolTableRecord
100
AcDbBlockTableRecord
  2
*Paper_Space
340
2DC
  0
ENDTAB
  0
ENDSEC
  0
SECTION
  2
BLOCKS
  0
BLOCK
  5
20
330
218
100
AcDbEntity
  8
0
100
AcDbBlockBegin
  2
*Model_Space
 70
     0
 10
0.0
 20
0.0
 30
0.0
  3
*Model_Space
  1

  0
ENDBLK
  5
21
330
218
100
AcDbEntity
  8
0
100
AcDbBlockEnd
  0
BLOCK
  5
1C
330
219
100
AcDbEntity
 67
     1
  8
0
100
AcDbBlockBegin
  2
*Paper_Space
 70
     0
 10
0.0
 20
0.0
 30
0.0
  3
*Paper_Space
  1

  0
ENDBLK
  5
1D
330
219
100
AcDbEntity
 67
     1
  8
0
100
AcDbBlockEnd
  0
ENDSEC
  0
SECTION
  2
ENTITIES
  0
LINE
  5
262
330
218
100
AcDbEntity
  8
DEFAULT_1
  6
CENTER
 62
     7
100
AcDbLine
 10
58.0453664414
 20
78.89019650289999
 30
0.0
 11
55.8536997747
 21
78.89019650289999
 31
0.0
  0
LINE
  5
263
330
218
100
AcDbEntity
  8
DEFAULT_1
  6
CENTER
 62
     7
100
AcDbLine
 10
58.0453664414
 20
78.89019650289999
 30
0.0
 11
60.23703310810001
 21
78.89019650289999
 31
0.0
  0
LINE
  5
264
330
218
100
AcDbEntity
  8
0
  6
Continuous
 62
     7
100
AcDbLine
 10
52.17036644140001
 20
100.581636456
 30
0.0
 11
52.17036644140001
 21
100.6034984463
 31
0.0
  0
LINE
  5
265
330
218
100
AcDbEntity
  8
0
  6
Continuous
 62
     9
100
AcDbLine
 10
52.60786644140001
 20
100.3680427663
 30
0.0
 11
52.60786644140001
 21
100.3736074265
 31
0.0
  0
LINE
  5
266
330
218
100
AcDbEntity
  8
0
  6
Continuous
 62
     9
100
AcDbLine
 10
52.8578664414
 20
100.6021851367
 30
0.0
 11
52.8578664414
 21
100.5998002823
 31
0.0
  0
LINE
  5
267
330
218
100
AcDbEntity
  8
DEFAULT_1
  6
CENTER
 62
     7
100
AcDbLine
 10
54.17036644140001
 20
83.14019650289999
 30
0.0
 11
54.17036644140001
 21
75.3767324878
 31
0.0
  0
LINE
  5
268
330
218
100
AcDbEntity
  8
0
  6
Continuous
 62
     9
100
AcDbLine
 10
54.17036644140001
 20
64.2535782685
 30
0.0
 11
54.17036644140001
 21
69.2803259449
 31
0.0
  0
LINE
  5
269
330
218
100
AcDbEntity
  8
DEFAULT_1
  6
CENTER
 62
     7
100
AcDbLine
 10
54.17036644140001
 20
83.14019650289999
 30
0.0
 11
54.17036644140001
 21
90.903660518
 31
0.0
  0
LINE
  5
26A
330
218
100
AcDbEntity
  8
DEFAULT_1
  6
CENTER
 62
     7
100
AcDbLine
 10
54.17036644140001
 20
83.14019650289999
 30
0.0
 11
46.40690242629999
 21
83.14019650289999
 31
0.0
  0
LINE
  5
26B
330
218
100
AcDbEntity
  8
DEFAULT_1
  6
CENTER
 62
     7
100
AcDbLine
 10
54.17036644140001
 20
83.14019650289999
 30
0.0
 11
55.97551058810001
 21
83.14019650289999
 31
0.0
  0
LINE
  5
26C
330
218
100
AcDbEntity
  8
DEFAULT_1
  6
CENTER
 62
     7
100
AcDbLine
 10
56.1441046049
 20
83.14019650289999
 30
0.0
 11
61.9338304565
 21
83.14019650289999
 31
0.0
  0
LINE
  5
26D
330
218
100
AcDbEntity
  8
0
  6
Continuous
 62
     9
100
AcDbLine
 10
55.97551058810001
 20
83.14019650289999
 30
0.0
 11
56.1441046049
 21
83.14019650289999
 31
0.0
  0
LINE
  5
26E
330
218
100
AcDbEntity
  8
0
  6
Continuous
 62
     9
100
AcDbLine
 10
55.4828664414
 20
100.6021851367
 30
0.0
 11
55.4828664414
 21
100.5998002823
 31
0.0
  0
LINE
  5
26F
330
218
100
AcDbEntity
  8
0
  6
Continuous
 62
     9
100
AcDbLine
 10
55.73286644140001
 20
100.3680427663
 30
0.0
 11
55.73286644140001
 21
100.3736074265
 31
0.0
  0
LINE
  5
270
330
218
100
AcDbEntity
  8
0
  6
Continuous
 62
     7
100
AcDbLine
 10
56.1703664414
 20
100.6034984463
 30
0.0
 11
56.1703664414
 21
100.581636456
 31
0.0
  0
LINE
  5
271
330
218
100
AcDbEntity
  8
DEFAULT_1
  6
CENTER
 62
     7
100
AcDbLine
 10
58.0453664414
 20
78.89019650289999
 30
0.0
 11
58.0453664414
 21
76.6985298362
 31
0.0
  0
LINE
  5
272
330
218
100
AcDbEntity
  8
DEFAULT_1
  6
CENTER
 62
     7
100
AcDbLine
 10
58.0453664414
 20
78.89019650289999
 30
0.0
 11
58.0453664414
 21
81.08186316959999
 31
0.0
  0
LINE
  5
273
330
218
100
AcDbEntity
  8
0
  6
Continuous
 62
     7
100
AcDbLine
 10
55.73286644140001
 20
100.3680427663
 30
0.0
 11
52.60786644140001
 21
100.3680427663
 31
0.0
  0
LINE
  5
274
330
218
100
AcDbEntity
  8
0
  6
Continuous
 62
     9
100
AcDbLine
 10
55.73286644140001
 20
100.3736074265
 30
0.0
 11
52.60786644140001
 21
100.3736074265
 31
0.0
  0
LINE
  5
275
330
218
100
AcDbEntity
  8
0
  6
Continuous
 62
     9
100
AcDbLine
 10
55.4828664414
 20
100.4322170958
 30
0.0
 11
52.8578664414
 21
100.4322170958
 31
0.0
  0
LINE
  5
276
330
218
100
AcDbEntity
  8
0
  6
Continuous
 62
     9
100
AcDbLine
 10
55.4828664414
 20
100.4715541753
 30
0.0
 11
52.8578664414
 21
100.4715541753
 31
0.0
  0
LINE
  5
277
330
218
100
AcDbEntity
  8
0
  6
Continuous
 62
     7
100
AcDbLine
 10
52.8578664414
 20
100.5998002823
 30
0.0
 11
55.4828664414
 21
100.5998002823
 31
0.0
  0
LINE
  5
278
330
218
100
AcDbEntity
  8
0
  6
Continuous
 62
     9
100
AcDbLine
 10
52.8578664414
 20
100.6021851367
 30
0.0
 11
55.4828664414
 21
100.6021851367
 31
0.0
  0
LINE
  5
279
330
218
100
AcDbEntity
  8
0
  6
Continuous
 62
     9
100
AcDbLine
 10
52.60786644140001
 20
100.660794806
 30
0.0
 11
55.73286644140001
 21
100.660794806
 31
0.0
  0
LINE
  5
27A
330
218
100
AcDbEntity
  8
0
  6
Continuous
 62
     7
100
AcDbLine
 10
52.60786644140001
 20
100.774443315
 30
0.0
 11
55.73286644140001
 21
100.774443315
 31
0.0
  0
CIRCLE
  5
280
330
218
100
AcDbEntity
  8
DEFAULT_2
  6
HIDDEN
 62
     8
100
AcDbCircle
 10
58.0453664414
 20
78.89019650289999
 30
0.0
 40
1.125
  0
CIRCLE
  5
281
330
218
100
AcDbEntity
  8
DEFAULT_2
  6
HIDDEN
 62
     8
100
AcDbCircle
 10
58.0453664414
 20
78.89019650289999
 30
0.0
 40
0.9375
  0
CIRCLE
  5
296
330
218
100
AcDbEntity
  8
0
  6
Continuous
 62
     9
100
AcDbCircle
 10
54.17036644140001
 20
83.14019650289999
 30
0.0
 40
1.448223304699999
  0
ARC
  5
297
330
218
100
AcDbEntity
  8
0
  6
Continuous
 62
     9
100
AcDbCircle
 10
52.85786632069999
 20
100.0457758194
 30
0.0
 40
0.5564093173
100
AcDbArc
 50
89.99998756690001
 51
90.70317091280001
  0
ARC
  5
298
330
218
100
AcDbEntity
  8
0
  6
Continuous
 62
     9
100
AcDbCircle
 10
55.4828665622
 20
100.0457758194
 30
0.0
 40
0.5564093173
100
AcDbArc
 50
89.2968290906
 51
90.0000124331
  0
SPLINE
  5
2A6
330
218
100
AcDbEntity
  8
DEFAULT_2
  6
HIDDEN
 62
     8
100
AcDbSpline
210
0.0
220
0.0
230
1.0
 70
     8
 71
     3
 72
    35
 73
    31
 74
     0
 42
0.0000001
 43
0.0000000001
 40
0.0
 40
0.0
 40
0.0
 40
0.0
 40
0.0357142857
 40
0.0714285714
 40
0.1071428571
 40
0.1428571429
 40
0.1785714286
 40
0.2142857143
 40
0.25
 40
0.2857142857
 40
0.3214285714
 40
0.3571428571
 40
0.3928571429
 40
0.4285714286
 40
0.4642857143
 40
0.5
 40
0.5357142857000001
 40
0.5714285714000001
 40
0.6071428571000001
 40
0.6428571429
 40
0.6785714286
 40
0.7142857143000001
 40
0.75
 40
0.7857142857
 40
0.8214285714
 40
0.8571428570999998
 40
0.8928571429000001
 40
0.9285714285999999
 40
0.9642857143
 40
1.0
 40
1.0
 40
1.0
 40
1.0
 10
56.60769624770001
 20
102.5195115183
 30
0.0
 10
56.6076963228
 20
102.5226442173
 30
0.0
 10
56.6058603238
 20
102.5289761387
 30
0.0
 10
56.5975412894
 20
102.5385700144
 30
0.0
 10
56.58377442289999
 20
102.548087074
 30
0.0
 10
56.5646176556
 20
102.5574478011
 30
0.0
 10
56.54050663109999
 20
102.5664380579
 30
0.0
 10
56.5115503237
 20
102.5750168105
 30
0.0
 10
56.4783205655
 20
102.5830046902
 30
0.0
 10
56.441094594
 20
102.5903390459
 30
0.0
 10
56.400345153
 20
102.5969091453
 30
0.0
 10
56.3568236204
 20
102.6026007252
 30
0.0
 10
56.31065860939999
 20
102.6073859394
 30
0.0
 10
56.26296340039999
 20
102.611147915
 30
0.0
 10
56.2137867707
 20
102.6138795708
 30
0.0
 10
56.1644216764
 20
102.6155071313
 30
0.0
 10
56.115243439
 20
102.6160395427
 30
0.0
 10
56.06698527119999
 20
102.6154752535
 30
0.0
 10
56.0205122761
 20
102.6138574046
 30
0.0
 10
55.975828186
 20
102.6112019285
 30
0.0
 10
55.9339154553
 20
102.6075859472
 30
0.0
 10
55.89464346189999
 20
102.6030105313
 30
0.0
 10
55.8588575569
 20
102.5975696689
 30
0.0
 10
55.8267708568
 20
102.5913099511
 30
0.0
 10
55.79875364399999
 20
102.5842840221
 30
0.0
 10
55.7753433559
 20
102.5766293048
 30
0.0
 10
55.7566272049
 20
102.5683573133
 30
0.0
 10
55.74307864729999
 20
102.5596300056
 30
0.0
 10
55.7348542827
 20
102.5505808549
 30
0.0
 10
55.7329744611
 20
102.5443269385
 30
0.0
 10
55.7329745215
 20
102.5411703995
 30
0.0
  0
SPLINE
  5
2A7
330
218
100
AcDbEntity
  8
DEFAULT_2
  6
HIDDEN
 62
     8
100
AcDbSpline
210
0.0
220
0.0
230
1.0
 70
     8
 71
     3
 72
    35
 73
    31
 74
     0
 42
0.0000001
 43
0.0000000001
 40
0.0
 40
0.0
 40
0.0
 40
0.0
 40
0.0357142857
 40
0.0714285714
 40
0.1071428571
 40
0.1428571429
 40
0.1785714286
 40
0.2142857143
 40
0.25
 40
0.2857142857
 40
0.3214285714
 40
0.3571428571
 40
0.3928571429
 40
0.4285714286
 40
0.4642857143
 40
0.5
 40
0.5357142857000001
 40
0.5714285714000001
 40
0.6071428571000001
 40
0.6428571429
 40
0.6785714286
 40
0.7142857143000001
 40
0.75
 40
0.7857142857
 40
0.8214285714
 40
0.8571428570999998
 40
0.8928571429000001
 40
0.9285714285999999
 40
0.9642857143
 40
1.0
 40
1.0
 40
1.0
 40
1.0
 10
55.7329745215
 20
102.5411703995
 30
0.0
 10
55.7329745822
 20
102.5380009602
 30
0.0
 10
55.73486207680001
 20
102.5316268177
 30
0.0
 10
55.7433358591
 20
102.5220733444
 30
0.0
 10
55.75729072699999
 20
102.5126767632
 30
0.0
 10
55.7766535212
 20
102.5034998685
 30
0.0
 10
55.80099977909999
 20
102.4947321746
 30
0.0
 10
55.83024374569999
 20
102.4864003572
 30
0.0
 10
55.8637720953
 20
102.4786795047
 30
0.0
 10
55.9013310325
 20
102.4716140202
 30
0.0
 10
55.9423874695
 20
102.4653100734
 30
0.0
 10
55.9862373271
 20
102.4598588818
 30
0.0
 10
56.03270734479999
 20
102.4552851604
 30
0.0
 10
56.08070296060001
 20
102.4516908548
 30
0.0
 10
56.130178096
 20
102.449079982
 30
0.0
 10
56.1797769254
 20
102.4475225282
 30
0.0
 10
56.22921017180001
 20
102.4470094317
 30
0.0
 10
56.27753962909999
 20
102.4475445773
 30
0.0
 10
56.32396792409999
 20
102.4490851133
 30
0.0
 10
56.36837905180001
 20
102.4516105202
 30
0.0
 10
56.4098230781
 20
102.4550420591
 30
0.0
 10
56.4484734224
 20
102.4593773372
 30
0.0
 10
56.4835427007
 20
102.4645260144
 30
0.0
 10
56.51495382060001
 20
102.4704612266
 30
0.0
 10
56.5424040601
 20
102.4771493687
 30
0.0
 10
56.565456451
 20
102.4844971203
 30
0.0
 10
56.5840015491
 20
102.4925181563
 30
0.0
 10
56.59751963979999
 20
102.5010754017
 30
0.0
 10
56.6057856141
 20
102.5100466117
 30
0.0
 10
56.6076961713
 20
102.5163241653
 30
0.0
 10
56.60769624770001
 20
102.5195115183
 30
0.0
  0
SPLINE
  5
2A8
330
218
100
AcDbEntity
  8
DEFAULT_2
  6
HIDDEN
 62
     8
100
AcDbSpline
210
0.0
220
0.0
230
1.0
 70
     8
 71
     3
 72
    35
 73
    31
 74
     0
 42
0.0000001
 43
0.0000000001
 40
0.0
 40
0.0
 40
0.0
 40
0.0
 40
0.0357142857
 40
0.0714285714
 40
0.1071428571
 40
0.1428571429
 40
0.1785714286
 40
0.2142857143
 40
0.25
 40
0.2857142857
 40
0.3214285714
 40
0.3571428571
 40
0.3928571429
 40
0.4285714286
 40
0.4642857143
 40
0.5
 40
0.5357142857000001
 40
0.5714285714000001
 40
0.6071428571000001
 40
0.6428571429
 40
0.6785714286
 40
0.7142857143000001
 40
0.75
 40
0.7857142857
 40
0.8214285714
 40
0.8571428570999998
 40
0.8928571429000001
 40
0.9285714285999999
 40
0.9642857143
 40
1.0
 40
1.0
 40
1.0
 40
1.0
 10
52.6077583613
 20
102.5411703995
 30
0.0
 10
52.6077584216
 20
102.5443211517
 30
0.0
 10
52.6058867449
 20
102.5505677583
 30
0.0
 10
52.5976602341
 20
102.5596269676
 30
0.0
 10
52.58410390499999
 20
102.5683577563
 30
0.0
 10
52.56540246170001
 20
102.5766243312
 30
0.0
 10
52.54198228579999
 20
102.5842834369
 30
0.0
 10
52.5139677892
 20
102.591308446
 30
0.0
 10
52.4818889131
 20
102.5975675033
 30
0.0
 10
52.4460854528
 20
102.6030110207
 30
0.0
 10
52.40683398689999
 20
102.6075842497
 30
0.0
 10
52.3649009608
 20
102.611202326
 30
0.0
 10
52.3202212843
 20
102.6138573458
 30
0.0
 10
52.2737389188
 20
102.6154755466
 30
0.0
 10
52.22547934659999
 20
102.6160394486
 30
0.0
 10
52.17632076800001
 20
102.6155072274
 30
0.0
 10
52.1269617434
 20
102.6138802405
 30
0.0
 10
52.0777950608
 20
102.611149457
 30
0.0
 10
52.03011723399999
 20
102.6073898936
 30
0.0
 10
51.9839323326
 20
102.6026034328
 30
0.0
 10
51.9404224232
 20
102.5969142179
 30
0.0
 10
51.8996511287
 20
102.5903414574
 30
0.0
 10
51.8624331346
 20
102.5830090288
 30
0.0
 10
51.8291998975
 20
102.5750217167
 30
0.0
 10
51.8002302024
 20
102.5664391627
 30
0.0
 10
51.7761309146
 20
102.5574546453
 30
0.0
 10
51.7569581927
 20
102.5480867561
 30
0.0
 10
51.74320293760001
 20
102.5385793337
 30
0.0
 10
51.73487185029999
 20
102.5289775768
 30
0.0
 10
51.73303656
 20
102.5226448405
 30
0.0
 10
51.7330366351
 20
102.5195115183
 30
0.0
  0
SPLINE
  5
2A9
330
218
100
AcDbEntity
  8
DEFAULT_2
  6
HIDDEN
 62
     8
100
AcDbSpline
210
0.0
220
0.0
230
1.0
 70
     8
 71
     3
 72
    35
 73
    31
 74
     0
 42
0.0000001
 43
0.0000000001
 40
0.0
 40
0.0
 40
0.0
 40
0.0
 40
0.0357142857
 40
0.0714285714
 40
0.1071428571
 40
0.1428571429
 40
0.1785714286
 40
0.2142857143
 40
0.25
 40
0.2857142857
 40
0.3214285714
 40
0.3571428571
 40
0.3928571429
 40
0.4285714286
 40
0.4642857143
 40
0.5
 40
0.5357142857000001
 40
0.5714285714000001
 40
0.6071428571000001
 40
0.6428571429
 40
0.6785714286
 40
0.7142857143000001
 40
0.75
 40
0.7857142857
 40
0.8214285714
 40
0.8571428570999998
 40
0.8928571429000001
 40
0.9285714285999999
 40
0.9642857143
 40
1.0
 40
1.0
 40
1.0
 40
1.0
 10
51.7330366351
 20
102.5195115183
 30
0.0
 10
51.7330367113
 20
102.5163323463
 30
0.0
 10
51.7349359843
 20
102.5100652124
 30
0.0
 10
51.74320150999999
 20
102.5010826237
 30
0.0
 10
51.7567285289
 20
102.4925198043
 30
0.0
 10
51.7752630925
 20
102.4845020736
 30
0.0
 10
51.7983235931
 20
102.4771505834
 30
0.0
 10
51.8257704246
 20
102.47046334
 30
0.0
 10
51.8571694829
 20
102.4645293156
 30
0.0
 10
51.8922568997
 20
102.4593776895
 30
0.0
 10
51.93088424649999
 20
102.4550446201
 30
0.0
 10
51.9723397905
 20
102.4516114419
 30
0.0
 10
52.0167381265
 20
102.4490864033
 30
0.0
 10
52.0631704228
 20
102.4475449455
 30
0.0
 10
52.111517254
 20
102.4470093798
 30
0.0
 10
52.1609501376
 20
102.447522379
 30
0.0
 10
52.21056385979999
 20
102.4490802192
 30
0.0
 10
52.26004937649999
 20
102.4516921543
 30
0.0
 10
52.30803089560001
 20
102.4552856024
 30
0.0
 10
52.35451239919999
 20
102.4598608032
 30
0.0
 10
52.3983425605
 20
102.4653097049
 30
0.0
 10
52.4394153703
 20
102.4716161965
 30
0.0
 10
52.4769652822
 20
102.4786806449
 30
0.0
 10
52.5104899432
 20
102.4864003405
 30
0.0
 10
52.5397433083
 20
102.4947356838
 30
0.0
 10
52.5640731435
 20
102.5034971496
 30
0.0
 10
52.5834511342
 20
102.5126817945
 30
0.0
 10
52.5973926264
 20
102.5220700469
 30
0.0
 10
52.60587393439999
 20
102.531630346
 30
0.0
 10
52.6077583007
 20
102.5380023145
 30
0.0
 10
52.6077583613
 20
102.5411703995
 30
0.0
  0
SPLINE
  5
2B7
330
218
100
AcDbEntity
  8
0
  6
Continuous
 62
     7
100
AcDbSpline
210
0.0
220
0.0
230
1.0
 70
     8
 71
     3
 72
    30
 73
    26
 74
     0
 42
0.0000001
 43
0.0000000001
 40
0.0
 40
0.0
 40
0.0
 40
0.0
 40
0.0981544209
 40
0.1954425037
 40
0.2910032242
 40
0.3839801004
 40
0.4735246343
 40
0.5587957886
 40
0.6389566243
 40
0.7131668244
 40
0.7477788007
 40
0.7805801047
 40
0.8114581204
 40
0.8402969173
 40
0.8669770836999999
 40
0.8913763873999998
 40
0.9133720664
 40
0.9328462348999998
 40
0.9496959859
 40
0.9638512606999999
 40
0.975299552
 40
0.9841286204999999
 40
0.9905465626000001
 40
0.9949283563999999
 40
1.0
 40
1.0
 40
1.0
 40
1.0
 10
55.4828664414
 20
100.5998002823
 30
0.0
 10
55.48947439009999
 20
100.5998002823
 30
0.0
 10
55.5026333304
 20
100.5995531018
 30
0.0
 10
55.52219735609999
 20
100.59844359
 30
0.0
 10
55.5413571679
 20
100.5966093348
 30
0.0
 10
55.5599110547
 20
100.5940733085
 30
0.0
 10
55.5776582896
 20
100.5908689771
 30
0.0
 10
55.5943987082
 20
100.5870419993
 30
0.0
 10
55.60993100140001
 20
100.5826531781
 30
0.0
 10
55.6219673322
 20
100.5785035946
 30
0.0
 10
55.63081647069999
 20
100.5749499377
 30
0.0
 10
55.63686765799999
 20
100.5722685188
 30
0.0
 10
55.6424631373
 20
100.5695289459
 30
0.0
 10
55.64757766189999
 20
100.5667551877
 30
0.0
 10
55.6521869687
 20
100.5639760602
 30
0.0
 10
55.6562688664
 20
100.5612260125
 30
0.0
 10
55.6598050301
 20
100.5585460122
 30
0.0
 10
55.6627836778
 20
100.5559838934
 30
0.0
 10
55.66520375939999
 20
100.5535937942
 30
0.0
 10
55.66707935930001
 20
100.5514332172
 30
0.0
 10
55.6684469311
 20
100.5495575345
 30
0.0
 10
55.66936555449999
 20
100.5480097623
 30
0.0
 10
55.6699213058
 20
100.5468073842
 30
0.0
 10
55.67026095140001
 20
100.5457936453
 30
0.0
 10
55.6703664414
 20
100.5451576949
 30
0.0
 10
55.6703664414
 20
100.5448162619
 30
0.0
  0
SPLINE
  5
2B8
330
218
100
AcDbEntity
  8
0
  6
Continuous
 62
     7
100
AcDbSpline
210
0.0
220
0.0
230
1.0
 70
     8
 71
     3
 72
    30
 73
    26
 74
     0
 42
0.0000001
 43
0.0000000001
 40
0.0
 40
0.0
 40
0.0
 40
0.0
 40
0.0981544209
 40
0.1954425037
 40
0.2910032242
 40
0.3839801004
 40
0.4735246343
 40
0.5587957886
 40
0.6389566243
 40
0.7131668244
 40
0.7477788007
 40
0.7805801047
 40
0.8114581204
 40
0.8402969173
 40
0.8669770836999999
 40
0.8913763873999998
 40
0.9133720664
 40
0.9328462348999998
 40
0.9496959859
 40
0.9638512606999999
 40
0.975299552
 40
0.9841286204999999
 40
0.9905465626000001
 40
0.9949283563999999
 40
1.0
 40
1.0
 40
1.0
 40
1.0
 10
52.8578664414
 20
100.5998002823
 30
0.0
 10
52.85125849279999
 20
100.5998002823
 30
0.0
 10
52.83809955239999
 20
100.5995531018
 30
0.0
 10
52.8185355267
 20
100.59844359
 30
0.0
 10
52.79937571489999
 20
100.5966093348
 30
0.0
 10
52.7808218281
 20
100.5940733085
 30
0.0
 10
52.76307459319999
 20
100.5908689771
 30
0.0
 10
52.7463341746
 20
100.5870419993
 30
0.0
 10
52.7308018814
 20
100.5826531781
 30
0.0
 10
52.7187655507
 20
100.5785035946
 30
0.0
 10
52.7099164121
 20
100.5749499377
 30
0.0
 10
52.70386522479999
 20
100.5722685188
 30
0.0
 10
52.69826974549999
 20
100.5695289459
 30
0.0
 10
52.69315522100001
 20
100.5667551877
 30
0.0
 10
52.6885459141
 20
100.5639760602
 30
0.0
 10
52.68446401640001
 20
100.5612260125
 30
0.0
 10
52.6809278527
 20
100.5585460122
 30
0.0
 10
52.677949205
 20
100.5559838934
 30
0.0
 10
52.67552912340001
 20
100.5535937942
 30
0.0
 10
52.6736535235
 20
100.5514332172
 30
0.0
 10
52.67228595169999
 20
100.5495575345
 30
0.0
 10
52.6713673284
 20
100.5480097623
 30
0.0
 10
52.6708115771
 20
100.5468073842
 30
0.0
 10
52.6704719314
 20
100.5457936453
 30
0.0
 10
52.6703664414
 20
100.5451576949
 30
0.0
 10
52.6703664414
 20
100.5448162619
 30
0.0
  0
SPLINE
  5
2B9
330
218
100
AcDbEntity
  8
0
  6
Continuous
 62
     7
100
AcDbSpline
210
0.0
220
0.0
230
1.0
 70
     8
 71
     3
 72
    27
 73
    23
 74
     0
 42
0.0000001
 43
0.0000000001
 40
0.0
 40
0.0
 40
0.0
 40
0.0
 40
0.0766629268
 40
0.1527300392
 40
0.227624018
 40
0.3008042527
 40
0.3717874614
 40
0.4401705237
 40
0.5056569602000001
 40
0.5680881342000001
 40
0.6274792449000001
 40
0.6840581237000001
 40
0.7382955067000001
 40
0.7909005022
 40
0.8168771887
 40
0.8427741815999999
 40
0.8686886045999999
 40
0.8946950364
 40
0.9208372525999999
 40
0.9471231626999999
 40
0.9735296971999998
 40
1.0
 40
1.0
 40
1.0
 40
1.0
 10
52.60786644140001
 20
100.3680427663
 30
0.0
 10
52.59430363039999
 20
100.3680427663
 30
0.0
 10
52.56728020619999
 20
100.3685857419
 30
0.0
 10
52.52707339909999
 20
100.3710261839
 30
0.0
 10
52.4876144829
 20
100.375073736
 30
0.0
 10
52.44925767739999
 20
100.3807008982
 30
0.0
 10
52.4123308877
 20
100.3878740427
 30
0.0
 10
52.37712842869999
 20
100.3965592705
 30
0.0
 10
52.3439025114
 20
100.4067314219
 30
0.0
 10
52.31285677159999
 20
100.4183879615
 30
0.0
 10
52.2841451613
 20
100.4315682811
 30
0.0
 10
52.25788103340001
 20
100.4463818983
 30
0.0
 10
52.23417912399999
 20
100.4630301703
 30
0.0
 10
52.21663327819999
 20
100.4787724507
 30
0.0
 10
52.2042727552
 20
100.492536428
 30
0.0
 10
52.19589671609999
 20
100.5034753829
 30
0.0
 10
52.1884771853
 20
100.5150933607
 30
0.0
 10
52.182134006
 20
100.5273844963
 30
0.0
 10
52.1770017728
 20
100.540302114
 30
0.0
 10
52.1732145738
 20
100.5537526897
 30
0.0
 10
52.1708894236
 20
100.5675904592
 30
0.0
 10
52.17036644140001
 20
100.5769534661
 30
0.0
 10
52.17036644140001
 20
100.581636456
 30
0.0
  0
SPLINE
  5
2BA
330
218
100
AcDbEntity
  8
0
  6
Continuous
 62
     7
100
AcDbSpline
210
0.0
220
0.0
230
1.0
 70
     8
 71
     3
 72
    27
 73
    23
 74
     0
 42
0.0000001
 43
0.0000000001
 40
0.0
 40
0.0
 40
0.0
 40
0.0
 40
0.0766629268
 40
0.1527300392
 40
0.227624018
 40
0.3008042527
 40
0.3717874614
 40
0.4401705237
 40
0.5056569602000001
 40
0.5680881342000001
 40
0.6274792449000001
 40
0.6840581237000001
 40
0.7382955067000001
 40
0.7909005022
 40
0.8168771887
 40
0.8427741815999999
 40
0.8686886045999999
 40
0.8946950364
 40
0.9208372525999999
 40
0.9471231626999999
 40
0.9735296971999998
 40
1.0
 40
1.0
 40
1.0
 40
1.0
 10
55.73286644140001
 20
100.3680427663
 30
0.0
 10
55.7464292524
 20
100.3680427663
 30
0.0
 10
55.77345267670001
 20
100.3685857419
 30
0.0
 10
55.8136594837
 20
100.3710261839
 30
0.0
 10
55.8531183999
 20
100.375073736
 30
0.0
 10
55.8914752054
 20
100.3807008982
 30
0.0
 10
55.9284019951
 20
100.3878740427
 30
0.0
 10
55.9636044541
 20
100.3965592705
 30
0.0
 10
55.9968303715
 20
100.4067314219
 30
0.0
 10
56.0278761112
 20
100.4183879615
 30
0.0
 10
56.05658772149999
 20
100.4315682811
 30
0.0
 10
56.08285184939999
 20
100.4463818983
 30
0.0
 10
56.1065537588
 20
100.4630301703
 30
0.0
 10
56.12409960469999
 20
100.4787724507
 30
0.0
 10
56.1364601276
 20
100.492536428
 30
0.0
 10
56.1448361667
 20
100.5034753829
 30
0.0
 10
56.1522556975
 20
100.5150933607
 30
0.0
 10
56.1585988769
 20
100.5273844963
 30
0.0
 10
56.1637311101
 20
100.540302114
 30
0.0
 10
56.167518309
 20
100.5537526897
 30
0.0
 10
56.1698434592
 20
100.5675904592
 30
0.0
 10
56.1703664414
 20
100.5769534661
 30
0.0
 10
56.1703664414
 20
100.581636456
 30
0.0
  0
SPLINE
  5
2BB
330
218
100
AcDbEntity
  8
0
  6
Continuous
 62
     7
100
AcDbSpline
210
0.0
220
0.0
230
1.0
 70
     8
 71
     3
 72
    32
 73
    28
 74
     0
 42
0.0000001
 43
0.0000000001
 40
0.0
 40
0.0
 40
0.0
 40
0.0
 40
0.0167745198
 40
0.0337707086
 40
0.0511997124
 40
0.0692535272
 40
0.0880994047
 40
0.107877405
 40
0.1287004717
 40
0.1506561294
 40
0.1738089926
 40
0.1982035112
 40
0.2238666117
 40
0.2508100728
 40
0.2790325812
 40
0.3085214748
 40
0.3392542074
 40
0.3711995768
 40
0.404318758
 40
0.4385661802000001
 40
0.5102274049000001
 40
0.5857177389000001
 40
0.6644952131000001
 40
0.7459638783
 40
0.8294861856
 40
0.9143941473999998
 40
1.0
 40
1.0
 40
1.0
 40
1.0
 10
52.17036644140001
 20
100.6034984463
 30
0.0
 10
52.17036644140001
 20
100.6062999148
 30
0.0
 10
52.17072341369999
 20
100.6119461408
 30
0.0
 10
52.1723237312
 20
100.6203664825
 30
0.0
 10
52.1749829523
 20
100.6287387519
 30
0.0
 10
52.1786905325
 20
100.6370392837
 30
0.0
 10
52.183433667
 20
100.6452486895
 30
0.0
 10
52.1891979814
 20
100.6533483796
 30
0.0
 10
52.1959677197
 20
100.6613207364
 30
0.0
 10
52.2037256219
 20
100.6691484328
 30
0.0
 10
52.2124527008
 20
100.6768142761
 30
0.0
 10
52.222128038
 20
100.6843011376
 30
0.0
 10
52.23272864810001
 20
100.6915920027
 30
0.0
 10
52.24422941
 20
100.6986700559
 30
0.0
 10
52.25660305479999
 20
100.7055187796
 30
0.0
 10
52.2698201903
 20
100.7121220428
 30
0.0
 10
52.2838493599
 20
100.7184641975
 30
0.0
 10
52.29865708350001
 20
100.7245300951
 30
0.0
 10
52.31420805329999
 20
100.7303053661
 30
0.0
 10
52.3362172098
 20
100.7377112636
 30
0.0
 10
52.36534449939999
 20
100.7461024223
 30
0.0
 10
52.4021063026
 20
100.7546670337
 30
0.0
 10
52.4408399952
 20
100.7617906833
 30
0.0
 10
52.4811743733
 20
100.7674043437
 30
0.0
 10
52.5227239084
 20
100.7714535204
 30
0.0
 10
52.5650895054
 20
100.7738988797
 30
0.0
 10
52.5935696328
 20
100.774443315
 30
0.0
 10
52.60786644140001
 20
100.774443315
 30
0.0
  0
SPLINE
  5
2BC
330
218
100
AcDbEntity
  8
0
  6
Continuous
 62
     7
100
AcDbSpline
210
0.0
220
0.0
230
1.0
 70
     8
 71
     3
 72
    32
 73
    28
 74
     0
 42
0.0000001
 43
0.0000000001
 40
0.0
 40
0.0
 40
0.0
 40
0.0
 40
0.0167745198
 40
0.0337707086
 40
0.0511997124
 40
0.0692535272
 40
0.0880994047
 40
0.107877405
 40
0.1287004717
 40
0.1506561294
 40
0.1738089926
 40
0.1982035112
 40
0.2238666117
 40
0.2508100728
 40
0.2790325812
 40
0.3085214748
 40
0.3392542074
 40
0.3711995768
 40
0.404318758
 40
0.4385661802000001
 40
0.5102274049000001
 40
0.5857177389000001
 40
0.6644952131000001
 40
0.7459638783
 40
0.8294861856
 40
0.9143941473999998
 40
1.0
 40
1.0
 40
1.0
 40
1.0
 10
56.1703664414
 20
100.6034984463
 30
0.0
 10
56.1703664414
 20
100.6062999148
 30
0.0
 10
56.1700094691
 20
100.6119461408
 30
0.0
 10
56.1684091516
 20
100.6203664825
 30
0.0
 10
56.16574993060001
 20
100.6287387519
 30
0.0
 10
56.1620423503
 20
100.6370392837
 30
0.0
 10
56.1572992159
 20
100.6452486895
 30
0.0
 10
56.1515349014
 20
100.6533483796
 30
0.0
 10
56.14476516319999
 20
100.6613207364
 30
0.0
 10
56.1370072609
 20
100.6691484328
 30
0.0
 10
56.1282801821
 20
100.6768142761
 30
0.0
 10
56.1186048448
 20
100.6843011376
 30
0.0
 10
56.1080042347
 20
100.6915920027
 30
0.0
 10
56.09650347279999
 20
100.6986700559
 30
0.0
 10
56.084129828
 20
100.7055187796
 30
0.0
 10
56.0709126926
 20
100.7121220428
 30
0.0
 10
56.0568835229
 20
100.7184641975
 30
0.0
 10
56.0420757993
 20
100.7245300951
 30
0.0
 10
56.02652482949999
 20
100.7303053661
 30
0.0
 10
56.004515673
 20
100.7377112636
 30
0.0
 10
55.97538838350001
 20
100.7461024223
 30
0.0
 10
55.9386265802
 20
100.7546670337
 30
0.0
 10
55.8998928876
 20
100.7617906833
 30
0.0
 10
55.8595585095
 20
100.7674043437
 30
0.0
 10
55.81800897439999
 20
100.7714535204
 30
0.0
 10
55.77564337750001
 20
100.7738988797
 30
0.0
 10
55.7471632501
 20
100.774443315
 30
0.0
 10
55.73286644140001
 20
100.774443315
 30
0.0
  0
SPLINE
  5
2BD
330
218
100
AcDbEntity
  8
0
  6
Continuous
 62
     9
100
AcDbSpline
210
0.0
220
0.0
230
1.0
 70
     8
 71
     3
 72
    53
 73
    49
 74
     0
 42
0.0000001
 43
0.0000000001
 40
0.0
 40
0.0
 40
0.0
 40
0.0
 40
0.0428051646
 40
0.0852612841
 40
0.1270245773
 40
0.1677610034
 40
0.2071517605
 40
0.2448988614
 40
0.2807313131
 40
0.3144122867
 40
0.3303857903
 40
0.3457529436
 40
0.3604981457
 40
0.3746101240999999
 40
0.3880825477000001
 40
0.4009147595000001
 40
0.413112648
 40
0.4246896755
 40
0.4356680668
 40
0.4460801322
 40
0.4653714584000001
 40
0.4743988289
 40
0.4831137785000001
 40
0.4916123095
 40
0.5
 40
0.5083876905000001
 40
0.5168862215
 40
0.5256011711000001
 40
0.5346285416
 40
0.5539198678
 40
0.5643319332
 40
0.5753103245000001
 40
0.5868873520000001
 40
0.5990852405
 40
0.6119174523
 40
0.6253898759000001
 40
0.6395018542999999
 40
0.6542470564000001
 40
0.6696142097
 40
0.6855877133
 40
0.7192686869
 40
0.7551011385999999
 40
0.7928482395000001
 40
0.8322389965999999
 40
0.8729754226999999
 40
0.9147387159
 40
0.9571948353999999
 40
1.0
 40
1.0
 40
1.0
 40
1.0
 10
55.73286644140001
 20
100.660794806
 30
0.0
 10
55.7448757723
 20
100.660794806
 30
0.0
 10
55.7687990786
 20
100.6603374806
 30
0.0
 10
55.8043861842
 20
100.6582833745
 30
0.0
 10
55.8392877641
 20
100.6548820704
 30
0.0
 10
55.8731687072
 20
100.6501665994
 30
0.0
 10
55.9057047753
 20
100.6441827318
 30
0.0
 10
55.93658550109999
 20
100.636988449
 30
0.0
 10
55.9655156088
 20
100.6286533095
 30
0.0
 10
55.9881567523
 20
100.6206884432
 30
0.0
 10
56.0050407628
 20
100.6137724193
 30
0.0
 10
56.01682529489999
 20
100.6084449186
 30
0.0
 10
56.02792767989999
 20
100.602898199
 30
0.0
 10
56.038321542
 20
100.5971452678
 30
0.0
 10
56.047982189
 20
100.5911996968
 30
0.0
 10
56.0568866856
 20
100.5850753999
 30
0.0
 10
56.0650140394
 20
100.5787863371
 30
0.0
 10
56.0723445572
 20
100.5723473757
 30
0.0
 10
56.0788619889
 20
100.5657709158
 30
0.0
 10
56.0862542117
 20
100.5570666403
 30
0.0
 10
56.09224383859999
 20
100.5479066304
 30
0.0
 10
56.096488405
 20
100.5384031882
 30
0.0
 10
56.0987223554
 20
100.531370394
 30
0.0
 10
56.10006657180001
 20
100.5242964863
 30
0.0
 10
56.1005153921
 20
100.5172011163
 30
0.0
 10
56.10006657180001
 20
100.5101057463
 30
0.0
 10
56.0987223554
 20
100.5030318385
 30
0.0
 10
56.096488405
 20
100.4959990444
 30
0.0
 10
56.09224383859999
 20
100.4864956021
 30
0.0
 10
56.0862542117
 20
100.4773355923
 30
0.0
 10
56.0788619889
 20
100.4686313168
 30
0.0
 10
56.0723445572
 20
100.4620548568
 30
0.0
 10
56.0650140394
 20
100.4556158954
 30
0.0
 10
56.0568866856
 20
100.4493268327
 30
0.0
 10
56.047982189
 20
100.4432025357
 30
0.0
 10
56.038321542
 20
100.4372569647
 30
0.0
 10
56.02792767989999
 20
100.4315040336
 30
0.0
 10
56.01682529489999
 20
100.4259573139
 30
0.0
 10
56.0050407628
 20
100.4206298132
 30
0.0
 10
55.9881567523
 20
100.4137137893
 30
0.0
 10
55.9655156088
 20
100.405748923
 30
0.0
 10
55.93658550109999
 20
100.3974137835
 30
0.0
 10
55.9057047753
 20
100.3902195008
 30
0.0
 10
55.8731687072
 20
100.3842356331
 30
0.0
 10
55.8392877641
 20
100.3795201621
 30
0.0
 10
55.8043861842
 20
100.376118858
 30
0.0
 10
55.7687990786
 20
100.3740647519
 30
0.0
 10
55.7448757723
 20
100.3736074265
 30
0.0
 10
55.73286644140001
 20
100.3736074265
 30
0.0
  0
SPLINE
  5
2BE
330
218
100
AcDbEntity
  8
0
  6
Continuous
 62
     9
100
AcDbSpline
210
0.0
220
0.0
230
1.0
 70
     8
 71
     3
 72
    53
 73
    49
 74
     0
 42
0.0000001
 43
0.0000000001
 40
0.0
 40
0.0
 40
0.0
 40
0.0
 40
0.0428051646
 40
0.0852612841
 40
0.1270245773
 40
0.1677610034
 40
0.2071517605
 40
0.2448988614
 40
0.2807313131
 40
0.3144122867
 40
0.3303857903
 40
0.3457529436
 40
0.3604981457
 40
0.3746101240999999
 40
0.3880825477000001
 40
0.4009147595000001
 40
0.413112648
 40
0.4246896755
 40
0.4356680668
 40
0.4460801322
 40
0.4653714584000001
 40
0.4743988289
 40
0.4831137785000001
 40
0.4916123095
 40
0.5
 40
0.5083876905000001
 40
0.5168862215
 40
0.5256011711000001
 40
0.5346285416
 40
0.5539198678
 40
0.5643319332
 40
0.5753103245000001
 40
0.5868873520000001
 40
0.5990852405
 40
0.6119174523
 40
0.6253898759000001
 40
0.6395018542999999
 40
0.6542470564000001
 40
0.6696142097
 40
0.6855877133
 40
0.7192686869
 40
0.7551011385999999
 40
0.7928482395000001
 40
0.8322389965999999
 40
0.8729754226999999
 40
0.9147387159
 40
0.9571948353999999
 40
1.0
 40
1.0
 40
1.0
 40
1.0
 10
52.60786644140001
 20
100.3736074265
 30
0.0
 10
52.5958571105
 20
100.3736074265
 30
0.0
 10
52.5719338042
 20
100.3740647519
 30
0.0
 10
52.5363466987
 20
100.376118858
 30
0.0
 10
52.5014451187
 20
100.3795201621
 30
0.0
 10
52.4675641756
 20
100.3842356331
 30
0.0
 10
52.4350281075
 20
100.3902195008
 30
0.0
 10
52.4041473817
 20
100.3974137835
 30
0.0
 10
52.37521727399999
 20
100.405748923
 30
0.0
 10
52.3525761306
 20
100.4137137893
 30
0.0
 10
52.33569212009999
 20
100.4206298132
 30
0.0
 10
52.3239075879
 20
100.4259573139
 30
0.0
 10
52.3128052029
 20
100.4315040336
 30
0.0
 10
52.30241134079999
 20
100.4372569647
 30
0.0
 10
52.2927506939
 20
100.4432025357
 30
0.0
 10
52.2838461972
 20
100.4493268327
 30
0.0
 10
52.2757188435
 20
100.4556158954
 30
0.0
 10
52.26838832560001
 20
100.4620548568
 30
0.0
 10
52.2618708939
 20
100.4686313168
 30
0.0
 10
52.25447867109999
 20
100.4773355923
 30
0.0
 10
52.24848904419999
 20
100.4864956021
 30
0.0
 10
52.24424447779999
 20
100.4959990444
 30
0.0
 10
52.24201052739999
 20
100.5030318385
 30
0.0
 10
52.24066631100001
 20
100.5101057463
 30
0.0
 10
52.2402174908
 20
100.5172011163
 30
0.0
 10
52.24066631100001
 20
100.5242964863
 30
0.0
 10
52.24201052739999
 20
100.531370394
 30
0.0
 10
52.24424447779999
 20
100.5384031882
 30
0.0
 10
52.24848904419999
 20
100.5479066304
 30
0.0
 10
52.25447867109999
 20
100.5570666403
 30
0.0
 10
52.2618708939
 20
100.5657709158
 30
0.0
 10
52.26838832560001
 20
100.5723473757
 30
0.0
 10
52.2757188435
 20
100.5787863371
 30
0.0
 10
52.2838461972
 20
100.5850753999
 30
0.0
 10
52.2927506939
 20
100.5911996968
 30
0.0
 10
52.30241134079999
 20
100.5971452678
 30
0.0
 10
52.3128052029
 20
100.602898199
 30
0.0
 10
52.3239075879
 20
100.6084449186
 30
0.0
 10
52.33569212009999
 20
100.6137724193
 30
0.0
 10
52.3525761306
 20
100.6206884432
 30
0.0
 10
52.37521727399999
 20
100.6286533095
 30
0.0
 10
52.4041473817
 20
100.636988449
 30
0.0
 10
52.4350281075
 20
100.6441827318
 30
0.0
 10
52.4675641756
 20
100.6501665994
 30
0.0
 10
52.5014451187
 20
100.6548820704
 30
0.0
 10
52.5363466987
 20
100.6582833745
 30
0.0
 10
52.5719338042
 20
100.6603374806
 30
0.0
 10
52.5958571105
 20
100.660794806
 30
0.0
 10
52.60786644140001
 20
100.660794806
 30
0.0
  0
SPLINE
  5
2BF
330
218
100
AcDbEntity
  8
0
  6
Continuous
 62
     9
100
AcDbSpline
210
0.0
220
0.0
230
1.0
 70
     8
 71
     3
 72
    46
 73
    42
 74
     0
 42
0.0000001
 43
0.0000000001
 40
0.0
 40
0.0
 40
0.0
 40
0.0
 40
0.0429694203
 40
0.0855951983
 40
0.1275393101
 40
0.1684726951
 40
0.2080810708
 40
0.246070209
 40
0.2821718505
 40
0.3161505405
 40
0.3478120285
 40
0.3770139034
 40
0.4036802408
 40
0.4278217674000001
 40
0.4495644641
 40
0.4596256058
 40
0.4692070973
 40
0.4783741365
 40
0.4872052535
 40
0.4957915233
 40
0.5042343383
 40
0.5126416597
 40
0.5211231323
 40
0.5297849043000001
 40
0.5387250794
 40
0.5577525087
 40
0.5679964868000001
 40
0.5787877504
 40
0.5901623797
 40
0.602146081
 40
0.6279905854
 40
0.6563778615000001
 40
0.6872573598999999
 40
0.720506373
 40
0.7559460471
 40
0.7933532513000001
 40
0.8324695138999999
 40
0.8730083043
 40
0.9146612204
 40
0.9571035558
 40
1.0
 40
1.0
 40
1.0
 40
1.0
 10
52.8578664414
 20
100.4322170958
 30
0.0
 10
52.85082970729999
 20
100.4322170958
 30
0.0
 10
52.8368110376
 20
100.4324824219
 30
0.0
 10
52.8159541137
 20
100.433674183
 30
0.0
 10
52.7954909866
 20
100.4356478387
 30
0.0
 10
52.7756142335
 20
100.4383845875
 30
0.0
 10
52.75651028390001
 20
100.4418584107
 30
0.0
 10
52.7383580715
 20
100.4460363031
 30
0.0
 10
52.721327053
 20
100.4508787027
 30
0.0
 10
52.7055754893
 20
100.4563400082
 30
0.0
 10
52.6912485607
 20
100.4623693894
 30
0.0
 10
52.6784771072
 20
100.4689116238
 30
0.0
 10
52.667375058
 20
100.4759100272
 30
0.0
 10
52.6580428899
 20
100.4833049522
 30
0.0
 10
52.6516499709
 20
100.4899207056
 30
0.0
 10
52.6475867563
 20
100.4953548638
 30
0.0
 10
52.6451137937
 20
100.4993812812
 30
0.0
 10
52.6431435145
 20
100.5034544732
 30
0.0
 10
52.6416822856
 20
100.5075652588
 30
0.0
 10
52.6407355347
 20
100.5117033511
 30
0.0
 10
52.6403072417
 20
100.5158574932
 30
0.0
 10
52.6403993567
 20
100.5200156332
 30
0.0
 10
52.6410113873
 20
100.5241653913
 30
0.0
 10
52.64214083689999
 20
100.5282952667
 30
0.0
 10
52.64437538470001
 20
100.5338736585
 30
0.0
 10
52.6476347398
 20
100.5392707403
 30
0.0
 10
52.65172255229999
 20
100.5444072111
 30
0.0
 10
52.6553499463
 20
100.5482896304
 30
0.0
 10
52.6594528909
 20
100.5520957482
 30
0.0
 10
52.6657038199
 20
100.5571874753
 30
0.0
 10
52.6747032806
 20
100.5632769152
 30
0.0
 10
52.6869460029
 20
100.5699723199
 30
0.0
 10
52.70078423520001
 20
100.5761737509
 30
0.0
 10
52.71609062060001
 20
100.5818243301
 30
0.0
 10
52.7327249975
 20
100.5868719715
 30
0.0
 10
52.7505329772
 20
100.5912691868
 30
0.0
 10
52.76934857689999
 20
100.5949744209
 30
0.0
 10
52.788995699
 20
100.5979525093
 30
0.0
 10
52.80929020529999
 20
100.6001751174
 30
0.0
 10
52.8300412188
 20
100.6016211211
 30
0.0
 10
52.8440136222
 20
100.6020570218
 30
0.0
 10
52.85103787659999
 20
100.6021432346
 30
0.0
  0
SPLINE
  5
2C0
330
218
100
AcDbEntity
  8
0
  6
Continuous
 62
     9
100
AcDbSpline
210
0.0
220
0.0
230
1.0
 70
     8
 71
     3
 72
    26
 73
    22
 74
     0
 42
0.0000001
 43
0.0000000001
 40
0.0
 40
0.0
 40
0.0
 40
0.0
 40
0.0167764423
 40
0.0337745792
 40
0.0512055728
 40
0.0692614465
 40
0.1078465603
 40
0.1286720009
 40
0.1506301604
 40
0.1981598896
 40
0.2507553887
 40
0.3084605077
 40
0.3711356812
 40
0.4385018994
 40
0.5101713069000001
 40
0.5856703014
 40
0.6644567825
 40
0.7459347995000001
 40
0.8294666637
 40
0.9143839686999999
 40
1.0
 40
1.0
 40
1.0
 40
1.0
 10
55.6703664414
 20
100.5448162619
 30
0.0
 10
55.6703664414
 20
100.5436156324
 30
0.0
 10
55.6702134418
 20
100.5411958114
 30
0.0
 10
55.66952761439999
 20
100.53758714
 30
0.0
 10
55.6683878509
 20
100.5339988523
 30
0.0
 10
55.6662222642
 20
100.5291501893
 30
0.0
 10
55.6631663181
 20
100.5244767572
 30
0.0
 10
55.6593947763
 20
100.5200356638
 30
0.0
 10
55.6548404187
 20
100.5154406628
 30
0.0
 10
55.648048816
 20
100.5099043614
 30
0.0
 10
55.63854136359999
 20
100.5037729704
 30
0.0
 10
55.6275548713
 20
100.4980364487
 30
0.0
 10
55.61519143579999
 20
100.4927468218
 30
0.0
 10
55.60156529020001
 20
100.4879529145
 30
0.0
 10
55.5868046525
 20
100.4837002663
 30
0.0
 10
55.57104928890001
 20
100.4800297308
 30
0.0
 10
55.55444922270001
 20
100.4769767261
 30
0.0
 10
55.5371630347
 20
100.474570883
 30
0.0
 10
55.51935612520001
 20
100.4728355155
 30
0.0
 10
55.5011994398
 20
100.4717875067
 30
0.0
 10
55.48899367189999
 20
100.4715541753
 30
0.0
 10
55.4828664414
 20
100.4715541753
 30
0.0
  0
SPLINE
  5
2C1
330
218
100
AcDbEntity
  8
0
  6
Continuous
 62
     9
100
AcDbSpline
210
0.0
220
0.0
230
1.0
 70
     8
 71
     3
 72
    46
 73
    42
 74
     0
 42
0.0000001
 43
0.0000000001
 40
0.0
 40
0.0
 40
0.0
 40
0.0
 40
0.0428964442
 40
0.0853387796
 40
0.1269916957
 40
0.1675304861
 40
0.2066467487
 40
0.2440539529
 40
0.279493627
 40
0.3127426401
 40
0.3436221385
 40
0.3720094146
 40
0.397853919
 40
0.4098376203000001
 40
0.4212122496
 40
0.4320035133
 40
0.4422474913000001
 40
0.4612749206000001
 40
0.4702150957000001
 40
0.4788768677000001
 40
0.4873583403000001
 40
0.4957656617000001
 40
0.5042084768000001
 40
0.5127947465
 40
0.5216258635000001
 40
0.5307929027000001
 40
0.5403743942000001
 40
0.5504355359000001
 40
0.5721782326
 40
0.5963197592000001
 40
0.6229860966
 40
0.6521879715
 40
0.6838494595000001
 40
0.7178281496
 40
0.753929791
 40
0.7919189292000001
 40
0.8315273048999999
 40
0.8724606898999999
 40
0.9144048017000001
 40
0.9570305796999999
 40
1.0
 40
1.0
 40
1.0
 40
1.0
 10
55.4896950062
 20
100.6021432346
 30
0.0
 10
55.4967192606
 20
100.6020570218
 30
0.0
 10
55.510691664
 20
100.6016211211
 30
0.0
 10
55.5314426775
 20
100.6001751174
 30
0.0
 10
55.5517371838
 20
100.5979525093
 30
0.0
 10
55.57138430590001
 20
100.5949744209
 30
0.0
 10
55.5901999056
 20
100.5912691868
 30
0.0
 10
55.60800788529999
 20
100.5868719715
 30
0.0
 10
55.62464226220001
 20
100.5818243302
 30
0.0
 10
55.6399486476
 20
100.5761737509
 30
0.0
 10
55.6537868799
 20
100.5699723199
 30
0.0
 10
55.6660296022
 20
100.5632769152
 30
0.0
 10
55.675029063
 20
100.5571874753
 30
0.0
 10
55.6812799919
 20
100.5520957482
 30
0.0
 10
55.6853829365
 20
100.5482896304
 30
0.0
 10
55.6890103305
 20
100.5444072111
 30
0.0
 10
55.6930981431
 20
100.5392707403
 30
0.0
 10
55.6963574981
 20
100.5338736585
 30
0.0
 10
55.6985920459
 20
100.5282952667
 30
0.0
 10
55.6997214955
 20
100.5241653913
 30
0.0
 10
55.7003335261
 20
100.5200156332
 30
0.0
 10
55.7004256411
 20
100.5158574932
 30
0.0
 10
55.6999973482
 20
100.5117033512
 30
0.0
 10
55.69905059719999
 20
100.5075652588
 30
0.0
 10
55.6975893683
 20
100.5034544732
 30
0.0
 10
55.69561908909999
 20
100.4993812812
 30
0.0
 10
55.6931461266
 20
100.4953548638
 30
0.0
 10
55.68908291189999
 20
100.4899207056
 30
0.0
 10
55.6826899929
 20
100.4833049522
 30
0.0
 10
55.67335782489999
 20
100.4759100272
 30
0.0
 10
55.6622557756
 20
100.4689116238
 30
0.0
 10
55.6494843221
 20
100.4623693894
 30
0.0
 10
55.63515739359999
 20
100.4563400082
 30
0.0
 10
55.6194058298
 20
100.4508787027
 30
0.0
 10
55.6023748113
 20
100.4460363031
 30
0.0
 10
55.58422259899999
 20
100.4418584107
 30
0.0
 10
55.5651186493
 20
100.4383845875
 30
0.0
 10
55.5452418962
 20
100.4356478387
 30
0.0
 10
55.5247787691
 20
100.433674183
 30
0.0
 10
55.5039218452
 20
100.4324824219
 30
0.0
 10
55.4899031755
 20
100.4322170958
 30
0.0
 10
55.4828664414
 20
100.4322170958
 30
0.0
  0
SPLINE
  5
2C2
330
218
100
AcDbEntity
  8
0
  6
Continuous
 62
     9
100
AcDbSpline
210
0.0
220
0.0
230
1.0
 70
     8
 71
     3
 72
    26
 73
    22
 74
     0
 42
0.0000001
 43
0.0000000001
 40
0.0
 40
0.0
 40
0.0
 40
0.0
 40
0.0856160313
 40
0.1705333363
 40
0.2540652005
 40
0.3355432175
 40
0.4143296986000001
 40
0.4898286931000001
 40
0.5614981006000001
 40
0.6288643188
 40
0.6915394923
 40
0.7492446113
 40
0.8018401104
 40
0.8493698395999999
 40
0.8713279990999998
 40
0.8921534396999998
 40
0.9307385534999998
 40
0.9487944272
 40
0.9662254208
 40
0.9832235576999998
 40
1.0
 40
1.0
 40
1.0
 40
1.0
 10
52.8578664414
 20
100.4715541753
 30
0.0
 10
52.8517392109
 20
100.4715541753
 30
0.0
 10
52.839533443
 20
100.4717875067
 30
0.0
 10
52.8213767576
 20
100.4728355155
 30
0.0
 10
52.8035698481
 20
100.474570883
 30
0.0
 10
52.7862836601
 20
100.4769767261
 30
0.0
 10
52.7696835939
 20
100.4800297308
 30
0.0
 10
52.75392823029999
 20
100.4837002663
 30
0.0
 10
52.73916759270001
 20
100.4879529145
 30
0.0
 10
52.72554144699999
 20
100.4927468218
 30
0.0
 10
52.7131780116
 20
100.4980364487
 30
0.0
 10
52.7021915192
 20
100.5037729704
 30
0.0
 10
52.69268406689999
 20
100.5099043614
 30
0.0
 10
52.6858924641
 20
100.5154406628
 30
0.0
 10
52.68133810649999
 20
100.5200356638
 30
0.0
 10
52.6775665647
 20
100.5244767572
 30
0.0
 10
52.6745106186
 20
100.5291501893
 30
0.0
 10
52.672345032
 20
100.5339988523
 30
0.0
 10
52.6712052685
 20
100.53758714
 30
0.0
 10
52.670519441
 20
100.5411958114
 30
0.0
 10
52.6703664414
 20
100.5436156324
 30
0.0
 10
52.6703664414
 20
100.5448162619
 30
0.0
  0
SPLINE
  5
2C3
330
218
100
AcDbEntity
  8
0
  6
Continuous
 62
     7
100
AcDbSpline
210
0.0
220
0.0
230
1.0
 70
     8
 71
     3
 72
    39
 73
    35
 74
     0
 42
0.0000001
 43
0.0000000001
 40
0.0
 40
0.0
 40
0.0
 40
0.0
 40
0.0568292807
 40
0.1123003788
 40
0.1663054842
 40
0.2187210655
 40
0.2694747408
 40
0.3184674771
 40
0.3655950867
 40
0.4108532841
 40
0.4327507389
 40
0.4540962408000001
 40
0.494935772
 40
0.5331945905
 40
0.5688301985999999
 40
0.6019667419000001
 40
0.6328576499000001
 40
0.6617009973
 40
0.6887120184000001
 40
0.7140942272000001
 40
0.7380077037000001
 40
0.7606655515
 40
0.7822071583
 40
0.8027510758
 40
0.8224455959
 40
0.8414375538999999
 40
0.8598510793
 40
0.8778025775999999
 40
0.8954085684999999
 40
0.9127856415
 40
0.9300501697999999
 40
0.9473023975
 40
0.9646511027999999
 40
1.0
 40
1.0
 40
1.0
 40
1.0
 10
54.170360773
 20
63.1401961762
 30
0.0
 10
55.0473024784
 20
63.1401960407
 30
0.0
 10
56.7803456008
 20
63.1650464599
 30
0.0
 10
59.3444893769
 20
63.2788701028
 30
0.0
 10
61.8359686109
 20
63.4674230072
 30
0.0
 10
64.24765791979999
 20
63.72893843539999
 30
0.0
 10
66.572548468
 20
64.06115244209999
 30
0.0
 10
68.8038838197
 20
64.4613626121
 30
0.0
 10
70.93590079810001
 20
64.92641851720001
 30
0.0
 10
72.6433686293
 20
65.36961292079999
 30
0.0
 10
73.9539107973
 20
65.75405848539999
 30
0.0
 10
75.19102735439999
 20
66.14550543899999
 30
0.0
 10
76.65354280009999
 20
66.6604087524
 30
0.0
 10
78.29603138279999
 20
67.3229540768
 30
0.0
 10
79.79797015159999
 20
68.0114477753
 30
0.0
 10
81.16441208880001
 20
68.7184577072
 30
0.0
 10
82.4040030994
 20
69.43878160549999
 30
0.0
 10
83.52687759369999
 20
70.16849939850001
 30
0.0
 10
84.54183762609998
 20
70.905194462
 30
0.0
 10
85.45775994279999
 20
71.6460611279
 30
0.0
 10
86.28288520000001
 20
72.3898281391
 30
0.0
 10
87.02446818889999
 20
73.13541605659999
 30
0.0
 10
87.6889690029
 20
73.8821450305
 30
0.0
 10
88.282090791
 20
74.6291631431
 30
0.0
 10
88.8087897283
 20
75.376750611
 30
0.0
 10
89.27440728290001
 20
76.1253724741
 30
0.0
 10
89.68282133129999
 20
76.87618454469999
 30
0.0
 10
90.0377014336
 20
77.6301536884
 30
0.0
 10
90.34156213809998
 20
78.3888835838
 30
0.0
 10
90.59694577370001
 20
79.1540998493
 30
0.0
 10
90.80539115389999
 20
79.92774834959999
 30
0.0
 10
90.967711889
 20
80.71196946369999
 30
0.0
 10
91.12414198899999
 20
81.78041598840001
 30
0.0
 10
91.17036699200001
 20
82.5947220251
 30
0.0
 10
91.1703670037
 20
83.14019650309999
 30
0.0
  0
SPLINE
  5
2C4
330
218
100
AcDbEntity
  8
0
  6
Continuous
 62
     7
100
AcDbSpline
210
0.0
220
0.0
230
1.0
 70
     8
 71
     3
 72
    39
 73
    35
 74
     0
 42
0.0000001
 43
0.0000000001
 40
0.0
 40
0.0
 40
0.0
 40
0.0
 40
0.0353489013
 40
0.0526976085
 40
0.0699498382
 40
0.0872143684
 40
0.1045914432
 40
0.1221974358
 40
0.1401489357
 40
0.1585624626
 40
0.1775544219
 40
0.1972489431
 40
0.2177928615
 40
0.2393344689
 40
0.2619923171
 40
0.2859057937
 40
0.3112880021
 40
0.3382990225
 40
0.3671423685000001
 40
0.3980332748
 40
0.4311698156000001
 40
0.4668054206
 40
0.5050642359000001
 40
0.545903764
 40
0.5672492647000001
 40
0.5891467187
 40
0.634404915
 40
0.6815325235
 40
0.7305252589000001
 40
0.7812789336
 40
0.8336945144999999
 40
0.88769962
 40
0.9431707186
 40
1.0
 40
1.0
 40
1.0
 40
1.0
 10
17.1703658791
 20
83.14019650289999
 30
0.0
 10
17.1703658909
 20
82.5947220964
 30
0.0
 10
17.2165908816
 20
81.78041616649998
 30
0.0
 10
17.3730209403
 20
80.7119697789
 30
0.0
 10
17.5353416324
 20
79.92774876439999
 30
0.0
 10
17.7437869568
 20
79.15410036189999
 30
0.0
 10
17.9991705234
 20
78.3888841934
 30
0.0
 10
18.3030311443
 20
77.6301543948
 30
0.0
 10
18.6579111469
 20
76.87618534800001
 30
0.0
 10
19.0663250781
 20
76.12537337479999
 30
0.0
 10
19.5319424957
 20
75.3767516099
 30
0.0
 10
20.0586412734
 20
74.629164241
 30
0.0
 10
20.6517628765
 20
73.88214622789999
 30
0.0
 10
21.3162634783
 20
73.1354173526
 30
0.0
 10
22.0578462237
 20
72.38982953219999
 30
0.0
 10
22.8829712021
 20
71.64606261580001
 30
0.0
 10
23.7988932008
 20
70.9051960421
 30
0.0
 10
24.8138528698
 20
70.16850106479999
 30
0.0
 10
25.9367269524
 20
69.43878335009999
 30
0.0
 10
27.1763174973
 20
68.7184595209
 30
0.0
 10
28.5427589099
 20
68.01144964249999
 30
0.0
 10
30.0446970991
 20
67.3229559759
 30
0.0
 10
31.6871850595
 20
66.6604106526
 30
0.0
 10
33.1496999702
 20
66.14550730960001
 30
0.0
 10
34.38681609790001
 20
65.75406031139999
 30
0.0
 10
35.6973578471
 20
65.3696146815
 30
0.0
 10
37.4048251566
 20
64.92642017369999
 30
0.0
 10
39.536841505
 20
64.4613641159
 30
0.0
 10
41.76817621949999
 20
64.06115376449999
 30
0.0
 10
44.0930661282
 20
63.7289395475
 30
0.0
 10
46.50475480029999
 20
63.467423881
 30
0.0
 10
48.9962334043
 20
63.2788707112
 30
0.0
 10
51.5603765576
 20
63.1650467771
 30
0.0
 10
53.2934192716
 20
63.140196149
 30
0.0
 10
54.170360773
 20
63.1401961762
 30
0.0
  0
SPLINE
  5
2C5
330
218
100
AcDbEntity
  8
0
  6
Continuous
 62
     7
100
AcDbSpline
210
0.0
220
0.0
230
1.0
 70
     8
 71
     3
 72
    39
 73
    35
 74
     0
 42
0.0000001
 43
0.0000000001
 40
0.0
 40
0.0
 40
0.0
 40
0.0
 40
0.0568292814
 40
0.11230038
 40
0.1663054855
 40
0.2187210664
 40
0.2694747411
 40
0.3184674765
 40
0.365595085
 40
0.4108532813
 40
0.4327507353000001
 40
0.454096236
 40
0.4949357641
 40
0.5331945794
 40
0.5688301844
 40
0.6019667252000001
 40
0.6328576315
 40
0.6617009775
 40
0.6887119979000001
 40
0.7140942063
 40
0.7380076829000001
 40
0.7606655311
 40
0.7822071385
 40
0.8027510568999998
 40
0.8224455781000001
 40
0.8414375373999998
 40
0.8598510643
 40
0.8778025641999999
 40
0.8954085567999999
 40
0.9127856315999999
 40
0.9300501618000001
 40
0.9473023915
 40
0.9646510987
 40
1.0
 40
1.0
 40
1.0
 40
1.0
 10
54.170360773
 20
103.1401968296
 30
0.0
 10
53.2934192716
 20
103.1401968568
 30
0.0
 10
51.5603765576
 20
103.1153462287
 30
0.0
 10
48.9962334043
 20
103.0015222946
 30
0.0
 10
46.50475480029999
 20
102.8129691248
 30
0.0
 10
44.0930661282
 20
102.5514534583
 30
0.0
 10
41.76817621949999
 20
102.2192392413
 30
0.0
 10
39.536841505
 20
101.8190288899
 30
0.0
 10
37.4048251566
 20
101.3539728321
 30
0.0
 10
35.6973578471
 20
100.9107783243
 30
0.0
 10
34.38681609790001
 20
100.5263326944
 30
0.0
 10
33.1496999702
 20
100.1348856962
 30
0.0
 10
31.6871850595
 20
99.61998235320001
 30
0.0
 10
30.0446970991
 20
98.95743702989999
 30
0.0
 10
28.5427589099
 20
98.26894336329999
 30
0.0
 10
27.1763174973
 20
97.5619334849
 30
0.0
 10
25.9367269524
 20
96.84160965570001
 30
0.0
 10
24.8138528698
 20
96.11189194100001
 30
0.0
 10
23.7988932008
 20
95.37519696370001
 30
0.0
 10
22.8829712021
 20
94.6343303901
 30
0.0
 10
22.0578462237
 20
93.89056347370001
 30
0.0
 10
21.3162634783
 20
93.14497565319999
 30
0.0
 10
20.6517628765
 20
92.39824677790002
 30
0.0
 10
20.0586412734
 20
91.65122876479999
 30
0.0
 10
19.5319424957
 20
90.90364139589999
 30
0.0
 10
19.0663250781
 20
90.155019631
 30
0.0
 10
18.6579111469
 20
89.4042076578
 30
0.0
 10
18.3030311443
 20
88.650238611
 30
0.0
 10
17.9991705235
 20
87.89150881239999
 30
0.0
 10
17.7437869568
 20
87.12629264389999
 30
0.0
 10
17.5353416324
 20
86.3526442414
 30
0.0
 10
17.3730209403
 20
85.5684232269
 30
0.0
 10
17.2165908817
 20
84.4999768393
 30
0.0
 10
17.1703658909
 20
83.6856709094
 30
0.0
 10
17.1703658791
 20
83.14019650289999
 30
0.0
  0
SPLINE
  5
2C6
330
218
100
AcDbEntity
  8
0
  6
Continuous
 62
     7
100
AcDbSpline
210
0.0
220
0.0
230
1.0
 70
     8
 71
     3
 72
    39
 73
    35
 74
     0
 42
0.0000001
 43
0.0000000001
 40
0.0
 40
0.0
 40
0.0
 40
0.0
 40
0.0353488972
 40
0.0526976025
 40
0.0699498302
 40
0.0872143585
 40
0.1045914315
 40
0.1221974224
 40
0.1401489207
 40
0.1585624461
 40
0.1775544041
 40
0.1972489242
 40
0.2177928417
 40
0.2393344485
 40
0.2619922963
 40
0.2859057728
 40
0.3112879816
 40
0.3382990027
 40
0.3671423501
 40
0.3980332581
 40
0.4311698014
 40
0.4668054095000001
 40
0.505064228
 40
0.5459037592
 40
0.5672492611
 40
0.5891467159000001
 40
0.6344049133
 40
0.6815325229000001
 40
0.7305252592000001
 40
0.7812789345000001
 40
0.8336945157999998
 40
0.8876996211999999
 40
0.9431707193000001
 40
1.0
 40
1.0
 40
1.0
 40
1.0
 10
91.1703670037
 20
83.14019650309999
 30
0.0
 10
91.17036699200001
 20
83.68567098099999
 30
0.0
 10
91.12414198899999
 20
84.4999770177
 30
0.0
 10
90.967711889
 20
85.5684235424
 30
0.0
 10
90.80539115379998
 20
86.35264465649999
 30
0.0
 10
90.59694577370001
 20
87.1262931568
 30
0.0
 10
90.34156213799999
 20
87.89150942219999
 30
0.0
 10
90.03770143350001
 20
88.65023931759999
 30
0.0
 10
89.6828213312
 20
89.40420846139998
 30
0.0
 10
89.27440728270001
 20
90.15502053190001
 30
0.0
 10
88.80878972819999
 20
90.90364239500001
 30
0.0
 10
88.28209079089999
 20
91.6512298629
 30
0.0
 10
87.6889690027
 20
92.39824797549999
 30
0.0
 10
87.02446818870001
 20
93.1449769494
 30
0.0
 10
86.28288519989999
 20
93.8905648669
 30
0.0
 10
85.4577599427
 20
94.63433187799999
 30
0.0
 10
84.5418376259
 20
95.3751985439
 30
0.0
 10
83.52687759350001
 20
96.1118936075
 30
0.0
 10
82.4040030992
 20
96.84161140049999
 30
0.0
 10
81.16441208860001
 20
97.56193529870001
 30
0.0
 10
79.7979701514
 20
98.26894523059999
 30
0.0
 10
78.29603138260001
 20
98.95743892909999
 30
0.0
 10
76.65354279989999
 20
99.61998425350001
 30
0.0
 10
75.1910273542
 20
100.1348875668
 30
0.0
 10
73.95391079709999
 20
100.5263345205
 30
0.0
 10
72.64336862909999
 20
100.910780085
 30
0.0
 10
70.93590079790001
 20
101.3539744886
 30
0.0
 10
68.8038838196
 20
101.8190303937
 30
0.0
 10
66.5725484679
 20
102.2192405637
 30
0.0
 10
64.2476579196
 20
102.5514545704
 30
0.0
 10
61.8359686109
 20
102.8129699986
 30
0.0
 10
59.3444893768
 20
103.001522903
 30
0.0
 10
56.78034560069999
 20
103.1153465459
 30
0.0
 10
55.0473024784
 20
103.1401969652
 30
0.0
 10
54.170360773
 20
103.1401968296
 30
0.0
  0
SPLINE
  5
2C7
330
218
100
AcDbEntity
  8
0
  6
Continuous
 62
     9
100
AcDbSpline
210
0.0
220
0.0
230
1.0
 70
     8
 71
     3
 72
    14
 73
    10
 74
     0
 42
0.0000001
 43
0.0000000001
 40
0.0
 40
0.0
 40
0.0
 40
0.0
 40
0.1226552047
 40
0.2359023399
 40
0.3476733642
 40
0.4630889853000001
 40
0.5858999073
 40
0.7170810523000001
 40
1.0
 40
1.0
 40
1.0
 40
1.0
 10
51.9940052367
 20
100.8232847061
 30
0.0
 10
51.9872727008
 20
100.8533529997
 30
0.0
 10
51.97343750279999
 20
100.9109870753
 30
0.0
 10
51.9512091392
 20
100.9954530739
 30
0.0
 10
51.9292691784
 20
101.0781126272
 30
0.0
 10
51.9074727838
 20
101.1632957885
 30
0.0
 10
51.8860105821
 20
101.2535851906
 30
0.0
 10
51.85682580159999
 20
101.3852750126
 30
0.0
 10
51.83637749149999
 20
101.4872803907
 30
0.0
 10
51.8224254039
 20
101.5569709494
 30
0.0
  0
SPLINE
  5
2C8
330
218
100
AcDbEntity
  8
0
  6
Continuous
 62
     9
100
AcDbSpline
210
0.0
220
0.0
230
1.0
 70
     8
 71
     3
 72
    14
 73
    10
 74
     0
 42
0.0000001
 43
0.0000000001
 40
0.0
 40
0.0
 40
0.0
 40
0.0
 40
0.1226557097
 40
0.2359038479
 40
0.3476757265999999
 40
0.463091723
 40
0.5859023625000001
 40
0.7170827041
 40
1.0
 40
1.0
 40
1.0
 40
1.0
 10
56.3467276462
 20
100.8232847061
 30
0.0
 10
56.3534602098
 20
100.8533531234
 30
0.0
 10
56.36729543560001
 20
100.9109875804
 30
0.0
 10
56.38952372529999
 20
100.9954542118
 30
0.0
 10
56.4114636509
 20
101.0781143545
 30
0.0
 10
56.4332600321
 20
101.163297764
 30
0.0
 10
56.4547222589
 20
101.2535869756
 30
0.0
 10
56.4839070898
 20
101.3852760813
 30
0.0
 10
56.5043554652
 20
101.4872808174
 30
0.0
 10
56.5183074914
 20
101.556970965
 30
0.0
  0
SPLINE
  5
2C9
330
218
100
AcDbEntity
  8
0
  6
Continuous
 62
     9
100
AcDbSpline
210
0.0
220
0.0
230
1.0
 70
     8
 71
     3
 72
    11
 73
     7
 74
     0
 42
0.0000001
 43
0.0000000001
 40
0.0
 40
0.0
 40
0.0
 40
0.0
 40
0.238735461
 40
0.4864568627000001
 40
0.7421486452
 40
1.0
 40
1.0
 40
1.0
 40
1.0
 10
56.9737333455
 20
100.7072299833
 30
0.0
 10
56.9882952324
 20
100.773121659
 30
0.0
 10
57.0174554897
 20
100.9074988493
 30
0.0
 10
57.0602753088
 20
101.112862288
 30
0.0
 10
57.10257025109999
 20
101.3238464941
 30
0.0
 10
57.131001254
 20
101.4661942257
 30
0.0
 10
57.14532274109999
 20
101.5376582388
 30
0.0
  0
SPLINE
  5
2CA
330
218
100
AcDbEntity
  8
0
  6
Continuous
 62
     9
100
AcDbSpline
210
0.0
220
0.0
230
1.0
 70
     8
 71
     3
 72
    11
 73
     7
 74
     0
 42
0.0000001
 43
0.0000000001
 40
0.0
 40
0.0
 40
0.0
 40
0.0
 40
0.2578530992
 40
0.513543934
 40
0.7612647462000001
 40
1.0
 40
1.0
 40
1.0
 40
1.0
 10
51.1954080909
 20
101.5376585504
 30
0.0
 10
51.20972962939999
 20
101.4661940092
 30
0.0
 10
51.2381631477
 20
101.3238464795
 30
0.0
 10
51.2804616879
 20
101.1128628337
 30
0.0
 10
51.32327942989999
 20
100.9074993873
 30
0.0
 10
51.3524353035
 20
100.7731213989
 30
0.0
 10
51.36699749119999
 20
100.7072298167
 30
0.0
  0
SPLINE
  5
2CB
330
218
100
AcDbEntity
  8
0
  6
Continuous
 62
     9
100
AcDbSpline
210
0.0
220
0.0
230
1.0
 70
     8
 71
     3
 72
    42
 73
    38
 74
     0
 42
0.0000001
 43
0.0000000001
 40
0.0
 40
0.0
 40
0.0
 40
0.0
 40
0.0799316148
 40
0.1598630837
 40
0.2397942704
 40
0.3197250349
 40
0.3596901997
 40
0.3996552665
 40
0.4396199984000001
 40
0.4596020567
 40
0.4795853858
 40
0.4995679164000001
 40
0.5195405763000001
 40
0.5394651509
 40
0.5592848405
 40
0.5984149455
 40
0.6365653373
 40
0.6733608851000001
 40
0.7084724062000002
 40
0.7416116939000001
 40
0.7725184408
 40
0.8009623713999999
 40
0.8268223066
 40
0.8500640951999999
 40
0.8707462828
 40
0.8802083684999999
 40
0.8891480068999999
 40
0.9056780479
 40
0.9211984862999999
 40
0.9289111938999999
 40
0.9366592609999999
 40
0.9444519391
 40
0.952280192
 40
0.9601422698
 40
0.9680403829999999
 40
0.9839470693999999
 40
1.0
 40
1.0
 40
1.0
 40
1.0
 10
54.17036644140001
 20
100.1041104295
 30
0.0
 10
54.25356322479999
 20
100.1041121142
 30
0.0
 10
54.4199567565
 20
100.1038527397
 30
0.0
 10
54.6695441871
 20
100.1026906595
 30
0.0
 10
54.9191258961
 20
100.100747262
 30
0.0
 10
55.1271037793
 20
100.0984713879
 30
0.0
 10
55.29348037850001
 20
100.0962604062
 30
0.0
 10
55.41825925899999
 20
100.0944033832
 30
0.0
 10
55.52223802859999
 20
100.0926709692
 30
0.0
 10
55.60542138199999
 20
100.0912613979
 30
0.0
 10
55.6678058159
 20
100.0900204789
 30
0.0
 10
55.7301791084
 20
100.0887042715
 30
0.0
 10
55.79250273189999
 20
100.0880091025
 30
0.0
 10
55.8546619611
 20
100.0882772807
 30
0.0
 10
55.9367399986
 20
100.0901928363
 30
0.0
 10
56.0377019021
 20
100.0952923197
 30
0.0
 10
56.15601333569999
 20
100.1056647723
 30
0.0
 10
56.26965718140001
 20
100.1203478301
 30
0.0
 10
56.3773988392
 20
100.1391953257
 30
0.0
 10
56.47809538229999
 20
100.1620447756
 30
0.0
 10
56.5706592359
 20
100.1887229642
 30
0.0
 10
56.6540578861
 20
100.2191467843
 30
0.0
 10
56.7274362391
 20
100.2530390499
 30
0.0
 10
56.7900730036
 20
100.2901011563
 30
0.0
 10
56.8340055927
 20
100.3244967386
 30
0.0
 10
56.8625930768
 20
100.3535240701
 30
0.0
 10
56.8856173627
 20
100.3816889036
 30
0.0
 10
56.9074568663
 20
100.4189695217
 30
0.0
 10
56.9180237393
 20
100.459248044
 30
0.0
 10
56.92493316210001
 20
100.4907166179
 30
0.0
 10
56.93019956659999
 20
100.5143461999
 30
0.0
 10
56.9357093557
 20
100.5380361103
 30
0.0
 10
56.94117001399999
 20
100.5618610424
 30
0.0
 10
56.9465855457
 20
100.5858082618
 30
0.0
 10
56.9538324144
 20
100.6179622127
 30
0.0
 10
56.96292364609999
 20
100.6584397225
 30
0.0
 10
56.970142216
 20
100.6909122792
 30
0.0
 10
56.973737502
 20
100.7072295731
 30
0.0
  0
SPLINE
  5
2CC
330
218
100
AcDbEntity
  8
0
  6
Continuous
 62
     9
100
AcDbSpline
210
0.0
220
0.0
230
1.0
 70
     8
 71
     3
 72
    25
 73
    21
 74
     0
 42
0.0000001
 43
0.0000000001
 40
0.0
 40
0.0
 40
0.0
 40
0.0
 40
0.0980615103
 40
0.1470918983
 40
0.1961222464
 40
0.2451535418
 40
0.2941843223
 40
0.3432018106000001
 40
0.3676997707
 40
0.3921895969
 40
0.4167674279
 40
0.4417675729
 40
0.4678325897
 40
0.4955109288
 40
0.5567485394000001
 40
0.6270618207
 40
0.7069391778
 40
0.7962192455000001
 40
0.894237556
 40
1.0
 40
1.0
 40
1.0
 40
1.0
 10
56.3467276466
 20
100.823284706
 30
0.0
 10
56.3425354679
 20
100.8045619451
 30
0.0
 10
56.3362450668
 20
100.7764783544
 30
0.0
 10
56.32786261189999
 20
100.739032563
 30
0.0
 10
56.3215762893
 20
100.7109480293
 30
0.0
 10
56.31528037689999
 20
100.682865581
 30
0.0
 10
56.3090028182
 20
100.65478154
 30
0.0
 10
56.303767538
 20
100.6313832826
 30
0.0
 10
56.29961639640001
 20
100.6126623118
 30
0.0
 10
56.29663646979999
 20
100.5985810017
 30
0.0
 10
56.2934920021
 20
100.5844320172
 30
0.0
 10
56.2891266605
 20
100.5702559007
 30
0.0
 10
56.2825580071
 20
100.5562592154
 30
0.0
 10
56.2703005464
 20
100.5373273892
 30
0.0
 10
56.24880996259999
 20
100.5144357606
 30
0.0
 10
56.2156066432
 20
100.4895315347
 30
0.0
 10
56.17467823670001
 20
100.4665026934
 30
0.0
 10
56.1266324498
 20
100.4457161646
 30
0.0
 10
56.07221620609999
 20
100.4274666266
 30
0.0
 10
56.03356675189999
 20
100.4175313859
 30
0.0
 10
56.0133770857
 20
100.4129947218
 30
0.0
  0
SPLINE
  5
2CD
330
218
100
AcDbEntity
  8
0
  6
Continuous
 62
     9
100
AcDbSpline
210
0.0
220
0.0
230
1.0
 70
     8
 71
     3
 72
    43
 73
    39
 74
     0
 42
0.0000001
 43
0.0000000001
 40
0.0
 40
0.0
 40
0.0
 40
0.0
 40
0.0160521256
 40
0.0319570712
 40
0.0398557083
 40
0.047719704
 40
0.0555459277
 40
0.0633305107
 40
0.0710766764
 40
0.0787937677
 40
0.0865192396
 40
0.0943433345
 40
0.1024042832
 40
0.1108762636
 40
0.1198259828
 40
0.1292844407
 40
0.1393216563
 40
0.1499801791
 40
0.1732209055
 40
0.1990803385
 40
0.2275221104
 40
0.2584300544
 40
0.2915723021
 40
0.3266848219
 40
0.3634699347
 40
0.4016217317000001
 40
0.4407489020000001
 40
0.4804895052000001
 40
0.5004595468000001
 40
0.5204423239000001
 40
0.5604051572
 40
0.6003677028
 40
0.6403304570000001
 40
0.6802933237000001
 40
0.7602195002
 40
0.8401460978000001
 40
0.9200729749999998
 40
1.0
 40
1.0
 40
1.0
 40
1.0
 10
51.36699531859999
 20
100.7072295714
 30
0.0
 10
51.3705912781
 20
100.6909124621
 30
0.0
 10
51.37782070850001
 20
100.6584434178
 30
0.0
 10
51.3868780952
 20
100.6179584276
 30
0.0
 10
51.39414351510001
 20
100.585806281
 30
0.0
 10
51.399624822
 20
100.5618722923
 30
0.0
 10
51.4050768075
 20
100.5380533099
 30
0.0
 10
51.41037512649999
 20
100.514325364
 30
0.0
 10
51.4156168454
 20
100.4907010845
 30
0.0
 10
51.4208834621
 20
100.4671460986
 30
0.0
 10
51.4268803897
 20
100.4436702239
 30
0.0
 10
51.4348536822
 20
100.420383067
 30
0.0
 10
51.4457791793
 20
100.3974232473
 30
0.0
 10
51.4603869939
 20
100.3751985267
 30
0.0
 10
51.4781648945
 20
100.3535420625
 30
0.0
 10
51.49894098669999
 20
100.3323934627
 30
0.0
 10
51.5227841542
 20
100.3119282022
 30
0.0
 10
51.5596399514
 20
100.2847920459
 30
0.0
 10
51.61330849149999
 20
100.2530317695
 30
0.0
 10
51.68667853189999
 20
100.2191514086
 30
0.0
 10
51.770080627
 20
100.1887181232
 30
0.0
 10
51.8626526413
 20
100.1620471472
 30
0.0
 10
51.96336238699999
 20
100.139206495
 30
0.0
 10
52.0711053706
 20
100.1203808448
 30
0.0
 10
52.1847387901
 20
100.1056382139
 30
0.0
 10
52.3030483195
 20
100.0953104856
 30
0.0
 10
52.4247230421
 20
100.0891269118
 30
0.0
 10
52.5276185673
 20
100.0877297006
 30
0.0
 10
52.6105673633
 20
100.0887122042
 30
0.0
 10
52.6937327813
 20
100.0904927599
 30
0.0
 10
52.7977109673
 20
100.0923317791
 30
0.0
 10
52.9224852718
 20
100.0944044188
 30
0.0
 10
53.0472630999
 20
100.0962587458
 30
0.0
 10
53.2136380715
 20
100.0984732294
 30
0.0
 10
53.4216140295
 20
100.1007467121
 30
0.0
 10
53.6711933833
 20
100.1026907993
 30
0.0
 10
53.9207784761
 20
100.1038530622
 30
0.0
 10
54.0871704397
 20
100.1041090058
 30
0.0
 10
54.17036644140001
 20
100.1041104295
 30
0.0
  0
SPLINE
  5
2CE
330
218
100
AcDbEntity
  8
0
  6
Continuous
 62
     9
100
AcDbSpline
210
0.0
220
0.0
230
1.0
 70
     8
 71
     3
 72
    25
 73
    21
 74
     0
 42
0.0000001
 43
0.0000000001
 40
0.0
 40
0.0
 40
0.0
 40
0.0
 40
0.1057798271
 40
0.2038034616
 40
0.2930598828
 40
0.3729346587
 40
0.4432480384000001
 40
0.5044835378000001
 40
0.5321614652000001
 40
0.5582262832
 40
0.5832265009000001
 40
0.607804594
 40
0.6322947731000001
 40
0.6567931001
 40
0.7058113223
 40
0.7548428281000001
 40
0.8038748495999998
 40
0.8529059237
 40
0.9019370376999999
 40
1.0
 40
1.0
 40
1.0
 40
1.0
 10
52.32733233640001
 20
100.4130004072
 30
0.0
 10
52.30714025020001
 20
100.4175380181
 30
0.0
 10
52.268487858
 20
100.4274726926
 30
0.0
 10
52.2140728864
 20
100.4457192738
 30
0.0
 10
52.1660371236
 20
100.4665133783
 30
0.0
 10
52.12511543449999
 20
100.4895392592
 30
0.0
 10
52.09191431479999
 20
100.5144424437
 30
0.0
 10
52.0704268679
 20
100.5373346518
 30
0.0
 10
52.0581712241
 20
100.5562659205
 30
0.0
 10
52.05160376649999
 20
100.5702623669
 30
0.0
 10
52.0472392925
 20
100.5844381383
 30
0.0
 10
52.04409523199999
 20
100.5985867486
 30
0.0
 10
52.0411153199
 20
100.6126676670999
 30
0.0
 10
52.0369642637
 20
100.6313881579
 30
0.0
 10
52.0317291005
 20
100.6547858195
 30
0.0
 10
52.0254517092
 20
100.68286915
 30
0.0
 10
52.0191559533
 20
100.7109508839
 30
0.0
 10
52.01286979169999
 20
100.7390347041
 30
0.0
 10
52.0044875497
 20
100.7764795439
 30
0.0
 10
51.9981973083
 20
100.8045624209
 30
0.0
 10
51.99400523619999
 20
100.823284706
 30
0.0
  0
SPLINE
  5
2CF
330
218
100
AcDbEntity
  8
0
  6
Continuous
 62
     9
100
AcDbSpline
210
0.0
220
0.0
230
1.0
 70
     8
 71
     3
 72
    33
 73
    29
 74
     0
 42
0.0000001
 43
0.0000000001
 40
0.0
 40
0.0
 40
0.0
 40
0.0
 40
0.0312528606
 40
0.0625016791
 40
0.0937446295
 40
0.1249802616
 40
0.156209335
 40
0.1718262113
 40
0.1874419294
 40
0.2186650632
 40
0.2498901285
 40
0.2811199627
 40
0.3123557916
 40
0.3435977597
 40
0.3748456064
 40
0.4373367725000001
 40
0.4685963852000001
 40
0.4998576558
 40
0.5311195911
 40
0.562381575
 40
0.5936433679
 40
0.6249048549000001
 40
0.6874215273000001
 40
0.7186823661
 40
0.7499431592
 40
0.8124609470000001
 40
0.8749796535999999
 40
1.0
 40
1.0
 40
1.0
 40
1.0
 10
78.2463618135
 20
83.14019650289999
 30
0.0
 10
78.24636169609999
 20
83.45820292109999
 30
0.0
 10
78.21709514520001
 20
84.0945824463
 30
0.0
 10
78.0830818004
 20
85.0404540509
 30
0.0
 10
77.856281151
 20
85.9684210698
 30
0.0
 10
77.5397175474
 20
86.86944495590001
 30
0.0
 10
77.20307260109999
 20
87.59059246019999
 30
0.0
 10
76.89408472540001
 20
88.1462094477
 30
0.0
 10
76.5596468307
 20
88.6868359201
 30
0.0
 10
76.09605364620001
 20
89.3332131468
 30
0.0
 10
75.4765954061
 20
90.05902584299999
 30
0.0
 10
74.8022012529
 20
90.73411843870001
 30
0.0
 10
74.0813795416
 20
91.35939109309999
 30
0.0
 10
73.32150649279999
 20
91.93670668260001
 30
0.0
 10
72.2650954753
 20
92.64571812959998
 30
0.0
 10
71.15392908629999
 20
93.2694870239
 30
0.0
 10
70.0061668772
 20
93.81833345510001
 30
0.0
 10
69.12925366
 20
94.1953666494
 30
0.0
 10
68.2391311862
 20
94.53991028729999
 30
0.0
 10
67.33790229100001
 20
94.85421732149999
 30
0.0
 10
66.4272274248
 20
95.13993551610001
 30
0.0
 10
65.20244716579999
 20
95.48498045629999
 30
0.0
 10
63.9638879569
 20
95.77913011099999
 30
0.0
 10
62.71575153749999
 20
96.0263811415
 30
0.0
 10
61.4619498302
 20
96.2432555782
 30
0.0
 10
59.8857415425
 20
96.45952845709999
 30
0.0
 10
57.3519448125
 20
96.6972901311
 30
0.0
 10
55.44248271569999
 20
96.7624461958
 30
0.0
 10
54.17036644140001
 20
96.76244626589999
 30
0.0
  0
SPLINE
  5
2D0
330
218
100
AcDbEntity
  8
0
  6
Continuous
 62
     9
100
AcDbSpline
210
0.0
220
0.0
230
1.0
 70
     8
 71
     3
 72
    32
 73
    28
 74
     0
 42
0.0000001
 43
0.0000000001
 40
0.0
 40
0.0
 40
0.0
 40
0.0
 40
0.1250229255
 40
0.1875425003
 40
0.2500608451000001
 40
0.2813219049
 40
0.3125830105
 40
0.3751002157999999
 40
0.4063619660000001
 40
0.4376240198
 40
0.4688862583
 40
0.5001484227000001
 40
0.5314098236
 40
0.5626694689000001
 40
0.6251607365
 40
0.6564086352000001
 40
0.6876506093000002
 40
0.7188864643000001
 40
0.7501163978000001
 40
0.7813417017000001
 40
0.8125650740000001
 40
0.8437895026000001
 40
0.8750188354
 40
0.9062547309999999
 40
0.9374979385999999
 40
0.9687469963999999
 40
1.0
 40
1.0
 40
1.0
 40
1.0
 10
54.17036644140001
 20
69.5179467399
 30
0.0
 10
55.4424982522
 20
69.51794669029999
 30
0.0
 10
57.3519794088
 20
69.5831043701
 30
0.0
 10
59.8857951414
 20
69.8208705815
 30
0.0
 10
61.46200691439999
 20
70.03714622229999
 30
0.0
 10
62.7158087407
 20
70.2540222915
 30
0.0
 10
63.9639448199
 20
70.50127569459999
 30
0.0
 10
65.20250412680001
 20
70.7954255999
 30
0.0
 10
66.4272830787
 20
71.1404754137
 30
0.0
 10
67.3379574578
 20
71.42619462439999
 30
0.0
 10
68.2391860908
 20
71.74050124859999
 30
0.0
 10
69.1293044443
 20
72.085050452
 30
0.0
 10
70.00621480159999
 20
72.46208018139999
 30
0.0
 10
71.15396689479999
 20
73.0109285442
 30
0.0
 10
72.26513359800001
 20
73.63468064340001
 30
0.0
 10
73.321520846
 20
74.3437112002
 30
0.0
 10
74.0813960766
 20
74.92101085139999
 30
0.0
 10
74.80220915689999
 20
75.5462865777
 30
0.0
 10
75.4765999903
 20
76.22136554869999
 30
0.0
 10
76.09606595549999
 20
76.94720691509999
 30
0.0
 10
76.6523112467
 20
77.7227162355
 30
0.0
 10
77.1358494795
 20
78.5457354282
 30
0.0
 10
77.53970194209999
 20
79.41093171199999
 30
0.0
 10
77.8562870098
 20
80.31198182649999
 30
0.0
 10
78.0830816669
 20
81.239941555
 30
0.0
 10
78.2170956029
 20
82.18581368829999
 30
0.0
 10
78.2463617028
 20
82.8221913055
 30
0.0
 10
78.2463618134
 20
83.14019650289999
 30
0.0
  0
SPLINE
  5
2D1
330
218
100
AcDbEntity
  8
0
  6
Continuous
 62
     9
100
AcDbSpline
210
0.0
220
0.0
230
1.0
 70
     8
 71
     3
 72
    32
 73
    28
 74
     0
 42
0.0000001
 43
0.0000000001
 40
0.0
 40
0.0
 40
0.0
 40
0.0
 40
0.1250229255
 40
0.1875425003
 40
0.2500608451000001
 40
0.2813219049
 40
0.3125830105
 40
0.3751002157999999
 40
0.4063619660000001
 40
0.4376240198
 40
0.4688862583
 40
0.5001484227000001
 40
0.5314098236
 40
0.5626694689000001
 40
0.6251607365
 40
0.6564086352000001
 40
0.6876506093000002
 40
0.7188864643000001
 40
0.7501163978000001
 40
0.7813417017000001
 40
0.8125650740000001
 40
0.8437895026000001
 40
0.8750188354
 40
0.9062547309999999
 40
0.9374979385999999
 40
0.9687469963999999
 40
1.0
 40
1.0
 40
1.0
 40
1.0
 10
54.17036644140001
 20
96.76244626589999
 30
0.0
 10
52.8982346306
 20
96.76244631549998
 30
0.0
 10
50.98875347399999
 20
96.6972886357
 30
0.0
 10
48.4549377414
 20
96.4595224243
 30
0.0
 10
46.87872596850001
 20
96.24324678349999
 30
0.0
 10
45.6249241422
 20
96.02637071430001
 30
0.0
 10
44.3767880629
 20
95.77911731120002
 30
0.0
 10
43.138228756
 20
95.48496740590001
 30
0.0
 10
41.9134498041
 20
95.13991759209998
 30
0.0
 10
41.002775425
 20
94.8541983814
 30
0.0
 10
40.101546792
 20
94.5398917572
 30
0.0
 10
39.2114284385
 20
94.19534255379998
 30
0.0
 10
38.3345180812
 20
93.81831282440002
 30
0.0
 10
37.18676598800001
 20
93.26946446159999
 30
0.0
 10
36.0755992848
 20
92.6457123624
 30
0.0
 10
35.0192120369
 20
91.93668180559999
 30
0.0
 10
34.2593368062
 20
91.35938215440001
 30
0.0
 10
33.5385237259
 20
90.73410642809999
 30
0.0
 10
32.8641328926
 20
90.05902745709999
 30
0.0
 10
32.2446669273
 20
89.33318609069999
 30
0.0
 10
31.6884216361
 20
88.5576767703
 30
0.0
 10
31.2048834034
 20
87.7346575776
 30
0.0
 10
30.8010309407
 20
86.86946129379998
 30
0.0
 10
30.48444587300001
 20
85.96841117930001
 30
0.0
 10
30.2576512159
 20
85.0404514508
 30
0.0
 10
30.1236372799
 20
84.09457931750001
 30
0.0
 10
30.09437118
 20
83.4582017003
 30
0.0
 10
30.0943710694
 20
83.14019650289999
 30
0.0
  0
SPLINE
  5
2D2
330
218
100
AcDbEntity
  8
0
  6
Continuous
 62
     9
100
AcDbSpline
210
0.0
220
0.0
230
1.0
 70
     8
 71
     3
 72
    37
 73
    33
 74
     0
 42
0.0000001
 43
0.0000000001
 40
0.0
 40
0.0
 40
0.0
 40
0.0
 40
0.0627824191
 40
0.1255476375
 40
0.1882791641
 40
0.2509609418
 40
0.3135784836
 40
0.3761194024
 40
0.43857465
 40
0.5009402554
 40
0.5320954068
 40
0.5632311671
 40
0.6254392159000001
 40
0.6565358808
 40
0.6876289751000001
 40
0.7187255977
 40
0.7498340739
 40
0.7653985790000001
 40
0.7809698972
 40
0.7965491951000001
 40
0.8121376376999998
 40
0.8433372139000001
 40
0.8589584781000001
 40
0.8745916224
 40
0.8902366187999998
 40
0.9058930054999999
 40
0.9215599045999999
 40
0.9372361554000001
 40
0.9529201203000001
 40
0.9686100913
 40
0.9843040127
 40
1.0
 40
1.0
 40
1.0
 40
1.0
 10
54.17036644140001
 20
63.8041851359
 30
0.0
 10
55.11331227
 20
63.8041840906
 30
0.0
 10
56.9990987666
 20
63.83369903350001
 30
0.0
 10
59.8240537891
 20
63.9723200416
 30
0.0
 10
62.64083357949999
 20
64.21206934949999
 30
0.0
 10
65.44404728109999
 20
64.56115191249999
 30
0.0
 10
68.2271010635
 20
65.0293880329
 30
0.0
 10
70.98168386260001
 20
65.6286946822
 30
0.0
 10
73.69683208869999
 20
66.3736640299
 30
0.0
 10
75.9156769195
 20
67.1309460038
 30
0.0
 10
77.6532500358
 20
67.82935289470001
 30
0.0
 10
79.3602978384
 20
68.593273825
 30
0.0
 10
81.01781868419999
 20
69.4637216985
 30
0.0
 10
82.60230776870001
 20
70.45516291600001
 30
0.0
 10
83.74760383819999
 20
71.26366820200001
 30
0.0
 10
84.8413619321
 20
72.1410835193
 30
0.0
 10
85.7015196949
 20
72.93294358449999
 30
0.0
 10
86.3526317928
 20
73.6040635649
 30
0.0
 10
86.82103472639999
 20
74.1266983739
 30
0.0
 10
87.26776446109999
 20
74.6684885617
 30
0.0
 10
87.83186343190001
 20
75.4165612852
 30
0.0
 10
88.34505320620001
 20
76.2029341474
 30
0.0
 10
88.7986549382
 20
77.0243316017
 30
0.0
 10
89.10788258790001
 20
77.6575816395
 30
0.0
 10
89.3839239144
 20
78.306557873
 30
0.0
 10
89.6253560715
 20
78.969745125
 30
0.0
 10
89.8308055378
 20
79.6454470214
 30
0.0
 10
89.9992676237
 20
80.33173620659999
 30
0.0
 10
90.13017505190001
 20
81.02651955270001
 30
0.0
 10
90.22316616879999
 20
81.72765201069999
 30
0.0
 10
90.27853724249998
 20
82.43290480899998
 30
0.0
 10
90.2906237178
 20
82.90445430010001
 30
0.0
 10
90.29062461589999
 20
83.14019650289999
 30
0.0
  0
SPLINE
  5
2D3
330
218
100
AcDbEntity
  8
0
  6
Continuous
 62
     9
100
AcDbSpline
210
0.0
220
0.0
230
1.0
 70
     8
 71
     3
 72
    33
 73
    29
 74
     0
 42
0.0000001
 43
0.0000000001
 40
0.0
 40
0.0
 40
0.0
 40
0.0
 40
0.0312528606
 40
0.0625016791
 40
0.0937446295
 40
0.1249802616
 40
0.156209335
 40
0.1718262113
 40
0.1874419294
 40
0.2186650632
 40
0.2498901285
 40
0.2811199627
 40
0.3123557916
 40
0.3435977597
 40
0.3748456064
 40
0.4373367725000001
 40
0.4685963852000001
 40
0.4998576558
 40
0.5311195911
 40
0.562381575
 40
0.5936433679
 40
0.6249048549000001
 40
0.6874215273000001
 40
0.7186823661
 40
0.7499431592
 40
0.8124609470000001
 40
0.8749796535999999
 40
1.0
 40
1.0
 40
1.0
 40
1.0
 10
30.0943710694
 20
83.14019650289999
 30
0.0
 10
30.0943711867
 20
82.82219008469999
 30
0.0
 10
30.1236377377
 20
82.18581055959999
 30
0.0
 10
30.2576510824
 20
81.23993895499999
 30
0.0
 10
30.4844517319
 20
80.311971936
 30
0.0
 10
30.8010153355
 20
79.4109480499
 30
0.0
 10
31.1376602818
 20
78.68980054560001
 30
0.0
 10
31.4466481574
 20
78.1341835581
 30
0.0
 10
31.7810860522
 20
77.5935570857
 30
0.0
 10
32.2446792366
 20
76.947179859
 30
0.0
 10
32.8641374767
 20
76.2213671628
 30
0.0
 10
33.5385316299
 20
75.5462745671
 30
0.0
 10
34.2593533412
 20
74.92100191270001
 30
0.0
 10
35.01922639
 20
74.3436863232
 30
0.0
 10
36.0756374075
 20
73.63467487619999
 30
0.0
 10
37.1868037965
 20
73.0109059819
 30
0.0
 10
38.3345660056
 20
72.46205955069999
 30
0.0
 10
39.2114792228
 20
72.08502635640001
 30
0.0
 10
40.10160169659999
 20
71.74048271850001
 30
0.0
 10
41.0028305919
 20
71.42617568430001
 30
0.0
 10
41.913505458
 20
71.14045748969999
 30
0.0
 10
43.13828571699999
 20
70.7954125495
 30
0.0
 10
44.3768449259
 20
70.50126289479999
 30
0.0
 10
45.6249813453
 20
70.25401186429999
 30
0.0
 10
46.87878305259999
 20
70.0371374276
 30
0.0
 10
48.45499134029999
 20
69.8208645487
 30
0.0
 10
50.9887880703
 20
69.5831028747
 30
0.0
 10
52.8982501671
 20
69.51794680999999
 30
0.0
 10
54.17036644140001
 20
69.5179467399
 30
0.0
  0
SPLINE
  5
2D4
330
218
100
AcDbEntity
  8
0
  6
Continuous
 62
     9
100
AcDbSpline
210
0.0
220
0.0
230
1.0
 70
     8
 71
     3
 72
    36
 73
    32
 74
     0
 42
0.0000001
 43
0.0000000001
 40
0.0
 40
0.0
 40
0.0
 40
0.0
 40
0.0156960785
 40
0.031390065
 40
0.0470801222
 40
0.0627641924
 40
0.0784405674
 40
0.0941076062
 40
0.109764146
 40
0.125409304
 40
0.1410426201
 40
0.1566640636
 40
0.1878640033
 40
0.2034526344
 40
0.2190321118
 40
0.2501622397
 40
0.2812711288
 40
0.3123681177
 40
0.3434616078999999
 40
0.3745583953
 40
0.4367664311000001
 40
0.4679023312
 40
0.4990577057000001
 40
0.5614237482
 40
0.6238794945000001
 40
0.6864210223999999
 40
0.7490392814
 40
0.8117218947999999
 40
0.8744538116000001
 40
0.9372185909999998
 40
1.0
 40
1.0
 40
1.0
 40
1.0
 10
90.29062461589999
 20
83.14019650289999
 30
0.0
 10
90.29062374729999
 20
83.37593864549999
 30
0.0
 10
90.27853718639999
 20
83.8474876227
 30
0.0
 10
90.2231664283
 20
84.5527397865
 30
0.0
 10
90.13017543750001
 20
85.25387185460001
 30
0.0
 10
89.99926689110001
 20
85.9486554152
 30
0.0
 10
89.83080651809999
 20
86.63494633399999
 30
0.0
 10
89.62535494229999
 20
87.3106496745
 30
0.0
 10
89.38392284129999
 20
87.9738396505
 30
0.0
 10
89.10787868680001
 20
88.6228180069
 30
0.0
 10
88.7986507777
 20
89.25607160629999
 30
0.0
 10
88.34504398809999
 20
90.07747271520001
 30
0.0
 10
87.8318565029
 20
90.86384887660001
 30
0.0
 10
87.267741225
 20
91.61192766540001
 30
0.0
 10
86.67234097339999
 20
92.33405513120001
 30
0.0
 10
85.8735708512
 20
93.18910379020001
 30
0.0
 10
84.84134764550001
 20
94.13931218209999
 30
0.0
 10
83.74755301749999
 20
95.01676816139999
 30
0.0
 10
82.6022579768
 20
95.82526301100001
 30
0.0
 10
81.0177651522
 20
96.8166982265
 30
0.0
 10
79.36025231390001
 20
97.68714121069999
 30
0.0
 10
77.65320883359999
 20
98.4510576417
 30
0.0
 10
75.9156343687
 20
99.1494627588
 30
0.0
 10
73.6967855928
 20
99.90674312860001
 30
0.0
 10
70.98163078769999
 20
100.6517117819
 30
0.0
 10
68.22703699829999
 20
101.2510162604
 30
0.0
 10
65.44396803259999
 20
101.719255083
 30
0.0
 10
62.6407414691
 20
102.0683316216
 30
0.0
 10
59.82396712839999
 20
102.3080828412
 30
0.0
 10
56.9990444889
 20
102.4466892551
 30
0.0
 10
55.1132913809
 20
102.4762079817
 30
0.0
 10
54.17036644140001
 20
102.4762078699
 30
0.0
  0
SPLINE
  5
2D5
330
218
100
AcDbEntity
  8
0
  6
Continuous
 62
     9
100
AcDbSpline
210
0.0
220
0.0
230
1.0
 70
     8
 71
     3
 72
    37
 73
    33
 74
     0
 42
0.0000001
 43
0.0000000001
 40
0.0
 40
0.0
 40
0.0
 40
0.0
 40
0.0627824191
 40
0.1255476374
 40
0.1882791639
 40
0.2509609416
 40
0.3135784835
 40
0.3761194024
 40
0.4385746502
 40
0.5009402556
 40
0.5320954071
 40
0.5632311676000001
 40
0.6254392165000001
 40
0.6565358814
 40
0.6876289757
 40
0.7187255981999999
 40
0.7498340743
 40
0.7653985795000001
 40
0.7809698976
 40
0.7965491955
 40
0.8121376381000001
 40
0.8433372141999999
 40
0.8589584784000001
 40
0.8745916226
 40
0.8902366189
 40
0.9058930056000001
 40
0.9215599047000001
 40
0.9372361554000001
 40
0.9529201203000001
 40
0.9686100913
 40
0.9843040127
 40
1.0
 40
1.0
 40
1.0
 40
1.0
 10
54.17036644140001
 20
102.4762078699
 30
0.0
 10
53.2274206121
 20
102.4762089151
 30
0.0
 10
51.3416341166
 20
102.4466939718
 30
0.0
 10
48.5166790979
 20
102.3080729649
 30
0.0
 10
45.6998993109
 20
102.068323657
 30
0.0
 10
42.8966856099
 20
101.7192410959
 30
0.0
 10
40.1136318232
 20
101.2510049739
 30
0.0
 10
37.35904901900001
 20
100.6516983234
 30
0.0
 10
34.6439007878
 20
99.90672897389998
 30
0.0
 10
32.4250559537
 20
99.14944699860001
 30
0.0
 10
30.687482834
 20
98.4510401055
 30
0.0
 10
28.9804350259
 20
97.6871191721
 30
0.0
 10
27.3229141854
 20
96.81667127930001
 30
0.0
 10
25.7384250844
 20
95.8252300844
 30
0.0
 10
24.593129025
 20
95.01672478520001
 30
0.0
 10
23.499370938
 20
94.1393094644
 30
0.0
 10
22.6392131714
 20
93.34744940620002
 30
0.0
 10
21.9881010753
 20
92.6763294268
 30
0.0
 10
21.5196981439
 20
92.15369461700001
 30
0.0
 10
21.0729684121
 20
91.6119044286
 30
0.0
 10
20.508869443
 20
90.86383170639999
 30
0.0
 10
19.9956796694
 20
90.0774588466
 30
0.0
 10
19.5420779419
 20
89.25606139260001
 30
0.0
 10
19.2328502872
 20
88.6228113593
 30
0.0
 10
18.9568089689
 20
87.97383512420001
 30
0.0
 10
18.7153768078
 20
87.3106478759
 30
0.0
 10
18.5099273427
 20
86.63494598099999
 30
0.0
 10
18.3414652605
 20
85.9486567969
 30
0.0
 10
18.21055783
 20
85.25387345309999
 30
0.0
 10
18.1175667144
 20
84.5527409958
 30
0.0
 10
18.0621956403
 20
83.84748819749999
 30
0.0
 10
18.050109165
 20
83.37593870600001
 30
0.0
 10
18.050108267
 20
83.14019650289999
 30
0.0
  0
SPLINE
  5
2D6
330
218
100
AcDbEntity
  8
0
  6
Continuous
 62
     9
100
AcDbSpline
210
0.0
220
0.0
230
1.0
 70
     8
 71
     3
 72
    36
 73
    32
 74
     0
 42
0.0000001
 43
0.0000000001
 40
0.0
 40
0.0
 40
0.0
 40
0.0
 40
0.0156960785
 40
0.0313900649
 40
0.047080122
 40
0.0627641921
 40
0.078440567
 40
0.0941076057
 40
0.1097641454
 40
0.1254093035
 40
0.1410426195
 40
0.156664063
 40
0.1878640027
 40
0.2034526337
 40
0.2190321112
 40
0.250162239
 40
0.281271128
 40
0.312368117
 40
0.3434616072
 40
0.3745583945
 40
0.4367664305
 40
0.4679023308
 40
0.4990577053
 40
0.5614237478000001
 40
0.6238794942000001
 40
0.6864210223000001
 40
0.7490392813
 40
0.8117218945999999
 40
0.8744538113
 40
0.9372185909
 40
1.0
 40
1.0
 40
1.0
 40
1.0
 10
18.050108267
 20
83.14019650289999
 30
0.0
 10
18.0501091355
 20
82.904454361
 30
0.0
 10
18.0621956964
 20
82.4329053858
 30
0.0
 10
18.1175664541
 20
81.7276532253
 30
0.0
 10
18.2105574424
 20
81.02652116039999
 30
0.0
 10
18.3414659935
 20
80.33173760449999
 30
0.0
 10
18.5099263568
 20
79.64544668720001
 30
0.0
 10
18.7153779307
 20
78.9697433493
 30
0.0
 10
18.95681004
 20
78.3065533794
 30
0.0
 10
19.2328541775
 20
77.65757501729999
 30
0.0
 10
19.542082101
 20
77.024321426
 30
0.0
 10
19.9956888758
 20
76.2029203106
 30
0.0
 10
20.5088763724
 20
75.4165441583
 30
0.0
 10
21.0729916331
 20
74.6684653574
 30
0.0
 10
21.6683919038
 20
73.94633790810001
 30
0.0
 10
22.4671620111
 20
73.09128923919999
 30
0.0
 10
23.4993852096
 20
72.1410808406
 30
0.0
 10
24.5931798371
 20
71.26362486249999
 30
0.0
 10
25.738474885
 20
70.4551300243
 30
0.0
 10
27.3229676937
 20
69.4636947775
 30
0.0
 10
28.9804805479
 20
68.59325181009999
 30
0.0
 10
30.6875240299
 20
67.8293353714
 30
0.0
 10
32.425098497
 20
67.1309302538
 30
0.0
 10
34.6439472754
 20
66.37364988189999
 30
0.0
 10
37.3591020842
 20
65.62868122649999
 30
0.0
 10
40.11369587759999
 20
65.0293767468
 30
0.0
 10
42.8967648426
 20
64.5611379231
 30
0.0
 10
45.6999914037
 20
64.21206138699999
 30
0.0
 10
48.5167657438
 20
63.9723101625
 30
0.0
 10
51.34168838729999
 20
63.8337037513
 30
0.0
 10
53.2274415001
 20
63.8041850242
 30
0.0
 10
54.17036644140001
 20
63.8041851359
 30
0.0
  0
SPLINE
  5
2D7
330
218
100
AcDbEntity
  8
0
  6
Continuous
 62
     9
100
AcDbSpline
210
0.0
220
0.0
230
1.0
 70
     8
 71
     3
 72
    21
 73
    17
 74
     0
 42
0.0000001
 43
0.0000000001
 40
0.0
 40
0.0
 40
0.0
 40
0.0
 40
0.0625193062
 40
0.1250373404
 40
0.187556218
 40
0.2500749178
 40
0.3125936407
 40
0.3751123817
 40
0.4999992694000001
 40
0.6248866179000001
 40
0.6874054712000001
 40
0.7499243245999999
 40
0.8124431399999998
 40
0.8749621896999999
 40
0.9374805684
 40
1.0
 40
1.0
 40
1.0
 40
1.0
 10
56.1441046049
 20
83.14019650289999
 30
0.0
 10
56.14410440149999
 20
83.20472932959999
 30
0.0
 10
56.1377507552
 20
83.33388376100002
 30
0.0
 10
56.10924875649999
 20
83.5256710634
 30
0.0
 10
56.0620575103
 20
83.71375421539999
 30
0.0
 10
55.9966345316
 20
83.8962885027
 30
0.0
 10
55.9136018126
 20
84.07153519080001
 30
0.0
 10
55.78064351520001
 20
84.29301096039999
 30
0.0
 10
55.574573968
 20
84.54376649470001
 30
0.0
 10
55.3234890972
 20
84.7494240702
 30
0.0
 10
55.10184552670001
 20
84.8820993304
 30
0.0
 10
54.9265189763
 20
84.9649594891
 30
0.0
 10
54.74394332510001
 20
85.0302621928
 30
0.0
 10
54.555844343
 20
85.077385878
 30
0.0
 10
54.36405403689999
 20
85.10586410569999
 30
0.0
 10
54.2348993975
 20
85.11221809629999
 30
0.0
 10
54.17036644140001
 20
85.1122183078
 30
0.0
  0
SPLINE
  5
2D8
330
218
100
AcDbEntity
  8
0
  6
Continuous
 62
     9
100
AcDbSpline
210
0.0
220
0.0
230
1.0
 70
     8
 71
     3
 72
    21
 73
    17
 74
     0
 42
0.0000001
 43
0.0000000001
 40
0.0
 40
0.0
 40
0.0
 40
0.0
 40
0.0625193319
 40
0.125037451
 40
0.1875564445
 40
0.2500752758
 40
0.312594123
 40
0.3751129732
 40
0.5000002974000001
 40
0.6248871565
 40
0.6874058829000001
 40
0.7499246005
 40
0.8124432836
 40
0.8749622159999999
 40
0.9374805107
 40
1.0
 40
1.0
 40
1.0
 40
1.0
 10
54.17036644140001
 20
81.16817469809999
 30
0.0
 10
54.2348992947
 20
81.16817490449999
 30
0.0
 10
54.3640535631
 20
81.174528869
 30
0.0
 10
54.555843452
 20
81.20300696120001
 30
0.0
 10
54.7439421627
 20
81.2501304523
 30
0.0
 10
54.9265178088
 20
81.31543303109999
 30
0.0
 10
55.1018444081
 20
81.39829309979999
 30
0.0
 10
55.3234880501
 20
81.53096817239999
 30
0.0
 10
55.5745730024
 20
81.73662556089999
 30
0.0
 10
55.7806426758
 20
81.98738089390001
 30
0.0
 10
55.9136011357
 20
82.20885650859999
 30
0.0
 10
55.9966339466
 20
82.38410311210001
 30
0.0
 10
56.0620570734
 20
82.5666373814
 30
0.0
 10
56.10924853850001
 20
82.7547207969
 30
0.0
 10
56.1377507155
 20
82.946508597
 30
0.0
 10
56.1441043962
 20
83.0756634871
 30
0.0
 10
56.1441046049
 20
83.14019650289999
 30
0.0
  0
SPLINE
  5
2D9
330
218
100
AcDbEntity
  8
0
  6
Continuous
 62
     9
100
AcDbSpline
210
0.0
220
0.0
230
1.0
 70
     8
 71
     3
 72
    21
 73
    17
 74
     0
 42
0.0000001
 43
0.0000000001
 40
0.0
 40
0.0
 40
0.0
 40
0.0
 40
0.0625193062
 40
0.1250373404
 40
0.187556218
 40
0.2500749178
 40
0.3125936407
 40
0.3751123817
 40
0.4999992694000001
 40
0.6248866179000001
 40
0.6874054712000001
 40
0.7499243245999999
 40
0.8124431399999998
 40
0.8749621896999999
 40
0.9374805684
 40
1.0
 40
1.0
 40
1.0
 40
1.0
 10
52.19662827789999
 20
83.14019650289999
 30
0.0
 10
52.1966284813
 20
83.07566367619999
 30
0.0
 10
52.2029821276
 20
82.9465092448
 30
0.0
 10
52.2314841264
 20
82.75472194249999
 30
0.0
 10
52.27867537249999
 20
82.56663879040001
 30
0.0
 10
52.3440983512
 20
82.3841045031
 30
0.0
 10
52.4271310703
 20
82.20885781499999
 30
0.0
 10
52.5600893676
 20
81.98738204539999
 30
0.0
 10
52.76615891489999
 20
81.73662651109999
 30
0.0
 10
53.0172437856
 20
81.5309689356
 30
0.0
 10
53.23888735609999
 20
81.3982936754
 30
0.0
 10
53.41421390649999
 20
81.3154335167
 30
0.0
 10
53.5967895577
 20
81.250130813
 30
0.0
 10
53.78488853979999
 20
81.20300712779998
 30
0.0
 10
53.9766788459
 20
81.1745289001
 30
0.0
 10
54.1058334853
 20
81.16817490949999
 30
0.0
 10
54.17036644140001
 20
81.16817469809999
 30
0.0
  0
SPLINE
  5
2DA
330
218
100
AcDbEntity
  8
0
  6
Continuous
 62
     9
100
AcDbSpline
210
0.0
220
0.0
230
1.0
 70
     8
 71
     3
 72
    21
 73
    17
 74
     0
 42
0.0000001
 43
0.0000000001
 40
0.0
 40
0.0
 40
0.0
 40
0.0
 40
0.0625193319
 40
0.125037451
 40
0.1875564445
 40
0.2500752758
 40
0.312594123
 40
0.3751129732
 40
0.5000002974000001
 40
0.6248871565
 40
0.6874058829000001
 40
0.7499246005
 40
0.8124432836
 40
0.8749622159999999
 40
0.9374805107
 40
1.0
 40
1.0
 40
1.0
 40
1.0
 10
54.17036644140001
 20
85.1122183078
 30
0.0
 10
54.10583358810001
 20
85.11221810130001
 30
0.0
 10
53.9766793197
 20
85.1058641368
 30
0.0
 10
53.7848894308
 20
85.0773860446
 30
0.0
 10
53.5967907201
 20
85.0302625535
 30
0.0
 10
53.4142150741
 20
84.96495997470001
 30
0.0
 10
53.23888847470001
 20
84.88209990600001
 30
0.0
 10
53.0172448327
 20
84.74942483339999
 30
0.0
 10
52.76615988039999
 20
84.5437674449
 30
0.0
 10
52.56009020699999
 20
84.29301211189999
 30
0.0
 10
52.4271317472
 20
84.07153649719999
 30
0.0
 10
52.3440989363
 20
83.89628989370001
 30
0.0
 10
52.27867580939999
 20
83.71375562439999
 30
0.0
 10
52.2314843443
 20
83.5256722089
 30
0.0
 10
52.20298216739999
 20
83.3338844088
 30
0.0
 10
52.1966284866
 20
83.2047295187
 30
0.0
 10
52.19662827789999
 20
83.14019650289999
 30
0.0
  0
ENDSEC
  0
SECTION
  2
OBJECTS
  0
DICTIONARY
  5
C
330
0
100
AcDbDictionary
281
     1
  3
ACAD_CIP_PREVIOUS_PRODUCT_INFO
350
379
  3
ACAD_COLOR
350
311
  3
ACAD_DETAILVIEWSTYLE
350
32B
  3
ACAD_GROUP
350
D
  3
ACAD_LAYOUT
350
1A
  3
ACAD_MATERIAL
350
2DF
  3
ACAD_MLEADERSTYLE
350
326
  3
ACAD_MLINESTYLE
350
17
  3
ACAD_PLOTSETTINGS
350
19
  3
ACAD_PLOTSTYLENAME
350
E
  3
ACAD_SCALELIST
350
314
  3
ACAD_SECTIONVIEWSTYLE
350
328
  3
ACAD_TABLESTYLE
350
312
  3
ACAD_VISUALSTYLE
350
2F8
  3
ACDB_RECOMPOSE_DATA
350
40E
  3
AcDbVariableDictionary
350
36B
  3
AcDsDecomposeData
350
415
  3
DWGPROPS
350
40F
  0
DICTIONARY
  5
330
330
8
100
AcDbDictionary
280
     1
281
     1
  0
DICTIONARY
  5
3B7
330
2
100
AcDbDictionary
280
     1
281
     1
  3
ACAD_LAYERSTATES
360
3B8
  0
DICTIONARY
  5
37A
330
10
100
AcDbDictionary
280
     1
281
     1
  3
ADSK_XREC_LAYER_RECONCILED
360
37B
  0
DICTIONARY
  5
37C
330
1FA
100
AcDbDictionary
280
     1
281
     1
  3
ADSK_XREC_LAYER_RECONCILED
360
37D
  0
DICTIONARY
  5
37E
330
1FB
100
AcDbDictionary
280
     1
281
     1
  3
ADSK_XREC_LAYER_RECONCILED
360
37F
  0
DICTIONARY
  5
380
330
1FC
100
AcDbDictionary
280
     1
281
     1
  3
ADSK_XREC_LAYER_RECONCILED
360
381
  0
DICTIONARY
  5
382
330
1FD
100
AcDbDictionary
280
     1
281
     1
  3
ADSK_XREC_LAYER_RECONCILED
360
383
  0
DICTIONARY
  5
384
330
1FE
100
AcDbDictionary
280
     1
281
     1
  3
ADSK_XREC_LAYER_RECONCILED
360
385
  0
DICTIONARY
  5
386
330
1FF
100
AcDbDictionary
280
     1
281
     1
  3
ADSK_XREC_LAYER_RECONCILED
360
387
  0
DICTIONARY
  5
388
330
200
100
AcDbDictionary
280
     1
281
     1
  3
ADSK_XREC_LAYER_RECONCILED
360
389
  0
DICTIONARY
  5
38A
330
201
100
AcDbDictionary
280
     1
281
     1
  3
ADSK_XREC_LAYER_RECONCILED
360
38B
  0
DICTIONARY
  5
38C
330
202
100
AcDbDictionary
280
     1
281
     1
  3
ADSK_XREC_LAYER_RECONCILED
360
38D
  0
DICTIONARY
  5
38E
330
203
100
AcDbDictionary
280
     1
281
     1
  3
ADSK_XREC_LAYER_RECONCILED
360
38F
  0
DICTIONARY
  5
390
330
204
100
AcDbDictionary
280
     1
281
     1
  3
ADSK_XREC_LAYER_RECONCILED
360
391
  0
DICTIONARY
  5
392
330
205
100
AcDbDictionary
280
     1
281
     1
  3
ADSK_XREC_LAYER_RECONCILED
360
393
  0
DICTIONARY
  5
394
330
206
100
AcDbDictionary
280
     1
281
     1
  3
ADSK_XREC_LAYER_RECONCILED
360
395
  0
DICTIONARY
  5
396
330
207
100
AcDbDictionary
280
     1
281
     1
  3
ADSK_XREC_LAYER_RECONCILED
360
397
  0
DICTIONARY
  5
398
330
208
100
AcDbDictionary
280
     1
281
     1
  3
ADSK_XREC_LAYER_RECONCILED
360
399
  0
DICTIONARY
  5
39A
330
209
100
AcDbDictionary
280
     1
281
     1
  3
ADSK_XREC_LAYER_RECONCILED
360
39B
  0
DICTIONARY
  5
39C
330
20A
100
AcDbDictionary
280
     1
281
     1
  3
ADSK_XREC_LAYER_RECONCILED
360
39D
  0
DICTIONARY
  5
39E
330
20B
100
AcDbDictionary
280
     1
281
     1
  3
ADSK_XREC_LAYER_RECONCILED
360
39F
  0
DICTIONARY
  5
3A0
330
20C
100
AcDbDictionary
280
     1
281
     1
  3
ADSK_XREC_LAYER_RECONCILED
360
3A1
  0
DICTIONARY
  5
3A2
330
20D
100
AcDbDictionary
280
     1
281
     1
  3
ADSK_XREC_LAYER_RECONCILED
360
3A3
  0
DICTIONARY
  5
3A4
330
20E
100
AcDbDictionary
280
     1
281
     1
  3
ADSK_XREC_LAYER_RECONCILED
360
3A5
  0
DICTIONARY
  5
3A6
330
20F
100
AcDbDictionary
280
     1
281
     1
  3
ADSK_XREC_LAYER_RECONCILED
360
3A7
  0
DICTIONARY
  5
3A8
330
210
100
AcDbDictionary
280
     1
281
     1
  3
ADSK_XREC_LAYER_RECONCILED
360
3A9
  0
DICTIONARY
  5
3AA
330
211
100
AcDbDictionary
280
     1
281
     1
  3
ADSK_XREC_LAYER_RECONCILED
360
3AB
  0
DICTIONARY
  5
3AC
330
212
100
AcDbDictionary
280
     1
281
     1
  3
ADSK_XREC_LAYER_RECONCILED
360
3AD
  0
DICTIONARY
  5
3AE
330
213
100
AcDbDictionary
280
     1
281
     1
  3
ADSK_XREC_LAYER_RECONCILED
360
3AF
  0
DICTIONARY
  5
3B0
330
214
100
AcDbDictionary
280
     1
281
     1
  3
ADSK_XREC_LAYER_RECONCILED
360
3B1
  0
DICTIONARY
  5
3B2
330
215
100
AcDbDictionary
280
     1
281
     1
  3
ADSK_XREC_LAYER_RECONCILED
360
3B3
  0
XRECORD
  5
379
102
{ACAD_REACTORS
330
C
102
}
330
C
100
AcDbXrecord
280
     1
300
ACDLT
300
2018
300
ACDLT_F_S
  0
DICTIONARY
  5
311
102
{ACAD_REACTORS
330
C
102
}
330
C
100
AcDbDictionary
281
     1
  0
DICTIONARY
  5
32B
102
{ACAD_REACTORS
330
C
102
}
330
C
100
AcDbDictionary
281
     1
  3
Imperial24
350
32C
  0
DICTIONARY
  5
D
102
{ACAD_REACTORS
330
C
102
}
330
C
100
AcDbDictionary
281
     1
  0
DICTIONARY
  5
1A
102
{ACAD_REACTORS
330
C
102
}
330
C
100
AcDbDictionary
281
     1
  3
Layout1
350
2DC
  3
Model
350
2DB
  0
DICTIONARY
  5
2DF
102
{ACAD_REACTORS
330
C
102
}
330
C
100
AcDbDictionary
281
     1
  3
ByBlock
350
2E8
  3
ByLayer
350
2E0
  3
Global
350
2F0
  0
DICTIONARY
  5
326
102
{ACAD_REACTORS
330
C
102
}
330
C
100
AcDbDictionary
281
     1
  3
Standard
350
327
  0
DICTIONARY
  5
17
102
{ACAD_REACTORS
330
C
102
}
330
C
100
AcDbDictionary
281
     1
  3
Standard
350
18
  0
DICTIONARY
  5
19
102
{ACAD_REACTORS
330
C
102
}
330
C
100
AcDbDictionary
281
     1
  0
ACDBDICTIONARYWDFLT
  5
E
102
{ACAD_REACTORS
330
C
102
}
330
C
100
AcDbDictionary
281
     1
  3
Normal
350
F
100
AcDbDictionaryWithDefault
340
F
  0
DICTIONARY
  5
314
102
{ACAD_REACTORS
330
C
102
}
330
C
100
AcDbDictionary
281
     1
  3
A0
350
315
  3
A1
350
316
  3
A2
350
317
  3
A3
350
318
  3
A4
350
319
  3
A5
350
31A
  3
A6
350
31B
  3
A7
350
31C
  3
A8
350
31D
  3
A9
350
31E
  3
B0
350
31F
  3
B1
350
320
  3
B2
350
321
  3
B3
350
322
  3
B4
350
323
  3
B5
350
324
  3
B6
350
325
  0
DICTIONARY
  5
328
102
{ACAD_REACTORS
330
C
102
}
330
C
100
AcDbDictionary
281
     1
  3
Imperial24
350
32A
  0
DICTIONARY
  5
312
102
{ACAD_REACTORS
330
C
102
}
330
C
100
AcDbDictionary
281
     1
  3
Standard
350
313
  0
DICTIONARY
  5
2F8
102
{ACAD_REACTORS
330
C
102
}
330
C
100
AcDbDictionary
281
     1
  3
2dWireframe
350
2FE
  3
Basic
350
2FD
  3
Brighten
350
304
  3
ColorChange
350
308
  3
Conceptual
350
301
  3
Dim
350
303
  3
EdgeColorOff
350
310
  3
Facepattern
350
307
  3
Flat
350
2F9
  3
FlatWithEdges
350
2FA
  3
Gouraud
350
2FB
  3
GouraudWithEdges
350
2FC
  3
Hidden
350
300
  3
JitterOff
350
30E
  3
Linepattern
350
306
  3
OverhangOff
350
30F
  3
Realistic
350
302
  3
Shaded
350
30D
  3
Shaded with edges
350
30C
  3
Shades of Gray
350
309
  3
Sketchy
350
30A
  3
Thicken
350
305
  3
Wireframe
350
2FF
  3
X-Ray
350
30B
  0
XRECORD
  5
40E
102
{ACAD_REACTORS
330
C
102
}
330
C
100
AcDbXrecord
280
     1
 90
        1
330
313
  0
DICTIONARY
  5
36B
102
{ACAD_REACTORS
330
C
102
}
330
C
100
AcDbDictionary
281
     1
  3
CANNOSCALE
350
370
  3
CMLEADERSTYLE
350
36D
  3
CTABLESTYLE
350
36C
  3
CVIEWDETAILSTYLE
350
36E
  3
CVIEWSECTIONSTYLE
350
36F
  3
DIMASSOC
350
373
  3
INDEXCTL
350
372
  3
SORTENTS
350
371
  3
XCLIPFRAME
350
40C
  0
DICTIONARY
  5
415
102
{ACAD_REACTORS
330
C
102
}
330
C
100
AcDbDictionary
281
     1
  3
AcDsRecords
350
417
  3
AcDsSchemas
350
416
1001
ACAD
1070
     2
  0
XRECORD
  5
40F
102
{ACAD_REACTORS
330
C
102
}
330
C
100
AcDbXrecord
280
     1
  1
DWGPROPS COOKIE
  2

  3

  4

  6

  7

  8
guillaumes
  9

300
=
301
=
302
=
303
=
304
=
305
=
306
=
307
=
308
=
309
=
 40
0.0004284259259259
 41
2458017.465393519
 42
2458017.469930556
  1

 90
        0
  0
DICTIONARY
  5
3B8
102
{ACAD_REACTORS
330
3B7
102
}
330
3B7
100
AcDbDictionary
281
     1
  0
XRECORD
  5
37B
102
{ACAD_REACTORS
330
37A
102
}
330
37A
100
AcDbXrecord
280
     1
290
     1
  0
XRECORD
  5
37D
102
{ACAD_REACTORS
330
37C
102
}
330
37C
100
AcDbXrecord
280
     1
290
     1
  0
XRECORD
  5
37F
102
{ACAD_REACTORS
330
37E
102
}
330
37E
100
AcDbXrecord
280
     1
290
     1
  0
XRECORD
  5
381
102
{ACAD_REACTORS
330
380
102
}
330
380
100
AcDbXrecord
280
     1
290
     1
  0
XRECORD
  5
383
102
{ACAD_REACTORS
330
382
102
}
330
382
100
AcDbXrecord
280
     1
290
     1
  0
XRECORD
  5
385
102
{ACAD_REACTORS
330
384
102
}
330
384
100
AcDbXrecord
280
     1
290
     1
  0
XRECORD
  5
387
102
{ACAD_REACTORS
330
386
102
}
330
386
100
AcDbXrecord
280
     1
290
     1
  0
XRECORD
  5
389
102
{ACAD_REACTORS
330
388
102
}
330
388
100
AcDbXrecord
280
     1
290
     1
  0
XRECORD
  5
38B
102
{ACAD_REACTORS
330
38A
102
}
330
38A
100
AcDbXrecord
280
     1
290
     1
  0
XRECORD
  5
38D
102
{ACAD_REACTORS
330
38C
102
}
330
38C
100
AcDbXrecord
280
     1
290
     1
  0
XRECORD
  5
38F
102
{ACAD_REACTORS
330
38E
102
}
330
38E
100
AcDbXrecord
280
     1
290
     1
  0
XRECORD
  5
391
102
{ACAD_REACTORS
330
390
102
}
330
390
100
AcDbXrecord
280
     1
290
     1
  0
XRECORD
  5
393
102
{ACAD_REACTORS
330
392
102
}
330
392
100
AcDbXrecord
280
     1
290
     1
  0
XRECORD
  5
395
102
{ACAD_REACTORS
330
394
102
}
330
394
100
AcDbXrecord
280
     1
290
     1
  0
XRECORD
  5
397
102
{ACAD_REACTORS
330
396
102
}
330
396
100
AcDbXrecord
280
     1
290
     1
  0
XRECORD
  5
399
102
{ACAD_REACTORS
330
398
102
}
330
398
100
AcDbXrecord
280
     1
290
     1
  0
XRECORD
  5
39B
102
{ACAD_REACTORS
330
39A
102
}
330
39A
100
AcDbXrecord
280
     1
290
     1
  0
XRECORD
  5
39D
102
{ACAD_REACTORS
330
39C
102
}
330
39C
100
AcDbXrecord
280
     1
290
     1
  0
XRECORD
  5
39F
102
{ACAD_REACTORS
330
39E
102
}
330
39E
100
AcDbXrecord
280
     1
290
     1
  0
XRECORD
  5
3A1
102
{ACAD_REACTORS
330
3A0
102
}
330
3A0
100
AcDbXrecord
280
     1
290
     1
  0
XRECORD
  5
3A3
102
{ACAD_REACTORS
330
3A2
102
}
330
3A2
100
AcDbXrecord
280
     1
290
     1
  0
XRECORD
  5
3A5
102
{ACAD_REACTORS
330
3A4
102
}
330
3A4
100
AcDbXrecord
280
     1
290
     1
  0
XRECORD
  5
3A7
102
{ACAD_REACTORS
330
3A6
102
}
330
3A6
100
AcDbXrecord
280
     1
290
     1
  0
XRECORD
  5
3A9
102
{ACAD_REACTORS
330
3A8
102
}
330
3A8
100
AcDbXrecord
280
     1
290
     1
  0
XRECORD
  5
3AB
102
{ACAD_REACTORS
330
3AA
102
}
330
3AA
100
AcDbXrecord
280
     1
290
     1
  0
XRECORD
  5
3AD
102
{ACAD_REACTORS
330
3AC
102
}
330
3AC
100
AcDbXrecord
280
     1
290
     1
  0
XRECORD
  5
3AF
102
{ACAD_REACTORS
330
3AE
102
}
330
3AE
100
AcDbXrecord
280
     1
290
     1
  0
XRECORD
  5
3B1
102
{ACAD_REACTORS
330
3B0
102
}
330
3B0
100
AcDbXrecord
280
     1
290
     1
  0
XRECORD
  5
3B3
102
{ACAD_REACTORS
330
3B2
102
}
330
3B2
100
AcDbXrecord
280
     1
290
     1
  0
ACDBDETAILVIEWSTYLE
  5
32C
102
{ACAD_XDICTIONARY
360
452
102
}
102
{ACAD_REACTORS
330
32B
102
}
330
32B
100
AcDbModelDocViewStyle
 70
     0
  3
Imperial24
290
     0
100
AcDbDetailViewStyle
 70
     0
 71
     0
 90
        3
 71
     1
340
11
 40
0.24
340
0
 40
0.24
300

 40
0.36
280
     3
 71
     2
340
16
 90
       25
 71
     3
340
11
 40
0.24
 90
        1
 40
0.75
 90
        1
300
%<\AcVar ViewType \f "%tc1">% %<\AcVar ViewDetailId>%\PSCALE %<\AcVar ViewScale \f "%sn">%
 71
     4
340
16
 90
       25
340
16
 90
       25
280
     0
  0
LAYOUT
  5
2DC
102
{ACAD_XDICTIONARY
360
41A
102
}
102
{ACAD_REACTORS
330
1A
102
}
330
1A
100
AcDbPlotSettings
  1

  2
none_device
  4
ANSI_B_(17.00_x_11.00_Inches)
  6

 40
0.0
 41
0.0
 42
0.0
 43
0.0
 44
431.8
 45
279.4
 46
0.0
 47
0.0
 48
0.0
 49
0.0
140
0.0
141
0.0
142
1.0
143
1.0
 70
     0
 72
     0
 73
     0
 74
     0
  7

 75
     0
147
1.0
148
0.0
149
0.0
100
AcDbLayout
  1
Layout1
 70
     1
 71
     1
 10
0.0
 20
0.0
 11
12.0
 21
9.0
 12
0.0
 22
0.0
 32
0.0
 14
1.000000000000000E+20
 24
1.000000000000000E+20
 34
1.000000000000000E+20
 15
-1.000000000000000E+20
 25
-1.000000000000000E+20
 35
-1.000000000000000E+20
146
0.0
 13
0.0
 23
0.0
 33
0.0
 16
1.0
 26
0.0
 36
0.0
 17
0.0
 27
1.0
 37
0.0
 76
     0
330
219
  0
LAYOUT
  5
2DB
102
{ACAD_XDICTIONARY
360
418
102
}
102
{ACAD_REACTORS
330
1A
102
}
330
1A
100
AcDbPlotSettings
  1

  2
none_device
  4
ANSI_B_(17.00_x_11.00_Inches)
  6

 40
0.0
 41
0.0
 42
0.0
 43
0.0
 44
431.8
 45
279.4
 46
0.0
 47
0.0
 48
0.0
 49
0.0
140
0.0
141
0.0
142
1.0
143
1.0
 70
  1024
 72
     0
 73
     0
 74
     0
  7

 75
     0
147
1.0
148
0.0
149
0.0
100
AcDbLayout
  1
Model
 70
     0
 71
     0
 10
0.0
 20
0.0
 11
17.0
 21
11.0
 12
0.0
 22
0.0
 32
0.0
 14
0.0
 24
0.0
 34
0.0
 15
0.0
 25
0.0
 35
0.0
146
0.0
 13
0.0
 23
0.0
 33
0.0
 16
1.0
 26
0.0
 36
0.0
 17
0.0
 27
1.0
 37
0.0
 76
     0
330
218
331
1F4
  0
MATERIAL
  5
2E8
102
{ACAD_XDICTIONARY
360
2E9
102
}
102
{ACAD_REACTORS
330
2DF
102
}
330
2DF
100
AcDbMaterial
  1
ByBlock
 72
     0
 43
0.0208333333333333
 43
0.0
 43
0.0
 43
0.0
 43
0.0
 43
0.0208333333333333
 43
0.0
 43
0.0
 43
0.0
 43
0.0
 43
1.0
 43
0.0
 43
0.0
 43
0.0
 43
0.0
 43
1.0
 77
     0
 47
0.0208333333333333
 47
0.0
 47
0.0
 47
0.0
 47
0.0
 47
0.0208333333333333
 47
0.0
 47
0.0
 47
0.0
 47
0.0
 47
1.0
 47
0.0
 47
0.0
 47
0.0
 47
0.0
 47
1.0
171
     0
 49
0.0208333333333333
 49
0.0
 49
0.0
 49
0.0
 49
0.0
 49
0.0208333333333333
 49
0.0
 49
0.0
 49
0.0
 49
0.0
 49
1.0
 49
0.0
 49
0.0
 49
0.0
 49
0.0
 49
1.0
175
     0
142
0.0208333333333333
142
0.0
142
0.0
142
0.0
142
0.0
142
0.0208333333333333
142
0.0
142
0.0
142
0.0
142
0.0
142
1.0
142
0.0
142
0.0
142
0.0
142
0.0
142
1.0
179
     0
144
0.0208333333333333
144
0.0
144
0.0
144
0.0
144
0.0
144
0.0208333333333333
144
0.0
144
0.0
144
0.0
144
0.0
144
1.0
144
0.0
144
0.0
144
0.0
144
0.0
144
1.0
147
0.0208333333333333
147
0.0
147
0.0
147
0.0
147
0.0
147
0.0208333333333333
147
0.0
147
0.0
147
0.0
147
0.0
147
1.0
147
0.0
147
0.0
147
0.0
147
0.0
147
1.0
  0
MATERIAL
  5
2E0
102
{ACAD_XDICTIONARY
360
2E1
102
}
102
{ACAD_REACTORS
330
2DF
102
}
330
2DF
100
AcDbMaterial
  1
ByLayer
 72
     0
 43
0.0208333333333333
 43
0.0
 43
0.0
 43
0.0
 43
0.0
 43
0.0208333333333333
 43
0.0
 43
0.0
 43
0.0
 43
0.0
 43
1.0
 43
0.0
 43
0.0
 43
0.0
 43
0.0
 43
1.0
 77
     0
 47
0.0208333333333333
 47
0.0
 47
0.0
 47
0.0
 47
0.0
 47
0.0208333333333333
 47
0.0
 47
0.0
 47
0.0
 47
0.0
 47
1.0
 47
0.0
 47
0.0
 47
0.0
 47
0.0
 47
1.0
171
     0
 49
0.0208333333333333
 49
0.0
 49
0.0
 49
0.0
 49
0.0
 49
0.0208333333333333
 49
0.0
 49
0.0
 49
0.0
 49
0.0
 49
1.0
 49
0.0
 49
0.0
 49
0.0
 49
0.0
 49
1.0
175
     0
142
0.0208333333333333
142
0.0
142
0.0
142
0.0
142
0.0
142
0.0208333333333333
142
0.0
142
0.0
142
0.0
142
0.0
142
1.0
142
0.0
142
0.0
142
0.0
142
0.0
142
1.0
179
     0
144
0.0208333333333333
144
0.0
144
0.0
144
0.0
144
0.0
144
0.0208333333333333
144
0.0
144
0.0
144
0.0
144
0.0
144
1.0
144
0.0
144
0.0
144
0.0
144
0.0
144
1.0
147
0.0208333333333333
147
0.0
147
0.0
147
0.0
147
0.0
147
0.0208333333333333
147
0.0
147
0.0
147
0.0
147
0.0
147
1.0
147
0.0
147
0.0
147
0.0
147
0.0
147
1.0
  0
MATERIAL
  5
2F0
102
{ACAD_XDICTIONARY
360
2F1
102
}
102
{ACAD_REACTORS
330
2DF
102
}
330
2DF
100
AcDbMaterial
  1
Global
 72
     0
 43
0.0208333333333333
 43
0.0
 43
0.0
 43
0.0
 43
0.0
 43
0.0208333333333333
 43
0.0
 43
0.0
 43
0.0
 43
0.0
 43
1.0
 43
0.0
 43
0.0
 43
0.0
 43
0.0
 43
1.0
 77
     0
 47
0.0208333333333333
 47
0.0
 47
0.0
 47
0.0
 47
0.0
 47
0.0208333333333333
 47
0.0
 47
0.0
 47
0.0
 47
0.0
 47
1.0
 47
0.0
 47
0.0
 47
0.0
 47
0.0
 47
1.0
171
     0
 49
0.0208333333333333
 49
0.0
 49
0.0
 49
0.0
 49
0.0
 49
0.0208333333333333
 49
0.0
 49
0.0
 49
0.0
 49
0.0
 49
1.0
 49
0.0
 49
0.0
 49
0.0
 49
0.0
 49
1.0
175
     0
142
0.0208333333333333
142
0.0
142
0.0
142
0.0
142
0.0
142
0.0208333333333333
142
0.0
142
0.0
142
0.0
142
0.0
142
1.0
142
0.0
142
0.0
142
0.0
142
0.0
142
1.0
179
     0
144
0.0208333333333333
144
0.0
144
0.0
144
0.0
144
0.0
144
0.0208333333333333
144
0.0
144
0.0
144
0.0
144
0.0
144
1.0
144
0.0
144
0.0
144
0.0
144
0.0
144
1.0
147
0.0208333333333333
147
0.0
147
0.0
147
0.0
147
0.0
147
0.0208333333333333
147
0.0
147
0.0
147
0.0
147
0.0
147
1.0
147
0.0
147
0.0
147
0.0
147
0.0
147
1.0
  0
MLEADERSTYLE
  5
327
102
{ACAD_REACTORS
330
326
102
}
330
326
100
AcDbMLeaderStyle
170
     2
171
     1
172
     0
 90
        2
 40
0.0
 41
0.0
173
     1
 91
-1056964608
340
14
 92
       -2
290
     1
 42
0.09
291
     1
 43
0.36
  3
Standard
 44
0.18
300

342
11
174
     1
178
     6
175
     1
176
     0
 93
-1056964608
 45
0.18
292
     0
297
     0
 46
0.18
 94
-1056964608
 47
1.0
 49
1.0
140
1.0
293
     1
141
0.0
294
     1
177
     0
142
1.0
295
     0
296
     0
143
0.125
1001
ACAD_MLEADERVER
1070
     2
  0
MLINESTYLE
  5
18
102
{ACAD_REACTORS
330
17
102
}
330
17
100
AcDbMlineStyle
  2
STANDARD
 70
     0
  3

 62
   256
 51
90.0
 52
90.0
 71
     2
 49
0.5
 62
   256
  6
BYLAYER
 49
-0.5
 62
   256
  6
BYLAYER
  0
ACDBPLACEHOLDER
  5
F
102
{ACAD_REACTORS
330
E
102
}
330
E
  0
SCALE
  5
315
102
{ACAD_REACTORS
330
314
102
}
330
314
100
AcDbScale
 70
     0
300
1:1
140
1.0
141
1.0
290
     1
  0
SCALE
  5
316
102
{ACAD_REACTORS
330
314
102
}
330
314
100
AcDbScale
 70
     0
300
1/128" = 1'-0"
140
0.0078125
141
12.0
290
     0
  0
SCALE
  5
317
102
{ACAD_REACTORS
330
314
102
}
330
314
100
AcDbScale
 70
     0
300
1/64" = 1'-0"
140
0.015625
141
12.0
290
     0
  0
SCALE
  5
318
102
{ACAD_REACTORS
330
314
102
}
330
314
100
AcDbScale
 70
     0
300
1/32" = 1'-0"
140
0.03125
141
12.0
290
     0
  0
SCALE
  5
319
102
{ACAD_REACTORS
330
314
102
}
330
314
100
AcDbScale
 70
     0
300
1/16" = 1'-0"
140
0.0625
141
12.0
290
     0
  0
SCALE
  5
31A
102
{ACAD_REACTORS
330
314
102
}
330
314
100
AcDbScale
 70
     0
300
3/32" = 1'-0"
140
0.09375
141
12.0
290
     0
  0
SCALE
  5
31B
102
{ACAD_REACTORS
330
314
102
}
330
314
100
AcDbScale
 70
     0
300
1/8" = 1'-0"
140
0.125
141
12.0
290
     0
  0
SCALE
  5
31C
102
{ACAD_REACTORS
330
314
102
}
330
314
100
AcDbScale
 70
     0
300
3/16" = 1'-0"
140
0.1875
141
12.0
290
     0
  0
SCALE
  5
31D
102
{ACAD_REACTORS
330
314
102
}
330
314
100
AcDbScale
 70
     0
300
1/4" = 1'-0"
140
0.25
141
12.0
290
     0
  0
SCALE
  5
31E
102
{ACAD_REACTORS
330
314
102
}
330
314
100
AcDbScale
 70
     0
300
3/8" = 1'-0"
140
0.375
141
12.0
290
     0
  0
SCALE
  5
31F
102
{ACAD_REACTORS
330
314
102
}
330
314
100
AcDbScale
 70
     0
300
1/2" = 1'-0"
140
0.5
141
12.0
290
     0
  0
SCALE
  5
320
102
{ACAD_REACTORS
330
314
102
}
330
314
100
AcDbScale
 70
     0
300
3/4" = 1'-0"
140
0.75
141
12.0
290
     0
  0
SCALE
  5
321
102
{ACAD_REACTORS
330
314
102
}
330
314
100
AcDbScale
 70
     0
300
1" = 1'-0"
140
1.0
141
12.0
290
     0
  0
SCALE
  5
322
102
{ACAD_REACTORS
330
314
102
}
330
314
100
AcDbScale
 70
     0
300
1-1/2" = 1'-0"
140
1.5
141
12.0
290
     0
  0
SCALE
  5
323
102
{ACAD_REACTORS
330
314
102
}
330
314
100
AcDbScale
 70
     0
300
3" = 1'-0"
140
3.0
141
12.0
290
     0
  0
SCALE
  5
324
102
{ACAD_REACTORS
330
314
102
}
330
314
100
AcDbScale
 70
     0
300
6" = 1'-0"
140
6.0
141
12.0
290
     0
  0
SCALE
  5
325
102
{ACAD_REACTORS
330
314
102
}
330
314
100
AcDbScale
 70
     0
300
1'-0" = 1'-0"
140
12.0
141
12.0
290
     0
  0
ACDBSECTIONVIEWSTYLE
  5
32A
102
{ACAD_XDICTIONARY
360
450
102
}
102
{ACAD_REACTORS
330
328
102
}
330
328
100
AcDbModelDocViewStyle
 70
     0
  3
Imperial24
290
     0
100
AcDbSectionViewStyle
 70
     0
 71
     0
 90
       78
 71
     1
340
11
 40
0.24
340
0
340
0
 40
0.24
300
I, O, Q, S, X, Z
 40
0.48
 90
        3
 40
0.18
 90
        1
 71
     2
340
329
 90
       25
340
16
 90
       50
 40
0.24
 40
0.0
 40
0.24
 71
     3
340
11
 40
0.24
 90
        1
 40
0.75
 90
        1
300
%<\AcVar ViewType \f "%tc1">% %<\AcVar ViewSectionStartId>%-%<\AcVar ViewSectionEndId>%\PSCALE %<\AcVar ViewScale \f "%sn">%
 71
     4
300
ANSI31
 40
1.0
 90
        0
290
     0
290
     0
 90
        6
 40
0.0
 40
1.570796326794896
 40
0.2617993877991494
 40
1.308996938995747
 40
-0.2617993877991494
 40
1.832595714594046
  0
TABLESTYLE
  5
313
102
{ACAD_XDICTIONARY
360
32D
102
}
102
{ACAD_REACTORS
330
312
102
}
330
312
100
AcDbTableStyle
  3
Standard
 70
     0
 71
     0
 40
0.06
 41
0.06
280
     0
281
     0
  7
STANDARD
140
0.18
170
     2
 62
     0
 63
     7
283
     0
274
    -2
284
     1
 64
     0
275
    -2
285
     1
 65
     0
276
    -2
286
     1
 66
     0
277
    -2
287
     1
 67
     0
278
    -2
288
     1
 68
     0
279
    -2
289
     1
 69
     0
  7
STANDARD
140
0.25
170
     5
 62
     0
 63
     7
283
     0
274
    -2
284
     1
 64
     0
275
    -2
285
     1
 65
     0
276
    -2
286
     1
 66
     0
277
    -2
287
     1
 67
     0
278
    -2
288
     1
 68
     0
279
    -2
289
     1
 69
     0
  7
STANDARD
140
0.18
170
     5
 62
     0
 63
     7
283
     0
274
    -2
284
     1
 64
     0
275
    -2
285
     1
 65
     0
276
    -2
286
     1
 66
     0
277
    -2
287
     1
 67
     0
278
    -2
288
     1
 68
     0
279
    -2
289
     1
 69
     0
  0
VISUALSTYLE
  5
2FE
102
{ACAD_XDICTIONARY
360
429
102
}
102
{ACAD_REACTORS
330
2F8
102
}
330
2F8
100
AcDbVisualStyle
  2
2dWireframe
 70
     4
 71
     0
 72
     2
 73
     0
 90
        0
 40
-0.6
 41
-30.0
 62
     5
 63
     7
 74
     1
 91
        4
 64
     7
 65
   257
 75
     1
175
     1
 42
1.0
 92
        0
 66
   257
 43
1.0
 76
     1
 77
     6
 78
     2
 67
     7
 79
     5
170
     0
171
     0
290
     0
174
     0
 93
        1
 44
0.0
173
     0
291
     0
 45
0.0
1001
ACAD
1000
AcDbSavedByObjectVersion
1070
     0
  0
VISUALSTYLE
  5
2FD
102
{ACAD_XDICTIONARY
360
427
102
}
102
{ACAD_REACTORS
330
2F8
102
}
330
2F8
100
AcDbVisualStyle
  2
Basic
 70
     7
 71
     1
 72
     0
 73
     1
 90
        0
 40
-0.6
 41
-30.0
 62
     5
 63
     7
 74
     0
 91
        4
 64
     7
 65
   257
 75
     1
175
     1
 42
1.0
 92
        8
 66
     7
 43
1.0
 76
     1
 77
     6
 78
     2
 67
     7
 79
     5
170
     0
171
     0
290
     0
174
     0
 93
        1
 44
0.0
173
     0
291
     1
 45
0.0
1001
ACAD
1000
AcDbSavedByObjectVersion
1070
     0
  0
VISUALSTYLE
  5
304
102
{ACAD_XDICTIONARY
360
435
102
}
102
{ACAD_REACTORS
330
2F8
102
}
330
2F8
100
AcDbVisualStyle
  2
Brighten
 70
    12
 71
     2
 72
     2
 73
     0
 90
        0
 40
-0.6
 41
-30.0
 62
     5
 63
     7
 74
     1
 91
        4
 64
     7
 65
   257
 75
     1
175
     1
 42
1.0
 92
        8
 66
     7
 43
1.0
 76
     1
 77
     6
 78
     2
 67
     7
 79
     5
170
     0
171
     0
290
     0
174
     0
 93
        1
 44
50.0
173
     0
291
     1
 45
0.0
1001
ACAD
1000
AcDbSavedByObjectVersion
1070
     0
  0
VISUALSTYLE
  5
308
102
{ACAD_XDICTIONARY
360
43D
102
}
102
{ACAD_REACTORS
330
2F8
102
}
330
2F8
100
AcDbVisualStyle
  2
ColorChange
 70
    16
 71
     2
 72
     2
 73
     3
 90
        0
 40
-0.6
 41
-30.0
 62
     5
 63
     8
 74
     1
 91
        4
 64
     7
 65
   257
 75
     1
175
     1
 42
1.0
 92
        8
 66
     8
 43
1.0
 76
     1
 77
     6
 78
     2
 67
     7
 79
     5
170
     0
171
     0
290
     0
174
     0
 93
        1
 44
0.0
173
     0
291
     1
 45
0.0
1001
ACAD
1000
AcDbSavedByObjectVersion
1070
     0
  0
VISUALSTYLE
  5
301
102
{ACAD_XDICTIONARY
360
42F
102
}
102
{ACAD_REACTORS
330
2F8
102
}
330
2F8
100
AcDbVisualStyle
  2
Conceptual
 70
     9
 71
     3
 72
     2
 73
     0
 90
        0
 40
-0.6
 41
-30.0
 62
     5
 63
     7
 74
     2
 91
        2
 64
     7
 65
   257
 75
     1
175
     1
 42
179.0
 92
        8
 66
     7
 43
1.0
 76
     1
 77
     6
 78
     2
 67
     7
 79
     3
170
     0
171
     0
290
     0
174
     0
 93
        1
 44
0.0
173
     0
291
     0
 45
0.0
1001
ACAD
1000
AcDbSavedByObjectVersion
1070
     0
  0
VISUALSTYLE
  5
303
102
{ACAD_XDICTIONARY
360
433
102
}
102
{ACAD_REACTORS
330
2F8
102
}
330
2F8
100
AcDbVisualStyle
  2
Dim
 70
    11
 71
     2
 72
     2
 73
     0
 90
        0
 40
-0.6
 41
-30.0
 62
     5
 63
     7
 74
     1
 91
        4
 64
     7
 65
   257
 75
     1
175
     1
 42
1.0
 92
        8
 66
     7
 43
1.0
 76
     1
 77
     6
 78
     2
 67
     7
 79
     5
170
     0
171
     0
290
     0
174
     0
 93
        1
 44
-50.0
173
     0
291
     1
 45
0.0
1001
ACAD
1000
AcDbSavedByObjectVersion
1070
     0
  0
VISUALSTYLE
  5
310
102
{ACAD_XDICTIONARY
360
44D
102
}
102
{ACAD_REACTORS
330
2F8
102
}
330
2F8
100
AcDbVisualStyle
  2
EdgeColorOff
 70
    22
 71
     2
 72
     2
 73
     0
 90
        0
 40
-0.6
 41
-30.0
 62
     5
 63
     7
 74
     1
 91
        4
 64
     7
 65
   257
 75
     1
175
     1
 42
1.0
 92
        8
 66
     7
 43
1.0
 76
     1
 77
     6
 78
     2
 67
     7
 79
     5
170
     0
171
     0
290
     0
174
     0
 93
        1
 44
0.0
173
     0
291
     1
 45
0.0
1001
ACAD
1000
AcDbSavedByObjectVersion
1070
     0
  0
VISUALSTYLE
  5
307
102
{ACAD_XDICTIONARY
360
43B
102
}
102
{ACAD_REACTORS
330
2F8
102
}
330
2F8
100
AcDbVisualStyle
  2
Facepattern
 70
    15
 71
     2
 72
     2
 73
     0
 90
        0
 40
-0.6
 41
-30.0
 62
     5
 63
     7
 74
     1
 91
        4
 64
     7
 65
   257
 75
     1
175
     1
 42
1.0
 92
        8
 66
     7
 43
1.0
 76
     1
 77
     6
 78
     2
 67
     7
 79
     5
170
     0
171
     0
290
     0
174
     0
 93
        1
 44
0.0
173
     0
291
     1
 45
0.0
1001
ACAD
1000
AcDbSavedByObjectVersion
1070
     0
  0
VISUALSTYLE
  5
2F9
102
{ACAD_XDICTIONARY
360
41F
102
}
102
{ACAD_REACTORS
330
2F8
102
}
330
2F8
100
AcDbVisualStyle
  2
Flat
 70
     0
 71
     2
 72
     1
 73
     1
 90
        2
 40
-0.6
 41
30.0
 62
     5
 63
     7
 74
     0
 91
        0
 64
     7
 65
   257
 75
     1
175
     1
 42
1.0
 92
        8
 66
     7
 43
1.0
 76
     1
 77
     6
 78
     2
 67
     7
 79
     5
170
     0
171
     0
290
     0
174
     0
 93
       13
 44
0.0
173
     0
291
     1
 45
0.0
1001
ACAD
1000
AcDbSavedByObjectVersion
1070
     0
  0
VISUALSTYLE
  5
2FA
102
{ACAD_XDICTIONARY
360
421
102
}
102
{ACAD_REACTORS
330
2F8
102
}
330
2F8
100
AcDbVisualStyle
  2
FlatWithEdges
 70
     1
 71
     2
 72
     1
 73
     1
 90
        2
 40
-0.6
 41
30.0
 62
     5
 63
     7
 74
     1
 91
        0
 64
     7
 65
   257
 75
     1
175
     1
 42
1.0
 92
        0
 66
   257
 43
1.0
 76
     1
 77
     6
 78
     2
 67
     7
 79
     5
170
     0
171
     0
290
     0
174
     0
 93
       13
 44
0.0
173
     0
291
     1
 45
0.0
1001
ACAD
1000
AcDbSavedByObjectVersion
1070
     0
  0
VISUALSTYLE
  5
2FB
102
{ACAD_XDICTIONARY
360
423
102
}
102
{ACAD_REACTORS
330
2F8
102
}
330
2F8
100
AcDbVisualStyle
  2
Gouraud
 70
     2
 71
     2
 72
     2
 73
     1
 90
        2
 40
-0.6
 41
30.0
 62
     5
 63
     7
 74
     0
 91
        0
 64
     7
 65
   257
 75
     1
175
     1
 42
1.0
 92
        0
 66
     7
 43
1.0
 76
     1
 77
     6
 78
     2
 67
     7
 79
     5
170
     0
171
     0
290
     0
174
     0
 93
       13
 44
0.0
173
     0
291
     1
 45
0.0
1001
ACAD
1000
AcDbSavedByObjectVersion
1070
     0
  0
VISUALSTYLE
  5
2FC
102
{ACAD_XDICTIONARY
360
425
102
}
102
{ACAD_REACTORS
330
2F8
102
}
330
2F8
100
AcDbVisualStyle
  2
GouraudWithEdges
 70
     3
 71
     2
 72
     2
 73
     1
 90
        2
 40
-0.6
 41
30.0
 62
     5
 63
     7
 74
     1
 91
        0
 64
     7
 65
   257
 75
     1
175
     1
 42
1.0
 92
        0
 66
   257
 43
1.0
 76
     1
 77
     6
 78
     2
 67
     7
 79
     5
170
     0
171
     0
290
     0
174
     0
 93
       13
 44
0.0
173
     0
291
     1
 45
0.0
1001
ACAD
1000
AcDbSavedByObjectVersion
1070
     0
  0
VISUALSTYLE
  5
300
102
{ACAD_XDICTIONARY
360
42D
102
}
102
{ACAD_REACTORS
330
2F8
102
}
330
2F8
100
AcDbVisualStyle
  2
Hidden
 70
     6
 71
     1
 72
     2
 73
     2
 90
        0
 40
-0.6
 41
-30.0
 62
     5
 63
     7
 74
     2
 91
        2
 64
     7
 65
   257
 75
     2
175
     1
 42
40.0
 92
        0
 66
   257
 43
1.0
 76
     1
 77
     6
 78
     2
 67
     7
 79
     3
170
     0
171
     0
290
     0
174
     0
 93
        1
 44
0.0
173
     0
291
     0
 45
0.0
1001
ACAD
1000
AcDbSavedByObjectVersion
1070
     0
  0
VISUALSTYLE
  5
30E
102
{ACAD_XDICTIONARY
360
449
102
}
102
{ACAD_REACTORS
330
2F8
102
}
330
2F8
100
AcDbVisualStyle
  2
JitterOff
 70
    20
 71
     2
 72
     2
 73
     0
 90
        0
 40
-0.6
 41
-30.0
 62
     5
 63
     7
 74
     1
 91
        4
 64
     7
 65
   257
 75
     1
175
     1
 42
1.0
 92
       10
 66
     7
 43
1.0
 76
     1
 77
     6
 78
     2
 67
     7
 79
     5
170
     0
171
     0
290
     0
174
     0
 93
        1
 44
0.0
173
     0
291
     1
 45
0.0
1001
ACAD
1000
AcDbSavedByObjectVersion
1070
     0
  0
VISUALSTYLE
  5
306
102
{ACAD_XDICTIONARY
360
439
102
}
102
{ACAD_REACTORS
330
2F8
102
}
330
2F8
100
AcDbVisualStyle
  2
Linepattern
 70
    14
 71
     2
 72
     2
 73
     0
 90
        0
 40
-0.6
 41
-30.0
 62
     5
 63
     7
 74
     1
 91
        4
 64
     7
 65
   257
 75
     7
175
     7
 42
1.0
 92
        8
 66
     7
 43
1.0
 76
     1
 77
     6
 78
     2
 67
     7
 79
     5
170
     0
171
     0
290
     0
174
     0
 93
        1
 44
0.0
173
     0
291
     1
 45
0.0
1001
ACAD
1000
AcDbSavedByObjectVersion
1070
     0
  0
VISUALSTYLE
  5
30F
102
{ACAD_XDICTIONARY
360
44B
102
}
102
{ACAD_REACTORS
330
2F8
102
}
330
2F8
100
AcDbVisualStyle
  2
OverhangOff
 70
    21
 71
     2
 72
     2
 73
     0
 90
        0
 40
-0.6
 41
-30.0
 62
     5
 63
     7
 74
     1
 91
        4
 64
     7
 65
   257
 75
     1
175
     1
 42
1.0
 92
        9
 66
     7
 43
1.0
 76
     1
 77
     6
 78
     2
 67
     7
 79
     5
170
     0
171
     0
290
     0
174
     0
 93
        1
 44
0.0
173
     0
291
     1
 45
0.0
1001
ACAD
1000
AcDbSavedByObjectVersion
1070
     0
  0
VISUALSTYLE
  5
302
102
{ACAD_XDICTIONARY
360
431
102
}
102
{ACAD_REACTORS
330
2F8
102
}
330
2F8
100
AcDbVisualStyle
  2
Realistic
 70
     8
 71
     2
 72
     2
 73
     0
 90
        2
 40
-0.6
 41
30.0
 62
     5
 63
     7
 74
     0
 91
        0
 64
     7
 65
   257
 75
     1
175
     1
 42
1.0
 92
        8
 66
   257
 43
1.0
 76
     1
 77
     6
 78
     2
 67
     7
 79
     3
170
     0
171
     0
290
     0
174
     0
 93
       13
 44
0.0
173
     0
291
     0
 45
0.0
1001
ACAD
1000
AcDbSavedByObjectVersion
1070
     0
  0
VISUALSTYLE
  5
30D
102
{ACAD_XDICTIONARY
360
447
102
}
102
{ACAD_REACTORS
330
2F8
102
}
330
2F8
100
AcDbVisualStyle
  2
Shaded
 70
    27
 71
     2
 72
     2
 73
     1
 90
        2
 40
-0.6
 41
30.0
 62
     5
 63
     7
 74
     0
 91
        4
 64
     7
 65
   257
 75
     1
175
     1
 42
1.0
 92
        8
 66
   257
 43
1.0
 76
     1
 77
     6
 78
     2
 67
     8
 79
     3
170
     0
171
     0
290
     0
174
     0
 93
        5
 44
0.0
173
     0
291
     0
 45
0.0
1001
ACAD
1000
AcDbSavedByObjectVersion
1070
     0
  0
VISUALSTYLE
  5
30C
102
{ACAD_XDICTIONARY
360
445
102
}
102
{ACAD_REACTORS
330
2F8
102
}
330
2F8
100
AcDbVisualStyle
  2
Shaded with edges
 70
    26
 71
     2
 72
     2
 73
     1
 90
        2
 40
-0.6
 41
30.0
 62
     5
 63
     7
 74
     1
 91
        2
 64
     7
 65
   257
 75
     2
175
     1
 42
1.0
 92
        8
 66
   257
 43
1.0
 76
     1
 77
     6
 78
     2
 67
     7
 79
     3
170
     0
171
     0
290
     0
174
     0
 93
        5
 44
0.0
173
     0
291
     0
 45
0.0
1001
ACAD
1000
AcDbSavedByObjectVersion
1070
     0
  0
VISUALSTYLE
  5
309
102
{ACAD_XDICTIONARY
360
43F
102
}
102
{ACAD_REACTORS
330
2F8
102
}
330
2F8
100
AcDbVisualStyle
  2
Shades of Gray
 70
    23
 71
     2
 72
     2
 73
     3
 90
        0
 40
-0.6
 41
-30.0
 62
     5
 63
     7
 74
     2
 91
        2
 64
     7
 65
     7
 75
     1
175
     1
 42
40.0
 92
        8
 66
     7
 43
1.0
 76
     1
 77
     6
 78
     2
 67
     7
 79
     3
170
     0
171
     0
290
     0
174
     0
 93
        1
 44
0.0
173
     0
291
     0
 45
0.0
1001
ACAD
1000
AcDbSavedByObjectVersion
1070
     0
  0
VISUALSTYLE
  5
30A
102
{ACAD_XDICTIONARY
360
441
102
}
102
{ACAD_REACTORS
330
2F8
102
}
330
2F8
100
AcDbVisualStyle
  2
Sketchy
 70
    24
 71
     1
 72
     2
 73
     2
 90
        0
 40
-0.6
 41
-30.0
 62
     5
 63
     7
 74
     2
 91
        2
 64
     7
 65
     7
 75
     1
175
     1
 42
40.0
 92
       11
 66
     7
 43
1.0
 76
     1
 77
     6
 78
     2
 67
     7
 79
     6
170
     0
171
     0
290
     0
174
     0
 93
        1
 44
0.0
173
     0
291
     0
 45
0.0
1001
ACAD
1000
AcDbSavedByObjectVersion
1070
     0
  0
VISUALSTYLE
  5
305
102
{ACAD_XDICTIONARY
360
437
102
}
102
{ACAD_REACTORS
330
2F8
102
}
330
2F8
100
AcDbVisualStyle
  2
Thicken
 70
    13
 71
     2
 72
     2
 73
     0
 90
        0
 40
-0.6
 41
-30.0
 62
     5
 63
     7
 74
     1
 91
        4
 64
     7
 65
   257
 75
     1
175
     1
 42
1.0
 92
       12
 66
     7
 43
1.0
 76
     1
 77
     6
 78
     2
 67
     7
 79
     5
170
     0
171
     0
290
     0
174
     0
 93
        1
 44
0.0
173
     0
291
     1
 45
0.0
1001
ACAD
1000
AcDbSavedByObjectVersion
1070
     0
  0
VISUALSTYLE
  5
2FF
102
{ACAD_XDICTIONARY
360
42B
102
}
102
{ACAD_REACTORS
330
2F8
102
}
330
2F8
100
AcDbVisualStyle
  2
Wireframe
 70
     5
 71
     0
 72
     2
 73
     0
 90
        0
 40
-0.6
 41
-30.0
 62
     5
 63
     7
 74
     1
 91
        4
 64
     7
 65
   257
 75
     1
175
     1
 42
1.0
 92
        0
 66
   257
 43
1.0
 76
     1
 77
     6
 78
     2
 67
     7
 79
     3
170
     0
171
     0
290
     0
174
     0
 93
        1
 44
0.0
173
     0
291
     0
 45
0.0
1001
ACAD
1000
AcDbSavedByObjectVersion
1070
     0
  0
VISUALSTYLE
  5
30B
102
{ACAD_XDICTIONARY
360
443
102
}
102
{ACAD_REACTORS
330
2F8
102
}
330
2F8
100
AcDbVisualStyle
  2
X-Ray
 70
    25
 71
     2
 72
     2
 73
     1
 90
        1
 40
0.5
 41
-30.0
 62
     5
 63
     7
 74
     1
 91
        0
 64
     7
 65
   257
 75
     1
175
     1
 42
1.0
 92
        8
 66
     7
 43
1.0
 76
     1
 77
     6
 78
     2
 67
     7
 79
     3
170
     0
171
     0
290
     0
174
     0
 93
       13
 44
0.0
173
     0
291
     0
 45
0.0
1001
ACAD
1000
AcDbSavedByObjectVersion
1070
     0
  0
DICTIONARYVAR
  5
370
102
{ACAD_REACTORS
330
36B
102
}
330
36B
100
DictionaryVariables
280
     0
  1
1:1
  0
DICTIONARYVAR
  5
36D
102
{ACAD_REACTORS
330
36B
102
}
330
36B
100
DictionaryVariables
280
     0
  1
STANDARD
  0
DICTIONARYVAR
  5
36C
102
{ACAD_REACTORS
330
36B
102
}
330
36B
100
DictionaryVariables
280
     0
  1
STANDARD
  0
DICTIONARYVAR
  5
36E
102
{ACAD_REACTORS
330
36B
102
}
330
36B
100
DictionaryVariables
280
     0
  1
Imperial24
  0
DICTIONARYVAR
  5
36F
102
{ACAD_REACTORS
330
36B
102
}
330
36B
100
DictionaryVariables
280
     0
  1
Imperial24
  0
DICTIONARYVAR
  5
373
102
{ACAD_REACTORS
330
36B
102
}
330
36B
100
DictionaryVariables
280
     0
  1
1
  0
DICTIONARYVAR
  5
372
102
{ACAD_REACTORS
330
36B
102
}
330
36B
100
DictionaryVariables
280
     0
  1
0
  0
DICTIONARYVAR
  5
371
102
{ACAD_REACTORS
330
36B
102
}
330
36B
100
DictionaryVariables
280
     0
  1
127
  0
DICTIONARYVAR
  5
40C
102
{ACAD_REACTORS
330
36B
102
}
330
36B
100
DictionaryVariables
280
     0
  1
2
  0
DICTIONARY
  5
417
102
{ACAD_REACTORS
330
415
102
}
330
415
100
AcDbDictionary
281
     1
  0
DICTIONARY
  5
416
102
{ACAD_REACTORS
330
415
102
}
330
415
100
AcDbDictionary
281
     1
  3
1102026368
350
410
  3
1102026384
350
411
  3
1102026400
350
412
  3
1102026416
350
413
  3
1102026432
350
414
  0
DICTIONARY
  5
452
330
32C
100
AcDbDictionary
280
     1
281
     1
  3
ACAD_XREC_ROUNDTRIP
360
453
  0
DICTIONARY
  5
41A
330
2DC
100
AcDbDictionary
280
     1
281
     1
  3
ACAD_XREC_ROUNDTRIP
360
41B
  0
DICTIONARY
  5
418
330
2DB
100
AcDbDictionary
280
     1
281
     1
  3
ACAD_XREC_ROUNDTRIP
360
419
  0
DICTIONARY
  5
2E9
330
2E8
100
AcDbDictionary
280
     1
281
     1
  3
ACAD_XREC_ROUNDTRIP
360
41D
  3
BUMPTILE
360
2EB
  3
DIFFUSETILE
360
2EA
  3
OPACITYTILE
360
2EE
  3
REFLECTIONTILE
360
2ED
  3
REFRACTIONTILE
360
2EF
  3
SPECULARTILE
360
2EC
  0
DICTIONARY
  5
2E1
330
2E0
100
AcDbDictionary
280
     1
281
     1
  3
ACAD_XREC_ROUNDTRIP
360
41C
  3
BUMPTILE
360
2E3
  3
DIFFUSETILE
360
2E2
  3
OPACITYTILE
360
2E6
  3
REFLECTIONTILE
360
2E5
  3
REFRACTIONTILE
360
2E7
  3
SPECULARTILE
360
2E4
  0
DICTIONARY
  5
2F1
330
2F0
100
AcDbDictionary
280
     1
281
     1
  3
ACAD_XREC_ROUNDTRIP
360
41E
  3
BUMPTILE
360
2F3
  3
DIFFUSETILE
360
2F2
  3
OPACITYTILE
360
2F6
  3
REFLECTIONTILE
360
2F5
  3
REFRACTIONTILE
360
2F7
  3
SPECULARTILE
360
2F4
  0
DICTIONARY
  5
450
330
32A
100
AcDbDictionary
280
     1
281
     1
  3
ACAD_XREC_ROUNDTRIP
360
451
  0
DICTIONARY
  5
32D
330
313
100
AcDbDictionary
280
     1
281
     1
  3
ACAD_ROUNDTRIP_2008_TABLESTYLE_CELLSTYLEMAP
360
40D
  3
ACAD_XREC_ROUNDTRIP
360
44F
  0
DICTIONARY
  5
429
330
2FE
100
AcDbDictionary
280
     1
281
     1
  3
ACAD_XREC_ROUNDTRIP
360
42A
  0
DICTIONARY
  5
427
330
2FD
100
AcDbDictionary
280
     1
281
     1
  3
ACAD_XREC_ROUNDTRIP
360
428
  0
DICTIONARY
  5
435
330
304
100
AcDbDictionary
280
     1
281
     1
  3
ACAD_XREC_ROUNDTRIP
360
436
  0
DICTIONARY
  5
43D
330
308
100
AcDbDictionary
280
     1
281
     1
  3
ACAD_XREC_ROUNDTRIP
360
43E
  0
DICTIONARY
  5
42F
330
301
100
AcDbDictionary
280
     1
281
     1
  3
ACAD_XREC_ROUNDTRIP
360
430
  0
DICTIONARY
  5
433
330
303
100
AcDbDictionary
280
     1
281
     1
  3
ACAD_XREC_ROUNDTRIP
360
434
  0
DICTIONARY
  5
44D
330
310
100
AcDbDictionary
280
     1
281
     1
  3
ACAD_XREC_ROUNDTRIP
360
44E
  0
DICTIONARY
  5
43B
330
307
100
AcDbDictionary
280
     1
281
     1
  3
ACAD_XREC_ROUNDTRIP
360
43C
  0
DICTIONARY
  5
41F
330
2F9
100
AcDbDictionary
280
     1
281
     1
  3
ACAD_XREC_ROUNDTRIP
360
420
  0
DICTIONARY
  5
421
330
2FA
100
AcDbDictionary
280
     1
281
     1
  3
ACAD_XREC_ROUNDTRIP
360
422
  0
DICTIONARY
  5
423
330
2FB
100
AcDbDictionary
280
     1
281
     1
  3
ACAD_XREC_ROUNDTRIP
360
424
  0
DICTIONARY
  5
425
330
2FC
100
AcDbDictionary
280
     1
281
     1
  3
ACAD_XREC_ROUNDTRIP
360
426
  0
DICTIONARY
  5
42D
330
300
100
AcDbDictionary
280
     1
281
     1
  3
ACAD_XREC_ROUNDTRIP
360
42E
  0
DICTIONARY
  5
449
330
30E
100
AcDbDictionary
280
     1
281
     1
  3
ACAD_XREC_ROUNDTRIP
360
44A
  0
DICTIONARY
  5
439
330
306
100
AcDbDictionary
280
     1
281
     1
  3
ACAD_XREC_ROUNDTRIP
360
43A
  0
DICTIONARY
  5
44B
330
30F
100
AcDbDictionary
280
     1
281
     1
  3
ACAD_XREC_ROUNDTRIP
360
44C
  0
DICTIONARY
  5
431
330
302
100
AcDbDictionary
280
     1
281
     1
  3
ACAD_XREC_ROUNDTRIP
360
432
  0
DICTIONARY
  5
447
330
30D
100
AcDbDictionary
280
     1
281
     1
  3
ACAD_XREC_ROUNDTRIP
360
448
  0
DICTIONARY
  5
445
330
30C
100
AcDbDictionary
280
     1
281
     1
  3
ACAD_XREC_ROUNDTRIP
360
446
  0
DICTIONARY
  5
43F
330
309
100
AcDbDictionary
280
     1
281
     1
  3
ACAD_XREC_ROUNDTRIP
360
440
  0
DICTIONARY
  5
441
330
30A
100
AcDbDictionary
280
     1
281
     1
  3
ACAD_XREC_ROUNDTRIP
360
442
  0
DICTIONARY
  5
437
330
305
100
AcDbDictionary
280
     1
281
     1
  3
ACAD_XREC_ROUNDTRIP
360
438
  0
DICTIONARY
  5
42B
330
2FF
100
AcDbDictionary
280
     1
281
     1
  3
ACAD_XREC_ROUNDTRIP
360
42C
  0
DICTIONARY
  5
443
330
30B
100
AcDbDictionary
280
     1
281
     1
  3
ACAD_XREC_ROUNDTRIP
360
444
  0
XRECORD
  5
410
102
{ACAD_REACTORS
330
416
102
}
330
416
100
AcDbXrecord
280
     1
  1
AcDb_Thumbnail_Schema
102
{ATTRRECORD
341
411
  2
AcDbDs::TreatedAsObjectData
280
     1
291
     1
102
ATTRRECORD}
102
{ATTRRECORD
341
412
  2
AcDbDs::Legacy
280
     1
291
     1
102
ATTRRECORD}
  2
AcDbDs::ID
280
    10
 91
        8
102
{ATTRRECORD
341
413
  2
AcDs:Indexable
280
     1
291
     1
102
ATTRRECORD}
102
{ATTRRECORD
341
414
  2
AcDbDs::HandleAttribute
280
     7
282
     1
102
ATTRRECORD}
  2
Thumbnail_Data
280
    15
 91
        0
  0
XRECORD
  5
411
102
{ACAD_REACTORS
330
416
102
}
330
416
100
AcDbXrecord
280
     1
  1
AcDbDs::TreatedAsObjectDataSchema
  2
AcDbDs::TreatedAsObjectData
280
     1
 91
        0
  0
XRECORD
  5
412
102
{ACAD_REACTORS
330
416
102
}
330
416
100
AcDbXrecord
280
     1
  1
AcDbDs::LegacySchema
  2
AcDbDs::Legacy
280
     1
 91
        0
  0
XRECORD
  5
413
102
{ACAD_REACTORS
330
416
102
}
330
416
100
AcDbXrecord
280
     1
  1
AcDbDs::IndexedPropertySchema
  2
AcDs:Indexable
280
     1
 91
        0
  0
XRECORD
  5
414
102
{ACAD_REACTORS
330
416
102
}
330
416
100
AcDbXrecord
280
     1
  1
AcDbDs::HandleAttributeSchema
  2
AcDbDs::HandleAttribute
280
     7
 91
        1
284
     1
  0
XRECORD
  5
453
102
{ACAD_REACTORS
330
452
102
}
330
452
100
AcDbXrecord
280
     1
102
DISPLAYNAME
  1
Imperial24
102
FLAGS
 90
        0
  0
XRECORD
  5
41B
102
{ACAD_REACTORS
330
41A
102
}
330
41A
100
AcDbXrecord
280
     1
102
SHADEPLOT
 70
     0
102
SHADEPLOTRESLEVEL
 70
     2
102
SHADEPLOTCUSTOMDPI
 70
   300
  0
XRECORD
  5
419
102
{ACAD_REACTORS
330
418
102
}
330
418
100
AcDbXrecord
280
     1
102
SHADEPLOT
 70
     0
102
SHADEPLOTRESLEVEL
 70
     2
102
SHADEPLOTCUSTOMDPI
 70
   300
  0
XRECORD
  5
41D
102
{ACAD_REACTORS
330
2E9
102
}
330
2E9
100
AcDbXrecord
280
     1
102
MATERIAL
148
0.0
149
0.0
149
0.0
 93
        0
 94
      127
282
     0
 72
     0
 77
     0
171
     0
175
     0
179
     0
273
     0
  0
XRECORD
  5
2EB
102
{ACAD_REACTORS
330
2E9
102
}
330
2E9
100
AcDbXrecord
280
     1
270
     1
271
     1
  0
XRECORD
  5
2EA
102
{ACAD_REACTORS
330
2E9
102
}
330
2E9
100
AcDbXrecord
280
     1
270
     1
271
     1
  0
XRECORD
  5
2EE
102
{ACAD_REACTORS
330
2E9
102
}
330
2E9
100
AcDbXrecord
280
     1
270
     1
271
     1
  0
XRECORD
  5
2ED
102
{ACAD_REACTORS
330
2E9
102
}
330
2E9
100
AcDbXrecord
280
     1
270
     1
271
     1
  0
XRECORD
  5
2EF
102
{ACAD_REACTORS
330
2E9
102
}
330
2E9
100
AcDbXrecord
280
     1
270
     1
271
     1
  0
XRECORD
  5
2EC
102
{ACAD_REACTORS
330
2E9
102
}
330
2E9
100
AcDbXrecord
280
     1
270
     1
271
     1
  0
XRECORD
  5
41C
102
{ACAD_REACTORS
330
2E1
102
}
330
2E1
100
AcDbXrecord
280
     1
102
MATERIAL
148
0.0
149
0.0
149
0.0
 93
        0
 94
      127
282
     0
 72
     0
 77
     0
171
     0
175
     0
179
     0
273
     0
  0
XRECORD
  5
2E3
102
{ACAD_REACTORS
330
2E1
102
}
330
2E1
100
AcDbXrecord
280
     1
270
     1
271
     1
  0
XRECORD
  5
2E2
102
{ACAD_REACTORS
330
2E1
102
}
330
2E1
100
AcDbXrecord
280
     1
270
     1
271
     1
  0
XRECORD
  5
2E6
102
{ACAD_REACTORS
330
2E1
102
}
330
2E1
100
AcDbXrecord
280
     1
270
     1
271
     1
  0
XRECORD
  5
2E5
102
{ACAD_REACTORS
330
2E1
102
}
330
2E1
100
AcDbXrecord
280
     1
270
     1
271
     1
  0
XRECORD
  5
2E7
102
{ACAD_REACTORS
330
2E1
102
}
330
2E1
100
AcDbXrecord
280
     1
270
     1
271
     1
  0
XRECORD
  5
2E4
102
{ACAD_REACTORS
330
2E1
102
}
330
2E1
100
AcDbXrecord
280
     1
270
     1
271
     1
  0
XRECORD
  5
41E
102
{ACAD_REACTORS
330
2F1
102
}
330
2F1
100
AcDbXrecord
280
     1
102
MATERIAL
148
0.0
149
0.0
149
0.0
 93
        0
 94
      127
282
     0
 72
     0
 77
     0
171
     0
175
     0
179
     0
273
     0
  0
XRECORD
  5
2F3
102
{ACAD_REACTORS
330
2F1
102
}
330
2F1
100
AcDbXrecord
280
     1
270
     1
271
     1
  0
XRECORD
  5
2F2
102
{ACAD_REACTORS
330
2F1
102
}
330
2F1
100
AcDbXrecord
280
     1
270
     1
271
     1
  0
XRECORD
  5
2F6
102
{ACAD_REACTORS
330
2F1
102
}
330
2F1
100
AcDbXrecord
280
     1
270
     1
271
     1
  0
XRECORD
  5
2F5
102
{ACAD_REACTORS
330
2F1
102
}
330
2F1
100
AcDbXrecord
280
     1
270
     1
271
     1
  0
XRECORD
  5
2F7
102
{ACAD_REACTORS
330
2F1
102
}
330
2F1
100
AcDbXrecord
280
     1
270
     1
271
     1
  0
XRECORD
  5
2F4
102
{ACAD_REACTORS
330
2F1
102
}
330
2F1
100
AcDbXrecord
280
     1
270
     1
271
     1
  0
XRECORD
  5
451
102
{ACAD_REACTORS
330
450
102
}
330
450
100
AcDbXrecord
280
     1
102
DISPLAYNAME
  1
Imperial24
102
FLAGS
 90
        0
  0
CELLSTYLEMAP
  5
40D
102
{ACAD_REACTORS
330
32D
102
}
330
32D
100
AcDbCellStyleMap
 90
        3
300
CELLSTYLE
  1
TABLEFORMAT_BEGIN
 90
        5
170
     1
 91
        0
 92
    32768
 62
   257
 93
        1
300
CONTENTFORMAT
  1
CONTENTFORMAT_BEGIN
 90
        0
 91
        0
 92
      512
 93
        0
300

 40
0.0
140
1.0
 94
        5
 62
     0
340
11
144
0.25
309
CONTENTFORMAT_END
171
     0
 94
        0
309
TABLEFORMAT_END
  1
CELLSTYLE_BEGIN
 90
        1
 91
        1
300
_TITLE
309
CELLSTYLE_END
300
CELLSTYLE
  1
TABLEFORMAT_BEGIN
 90
        5
170
     1
 91
        0
 92
        0
 62
   257
 93
        1
300
CONTENTFORMAT
  1
CONTENTFORMAT_BEGIN
 90
        0
 91
        0
 92
      512
 93
        0
300

 40
0.0
140
1.0
 94
        5
 62
     0
340
11
144
0.18
309
CONTENTFORMAT_END
171
     0
 94
        0
309
TABLEFORMAT_END
  1
CELLSTYLE_BEGIN
 90
        2
 91
        1
300
_HEADER
309
CELLSTYLE_END
300
CELLSTYLE
  1
TABLEFORMAT_BEGIN
 90
        5
170
     1
 91
        0
 92
        0
 62
   257
 93
        1
300
CONTENTFORMAT
  1
CONTENTFORMAT_BEGIN
 90
        0
 91
        0
 92
      512
 93
        0
300

 40
0.0
140
1.0
 94
        2
 62
     0
340
11
144
0.18
309
CONTENTFORMAT_END
171
     0
 94
        0
309
TABLEFORMAT_END
  1
CELLSTYLE_BEGIN
 90
        3
 91
        2
300
_DATA
309
CELLSTYLE_END
  0
XRECORD
  5
44F
102
{ACAD_REACTORS
330
32D
102
}
330
32D
100
AcDbXrecord
280
     1
102
ACAD_ROUNDTRIP_PRE2007_TABLESTYLE
 90
      512
 91
        0
  1

 92
      512
 93
        0
  2

 94
      512
 95
        0
  3

  0
XRECORD
  5
42A
102
{ACAD_REACTORS
330
429
102
}
330
429
100
AcDbXrecord
280
     1
102
RTVSPost2010Prop28
280
     1
102
RTVSPost2010PropOp28
 70
     1
102
RTVSPost2010Prop29
280
     1
102
RTVSPost2010PropOp29
 70
     1
102
RTVSPost2010Prop30
280
     0
102
RTVSPost2010PropOp30
 70
     1
102
RTVSPost2010Prop31
280
     0
102
RTVSPost2010PropOp31
 70
     1
102
RTVSPost2010Prop32
280
     0
102
RTVSPost2010PropOp32
 70
     1
102
RTVSPost2010Prop33
280
     0
102
RTVSPost2010PropOp33
 70
     1
102
RTVSPost2010Prop34
280
     0
102
RTVSPost2010PropOp34
 70
     1
102
RTVSPost2010Prop35
280
     0
102
RTVSPost2010PropOp35
 70
     1
102
RTVSPost2010Prop36
280
     0
102
RTVSPost2010PropOp36
 70
     1
102
RTVSPost2010Prop37
 90
       50
102
RTVSPost2010PropOp37
 70
     1
102
RTVSPost2010Prop38
140
0.0
102
RTVSPost2010PropOp38
 70
     1
102
RTVSPost2010Prop39
140
1.0
102
RTVSPost2010PropOp39
 70
     1
102
RTVSPost2010Prop40
 90
        0
102
RTVSPost2010PropOp40
 70
     1
102
RTVSPost2010Prop41ColorIndex
 90
       18
102
RTVSPost2010Prop41ColorRGB
 90
        0
102
RTVSPost2010PropOp41
 70
     1
102
RTVSPost2010Prop42
 90
       50
102
RTVSPost2010PropOp42
 70
     1
102
RTVSPost2010Prop43
 90
        3
102
RTVSPost2010PropOp43
 70
     1
102
RTVSPost2010Prop44ColorIndex
 90
        5
102
RTVSPost2010Prop44ColorRGB
 90
      255
102
RTVSPost2010PropOp44
 70
     1
102
RTVSPost2010Prop45
280
     0
102
RTVSPost2010PropOp45
 70
     1
102
RTVSPost2010Prop46
 90
       50
102
RTVSPost2010PropOp46
 70
     1
102
RTVSPost2010Prop47
 90
       50
102
RTVSPost2010PropOp47
 70
     1
102
RTVSPost2010Prop48
 90
       50
102
RTVSPost2010PropOp48
 70
     1
102
RTVSPost2010Prop49
280
     0
102
RTVSPost2010PropOp49
 70
     1
102
RTVSPost2010Prop50
 90
       50
102
RTVSPost2010PropOp50
 70
     1
102
RTVSPost2010Prop51ColorIndex
 90
      256
102
RTVSPost2010Prop51ColorRGB
 90
-16777216
102
RTVSPost2010PropOp51
 70
     0
102
RTVSPost2010Prop52
140
1.0
102
RTVSPost2010PropOp52
 70
     0
102
RTVSPost2010Prop53
 90
        2
102
RTVSPost2010PropOp53
 70
     1
102
RTVSPost2010Prop54
  1
strokes_ogs.tif
102
RTVSPost2010PropOp54
 70
     1
102
RTVSPost2010Prop55
280
     0
102
RTVSPost2010PropOp55
 70
     1
102
RTVSPost2010Prop56
140
1.0
102
RTVSPost2010PropOp56
 70
     1
102
RTVSPost2010Prop57
140
1.0
102
RTVSPost2010PropOp57
 70
     1
102
RTVSPropertyOp0
 70
     1
102
RTVSPropertyOp1
 70
     1
102
RTVSPropertyOp2
 70
     1
102
RTVSPropertyOp3
 70
     1
102
RTVSPropertyOp4
 70
     1
102
RTVSPropertyOp5
 70
     1
102
RTVSPropertyOp6
 70
     1
102
RTVSPropertyOp7
 70
     1
102
RTVSPropertyOp8
 70
     1
102
RTVSPropertyOp9
 70
     1
102
RTVSPropertyOp10
 70
     1
102
RTVSPropertyOp11
 70
     1
102
RTVSPropertyOp12
 70
     1
102
RTVSPropertyOp13
 70
     1
102
RTVSPropertyOp14
 70
     1
102
RTVSPropertyOp15
 70
     1
102
RTVSPropertyOp16
 70
     1
102
RTVSPropertyOp17
 70
     1
102
RTVSPropertyOp18
 70
     1
102
RTVSPropertyOp19
 70
     1
102
RTVSPropertyOp20
 70
     1
102
RTVSPropertyOp21
 70
     1
102
RTVSPropertyOp22
 70
     1
102
RTVSPropertyOp23
 70
     1
102
RTVSPropertyOp24
 70
     1
102
RTVSPropertyOp25
 70
     1
102
RTVSPropertyOp26
 70
     1
102
RTVSPropertyOp27
 70
     1
102
RTVSPropertyOp28
 70
     1
102
RTVSPropertyOp29
 70
     1
102
RTVSPropertyOp30
 70
     1
102
RTVSPropertyOp31
 70
     1
102
RTVSPropertyOp32
 70
     1
102
RTVSPropertyOp33
 70
     1
102
RTVSPropertyOp34
 70
     1
102
RTVSPropertyOp35
 70
     1
102
RTVSPropertyOp36
 70
     1
102
RTVSPropertyOp37
 70
     1
102
RTVSPropertyOp38
 70
     1
102
RTVSPropertyOp39
 70
     1
102
RTVSPropertyOp40
 70
     1
102
RTVSPropertyOp41
 70
     1
102
RTVSPropertyOp42
 70
     1
102
RTVSPropertyOp43
 70
     1
102
RTVSPropertyOp44
 70
     1
102
RTVSPropertyOp45
 70
     1
102
RTVSPropertyOp46
 70
     1
102
RTVSPropertyOp47
 70
     1
102
RTVSPropertyOp48
 70
     1
102
RTVSPropertyOp49
 70
     1
102
RTVSPropertyOp50
 70
     1
102
RTVSPropertyOp51
 70
     0
102
RTVSPropertyOp52
 70
     0
102
RTVSPropertyOp53
 70
     1
102
RTVSPropertyOp54
 70
     1
102
RTVSPropertyOp55
 70
     1
102
RTVSPropertyOp56
 70
     1
102
RTVSPropertyOp57
 70
     1
102
RTVSPropertyOp58
 70
     1
102
RTVSPropertyOp59
 70
     1
102
RTVSPropertyOp60
 70
     1
102
RTVSPropertyOp61
 70
     1
102
RTVSPropertyOp62
 70
     1
  0
XRECORD
  5
428
102
{ACAD_REACTORS
330
427
102
}
330
427
100
AcDbXrecord
280
     1
102
RTVSPost2010Prop28
280
     0
102
RTVSPost2010PropOp28
 70
     1
102
RTVSPost2010Prop29
280
     1
102
RTVSPost2010PropOp29
 70
     1
102
RTVSPost2010Prop30
280
     1
102
RTVSPost2010PropOp30
 70
     1
102
RTVSPost2010Prop31
280
     0
102
RTVSPost2010PropOp31
 70
     1
102
RTVSPost2010Prop32
280
     0
102
RTVSPost2010PropOp32
 70
     1
102
RTVSPost2010Prop33
280
     0
102
RTVSPost2010PropOp33
 70
     1
102
RTVSPost2010Prop34
280
     0
102
RTVSPost2010PropOp34
 70
     1
102
RTVSPost2010Prop35
280
     0
102
RTVSPost2010PropOp35
 70
     1
102
RTVSPost2010Prop36
280
     0
102
RTVSPost2010PropOp36
 70
     1
102
RTVSPost2010Prop37
 90
       50
102
RTVSPost2010PropOp37
 70
     1
102
RTVSPost2010Prop38
140
0.0
102
RTVSPost2010PropOp38
 70
     1
102
RTVSPost2010Prop39
140
1.0
102
RTVSPost2010PropOp39
 70
     1
102
RTVSPost2010Prop40
 90
        0
102
RTVSPost2010PropOp40
 70
     1
102
RTVSPost2010Prop41ColorIndex
 90
       18
102
RTVSPost2010Prop41ColorRGB
 90
        0
102
RTVSPost2010PropOp41
 70
     1
102
RTVSPost2010Prop42
 90
       50
102
RTVSPost2010PropOp42
 70
     1
102
RTVSPost2010Prop43
 90
        3
102
RTVSPost2010PropOp43
 70
     1
102
RTVSPost2010Prop44ColorIndex
 90
        5
102
RTVSPost2010Prop44ColorRGB
 90
      255
102
RTVSPost2010PropOp44
 70
     1
102
RTVSPost2010Prop45
280
     0
102
RTVSPost2010PropOp45
 70
     1
102
RTVSPost2010Prop46
 90
       50
102
RTVSPost2010PropOp46
 70
     1
102
RTVSPost2010Prop47
 90
       50
102
RTVSPost2010PropOp47
 70
     1
102
RTVSPost2010Prop48
 90
       50
102
RTVSPost2010PropOp48
 70
     1
102
RTVSPost2010Prop49
280
     0
102
RTVSPost2010PropOp49
 70
     1
102
RTVSPost2010Prop50
 90
       50
102
RTVSPost2010PropOp50
 70
     1
102
RTVSPost2010Prop51ColorIndex
 90
      256
102
RTVSPost2010Prop51ColorRGB
 90
-16777216
102
RTVSPost2010PropOp51
 70
     0
102
RTVSPost2010Prop52
140
1.0
102
RTVSPost2010PropOp52
 70
     0
102
RTVSPost2010Prop53
 90
        2
102
RTVSPost2010PropOp53
 70
     1
102
RTVSPost2010Prop54
  1
strokes_ogs.tif
102
RTVSPost2010PropOp54
 70
     1
102
RTVSPost2010Prop55
280
     0
102
RTVSPost2010PropOp55
 70
     1
102
RTVSPost2010Prop56
140
1.0
102
RTVSPost2010PropOp56
 70
     1
102
RTVSPost2010Prop57
140
1.0
102
RTVSPost2010PropOp57
 70
     1
102
RTVSPropertyOp0
 70
     1
102
RTVSPropertyOp1
 70
     1
102
RTVSPropertyOp2
 70
     1
102
RTVSPropertyOp3
 70
     1
102
RTVSPropertyOp4
 70
     1
102
RTVSPropertyOp5
 70
     1
102
RTVSPropertyOp6
 70
     1
102
RTVSPropertyOp7
 70
     1
102
RTVSPropertyOp8
 70
     1
102
RTVSPropertyOp9
 70
     1
102
RTVSPropertyOp10
 70
     1
102
RTVSPropertyOp11
 70
     1
102
RTVSPropertyOp12
 70
     1
102
RTVSPropertyOp13
 70
     1
102
RTVSPropertyOp14
 70
     1
102
RTVSPropertyOp15
 70
     1
102
RTVSPropertyOp16
 70
     1
102
RTVSPropertyOp17
 70
     1
102
RTVSPropertyOp18
 70
     1
102
RTVSPropertyOp19
 70
     1
102
RTVSPropertyOp20
 70
     1
102
RTVSPropertyOp21
 70
     1
102
RTVSPropertyOp22
 70
     1
102
RTVSPropertyOp23
 70
     1
102
RTVSPropertyOp24
 70
     1
102
RTVSPropertyOp25
 70
     1
102
RTVSPropertyOp26
 70
     1
102
RTVSPropertyOp27
 70
     1
102
RTVSPropertyOp28
 70
     1
102
RTVSPropertyOp29
 70
     1
102
RTVSPropertyOp30
 70
     1
102
RTVSPropertyOp31
 70
     1
102
RTVSPropertyOp32
 70
     1
102
RTVSPropertyOp33
 70
     1
102
RTVSPropertyOp34
 70
     1
102
RTVSPropertyOp35
 70
     1
102
RTVSPropertyOp36
 70
     1
102
RTVSPropertyOp37
 70
     1
102
RTVSPropertyOp38
 70
     1
102
RTVSPropertyOp39
 70
     1
102
RTVSPropertyOp40
 70
     1
102
RTVSPropertyOp41
 70
     1
102
RTVSPropertyOp42
 70
     1
102
RTVSPropertyOp43
 70
     1
102
RTVSPropertyOp44
 70
     1
102
RTVSPropertyOp45
 70
     1
102
RTVSPropertyOp46
 70
     1
102
RTVSPropertyOp47
 70
     1
102
RTVSPropertyOp48
 70
     1
102
RTVSPropertyOp49
 70
     1
102
RTVSPropertyOp50
 70
     1
102
RTVSPropertyOp51
 70
     0
102
RTVSPropertyOp52
 70
     0
102
RTVSPropertyOp53
 70
     1
102
RTVSPropertyOp54
 70
     1
102
RTVSPropertyOp55
 70
     1
102
RTVSPropertyOp56
 70
     1
102
RTVSPropertyOp57
 70
     1
102
RTVSPropertyOp58
 70
     1
102
RTVSPropertyOp59
 70
     1
102
RTVSPropertyOp60
 70
     1
102
RTVSPropertyOp61
 70
     1
102
RTVSPropertyOp62
 70
     1
  0
XRECORD
  5
436
102
{ACAD_REACTORS
330
435
102
}
330
435
100
AcDbXrecord
280
     1
102
RTVSPost2010Prop28
280
     0
102
RTVSPost2010PropOp28
 70
     1
102
RTVSPost2010Prop29
280
     1
102
RTVSPost2010PropOp29
 70
     1
102
RTVSPost2010Prop30
280
     1
102
RTVSPost2010PropOp30
 70
     1
102
RTVSPost2010Prop31
280
     0
102
RTVSPost2010PropOp31
 70
     1
102
RTVSPost2010Prop32
280
     0
102
RTVSPost2010PropOp32
 70
     1
102
RTVSPost2010Prop33
280
     0
102
RTVSPost2010PropOp33
 70
     1
102
RTVSPost2010Prop34
280
     0
102
RTVSPost2010PropOp34
 70
     1
102
RTVSPost2010Prop35
280
     0
102
RTVSPost2010PropOp35
 70
     1
102
RTVSPost2010Prop36
280
     0
102
RTVSPost2010PropOp36
 70
     1
102
RTVSPost2010Prop37
 90
       50
102
RTVSPost2010PropOp37
 70
     1
102
RTVSPost2010Prop38
140
0.0
102
RTVSPost2010PropOp38
 70
     1
102
RTVSPost2010Prop39
140
1.0
102
RTVSPost2010PropOp39
 70
     1
102
RTVSPost2010Prop40
 90
        0
102
RTVSPost2010PropOp40
 70
     1
102
RTVSPost2010Prop41ColorIndex
 90
       18
102
RTVSPost2010Prop41ColorRGB
 90
        0
102
RTVSPost2010PropOp41
 70
     1
102
RTVSPost2010Prop42
 90
       50
102
RTVSPost2010PropOp42
 70
     1
102
RTVSPost2010Prop43
 90
        3
102
RTVSPost2010PropOp43
 70
     1
102
RTVSPost2010Prop44ColorIndex
 90
        5
102
RTVSPost2010Prop44ColorRGB
 90
      255
102
RTVSPost2010PropOp44
 70
     1
102
RTVSPost2010Prop45
280
     0
102
RTVSPost2010PropOp45
 70
     1
102
RTVSPost2010Prop46
 90
       50
102
RTVSPost2010PropOp46
 70
     1
102
RTVSPost2010Prop47
 90
       50
102
RTVSPost2010PropOp47
 70
     1
102
RTVSPost2010Prop48
 90
       50
102
RTVSPost2010PropOp48
 70
     1
102
RTVSPost2010Prop49
280
     0
102
RTVSPost2010PropOp49
 70
     1
102
RTVSPost2010Prop50
 90
       50
102
RTVSPost2010PropOp50
 70
     1
102
RTVSPost2010Prop51ColorIndex
 90
      256
102
RTVSPost2010Prop51ColorRGB
 90
-16777216
102
RTVSPost2010PropOp51
 70
     0
102
RTVSPost2010Prop52
140
1.0
102
RTVSPost2010PropOp52
 70
     0
102
RTVSPost2010Prop53
 90
        2
102
RTVSPost2010PropOp53
 70
     1
102
RTVSPost2010Prop54
  1
strokes_ogs.tif
102
RTVSPost2010PropOp54
 70
     1
102
RTVSPost2010Prop55
280
     0
102
RTVSPost2010PropOp55
 70
     1
102
RTVSPost2010Prop56
140
1.0
102
RTVSPost2010PropOp56
 70
     1
102
RTVSPost2010Prop57
140
1.0
102
RTVSPost2010PropOp57
 70
     1
102
RTVSPropertyOp0
 70
     1
102
RTVSPropertyOp1
 70
     1
102
RTVSPropertyOp2
 70
     1
102
RTVSPropertyOp3
 70
     1
102
RTVSPropertyOp4
 70
     1
102
RTVSPropertyOp5
 70
     1
102
RTVSPropertyOp6
 70
     1
102
RTVSPropertyOp7
 70
     1
102
RTVSPropertyOp8
 70
     1
102
RTVSPropertyOp9
 70
     1
102
RTVSPropertyOp10
 70
     1
102
RTVSPropertyOp11
 70
     1
102
RTVSPropertyOp12
 70
     1
102
RTVSPropertyOp13
 70
     1
102
RTVSPropertyOp14
 70
     1
102
RTVSPropertyOp15
 70
     1
102
RTVSPropertyOp16
 70
     1
102
RTVSPropertyOp17
 70
     1
102
RTVSPropertyOp18
 70
     1
102
RTVSPropertyOp19
 70
     1
102
RTVSPropertyOp20
 70
     1
102
RTVSPropertyOp21
 70
     1
102
RTVSPropertyOp22
 70
     1
102
RTVSPropertyOp23
 70
     1
102
RTVSPropertyOp24
 70
     1
102
RTVSPropertyOp25
 70
     1
102
RTVSPropertyOp26
 70
     1
102
RTVSPropertyOp27
 70
     1
102
RTVSPropertyOp28
 70
     1
102
RTVSPropertyOp29
 70
     1
102
RTVSPropertyOp30
 70
     1
102
RTVSPropertyOp31
 70
     1
102
RTVSPropertyOp32
 70
     1
102
RTVSPropertyOp33
 70
     1
102
RTVSPropertyOp34
 70
     1
102
RTVSPropertyOp35
 70
     1
102
RTVSPropertyOp36
 70
     1
102
RTVSPropertyOp37
 70
     1
102
RTVSPropertyOp38
 70
     1
102
RTVSPropertyOp39
 70
     1
102
RTVSPropertyOp40
 70
     1
102
RTVSPropertyOp41
 70
     1
102
RTVSPropertyOp42
 70
     1
102
RTVSPropertyOp43
 70
     1
102
RTVSPropertyOp44
 70
     1
102
RTVSPropertyOp45
 70
     1
102
RTVSPropertyOp46
 70
     1
102
RTVSPropertyOp47
 70
     1
102
RTVSPropertyOp48
 70
     1
102
RTVSPropertyOp49
 70
     1
102
RTVSPropertyOp50
 70
     1
102
RTVSPropertyOp51
 70
     0
102
RTVSPropertyOp52
 70
     0
102
RTVSPropertyOp53
 70
     1
102
RTVSPropertyOp54
 70
     1
102
RTVSPropertyOp55
 70
     1
102
RTVSPropertyOp56
 70
     1
102
RTVSPropertyOp57
 70
     1
102
RTVSPropertyOp58
 70
     1
102
RTVSPropertyOp59
 70
     1
102
RTVSPropertyOp60
 70
     1
102
RTVSPropertyOp61
 70
     1
102
RTVSPropertyOp62
 70
     1
  0
XRECORD
  5
43E
102
{ACAD_REACTORS
330
43D
102
}
330
43D
100
AcDbXrecord
280
     1
102
RTVSPost2010Prop28
280
     0
102
RTVSPost2010PropOp28
 70
     1
102
RTVSPost2010Prop29
280
     1
102
RTVSPost2010PropOp29
 70
     1
102
RTVSPost2010Prop30
280
     1
102
RTVSPost2010PropOp30
 70
     1
102
RTVSPost2010Prop31
280
     0
102
RTVSPost2010PropOp31
 70
     1
102
RTVSPost2010Prop32
280
     0
102
RTVSPost2010PropOp32
 70
     1
102
RTVSPost2010Prop33
280
     0
102
RTVSPost2010PropOp33
 70
     1
102
RTVSPost2010Prop34
280
     0
102
RTVSPost2010PropOp34
 70
     1
102
RTVSPost2010Prop35
280
     0
102
RTVSPost2010PropOp35
 70
     1
102
RTVSPost2010Prop36
280
     0
102
RTVSPost2010PropOp36
 70
     1
102
RTVSPost2010Prop37
 90
       50
102
RTVSPost2010PropOp37
 70
     1
102
RTVSPost2010Prop38
140
0.0
102
RTVSPost2010PropOp38
 70
     1
102
RTVSPost2010Prop39
140
1.0
102
RTVSPost2010PropOp39
 70
     1
102
RTVSPost2010Prop40
 90
        0
102
RTVSPost2010PropOp40
 70
     1
102
RTVSPost2010Prop41ColorIndex
 90
       18
102
RTVSPost2010Prop41ColorRGB
 90
        0
102
RTVSPost2010PropOp41
 70
     1
102
RTVSPost2010Prop42
 90
       50
102
RTVSPost2010PropOp42
 70
     1
102
RTVSPost2010Prop43
 90
        3
102
RTVSPost2010PropOp43
 70
     1
102
RTVSPost2010Prop44ColorIndex
 90
        5
102
RTVSPost2010Prop44ColorRGB
 90
      255
102
RTVSPost2010PropOp44
 70
     1
102
RTVSPost2010Prop45
280
     0
102
RTVSPost2010PropOp45
 70
     1
102
RTVSPost2010Prop46
 90
       50
102
RTVSPost2010PropOp46
 70
     1
102
RTVSPost2010Prop47
 90
       50
102
RTVSPost2010PropOp47
 70
     1
102
RTVSPost2010Prop48
 90
       50
102
RTVSPost2010PropOp48
 70
     1
102
RTVSPost2010Prop49
280
     0
102
RTVSPost2010PropOp49
 70
     1
102
RTVSPost2010Prop50
 90
       50
102
RTVSPost2010PropOp50
 70
     1
102
RTVSPost2010Prop51ColorIndex
 90
      256
102
RTVSPost2010Prop51ColorRGB
 90
-16777216
102
RTVSPost2010PropOp51
 70
     0
102
RTVSPost2010Prop52
140
1.0
102
RTVSPost2010PropOp52
 70
     0
102
RTVSPost2010Prop53
 90
        2
102
RTVSPost2010PropOp53
 70
     1
102
RTVSPost2010Prop54
  1
strokes_ogs.tif
102
RTVSPost2010PropOp54
 70
     1
102
RTVSPost2010Prop55
280
     0
102
RTVSPost2010PropOp55
 70
     1
102
RTVSPost2010Prop56
140
1.0
102
RTVSPost2010PropOp56
 70
     1
102
RTVSPost2010Prop57
140
1.0
102
RTVSPost2010PropOp57
 70
     1
102
RTVSPropertyOp0
 70
     1
102
RTVSPropertyOp1
 70
     1
102
RTVSPropertyOp2
 70
     1
102
RTVSPropertyOp3
 70
     1
102
RTVSPropertyOp4
 70
     1
102
RTVSPropertyOp5
 70
     1
102
RTVSPropertyOp6
 70
     1
102
RTVSPropertyOp7
 70
     1
102
RTVSPropertyOp8
 70
     1
102
RTVSPropertyOp9
 70
     1
102
RTVSPropertyOp10
 70
     1
102
RTVSPropertyOp11
 70
     1
102
RTVSPropertyOp12
 70
     1
102
RTVSPropertyOp13
 70
     1
102
RTVSPropertyOp14
 70
     1
102
RTVSPropertyOp15
 70
     1
102
RTVSPropertyOp16
 70
     1
102
RTVSPropertyOp17
 70
     1
102
RTVSPropertyOp18
 70
     1
102
RTVSPropertyOp19
 70
     1
102
RTVSPropertyOp20
 70
     1
102
RTVSPropertyOp21
 70
     1
102
RTVSPropertyOp22
 70
     1
102
RTVSPropertyOp23
 70
     1
102
RTVSPropertyOp24
 70
     1
102
RTVSPropertyOp25
 70
     1
102
RTVSPropertyOp26
 70
     1
102
RTVSPropertyOp27
 70
     1
102
RTVSPropertyOp28
 70
     1
102
RTVSPropertyOp29
 70
     1
102
RTVSPropertyOp30
 70
     1
102
RTVSPropertyOp31
 70
     1
102
RTVSPropertyOp32
 70
     1
102
RTVSPropertyOp33
 70
     1
102
RTVSPropertyOp34
 70
     1
102
RTVSPropertyOp35
 70
     1
102
RTVSPropertyOp36
 70
     1
102
RTVSPropertyOp37
 70
     1
102
RTVSPropertyOp38
 70
     1
102
RTVSPropertyOp39
 70
     1
102
RTVSPropertyOp40
 70
     1
102
RTVSPropertyOp41
 70
     1
102
RTVSPropertyOp42
 70
     1
102
RTVSPropertyOp43
 70
     1
102
RTVSPropertyOp44
 70
     1
102
RTVSPropertyOp45
 70
     1
102
RTVSPropertyOp46
 70
     1
102
RTVSPropertyOp47
 70
     1
102
RTVSPropertyOp48
 70
     1
102
RTVSPropertyOp49
 70
     1
102
RTVSPropertyOp50
 70
     1
102
RTVSPropertyOp51
 70
     0
102
RTVSPropertyOp52
 70
     0
102
RTVSPropertyOp53
 70
     1
102
RTVSPropertyOp54
 70
     1
102
RTVSPropertyOp55
 70
     1
102
RTVSPropertyOp56
 70
     1
102
RTVSPropertyOp57
 70
     1
102
RTVSPropertyOp58
 70
     1
102
RTVSPropertyOp59
 70
     1
102
RTVSPropertyOp60
 70
     1
102
RTVSPropertyOp61
 70
     1
102
RTVSPropertyOp62
 70
     1
  0
XRECORD
  5
430
102
{ACAD_REACTORS
330
42F
102
}
330
42F
100
AcDbXrecord
280
     1
102
RTVSPost2010Prop28
280
     0
102
RTVSPost2010PropOp28
 70
     1
102
RTVSPost2010Prop29
280
     1
102
RTVSPost2010PropOp29
 70
     1
102
RTVSPost2010Prop30
280
     1
102
RTVSPost2010PropOp30
 70
     1
102
RTVSPost2010Prop31
280
     0
102
RTVSPost2010PropOp31
 70
     1
102
RTVSPost2010Prop32
280
     0
102
RTVSPost2010PropOp32
 70
     1
102
RTVSPost2010Prop33
280
     0
102
RTVSPost2010PropOp33
 70
     1
102
RTVSPost2010Prop34
280
     0
102
RTVSPost2010PropOp34
 70
     1
102
RTVSPost2010Prop35
280
     0
102
RTVSPost2010PropOp35
 70
     1
102
RTVSPost2010Prop36
280
     0
102
RTVSPost2010PropOp36
 70
     1
102
RTVSPost2010Prop37
 90
       50
102
RTVSPost2010PropOp37
 70
     1
102
RTVSPost2010Prop38
140
0.0
102
RTVSPost2010PropOp38
 70
     1
102
RTVSPost2010Prop39
140
1.0
102
RTVSPost2010PropOp39
 70
     1
102
RTVSPost2010Prop40
 90
        0
102
RTVSPost2010PropOp40
 70
     1
102
RTVSPost2010Prop41ColorIndex
 90
       18
102
RTVSPost2010Prop41ColorRGB
 90
        0
102
RTVSPost2010PropOp41
 70
     1
102
RTVSPost2010Prop42
 90
       50
102
RTVSPost2010PropOp42
 70
     1
102
RTVSPost2010Prop43
 90
        3
102
RTVSPost2010PropOp43
 70
     1
102
RTVSPost2010Prop44ColorIndex
 90
        5
102
RTVSPost2010Prop44ColorRGB
 90
      255
102
RTVSPost2010PropOp44
 70
     1
102
RTVSPost2010Prop45
280
     0
102
RTVSPost2010PropOp45
 70
     1
102
RTVSPost2010Prop46
 90
       50
102
RTVSPost2010PropOp46
 70
     1
102
RTVSPost2010Prop47
 90
       50
102
RTVSPost2010PropOp47
 70
     1
102
RTVSPost2010Prop48
 90
       50
102
RTVSPost2010PropOp48
 70
     1
102
RTVSPost2010Prop49
280
     0
102
RTVSPost2010PropOp49
 70
     1
102
RTVSPost2010Prop50
 90
       50
102
RTVSPost2010PropOp50
 70
     1
102
RTVSPost2010Prop51ColorIndex
 90
      256
102
RTVSPost2010Prop51ColorRGB
 90
-16777216
102
RTVSPost2010PropOp51
 70
     0
102
RTVSPost2010Prop52
140
1.0
102
RTVSPost2010PropOp52
 70
     0
102
RTVSPost2010Prop53
 90
        2
102
RTVSPost2010PropOp53
 70
     1
102
RTVSPost2010Prop54
  1
strokes_ogs.tif
102
RTVSPost2010PropOp54
 70
     1
102
RTVSPost2010Prop55
280
     0
102
RTVSPost2010PropOp55
 70
     1
102
RTVSPost2010Prop56
140
1.0
102
RTVSPost2010PropOp56
 70
     1
102
RTVSPost2010Prop57
140
1.0
102
RTVSPost2010PropOp57
 70
     1
102
RTVSPropertyOp0
 70
     1
102
RTVSPropertyOp1
 70
     1
102
RTVSPropertyOp2
 70
     1
102
RTVSPropertyOp3
 70
     1
102
RTVSPropertyOp4
 70
     1
102
RTVSPropertyOp5
 70
     1
102
RTVSPropertyOp6
 70
     1
102
RTVSPropertyOp7
 70
     1
102
RTVSPropertyOp8
 70
     1
102
RTVSPropertyOp9
 70
     1
102
RTVSPropertyOp10
 70
     1
102
RTVSPropertyOp11
 70
     1
102
RTVSPropertyOp12
 70
     1
102
RTVSPropertyOp13
 70
     1
102
RTVSPropertyOp14
 70
     1
102
RTVSPropertyOp15
 70
     1
102
RTVSPropertyOp16
 70
     1
102
RTVSPropertyOp17
 70
     1
102
RTVSPropertyOp18
 70
     1
102
RTVSPropertyOp19
 70
     1
102
RTVSPropertyOp20
 70
     1
102
RTVSPropertyOp21
 70
     1
102
RTVSPropertyOp22
 70
     1
102
RTVSPropertyOp23
 70
     1
102
RTVSPropertyOp24
 70
     1
102
RTVSPropertyOp25
 70
     1
102
RTVSPropertyOp26
 70
     1
102
RTVSPropertyOp27
 70
     1
102
RTVSPropertyOp28
 70
     1
102
RTVSPropertyOp29
 70
     1
102
RTVSPropertyOp30
 70
     1
102
RTVSPropertyOp31
 70
     1
102
RTVSPropertyOp32
 70
     1
102
RTVSPropertyOp33
 70
     1
102
RTVSPropertyOp34
 70
     1
102
RTVSPropertyOp35
 70
     1
102
RTVSPropertyOp36
 70
     1
102
RTVSPropertyOp37
 70
     1
102
RTVSPropertyOp38
 70
     1
102
RTVSPropertyOp39
 70
     1
102
RTVSPropertyOp40
 70
     1
102
RTVSPropertyOp41
 70
     1
102
RTVSPropertyOp42
 70
     1
102
RTVSPropertyOp43
 70
     1
102
RTVSPropertyOp44
 70
     1
102
RTVSPropertyOp45
 70
     1
102
RTVSPropertyOp46
 70
     1
102
RTVSPropertyOp47
 70
     1
102
RTVSPropertyOp48
 70
     1
102
RTVSPropertyOp49
 70
     1
102
RTVSPropertyOp50
 70
     1
102
RTVSPropertyOp51
 70
     0
102
RTVSPropertyOp52
 70
     0
102
RTVSPropertyOp53
 70
     1
102
RTVSPropertyOp54
 70
     1
102
RTVSPropertyOp55
 70
     1
102
RTVSPropertyOp56
 70
     1
102
RTVSPropertyOp57
 70
     1
102
RTVSPropertyOp58
 70
     1
102
RTVSPropertyOp59
 70
     1
102
RTVSPropertyOp60
 70
     1
102
RTVSPropertyOp61
 70
     1
102
RTVSPropertyOp62
 70
     1
  0
XRECORD
  5
434
102
{ACAD_REACTORS
330
433
102
}
330
433
100
AcDbXrecord
280
     1
102
RTVSPost2010Prop28
280
     0
102
RTVSPost2010PropOp28
 70
     1
102
RTVSPost2010Prop29
280
     1
102
RTVSPost2010PropOp29
 70
     1
102
RTVSPost2010Prop30
280
     1
102
RTVSPost2010PropOp30
 70
     1
102
RTVSPost2010Prop31
280
     0
102
RTVSPost2010PropOp31
 70
     1
102
RTVSPost2010Prop32
280
     0
102
RTVSPost2010PropOp32
 70
     1
102
RTVSPost2010Prop33
280
     0
102
RTVSPost2010PropOp33
 70
     1
102
RTVSPost2010Prop34
280
     0
102
RTVSPost2010PropOp34
 70
     1
102
RTVSPost2010Prop35
280
     0
102
RTVSPost2010PropOp35
 70
     1
102
RTVSPost2010Prop36
280
     0
102
RTVSPost2010PropOp36
 70
     1
102
RTVSPost2010Prop37
 90
       50
102
RTVSPost2010PropOp37
 70
     1
102
RTVSPost2010Prop38
140
0.0
102
RTVSPost2010PropOp38
 70
     1
102
RTVSPost2010Prop39
140
1.0
102
RTVSPost2010PropOp39
 70
     1
102
RTVSPost2010Prop40
 90
        0
102
RTVSPost2010PropOp40
 70
     1
102
RTVSPost2010Prop41ColorIndex
 90
       18
102
RTVSPost2010Prop41ColorRGB
 90
        0
102
RTVSPost2010PropOp41
 70
     1
102
RTVSPost2010Prop42
 90
       50
102
RTVSPost2010PropOp42
 70
     1
102
RTVSPost2010Prop43
 90
        3
102
RTVSPost2010PropOp43
 70
     1
102
RTVSPost2010Prop44ColorIndex
 90
        5
102
RTVSPost2010Prop44ColorRGB
 90
      255
102
RTVSPost2010PropOp44
 70
     1
102
RTVSPost2010Prop45
280
     0
102
RTVSPost2010PropOp45
 70
     1
102
RTVSPost2010Prop46
 90
       50
102
RTVSPost2010PropOp46
 70
     1
102
RTVSPost2010Prop47
 90
       50
102
RTVSPost2010PropOp47
 70
     1
102
RTVSPost2010Prop48
 90
       50
102
RTVSPost2010PropOp48
 70
     1
102
RTVSPost2010Prop49
280
     0
102
RTVSPost2010PropOp49
 70
     1
102
RTVSPost2010Prop50
 90
       50
102
RTVSPost2010PropOp50
 70
     1
102
RTVSPost2010Prop51ColorIndex
 90
      256
102
RTVSPost2010Prop51ColorRGB
 90
-16777216
102
RTVSPost2010PropOp51
 70
     0
102
RTVSPost2010Prop52
140
1.0
102
RTVSPost2010PropOp52
 70
     0
102
RTVSPost2010Prop53
 90
        2
102
RTVSPost2010PropOp53
 70
     1
102
RTVSPost2010Prop54
  1
strokes_ogs.tif
102
RTVSPost2010PropOp54
 70
     1
102
RTVSPost2010Prop55
280
     0
102
RTVSPost2010PropOp55
 70
     1
102
RTVSPost2010Prop56
140
1.0
102
RTVSPost2010PropOp56
 70
     1
102
RTVSPost2010Prop57
140
1.0
102
RTVSPost2010PropOp57
 70
     1
102
RTVSPropertyOp0
 70
     1
102
RTVSPropertyOp1
 70
     1
102
RTVSPropertyOp2
 70
     1
102
RTVSPropertyOp3
 70
     1
102
RTVSPropertyOp4
 70
     1
102
RTVSPropertyOp5
 70
     1
102
RTVSPropertyOp6
 70
     1
102
RTVSPropertyOp7
 70
     1
102
RTVSPropertyOp8
 70
     1
102
RTVSPropertyOp9
 70
     1
102
RTVSPropertyOp10
 70
     1
102
RTVSPropertyOp11
 70
     1
102
RTVSPropertyOp12
 70
     1
102
RTVSPropertyOp13
 70
     1
102
RTVSPropertyOp14
 70
     1
102
RTVSPropertyOp15
 70
     1
102
RTVSPropertyOp16
 70
     1
102
RTVSPropertyOp17
 70
     1
102
RTVSPropertyOp18
 70
     1
102
RTVSPropertyOp19
 70
     1
102
RTVSPropertyOp20
 70
     1
102
RTVSPropertyOp21
 70
     1
102
RTVSPropertyOp22
 70
     1
102
RTVSPropertyOp23
 70
     1
102
RTVSPropertyOp24
 70
     1
102
RTVSPropertyOp25
 70
     1
102
RTVSPropertyOp26
 70
     1
102
RTVSPropertyOp27
 70
     1
102
RTVSPropertyOp28
 70
     1
102
RTVSPropertyOp29
 70
     1
102
RTVSPropertyOp30
 70
     1
102
RTVSPropertyOp31
 70
     1
102
RTVSPropertyOp32
 70
     1
102
RTVSPropertyOp33
 70
     1
102
RTVSPropertyOp34
 70
     1
102
RTVSPropertyOp35
 70
     1
102
RTVSPropertyOp36
 70
     1
102
RTVSPropertyOp37
 70
     1
102
RTVSPropertyOp38
 70
     1
102
RTVSPropertyOp39
 70
     1
102
RTVSPropertyOp40
 70
     1
102
RTVSPropertyOp41
 70
     1
102
RTVSPropertyOp42
 70
     1
102
RTVSPropertyOp43
 70
     1
102
RTVSPropertyOp44
 70
     1
102
RTVSPropertyOp45
 70
     1
102
RTVSPropertyOp46
 70
     1
102
RTVSPropertyOp47
 70
     1
102
RTVSPropertyOp48
 70
     1
102
RTVSPropertyOp49
 70
     1
102
RTVSPropertyOp50
 70
     1
102
RTVSPropertyOp51
 70
     0
102
RTVSPropertyOp52
 70
     0
102
RTVSPropertyOp53
 70
     1
102
RTVSPropertyOp54
 70
     1
102
RTVSPropertyOp55
 70
     1
102
RTVSPropertyOp56
 70
     1
102
RTVSPropertyOp57
 70
     1
102
RTVSPropertyOp58
 70
     1
102
RTVSPropertyOp59
 70
     1
102
RTVSPropertyOp60
 70
     1
102
RTVSPropertyOp61
 70
     1
102
RTVSPropertyOp62
 70
     1
  0
XRECORD
  5
44E
102
{ACAD_REACTORS
330
44D
102
}
330
44D
100
AcDbXrecord
280
     1
102
RTVSPost2010Prop28
280
     0
102
RTVSPost2010PropOp28
 70
     1
102
RTVSPost2010Prop29
280
     1
102
RTVSPost2010PropOp29
 70
     1
102
RTVSPost2010Prop30
280
     1
102
RTVSPost2010PropOp30
 70
     1
102
RTVSPost2010Prop31
280
     0
102
RTVSPost2010PropOp31
 70
     1
102
RTVSPost2010Prop32
280
     0
102
RTVSPost2010PropOp32
 70
     1
102
RTVSPost2010Prop33
280
     0
102
RTVSPost2010PropOp33
 70
     1
102
RTVSPost2010Prop34
280
     0
102
RTVSPost2010PropOp34
 70
     1
102
RTVSPost2010Prop35
280
     0
102
RTVSPost2010PropOp35
 70
     1
102
RTVSPost2010Prop36
280
     0
102
RTVSPost2010PropOp36
 70
     1
102
RTVSPost2010Prop37
 90
       50
102
RTVSPost2010PropOp37
 70
     0
102
RTVSPost2010Prop38
140
0.0
102
RTVSPost2010PropOp38
 70
     0
102
RTVSPost2010Prop39
140
1.0
102
RTVSPost2010PropOp39
 70
     0
102
RTVSPost2010Prop40
 90
        0
102
RTVSPost2010PropOp40
 70
     0
102
RTVSPost2010Prop41ColorIndex
 90
       18
102
RTVSPost2010Prop41ColorRGB
 90
        0
102
RTVSPost2010PropOp41
 70
     0
102
RTVSPost2010Prop42
 90
       50
102
RTVSPost2010PropOp42
 70
     0
102
RTVSPost2010Prop43
 90
        3
102
RTVSPost2010PropOp43
 70
     0
102
RTVSPost2010Prop44ColorIndex
 90
        5
102
RTVSPost2010Prop44ColorRGB
 90
      255
102
RTVSPost2010PropOp44
 70
     0
102
RTVSPost2010Prop45
280
     0
102
RTVSPost2010PropOp45
 70
     1
102
RTVSPost2010Prop46
 90
       50
102
RTVSPost2010PropOp46
 70
     0
102
RTVSPost2010Prop47
 90
       50
102
RTVSPost2010PropOp47
 70
     0
102
RTVSPost2010Prop48
 90
       50
102
RTVSPost2010PropOp48
 70
     0
102
RTVSPost2010Prop49
280
     0
102
RTVSPost2010PropOp49
 70
     1
102
RTVSPost2010Prop50
 90
       50
102
RTVSPost2010PropOp50
 70
     0
102
RTVSPost2010Prop51ColorIndex
 90
      256
102
RTVSPost2010Prop51ColorRGB
 90
-16777216
102
RTVSPost2010PropOp51
 70
     0
102
RTVSPost2010Prop52
140
1.0
102
RTVSPost2010PropOp52
 70
     0
102
RTVSPost2010Prop53
 90
        2
102
RTVSPost2010PropOp53
 70
     0
102
RTVSPost2010Prop54
  1
strokes_ogs.tif
102
RTVSPost2010PropOp54
 70
     0
102
RTVSPost2010Prop55
280
     0
102
RTVSPost2010PropOp55
 70
     1
102
RTVSPost2010Prop56
140
1.0
102
RTVSPost2010PropOp56
 70
     0
102
RTVSPost2010Prop57
140
1.0
102
RTVSPost2010PropOp57
 70
     0
102
RTVSPropertyOp0
 70
     0
102
RTVSPropertyOp1
 70
     0
102
RTVSPropertyOp2
 70
     0
102
RTVSPropertyOp3
 70
     0
102
RTVSPropertyOp4
 70
     0
102
RTVSPropertyOp5
 70
     0
102
RTVSPropertyOp6
 70
     0
102
RTVSPropertyOp7
 70
     0
102
RTVSPropertyOp8
 70
     0
102
RTVSPropertyOp9
 70
     0
102
RTVSPropertyOp10
 70
     0
102
RTVSPropertyOp11
 70
     0
102
RTVSPropertyOp12
 70
     0
102
RTVSPropertyOp13
 70
     0
102
RTVSPropertyOp14
 70
     2
102
RTVSPropertyOp15
 70
     0
102
RTVSPropertyOp16
 70
     0
102
RTVSPropertyOp17
 70
     0
102
RTVSPropertyOp18
 70
     0
102
RTVSPropertyOp19
 70
     0
102
RTVSPropertyOp20
 70
     0
102
RTVSPropertyOp21
 70
     0
102
RTVSPropertyOp22
 70
     0
102
RTVSPropertyOp23
 70
     0
102
RTVSPropertyOp24
 70
     0
102
RTVSPropertyOp25
 70
     0
102
RTVSPropertyOp26
 70
     0
102
RTVSPropertyOp27
 70
     0
102
RTVSPropertyOp28
 70
     1
102
RTVSPropertyOp29
 70
     1
102
RTVSPropertyOp30
 70
     1
102
RTVSPropertyOp31
 70
     1
102
RTVSPropertyOp32
 70
     1
102
RTVSPropertyOp33
 70
     1
102
RTVSPropertyOp34
 70
     1
102
RTVSPropertyOp35
 70
     1
102
RTVSPropertyOp36
 70
     1
102
RTVSPropertyOp37
 70
     0
102
RTVSPropertyOp38
 70
     0
102
RTVSPropertyOp39
 70
     0
102
RTVSPropertyOp40
 70
     0
102
RTVSPropertyOp41
 70
     0
102
RTVSPropertyOp42
 70
     0
102
RTVSPropertyOp43
 70
     0
102
RTVSPropertyOp44
 70
     0
102
RTVSPropertyOp45
 70
     1
102
RTVSPropertyOp46
 70
     0
102
RTVSPropertyOp47
 70
     0
102
RTVSPropertyOp48
 70
     0
102
RTVSPropertyOp49
 70
     1
102
RTVSPropertyOp50
 70
     0
102
RTVSPropertyOp51
 70
     0
102
RTVSPropertyOp52
 70
     0
102
RTVSPropertyOp53
 70
     0
102
RTVSPropertyOp54
 70
     0
102
RTVSPropertyOp55
 70
     1
102
RTVSPropertyOp56
 70
     0
102
RTVSPropertyOp57
 70
     0
102
RTVSPropertyOp58
 70
     0
102
RTVSPropertyOp59
 70
     0
102
RTVSPropertyOp60
 70
     0
102
RTVSPropertyOp61
 70
     0
102
RTVSPropertyOp62
 70
     0
  0
XRECORD
  5
43C
102
{ACAD_REACTORS
330
43B
102
}
330
43B
100
AcDbXrecord
280
     1
102
RTVSPost2010Prop28
280
     0
102
RTVSPost2010PropOp28
 70
     1
102
RTVSPost2010Prop29
280
     1
102
RTVSPost2010PropOp29
 70
     1
102
RTVSPost2010Prop30
280
     1
102
RTVSPost2010PropOp30
 70
     1
102
RTVSPost2010Prop31
280
     0
102
RTVSPost2010PropOp31
 70
     1
102
RTVSPost2010Prop32
280
     0
102
RTVSPost2010PropOp32
 70
     1
102
RTVSPost2010Prop33
280
     0
102
RTVSPost2010PropOp33
 70
     1
102
RTVSPost2010Prop34
280
     0
102
RTVSPost2010PropOp34
 70
     1
102
RTVSPost2010Prop35
280
     0
102
RTVSPost2010PropOp35
 70
     1
102
RTVSPost2010Prop36
280
     0
102
RTVSPost2010PropOp36
 70
     1
102
RTVSPost2010Prop37
 90
       50
102
RTVSPost2010PropOp37
 70
     1
102
RTVSPost2010Prop38
140
0.0
102
RTVSPost2010PropOp38
 70
     1
102
RTVSPost2010Prop39
140
1.0
102
RTVSPost2010PropOp39
 70
     1
102
RTVSPost2010Prop40
 90
        0
102
RTVSPost2010PropOp40
 70
     1
102
RTVSPost2010Prop41ColorIndex
 90
       18
102
RTVSPost2010Prop41ColorRGB
 90
        0
102
RTVSPost2010PropOp41
 70
     1
102
RTVSPost2010Prop42
 90
       50
102
RTVSPost2010PropOp42
 70
     1
102
RTVSPost2010Prop43
 90
        3
102
RTVSPost2010PropOp43
 70
     1
102
RTVSPost2010Prop44ColorIndex
 90
        5
102
RTVSPost2010Prop44ColorRGB
 90
      255
102
RTVSPost2010PropOp44
 70
     1
102
RTVSPost2010Prop45
280
     0
102
RTVSPost2010PropOp45
 70
     1
102
RTVSPost2010Prop46
 90
       50
102
RTVSPost2010PropOp46
 70
     1
102
RTVSPost2010Prop47
 90
       50
102
RTVSPost2010PropOp47
 70
     1
102
RTVSPost2010Prop48
 90
       50
102
RTVSPost2010PropOp48
 70
     1
102
RTVSPost2010Prop49
280
     0
102
RTVSPost2010PropOp49
 70
     1
102
RTVSPost2010Prop50
 90
       50
102
RTVSPost2010PropOp50
 70
     1
102
RTVSPost2010Prop51ColorIndex
 90
      256
102
RTVSPost2010Prop51ColorRGB
 90
-16777216
102
RTVSPost2010PropOp51
 70
     0
102
RTVSPost2010Prop52
140
1.0
102
RTVSPost2010PropOp52
 70
     0
102
RTVSPost2010Prop53
 90
        2
102
RTVSPost2010PropOp53
 70
     1
102
RTVSPost2010Prop54
  1
strokes_ogs.tif
102
RTVSPost2010PropOp54
 70
     1
102
RTVSPost2010Prop55
280
     0
102
RTVSPost2010PropOp55
 70
     1
102
RTVSPost2010Prop56
140
1.0
102
RTVSPost2010PropOp56
 70
     1
102
RTVSPost2010Prop57
140
1.0
102
RTVSPost2010PropOp57
 70
     1
102
RTVSPropertyOp0
 70
     1
102
RTVSPropertyOp1
 70
     1
102
RTVSPropertyOp2
 70
     1
102
RTVSPropertyOp3
 70
     1
102
RTVSPropertyOp4
 70
     1
102
RTVSPropertyOp5
 70
     1
102
RTVSPropertyOp6
 70
     1
102
RTVSPropertyOp7
 70
     1
102
RTVSPropertyOp8
 70
     1
102
RTVSPropertyOp9
 70
     1
102
RTVSPropertyOp10
 70
     1
102
RTVSPropertyOp11
 70
     1
102
RTVSPropertyOp12
 70
     1
102
RTVSPropertyOp13
 70
     1
102
RTVSPropertyOp14
 70
     1
102
RTVSPropertyOp15
 70
     1
102
RTVSPropertyOp16
 70
     1
102
RTVSPropertyOp17
 70
     1
102
RTVSPropertyOp18
 70
     1
102
RTVSPropertyOp19
 70
     1
102
RTVSPropertyOp20
 70
     1
102
RTVSPropertyOp21
 70
     1
102
RTVSPropertyOp22
 70
     1
102
RTVSPropertyOp23
 70
     1
102
RTVSPropertyOp24
 70
     1
102
RTVSPropertyOp25
 70
     1
102
RTVSPropertyOp26
 70
     1
102
RTVSPropertyOp27
 70
     1
102
RTVSPropertyOp28
 70
     1
102
RTVSPropertyOp29
 70
     1
102
RTVSPropertyOp30
 70
     1
102
RTVSPropertyOp31
 70
     1
102
RTVSPropertyOp32
 70
     1
102
RTVSPropertyOp33
 70
     1
102
RTVSPropertyOp34
 70
     1
102
RTVSPropertyOp35
 70
     1
102
RTVSPropertyOp36
 70
     1
102
RTVSPropertyOp37
 70
     1
102
RTVSPropertyOp38
 70
     1
102
RTVSPropertyOp39
 70
     1
102
RTVSPropertyOp40
 70
     1
102
RTVSPropertyOp41
 70
     1
102
RTVSPropertyOp42
 70
     1
102
RTVSPropertyOp43
 70
     1
102
RTVSPropertyOp44
 70
     1
102
RTVSPropertyOp45
 70
     1
102
RTVSPropertyOp46
 70
     1
102
RTVSPropertyOp47
 70
     1
102
RTVSPropertyOp48
 70
     1
102
RTVSPropertyOp49
 70
     1
102
RTVSPropertyOp50
 70
     1
102
RTVSPropertyOp51
 70
     0
102
RTVSPropertyOp52
 70
     0
102
RTVSPropertyOp53
 70
     1
102
RTVSPropertyOp54
 70
     1
102
RTVSPropertyOp55
 70
     1
102
RTVSPropertyOp56
 70
     1
102
RTVSPropertyOp57
 70
     1
102
RTVSPropertyOp58
 70
     1
102
RTVSPropertyOp59
 70
     1
102
RTVSPropertyOp60
 70
     1
102
RTVSPropertyOp61
 70
     1
102
RTVSPropertyOp62
 70
     1
  0
XRECORD
  5
420
102
{ACAD_REACTORS
330
41F
102
}
330
41F
100
AcDbXrecord
280
     1
102
RTVSPost2010Prop28
280
     0
102
RTVSPost2010PropOp28
 70
     1
102
RTVSPost2010Prop29
280
     1
102
RTVSPost2010PropOp29
 70
     1
102
RTVSPost2010Prop30
280
     1
102
RTVSPost2010PropOp30
 70
     1
102
RTVSPost2010Prop31
280
     0
102
RTVSPost2010PropOp31
 70
     1
102
RTVSPost2010Prop32
280
     0
102
RTVSPost2010PropOp32
 70
     1
102
RTVSPost2010Prop33
280
     0
102
RTVSPost2010PropOp33
 70
     1
102
RTVSPost2010Prop34
280
     0
102
RTVSPost2010PropOp34
 70
     1
102
RTVSPost2010Prop35
280
     0
102
RTVSPost2010PropOp35
 70
     1
102
RTVSPost2010Prop36
280
     0
102
RTVSPost2010PropOp36
 70
     1
102
RTVSPost2010Prop37
 90
       50
102
RTVSPost2010PropOp37
 70
     1
102
RTVSPost2010Prop38
140
0.0
102
RTVSPost2010PropOp38
 70
     1
102
RTVSPost2010Prop39
140
1.0
102
RTVSPost2010PropOp39
 70
     1
102
RTVSPost2010Prop40
 90
        0
102
RTVSPost2010PropOp40
 70
     1
102
RTVSPost2010Prop41ColorIndex
 90
       18
102
RTVSPost2010Prop41ColorRGB
 90
        0
102
RTVSPost2010PropOp41
 70
     1
102
RTVSPost2010Prop42
 90
       50
102
RTVSPost2010PropOp42
 70
     1
102
RTVSPost2010Prop43
 90
        3
102
RTVSPost2010PropOp43
 70
     1
102
RTVSPost2010Prop44ColorIndex
 90
        5
102
RTVSPost2010Prop44ColorRGB
 90
      255
102
RTVSPost2010PropOp44
 70
     1
102
RTVSPost2010Prop45
280
     0
102
RTVSPost2010PropOp45
 70
     1
102
RTVSPost2010Prop46
 90
       50
102
RTVSPost2010PropOp46
 70
     1
102
RTVSPost2010Prop47
 90
       50
102
RTVSPost2010PropOp47
 70
     1
102
RTVSPost2010Prop48
 90
       50
102
RTVSPost2010PropOp48
 70
     1
102
RTVSPost2010Prop49
280
     0
102
RTVSPost2010PropOp49
 70
     1
102
RTVSPost2010Prop50
 90
       50
102
RTVSPost2010PropOp50
 70
     1
102
RTVSPost2010Prop51ColorIndex
 90
      256
102
RTVSPost2010Prop51ColorRGB
 90
-16777216
102
RTVSPost2010PropOp51
 70
     0
102
RTVSPost2010Prop52
140
1.0
102
RTVSPost2010PropOp52
 70
     0
102
RTVSPost2010Prop53
 90
        2
102
RTVSPost2010PropOp53
 70
     1
102
RTVSPost2010Prop54
  1
strokes_ogs.tif
102
RTVSPost2010PropOp54
 70
     1
102
RTVSPost2010Prop55
280
     0
102
RTVSPost2010PropOp55
 70
     1
102
RTVSPost2010Prop56
140
1.0
102
RTVSPost2010PropOp56
 70
     1
102
RTVSPost2010Prop57
140
1.0
102
RTVSPost2010PropOp57
 70
     1
102
RTVSPropertyOp0
 70
     1
102
RTVSPropertyOp1
 70
     1
102
RTVSPropertyOp2
 70
     1
102
RTVSPropertyOp3
 70
     1
102
RTVSPropertyOp4
 70
     1
102
RTVSPropertyOp5
 70
     1
102
RTVSPropertyOp6
 70
     1
102
RTVSPropertyOp7
 70
     1
102
RTVSPropertyOp8
 70
     1
102
RTVSPropertyOp9
 70
     1
102
RTVSPropertyOp10
 70
     1
102
RTVSPropertyOp11
 70
     1
102
RTVSPropertyOp12
 70
     1
102
RTVSPropertyOp13
 70
     1
102
RTVSPropertyOp14
 70
     1
102
RTVSPropertyOp15
 70
     1
102
RTVSPropertyOp16
 70
     1
102
RTVSPropertyOp17
 70
     1
102
RTVSPropertyOp18
 70
     1
102
RTVSPropertyOp19
 70
     1
102
RTVSPropertyOp20
 70
     1
102
RTVSPropertyOp21
 70
     1
102
RTVSPropertyOp22
 70
     1
102
RTVSPropertyOp23
 70
     1
102
RTVSPropertyOp24
 70
     1
102
RTVSPropertyOp25
 70
     1
102
RTVSPropertyOp26
 70
     1
102
RTVSPropertyOp27
 70
     1
102
RTVSPropertyOp28
 70
     1
102
RTVSPropertyOp29
 70
     1
102
RTVSPropertyOp30
 70
     1
102
RTVSPropertyOp31
 70
     1
102
RTVSPropertyOp32
 70
     1
102
RTVSPropertyOp33
 70
     1
102
RTVSPropertyOp34
 70
     1
102
RTVSPropertyOp35
 70
     1
102
RTVSPropertyOp36
 70
     1
102
RTVSPropertyOp37
 70
     1
102
RTVSPropertyOp38
 70
     1
102
RTVSPropertyOp39
 70
     1
102
RTVSPropertyOp40
 70
     1
102
RTVSPropertyOp41
 70
     1
102
RTVSPropertyOp42
 70
     1
102
RTVSPropertyOp43
 70
     1
102
RTVSPropertyOp44
 70
     1
102
RTVSPropertyOp45
 70
     1
102
RTVSPropertyOp46
 70
     1
102
RTVSPropertyOp47
 70
     1
102
RTVSPropertyOp48
 70
     1
102
RTVSPropertyOp49
 70
     1
102
RTVSPropertyOp50
 70
     1
102
RTVSPropertyOp51
 70
     0
102
RTVSPropertyOp52
 70
     0
102
RTVSPropertyOp53
 70
     1
102
RTVSPropertyOp54
 70
     1
102
RTVSPropertyOp55
 70
     1
102
RTVSPropertyOp56
 70
     1
102
RTVSPropertyOp57
 70
     1
102
RTVSPropertyOp58
 70
     1
102
RTVSPropertyOp59
 70
     1
102
RTVSPropertyOp60
 70
     1
102
RTVSPropertyOp61
 70
     1
102
RTVSPropertyOp62
 70
     1
  0
XRECORD
  5
422
102
{ACAD_REACTORS
330
421
102
}
330
421
100
AcDbXrecord
280
     1
102
RTVSPost2010Prop28
280
     0
102
RTVSPost2010PropOp28
 70
     1
102
RTVSPost2010Prop29
280
     1
102
RTVSPost2010PropOp29
 70
     1
102
RTVSPost2010Prop30
280
     1
102
RTVSPost2010PropOp30
 70
     1
102
RTVSPost2010Prop31
280
     0
102
RTVSPost2010PropOp31
 70
     1
102
RTVSPost2010Prop32
280
     0
102
RTVSPost2010PropOp32
 70
     1
102
RTVSPost2010Prop33
280
     0
102
RTVSPost2010PropOp33
 70
     1
102
RTVSPost2010Prop34
280
     0
102
RTVSPost2010PropOp34
 70
     1
102
RTVSPost2010Prop35
280
     0
102
RTVSPost2010PropOp35
 70
     1
102
RTVSPost2010Prop36
280
     0
102
RTVSPost2010PropOp36
 70
     1
102
RTVSPost2010Prop37
 90
       50
102
RTVSPost2010PropOp37
 70
     1
102
RTVSPost2010Prop38
140
0.0
102
RTVSPost2010PropOp38
 70
     1
102
RTVSPost2010Prop39
140
1.0
102
RTVSPost2010PropOp39
 70
     1
102
RTVSPost2010Prop40
 90
        0
102
RTVSPost2010PropOp40
 70
     1
102
RTVSPost2010Prop41ColorIndex
 90
       18
102
RTVSPost2010Prop41ColorRGB
 90
        0
102
RTVSPost2010PropOp41
 70
     1
102
RTVSPost2010Prop42
 90
       50
102
RTVSPost2010PropOp42
 70
     1
102
RTVSPost2010Prop43
 90
        3
102
RTVSPost2010PropOp43
 70
     1
102
RTVSPost2010Prop44ColorIndex
 90
        5
102
RTVSPost2010Prop44ColorRGB
 90
      255
102
RTVSPost2010PropOp44
 70
     1
102
RTVSPost2010Prop45
280
     0
102
RTVSPost2010PropOp45
 70
     1
102
RTVSPost2010Prop46
 90
       50
102
RTVSPost2010PropOp46
 70
     1
102
RTVSPost2010Prop47
 90
       50
102
RTVSPost2010PropOp47
 70
     1
102
RTVSPost2010Prop48
 90
       50
102
RTVSPost2010PropOp48
 70
     1
102
RTVSPost2010Prop49
280
     0
102
RTVSPost2010PropOp49
 70
     1
102
RTVSPost2010Prop50
 90
       50
102
RTVSPost2010PropOp50
 70
     1
102
RTVSPost2010Prop51ColorIndex
 90
      256
102
RTVSPost2010Prop51ColorRGB
 90
-16777216
102
RTVSPost2010PropOp51
 70
     0
102
RTVSPost2010Prop52
140
1.0
102
RTVSPost2010PropOp52
 70
     0
102
RTVSPost2010Prop53
 90
        2
102
RTVSPost2010PropOp53
 70
     1
102
RTVSPost2010Prop54
  1
strokes_ogs.tif
102
RTVSPost2010PropOp54
 70
     1
102
RTVSPost2010Prop55
280
     0
102
RTVSPost2010PropOp55
 70
     1
102
RTVSPost2010Prop56
140
1.0
102
RTVSPost2010PropOp56
 70
     1
102
RTVSPost2010Prop57
140
1.0
102
RTVSPost2010PropOp57
 70
     1
102
RTVSPropertyOp0
 70
     1
102
RTVSPropertyOp1
 70
     1
102
RTVSPropertyOp2
 70
     1
102
RTVSPropertyOp3
 70
     1
102
RTVSPropertyOp4
 70
     1
102
RTVSPropertyOp5
 70
     1
102
RTVSPropertyOp6
 70
     1
102
RTVSPropertyOp7
 70
     1
102
RTVSPropertyOp8
 70
     1
102
RTVSPropertyOp9
 70
     1
102
RTVSPropertyOp10
 70
     1
102
RTVSPropertyOp11
 70
     1
102
RTVSPropertyOp12
 70
     1
102
RTVSPropertyOp13
 70
     1
102
RTVSPropertyOp14
 70
     1
102
RTVSPropertyOp15
 70
     1
102
RTVSPropertyOp16
 70
     1
102
RTVSPropertyOp17
 70
     1
102
RTVSPropertyOp18
 70
     1
102
RTVSPropertyOp19
 70
     1
102
RTVSPropertyOp20
 70
     1
102
RTVSPropertyOp21
 70
     1
102
RTVSPropertyOp22
 70
     1
102
RTVSPropertyOp23
 70
     1
102
RTVSPropertyOp24
 70
     1
102
RTVSPropertyOp25
 70
     1
102
RTVSPropertyOp26
 70
     1
102
RTVSPropertyOp27
 70
     1
102
RTVSPropertyOp28
 70
     1
102
RTVSPropertyOp29
 70
     1
102
RTVSPropertyOp30
 70
     1
102
RTVSPropertyOp31
 70
     1
102
RTVSPropertyOp32
 70
     1
102
RTVSPropertyOp33
 70
     1
102
RTVSPropertyOp34
 70
     1
102
RTVSPropertyOp35
 70
     1
102
RTVSPropertyOp36
 70
     1
102
RTVSPropertyOp37
 70
     1
102
RTVSPropertyOp38
 70
     1
102
RTVSPropertyOp39
 70
     1
102
RTVSPropertyOp40
 70
     1
102
RTVSPropertyOp41
 70
     1
102
RTVSPropertyOp42
 70
     1
102
RTVSPropertyOp43
 70
     1
102
RTVSPropertyOp44
 70
     1
102
RTVSPropertyOp45
 70
     1
102
RTVSPropertyOp46
 70
     1
102
RTVSPropertyOp47
 70
     1
102
RTVSPropertyOp48
 70
     1
102
RTVSPropertyOp49
 70
     1
102
RTVSPropertyOp50
 70
     1
102
RTVSPropertyOp51
 70
     0
102
RTVSPropertyOp52
 70
     0
102
RTVSPropertyOp53
 70
     1
102
RTVSPropertyOp54
 70
     1
102
RTVSPropertyOp55
 70
     1
102
RTVSPropertyOp56
 70
     1
102
RTVSPropertyOp57
 70
     1
102
RTVSPropertyOp58
 70
     1
102
RTVSPropertyOp59
 70
     1
102
RTVSPropertyOp60
 70
     1
102
RTVSPropertyOp61
 70
     1
102
RTVSPropertyOp62
 70
     1
  0
XRECORD
  5
424
102
{ACAD_REACTORS
330
423
102
}
330
423
100
AcDbXrecord
280
     1
102
RTVSPost2010Prop28
280
     0
102
RTVSPost2010PropOp28
 70
     1
102
RTVSPost2010Prop29
280
     1
102
RTVSPost2010PropOp29
 70
     1
102
RTVSPost2010Prop30
280
     1
102
RTVSPost2010PropOp30
 70
     1
102
RTVSPost2010Prop31
280
     0
102
RTVSPost2010PropOp31
 70
     1
102
RTVSPost2010Prop32
280
     0
102
RTVSPost2010PropOp32
 70
     1
102
RTVSPost2010Prop33
280
     0
102
RTVSPost2010PropOp33
 70
     1
102
RTVSPost2010Prop34
280
     0
102
RTVSPost2010PropOp34
 70
     1
102
RTVSPost2010Prop35
280
     0
102
RTVSPost2010PropOp35
 70
     1
102
RTVSPost2010Prop36
280
     0
102
RTVSPost2010PropOp36
 70
     1
102
RTVSPost2010Prop37
 90
       50
102
RTVSPost2010PropOp37
 70
     1
102
RTVSPost2010Prop38
140
0.0
102
RTVSPost2010PropOp38
 70
     1
102
RTVSPost2010Prop39
140
1.0
102
RTVSPost2010PropOp39
 70
     1
102
RTVSPost2010Prop40
 90
        0
102
RTVSPost2010PropOp40
 70
     1
102
RTVSPost2010Prop41ColorIndex
 90
       18
102
RTVSPost2010Prop41ColorRGB
 90
        0
102
RTVSPost2010PropOp41
 70
     1
102
RTVSPost2010Prop42
 90
       50
102
RTVSPost2010PropOp42
 70
     1
102
RTVSPost2010Prop43
 90
        3
102
RTVSPost2010PropOp43
 70
     1
102
RTVSPost2010Prop44ColorIndex
 90
        5
102
RTVSPost2010Prop44ColorRGB
 90
      255
102
RTVSPost2010PropOp44
 70
     1
102
RTVSPost2010Prop45
280
     0
102
RTVSPost2010PropOp45
 70
     1
102
RTVSPost2010Prop46
 90
       50
102
RTVSPost2010PropOp46
 70
     1
102
RTVSPost2010Prop47
 90
       50
102
RTVSPost2010PropOp47
 70
     1
102
RTVSPost2010Prop48
 90
       50
102
RTVSPost2010PropOp48
 70
     1
102
RTVSPost2010Prop49
280
     0
102
RTVSPost2010PropOp49
 70
     1
102
RTVSPost2010Prop50
 90
       50
102
RTVSPost2010PropOp50
 70
     1
102
RTVSPost2010Prop51ColorIndex
 90
      256
102
RTVSPost2010Prop51ColorRGB
 90
-16777216
102
RTVSPost2010PropOp51
 70
     0
102
RTVSPost2010Prop52
140
1.0
102
RTVSPost2010PropOp52
 70
     0
102
RTVSPost2010Prop53
 90
        2
102
RTVSPost2010PropOp53
 70
     1
102
RTVSPost2010Prop54
  1
strokes_ogs.tif
102
RTVSPost2010PropOp54
 70
     1
102
RTVSPost2010Prop55
280
     0
102
RTVSPost2010PropOp55
 70
     1
102
RTVSPost2010Prop56
140
1.0
102
RTVSPost2010PropOp56
 70
     1
102
RTVSPost2010Prop57
140
1.0
102
RTVSPost2010PropOp57
 70
     1
102
RTVSPropertyOp0
 70
     1
102
RTVSPropertyOp1
 70
     1
102
RTVSPropertyOp2
 70
     1
102
RTVSPropertyOp3
 70
     1
102
RTVSPropertyOp4
 70
     1
102
RTVSPropertyOp5
 70
     1
102
RTVSPropertyOp6
 70
     1
102
RTVSPropertyOp7
 70
     1
102
RTVSPropertyOp8
 70
     1
102
RTVSPropertyOp9
 70
     1
102
RTVSPropertyOp10
 70
     1
102
RTVSPropertyOp11
 70
     1
102
RTVSPropertyOp12
 70
     1
102
RTVSPropertyOp13
 70
     1
102
RTVSPropertyOp14
 70
     1
102
RTVSPropertyOp15
 70
     1
102
RTVSPropertyOp16
 70
     1
102
RTVSPropertyOp17
 70
     1
102
RTVSPropertyOp18
 70
     1
102
RTVSPropertyOp19
 70
     1
102
RTVSPropertyOp20
 70
     1
102
RTVSPropertyOp21
 70
     1
102
RTVSPropertyOp22
 70
     1
102
RTVSPropertyOp23
 70
     1
102
RTVSPropertyOp24
 70
     1
102
RTVSPropertyOp25
 70
     1
102
RTVSPropertyOp26
 70
     1
102
RTVSPropertyOp27
 70
     1
102
RTVSPropertyOp28
 70
     1
102
RTVSPropertyOp29
 70
     1
102
RTVSPropertyOp30
 70
     1
102
RTVSPropertyOp31
 70
     1
102
RTVSPropertyOp32
 70
     1
102
RTVSPropertyOp33
 70
     1
102
RTVSPropertyOp34
 70
     1
102
RTVSPropertyOp35
 70
     1
102
RTVSPropertyOp36
 70
     1
102
RTVSPropertyOp37
 70
     1
102
RTVSPropertyOp38
 70
     1
102
RTVSPropertyOp39
 70
     1
102
RTVSPropertyOp40
 70
     1
102
RTVSPropertyOp41
 70
     1
102
RTVSPropertyOp42
 70
     1
102
RTVSPropertyOp43
 70
     1
102
RTVSPropertyOp44
 70
     1
102
RTVSPropertyOp45
 70
     1
102
RTVSPropertyOp46
 70
     1
102
RTVSPropertyOp47
 70
     1
102
RTVSPropertyOp48
 70
     1
102
RTVSPropertyOp49
 70
     1
102
RTVSPropertyOp50
 70
     1
102
RTVSPropertyOp51
 70
     0
102
RTVSPropertyOp52
 70
     0
102
RTVSPropertyOp53
 70
     1
102
RTVSPropertyOp54
 70
     1
102
RTVSPropertyOp55
 70
     1
102
RTVSPropertyOp56
 70
     1
102
RTVSPropertyOp57
 70
     1
102
RTVSPropertyOp58
 70
     1
102
RTVSPropertyOp59
 70
     1
102
RTVSPropertyOp60
 70
     1
102
RTVSPropertyOp61
 70
     1
102
RTVSPropertyOp62
 70
     1
  0
XRECORD
  5
426
102
{ACAD_REACTORS
330
425
102
}
330
425
100
AcDbXrecord
280
     1
102
RTVSPost2010Prop28
280
     0
102
RTVSPost2010PropOp28
 70
     1
102
RTVSPost2010Prop29
280
     1
102
RTVSPost2010PropOp29
 70
     1
102
RTVSPost2010Prop30
280
     1
102
RTVSPost2010PropOp30
 70
     1
102
RTVSPost2010Prop31
280
     0
102
RTVSPost2010PropOp31
 70
     1
102
RTVSPost2010Prop32
280
     0
102
RTVSPost2010PropOp32
 70
     1
102
RTVSPost2010Prop33
280
     0
102
RTVSPost2010PropOp33
 70
     1
102
RTVSPost2010Prop34
280
     0
102
RTVSPost2010PropOp34
 70
     1
102
RTVSPost2010Prop35
280
     0
102
RTVSPost2010PropOp35
 70
     1
102
RTVSPost2010Prop36
280
     0
102
RTVSPost2010PropOp36
 70
     1
102
RTVSPost2010Prop37
 90
       50
102
RTVSPost2010PropOp37
 70
     1
102
RTVSPost2010Prop38
140
0.0
102
RTVSPost2010PropOp38
 70
     1
102
RTVSPost2010Prop39
140
1.0
102
RTVSPost2010PropOp39
 70
     1
102
RTVSPost2010Prop40
 90
        0
102
RTVSPost2010PropOp40
 70
     1
102
RTVSPost2010Prop41ColorIndex
 90
       18
102
RTVSPost2010Prop41ColorRGB
 90
        0
102
RTVSPost2010PropOp41
 70
     1
102
RTVSPost2010Prop42
 90
       50
102
RTVSPost2010PropOp42
 70
     1
102
RTVSPost2010Prop43
 90
        3
102
RTVSPost2010PropOp43
 70
     1
102
RTVSPost2010Prop44ColorIndex
 90
        5
102
RTVSPost2010Prop44ColorRGB
 90
      255
102
RTVSPost2010PropOp44
 70
     1
102
RTVSPost2010Prop45
280
     0
102
RTVSPost2010PropOp45
 70
     1
102
RTVSPost2010Prop46
 90
       50
102
RTVSPost2010PropOp46
 70
     1
102
RTVSPost2010Prop47
 90
       50
102
RTVSPost2010PropOp47
 70
     1
102
RTVSPost2010Prop48
 90
       50
102
RTVSPost2010PropOp48
 70
     1
102
RTVSPost2010Prop49
280
     0
102
RTVSPost2010PropOp49
 70
     1
102
RTVSPost2010Prop50
 90
       50
102
RTVSPost2010PropOp50
 70
     1
102
RTVSPost2010Prop51ColorIndex
 90
      256
102
RTVSPost2010Prop51ColorRGB
 90
-16777216
102
RTVSPost2010PropOp51
 70
     0
102
RTVSPost2010Prop52
140
1.0
102
RTVSPost2010PropOp52
 70
     0
102
RTVSPost2010Prop53
 90
        2
102
RTVSPost2010PropOp53
 70
     1
102
RTVSPost2010Prop54
  1
strokes_ogs.tif
102
RTVSPost2010PropOp54
 70
     1
102
RTVSPost2010Prop55
280
     0
102
RTVSPost2010PropOp55
 70
     1
102
RTVSPost2010Prop56
140
1.0
102
RTVSPost2010PropOp56
 70
     1
102
RTVSPost2010Prop57
140
1.0
102
RTVSPost2010PropOp57
 70
     1
102
RTVSPropertyOp0
 70
     1
102
RTVSPropertyOp1
 70
     1
102
RTVSPropertyOp2
 70
     1
102
RTVSPropertyOp3
 70
     1
102
RTVSPropertyOp4
 70
     1
102
RTVSPropertyOp5
 70
     1
102
RTVSPropertyOp6
 70
     1
102
RTVSPropertyOp7
 70
     1
102
RTVSPropertyOp8
 70
     1
102
RTVSPropertyOp9
 70
     1
102
RTVSPropertyOp10
 70
     1
102
RTVSPropertyOp11
 70
     1
102
RTVSPropertyOp12
 70
     1
102
RTVSPropertyOp13
 70
     1
102
RTVSPropertyOp14
 70
     1
102
RTVSPropertyOp15
 70
     1
102
RTVSPropertyOp16
 70
     1
102
RTVSPropertyOp17
 70
     1
102
RTVSPropertyOp18
 70
     1
102
RTVSPropertyOp19
 70
     1
102
RTVSPropertyOp20
 70
     1
102
RTVSPropertyOp21
 70
     1
102
RTVSPropertyOp22
 70
     1
102
RTVSPropertyOp23
 70
     1
102
RTVSPropertyOp24
 70
     1
102
RTVSPropertyOp25
 70
     1
102
RTVSPropertyOp26
 70
     1
102
RTVSPropertyOp27
 70
     1
102
RTVSPropertyOp28
 70
     1
102
RTVSPropertyOp29
 70
     1
102
RTVSPropertyOp30
 70
     1
102
RTVSPropertyOp31
 70
     1
102
RTVSPropertyOp32
 70
     1
102
RTVSPropertyOp33
 70
     1
102
RTVSPropertyOp34
 70
     1
102
RTVSPropertyOp35
 70
     1
102
RTVSPropertyOp36
 70
     1
102
RTVSPropertyOp37
 70
     1
102
RTVSPropertyOp38
 70
     1
102
RTVSPropertyOp39
 70
     1
102
RTVSPropertyOp40
 70
     1
102
RTVSPropertyOp41
 70
     1
102
RTVSPropertyOp42
 70
     1
102
RTVSPropertyOp43
 70
     1
102
RTVSPropertyOp44
 70
     1
102
RTVSPropertyOp45
 70
     1
102
RTVSPropertyOp46
 70
     1
102
RTVSPropertyOp47
 70
     1
102
RTVSPropertyOp48
 70
     1
102
RTVSPropertyOp49
 70
     1
102
RTVSPropertyOp50
 70
     1
102
RTVSPropertyOp51
 70
     0
102
RTVSPropertyOp52
 70
     0
102
RTVSPropertyOp53
 70
     1
102
RTVSPropertyOp54
 70
     1
102
RTVSPropertyOp55
 70
     1
102
RTVSPropertyOp56
 70
     1
102
RTVSPropertyOp57
 70
     1
102
RTVSPropertyOp58
 70
     1
102
RTVSPropertyOp59
 70
     1
102
RTVSPropertyOp60
 70
     1
102
RTVSPropertyOp61
 70
     1
102
RTVSPropertyOp62
 70
     1
  0
XRECORD
  5
42E
102
{ACAD_REACTORS
330
42D
102
}
330
42D
100
AcDbXrecord
280
     1
102
RTVSPost2010Prop28
280
     0
102
RTVSPost2010PropOp28
 70
     1
102
RTVSPost2010Prop29
280
     1
102
RTVSPost2010PropOp29
 70
     1
102
RTVSPost2010Prop30
280
     1
102
RTVSPost2010PropOp30
 70
     1
102
RTVSPost2010Prop31
280
     0
102
RTVSPost2010PropOp31
 70
     1
102
RTVSPost2010Prop32
280
     0
102
RTVSPost2010PropOp32
 70
     1
102
RTVSPost2010Prop33
280
     0
102
RTVSPost2010PropOp33
 70
     1
102
RTVSPost2010Prop34
280
     0
102
RTVSPost2010PropOp34
 70
     1
102
RTVSPost2010Prop35
280
     0
102
RTVSPost2010PropOp35
 70
     1
102
RTVSPost2010Prop36
280
     0
102
RTVSPost2010PropOp36
 70
     1
102
RTVSPost2010Prop37
 90
       50
102
RTVSPost2010PropOp37
 70
     1
102
RTVSPost2010Prop38
140
0.0
102
RTVSPost2010PropOp38
 70
     1
102
RTVSPost2010Prop39
140
1.0
102
RTVSPost2010PropOp39
 70
     1
102
RTVSPost2010Prop40
 90
        0
102
RTVSPost2010PropOp40
 70
     1
102
RTVSPost2010Prop41ColorIndex
 90
       18
102
RTVSPost2010Prop41ColorRGB
 90
        0
102
RTVSPost2010PropOp41
 70
     1
102
RTVSPost2010Prop42
 90
       50
102
RTVSPost2010PropOp42
 70
     1
102
RTVSPost2010Prop43
 90
        3
102
RTVSPost2010PropOp43
 70
     1
102
RTVSPost2010Prop44ColorIndex
 90
        5
102
RTVSPost2010Prop44ColorRGB
 90
      255
102
RTVSPost2010PropOp44
 70
     1
102
RTVSPost2010Prop45
280
     0
102
RTVSPost2010PropOp45
 70
     1
102
RTVSPost2010Prop46
 90
       50
102
RTVSPost2010PropOp46
 70
     1
102
RTVSPost2010Prop47
 90
       50
102
RTVSPost2010PropOp47
 70
     1
102
RTVSPost2010Prop48
 90
       50
102
RTVSPost2010PropOp48
 70
     1
102
RTVSPost2010Prop49
280
     0
102
RTVSPost2010PropOp49
 70
     1
102
RTVSPost2010Prop50
 90
       50
102
RTVSPost2010PropOp50
 70
     1
102
RTVSPost2010Prop51ColorIndex
 90
      256
102
RTVSPost2010Prop51ColorRGB
 90
-16777216
102
RTVSPost2010PropOp51
 70
     0
102
RTVSPost2010Prop52
140
1.0
102
RTVSPost2010PropOp52
 70
     0
102
RTVSPost2010Prop53
 90
        2
102
RTVSPost2010PropOp53
 70
     1
102
RTVSPost2010Prop54
  1
strokes_ogs.tif
102
RTVSPost2010PropOp54
 70
     1
102
RTVSPost2010Prop55
280
     0
102
RTVSPost2010PropOp55
 70
     1
102
RTVSPost2010Prop56
140
1.0
102
RTVSPost2010PropOp56
 70
     1
102
RTVSPost2010Prop57
140
1.0
102
RTVSPost2010PropOp57
 70
     1
102
RTVSPropertyOp0
 70
     1
102
RTVSPropertyOp1
 70
     1
102
RTVSPropertyOp2
 70
     1
102
RTVSPropertyOp3
 70
     1
102
RTVSPropertyOp4
 70
     1
102
RTVSPropertyOp5
 70
     1
102
RTVSPropertyOp6
 70
     1
102
RTVSPropertyOp7
 70
     1
102
RTVSPropertyOp8
 70
     1
102
RTVSPropertyOp9
 70
     1
102
RTVSPropertyOp10
 70
     1
102
RTVSPropertyOp11
 70
     1
102
RTVSPropertyOp12
 70
     1
102
RTVSPropertyOp13
 70
     1
102
RTVSPropertyOp14
 70
     1
102
RTVSPropertyOp15
 70
     1
102
RTVSPropertyOp16
 70
     1
102
RTVSPropertyOp17
 70
     1
102
RTVSPropertyOp18
 70
     1
102
RTVSPropertyOp19
 70
     1
102
RTVSPropertyOp20
 70
     1
102
RTVSPropertyOp21
 70
     1
102
RTVSPropertyOp22
 70
     1
102
RTVSPropertyOp23
 70
     1
102
RTVSPropertyOp24
 70
     1
102
RTVSPropertyOp25
 70
     1
102
RTVSPropertyOp26
 70
     1
102
RTVSPropertyOp27
 70
     1
102
RTVSPropertyOp28
 70
     1
102
RTVSPropertyOp29
 70
     1
102
RTVSPropertyOp30
 70
     1
102
RTVSPropertyOp31
 70
     1
102
RTVSPropertyOp32
 70
     1
102
RTVSPropertyOp33
 70
     1
102
RTVSPropertyOp34
 70
     1
102
RTVSPropertyOp35
 70
     1
102
RTVSPropertyOp36
 70
     1
102
RTVSPropertyOp37
 70
     1
102
RTVSPropertyOp38
 70
     1
102
RTVSPropertyOp39
 70
     1
102
RTVSPropertyOp40
 70
     1
102
RTVSPropertyOp41
 70
     1
102
RTVSPropertyOp42
 70
     1
102
RTVSPropertyOp43
 70
     1
102
RTVSPropertyOp44
 70
     1
102
RTVSPropertyOp45
 70
     1
102
RTVSPropertyOp46
 70
     1
102
RTVSPropertyOp47
 70
     1
102
RTVSPropertyOp48
 70
     1
102
RTVSPropertyOp49
 70
     1
102
RTVSPropertyOp50
 70
     1
102
RTVSPropertyOp51
 70
     0
102
RTVSPropertyOp52
 70
     0
102
RTVSPropertyOp53
 70
     1
102
RTVSPropertyOp54
 70
     1
102
RTVSPropertyOp55
 70
     1
102
RTVSPropertyOp56
 70
     1
102
RTVSPropertyOp57
 70
     1
102
RTVSPropertyOp58
 70
     1
102
RTVSPropertyOp59
 70
     1
102
RTVSPropertyOp60
 70
     1
102
RTVSPropertyOp61
 70
     1
102
RTVSPropertyOp62
 70
     1
  0
XRECORD
  5
44A
102
{ACAD_REACTORS
330
449
102
}
330
449
100
AcDbXrecord
280
     1
102
RTVSPost2010Prop28
280
     0
102
RTVSPost2010PropOp28
 70
     1
102
RTVSPost2010Prop29
280
     1
102
RTVSPost2010PropOp29
 70
     1
102
RTVSPost2010Prop30
280
     1
102
RTVSPost2010PropOp30
 70
     1
102
RTVSPost2010Prop31
280
     0
102
RTVSPost2010PropOp31
 70
     1
102
RTVSPost2010Prop32
280
     0
102
RTVSPost2010PropOp32
 70
     1
102
RTVSPost2010Prop33
280
     0
102
RTVSPost2010PropOp33
 70
     1
102
RTVSPost2010Prop34
280
     0
102
RTVSPost2010PropOp34
 70
     1
102
RTVSPost2010Prop35
280
     0
102
RTVSPost2010PropOp35
 70
     1
102
RTVSPost2010Prop36
280
     0
102
RTVSPost2010PropOp36
 70
     1
102
RTVSPost2010Prop37
 90
       50
102
RTVSPost2010PropOp37
 70
     0
102
RTVSPost2010Prop38
140
0.0
102
RTVSPost2010PropOp38
 70
     0
102
RTVSPost2010Prop39
140
1.0
102
RTVSPost2010PropOp39
 70
     0
102
RTVSPost2010Prop40
 90
        0
102
RTVSPost2010PropOp40
 70
     0
102
RTVSPost2010Prop41ColorIndex
 90
       18
102
RTVSPost2010Prop41ColorRGB
 90
        0
102
RTVSPost2010PropOp41
 70
     0
102
RTVSPost2010Prop42
 90
       50
102
RTVSPost2010PropOp42
 70
     0
102
RTVSPost2010Prop43
 90
        3
102
RTVSPost2010PropOp43
 70
     0
102
RTVSPost2010Prop44ColorIndex
 90
        5
102
RTVSPost2010Prop44ColorRGB
 90
      255
102
RTVSPost2010PropOp44
 70
     0
102
RTVSPost2010Prop45
280
     0
102
RTVSPost2010PropOp45
 70
     1
102
RTVSPost2010Prop46
 90
       50
102
RTVSPost2010PropOp46
 70
     0
102
RTVSPost2010Prop47
 90
       50
102
RTVSPost2010PropOp47
 70
     0
102
RTVSPost2010Prop48
 90
       50
102
RTVSPost2010PropOp48
 70
     0
102
RTVSPost2010Prop49
280
     0
102
RTVSPost2010PropOp49
 70
     1
102
RTVSPost2010Prop50
 90
       50
102
RTVSPost2010PropOp50
 70
     0
102
RTVSPost2010Prop51ColorIndex
 90
      256
102
RTVSPost2010Prop51ColorRGB
 90
-16777216
102
RTVSPost2010PropOp51
 70
     0
102
RTVSPost2010Prop52
140
1.0
102
RTVSPost2010PropOp52
 70
     0
102
RTVSPost2010Prop53
 90
        2
102
RTVSPost2010PropOp53
 70
     0
102
RTVSPost2010Prop54
  1
strokes_ogs.tif
102
RTVSPost2010PropOp54
 70
     0
102
RTVSPost2010Prop55
280
     0
102
RTVSPost2010PropOp55
 70
     1
102
RTVSPost2010Prop56
140
1.0
102
RTVSPost2010PropOp56
 70
     0
102
RTVSPost2010Prop57
140
1.0
102
RTVSPost2010PropOp57
 70
     0
102
RTVSPropertyOp0
 70
     0
102
RTVSPropertyOp1
 70
     0
102
RTVSPropertyOp2
 70
     0
102
RTVSPropertyOp3
 70
     0
102
RTVSPropertyOp4
 70
     0
102
RTVSPropertyOp5
 70
     0
102
RTVSPropertyOp6
 70
     0
102
RTVSPropertyOp7
 70
     0
102
RTVSPropertyOp8
 70
     0
102
RTVSPropertyOp9
 70
     0
102
RTVSPropertyOp10
 70
     0
102
RTVSPropertyOp11
 70
     0
102
RTVSPropertyOp12
 70
     0
102
RTVSPropertyOp13
 70
     0
102
RTVSPropertyOp14
 70
     2
102
RTVSPropertyOp15
 70
     0
102
RTVSPropertyOp16
 70
     0
102
RTVSPropertyOp17
 70
     0
102
RTVSPropertyOp18
 70
     0
102
RTVSPropertyOp19
 70
     0
102
RTVSPropertyOp20
 70
     0
102
RTVSPropertyOp21
 70
     0
102
RTVSPropertyOp22
 70
     0
102
RTVSPropertyOp23
 70
     0
102
RTVSPropertyOp24
 70
     0
102
RTVSPropertyOp25
 70
     0
102
RTVSPropertyOp26
 70
     0
102
RTVSPropertyOp27
 70
     0
102
RTVSPropertyOp28
 70
     1
102
RTVSPropertyOp29
 70
     1
102
RTVSPropertyOp30
 70
     1
102
RTVSPropertyOp31
 70
     1
102
RTVSPropertyOp32
 70
     1
102
RTVSPropertyOp33
 70
     1
102
RTVSPropertyOp34
 70
     1
102
RTVSPropertyOp35
 70
     1
102
RTVSPropertyOp36
 70
     1
102
RTVSPropertyOp37
 70
     0
102
RTVSPropertyOp38
 70
     0
102
RTVSPropertyOp39
 70
     0
102
RTVSPropertyOp40
 70
     0
102
RTVSPropertyOp41
 70
     0
102
RTVSPropertyOp42
 70
     0
102
RTVSPropertyOp43
 70
     0
102
RTVSPropertyOp44
 70
     0
102
RTVSPropertyOp45
 70
     1
102
RTVSPropertyOp46
 70
     0
102
RTVSPropertyOp47
 70
     0
102
RTVSPropertyOp48
 70
     0
102
RTVSPropertyOp49
 70
     1
102
RTVSPropertyOp50
 70
     0
102
RTVSPropertyOp51
 70
     0
102
RTVSPropertyOp52
 70
     0
102
RTVSPropertyOp53
 70
     0
102
RTVSPropertyOp54
 70
     0
102
RTVSPropertyOp55
 70
     1
102
RTVSPropertyOp56
 70
     0
102
RTVSPropertyOp57
 70
     0
102
RTVSPropertyOp58
 70
     0
102
RTVSPropertyOp59
 70
     0
102
RTVSPropertyOp60
 70
     0
102
RTVSPropertyOp61
 70
     0
102
RTVSPropertyOp62
 70
     0
  0
XRECORD
  5
43A
102
{ACAD_REACTORS
330
439
102
}
330
439
100
AcDbXrecord
280
     1
102
RTVSPost2010Prop28
280
     0
102
RTVSPost2010PropOp28
 70
     1
102
RTVSPost2010Prop29
280
     1
102
RTVSPost2010PropOp29
 70
     1
102
RTVSPost2010Prop30
280
     1
102
RTVSPost2010PropOp30
 70
     1
102
RTVSPost2010Prop31
280
     0
102
RTVSPost2010PropOp31
 70
     1
102
RTVSPost2010Prop32
280
     0
102
RTVSPost2010PropOp32
 70
     1
102
RTVSPost2010Prop33
280
     0
102
RTVSPost2010PropOp33
 70
     1
102
RTVSPost2010Prop34
280
     0
102
RTVSPost2010PropOp34
 70
     1
102
RTVSPost2010Prop35
280
     0
102
RTVSPost2010PropOp35
 70
     1
102
RTVSPost2010Prop36
280
     0
102
RTVSPost2010PropOp36
 70
     1
102
RTVSPost2010Prop37
 90
       50
102
RTVSPost2010PropOp37
 70
     1
102
RTVSPost2010Prop38
140
0.0
102
RTVSPost2010PropOp38
 70
     1
102
RTVSPost2010Prop39
140
1.0
102
RTVSPost2010PropOp39
 70
     1
102
RTVSPost2010Prop40
 90
        0
102
RTVSPost2010PropOp40
 70
     1
102
RTVSPost2010Prop41ColorIndex
 90
       18
102
RTVSPost2010Prop41ColorRGB
 90
        0
102
RTVSPost2010PropOp41
 70
     1
102
RTVSPost2010Prop42
 90
       50
102
RTVSPost2010PropOp42
 70
     1
102
RTVSPost2010Prop43
 90
        3
102
RTVSPost2010PropOp43
 70
     1
102
RTVSPost2010Prop44ColorIndex
 90
        5
102
RTVSPost2010Prop44ColorRGB
 90
      255
102
RTVSPost2010PropOp44
 70
     1
102
RTVSPost2010Prop45
280
     0
102
RTVSPost2010PropOp45
 70
     1
102
RTVSPost2010Prop46
 90
       50
102
RTVSPost2010PropOp46
 70
     1
102
RTVSPost2010Prop47
 90
       50
102
RTVSPost2010PropOp47
 70
     1
102
RTVSPost2010Prop48
 90
       50
102
RTVSPost2010PropOp48
 70
     1
102
RTVSPost2010Prop49
280
     0
102
RTVSPost2010PropOp49
 70
     1
102
RTVSPost2010Prop50
 90
       50
102
RTVSPost2010PropOp50
 70
     1
102
RTVSPost2010Prop51ColorIndex
 90
      256
102
RTVSPost2010Prop51ColorRGB
 90
-16777216
102
RTVSPost2010PropOp51
 70
     0
102
RTVSPost2010Prop52
140
1.0
102
RTVSPost2010PropOp52
 70
     0
102
RTVSPost2010Prop53
 90
        2
102
RTVSPost2010PropOp53
 70
     1
102
RTVSPost2010Prop54
  1
strokes_ogs.tif
102
RTVSPost2010PropOp54
 70
     1
102
RTVSPost2010Prop55
280
     0
102
RTVSPost2010PropOp55
 70
     1
102
RTVSPost2010Prop56
140
1.0
102
RTVSPost2010PropOp56
 70
     1
102
RTVSPost2010Prop57
140
1.0
102
RTVSPost2010PropOp57
 70
     1
102
RTVSPropertyOp0
 70
     1
102
RTVSPropertyOp1
 70
     1
102
RTVSPropertyOp2
 70
     1
102
RTVSPropertyOp3
 70
     1
102
RTVSPropertyOp4
 70
     1
102
RTVSPropertyOp5
 70
     1
102
RTVSPropertyOp6
 70
     1
102
RTVSPropertyOp7
 70
     1
102
RTVSPropertyOp8
 70
     1
102
RTVSPropertyOp9
 70
     1
102
RTVSPropertyOp10
 70
     1
102
RTVSPropertyOp11
 70
     1
102
RTVSPropertyOp12
 70
     1
102
RTVSPropertyOp13
 70
     1
102
RTVSPropertyOp14
 70
     1
102
RTVSPropertyOp15
 70
     1
102
RTVSPropertyOp16
 70
     1
102
RTVSPropertyOp17
 70
     1
102
RTVSPropertyOp18
 70
     1
102
RTVSPropertyOp19
 70
     1
102
RTVSPropertyOp20
 70
     1
102
RTVSPropertyOp21
 70
     1
102
RTVSPropertyOp22
 70
     1
102
RTVSPropertyOp23
 70
     1
102
RTVSPropertyOp24
 70
     1
102
RTVSPropertyOp25
 70
     1
102
RTVSPropertyOp26
 70
     1
102
RTVSPropertyOp27
 70
     1
102
RTVSPropertyOp28
 70
     1
102
RTVSPropertyOp29
 70
     1
102
RTVSPropertyOp30
 70
     1
102
RTVSPropertyOp31
 70
     1
102
RTVSPropertyOp32
 70
     1
102
RTVSPropertyOp33
 70
     1
102
RTVSPropertyOp34
 70
     1
102
RTVSPropertyOp35
 70
     1
102
RTVSPropertyOp36
 70
     1
102
RTVSPropertyOp37
 70
     1
102
RTVSPropertyOp38
 70
     1
102
RTVSPropertyOp39
 70
     1
102
RTVSPropertyOp40
 70
     1
102
RTVSPropertyOp41
 70
     1
102
RTVSPropertyOp42
 70
     1
102
RTVSPropertyOp43
 70
     1
102
RTVSPropertyOp44
 70
     1
102
RTVSPropertyOp45
 70
     1
102
RTVSPropertyOp46
 70
     1
102
RTVSPropertyOp47
 70
     1
102
RTVSPropertyOp48
 70
     1
102
RTVSPropertyOp49
 70
     1
102
RTVSPropertyOp50
 70
     1
102
RTVSPropertyOp51
 70
     0
102
RTVSPropertyOp52
 70
     0
102
RTVSPropertyOp53
 70
     1
102
RTVSPropertyOp54
 70
     1
102
RTVSPropertyOp55
 70
     1
102
RTVSPropertyOp56
 70
     1
102
RTVSPropertyOp57
 70
     1
102
RTVSPropertyOp58
 70
     1
102
RTVSPropertyOp59
 70
     1
102
RTVSPropertyOp60
 70
     1
102
RTVSPropertyOp61
 70
     1
102
RTVSPropertyOp62
 70
     1
  0
XRECORD
  5
44C
102
{ACAD_REACTORS
330
44B
102
}
330
44B
100
AcDbXrecord
280
     1
102
RTVSPost2010Prop28
280
     0
102
RTVSPost2010PropOp28
 70
     1
102
RTVSPost2010Prop29
280
     1
102
RTVSPost2010PropOp29
 70
     1
102
RTVSPost2010Prop30
280
     1
102
RTVSPost2010PropOp30
 70
     1
102
RTVSPost2010Prop31
280
     0
102
RTVSPost2010PropOp31
 70
     1
102
RTVSPost2010Prop32
280
     0
102
RTVSPost2010PropOp32
 70
     1
102
RTVSPost2010Prop33
280
     0
102
RTVSPost2010PropOp33
 70
     1
102
RTVSPost2010Prop34
280
     0
102
RTVSPost2010PropOp34
 70
     1
102
RTVSPost2010Prop35
280
     0
102
RTVSPost2010PropOp35
 70
     1
102
RTVSPost2010Prop36
280
     0
102
RTVSPost2010PropOp36
 70
     1
102
RTVSPost2010Prop37
 90
       50
102
RTVSPost2010PropOp37
 70
     0
102
RTVSPost2010Prop38
140
0.0
102
RTVSPost2010PropOp38
 70
     0
102
RTVSPost2010Prop39
140
1.0
102
RTVSPost2010PropOp39
 70
     0
102
RTVSPost2010Prop40
 90
        0
102
RTVSPost2010PropOp40
 70
     0
102
RTVSPost2010Prop41ColorIndex
 90
       18
102
RTVSPost2010Prop41ColorRGB
 90
        0
102
RTVSPost2010PropOp41
 70
     0
102
RTVSPost2010Prop42
 90
       50
102
RTVSPost2010PropOp42
 70
     0
102
RTVSPost2010Prop43
 90
        3
102
RTVSPost2010PropOp43
 70
     0
102
RTVSPost2010Prop44ColorIndex
 90
        5
102
RTVSPost2010Prop44ColorRGB
 90
      255
102
RTVSPost2010PropOp44
 70
     0
102
RTVSPost2010Prop45
280
     0
102
RTVSPost2010PropOp45
 70
     1
102
RTVSPost2010Prop46
 90
       50
102
RTVSPost2010PropOp46
 70
     0
102
RTVSPost2010Prop47
 90
       50
102
RTVSPost2010PropOp47
 70
     0
102
RTVSPost2010Prop48
 90
       50
102
RTVSPost2010PropOp48
 70
     0
102
RTVSPost2010Prop49
280
     0
102
RTVSPost2010PropOp49
 70
     1
102
RTVSPost2010Prop50
 90
       50
102
RTVSPost2010PropOp50
 70
     0
102
RTVSPost2010Prop51ColorIndex
 90
      256
102
RTVSPost2010Prop51ColorRGB
 90
-16777216
102
RTVSPost2010PropOp51
 70
     0
102
RTVSPost2010Prop52
140
1.0
102
RTVSPost2010PropOp52
 70
     0
102
RTVSPost2010Prop53
 90
        2
102
RTVSPost2010PropOp53
 70
     0
102
RTVSPost2010Prop54
  1
strokes_ogs.tif
102
RTVSPost2010PropOp54
 70
     0
102
RTVSPost2010Prop55
280
     0
102
RTVSPost2010PropOp55
 70
     1
102
RTVSPost2010Prop56
140
1.0
102
RTVSPost2010PropOp56
 70
     0
102
RTVSPost2010Prop57
140
1.0
102
RTVSPost2010PropOp57
 70
     0
102
RTVSPropertyOp0
 70
     0
102
RTVSPropertyOp1
 70
     0
102
RTVSPropertyOp2
 70
     0
102
RTVSPropertyOp3
 70
     0
102
RTVSPropertyOp4
 70
     0
102
RTVSPropertyOp5
 70
     0
102
RTVSPropertyOp6
 70
     0
102
RTVSPropertyOp7
 70
     0
102
RTVSPropertyOp8
 70
     0
102
RTVSPropertyOp9
 70
     0
102
RTVSPropertyOp10
 70
     0
102
RTVSPropertyOp11
 70
     0
102
RTVSPropertyOp12
 70
     0
102
RTVSPropertyOp13
 70
     0
102
RTVSPropertyOp14
 70
     2
102
RTVSPropertyOp15
 70
     0
102
RTVSPropertyOp16
 70
     0
102
RTVSPropertyOp17
 70
     0
102
RTVSPropertyOp18
 70
     0
102
RTVSPropertyOp19
 70
     0
102
RTVSPropertyOp20
 70
     0
102
RTVSPropertyOp21
 70
     0
102
RTVSPropertyOp22
 70
     0
102
RTVSPropertyOp23
 70
     0
102
RTVSPropertyOp24
 70
     0
102
RTVSPropertyOp25
 70
     0
102
RTVSPropertyOp26
 70
     0
102
RTVSPropertyOp27
 70
     0
102
RTVSPropertyOp28
 70
     1
102
RTVSPropertyOp29
 70
     1
102
RTVSPropertyOp30
 70
     1
102
RTVSPropertyOp31
 70
     1
102
RTVSPropertyOp32
 70
     1
102
RTVSPropertyOp33
 70
     1
102
RTVSPropertyOp34
 70
     1
102
RTVSPropertyOp35
 70
     1
102
RTVSPropertyOp36
 70
     1
102
RTVSPropertyOp37
 70
     0
102
RTVSPropertyOp38
 70
     0
102
RTVSPropertyOp39
 70
     0
102
RTVSPropertyOp40
 70
     0
102
RTVSPropertyOp41
 70
     0
102
RTVSPropertyOp42
 70
     0
102
RTVSPropertyOp43
 70
     0
102
RTVSPropertyOp44
 70
     0
102
RTVSPropertyOp45
 70
     1
102
RTVSPropertyOp46
 70
     0
102
RTVSPropertyOp47
 70
     0
102
RTVSPropertyOp48
 70
     0
102
RTVSPropertyOp49
 70
     1
102
RTVSPropertyOp50
 70
     0
102
RTVSPropertyOp51
 70
     0
102
RTVSPropertyOp52
 70
     0
102
RTVSPropertyOp53
 70
     0
102
RTVSPropertyOp54
 70
     0
102
RTVSPropertyOp55
 70
     1
102
RTVSPropertyOp56
 70
     0
102
RTVSPropertyOp57
 70
     0
102
RTVSPropertyOp58
 70
     0
102
RTVSPropertyOp59
 70
     0
102
RTVSPropertyOp60
 70
     0
102
RTVSPropertyOp61
 70
     0
102
RTVSPropertyOp62
 70
     0
  0
XRECORD
  5
432
102
{ACAD_REACTORS
330
431
102
}
330
431
100
AcDbXrecord
280
     1
102
RTVSPost2010Prop28
280
     0
102
RTVSPost2010PropOp28
 70
     1
102
RTVSPost2010Prop29
280
     1
102
RTVSPost2010PropOp29
 70
     1
102
RTVSPost2010Prop30
280
     1
102
RTVSPost2010PropOp30
 70
     1
102
RTVSPost2010Prop31
280
     0
102
RTVSPost2010PropOp31
 70
     1
102
RTVSPost2010Prop32
280
     0
102
RTVSPost2010PropOp32
 70
     1
102
RTVSPost2010Prop33
280
     0
102
RTVSPost2010PropOp33
 70
     1
102
RTVSPost2010Prop34
280
     0
102
RTVSPost2010PropOp34
 70
     1
102
RTVSPost2010Prop35
280
     0
102
RTVSPost2010PropOp35
 70
     1
102
RTVSPost2010Prop36
280
     0
102
RTVSPost2010PropOp36
 70
     1
102
RTVSPost2010Prop37
 90
       50
102
RTVSPost2010PropOp37
 70
     1
102
RTVSPost2010Prop38
140
0.0
102
RTVSPost2010PropOp38
 70
     1
102
RTVSPost2010Prop39
140
1.0
102
RTVSPost2010PropOp39
 70
     1
102
RTVSPost2010Prop40
 90
        0
102
RTVSPost2010PropOp40
 70
     1
102
RTVSPost2010Prop41ColorIndex
 90
       18
102
RTVSPost2010Prop41ColorRGB
 90
        0
102
RTVSPost2010PropOp41
 70
     1
102
RTVSPost2010Prop42
 90
       50
102
RTVSPost2010PropOp42
 70
     1
102
RTVSPost2010Prop43
 90
        3
102
RTVSPost2010PropOp43
 70
     1
102
RTVSPost2010Prop44ColorIndex
 90
        5
102
RTVSPost2010Prop44ColorRGB
 90
      255
102
RTVSPost2010PropOp44
 70
     1
102
RTVSPost2010Prop45
280
     0
102
RTVSPost2010PropOp45
 70
     1
102
RTVSPost2010Prop46
 90
       50
102
RTVSPost2010PropOp46
 70
     1
102
RTVSPost2010Prop47
 90
       50
102
RTVSPost2010PropOp47
 70
     1
102
RTVSPost2010Prop48
 90
       50
102
RTVSPost2010PropOp48
 70
     1
102
RTVSPost2010Prop49
280
     0
102
RTVSPost2010PropOp49
 70
     1
102
RTVSPost2010Prop50
 90
       50
102
RTVSPost2010PropOp50
 70
     1
102
RTVSPost2010Prop51ColorIndex
 90
      256
102
RTVSPost2010Prop51ColorRGB
 90
-16777216
102
RTVSPost2010PropOp51
 70
     0
102
RTVSPost2010Prop52
140
1.0
102
RTVSPost2010PropOp52
 70
     0
102
RTVSPost2010Prop53
 90
        2
102
RTVSPost2010PropOp53
 70
     1
102
RTVSPost2010Prop54
  1
strokes_ogs.tif
102
RTVSPost2010PropOp54
 70
     1
102
RTVSPost2010Prop55
280
     0
102
RTVSPost2010PropOp55
 70
     1
102
RTVSPost2010Prop56
140
1.0
102
RTVSPost2010PropOp56
 70
     1
102
RTVSPost2010Prop57
140
1.0
102
RTVSPost2010PropOp57
 70
     1
102
RTVSPropertyOp0
 70
     1
102
RTVSPropertyOp1
 70
     1
102
RTVSPropertyOp2
 70
     1
102
RTVSPropertyOp3
 70
     1
102
RTVSPropertyOp4
 70
     1
102
RTVSPropertyOp5
 70
     1
102
RTVSPropertyOp6
 70
     1
102
RTVSPropertyOp7
 70
     1
102
RTVSPropertyOp8
 70
     1
102
RTVSPropertyOp9
 70
     1
102
RTVSPropertyOp10
 70
     1
102
RTVSPropertyOp11
 70
     1
102
RTVSPropertyOp12
 70
     1
102
RTVSPropertyOp13
 70
     1
102
RTVSPropertyOp14
 70
     1
102
RTVSPropertyOp15
 70
     1
102
RTVSPropertyOp16
 70
     1
102
RTVSPropertyOp17
 70
     1
102
RTVSPropertyOp18
 70
     1
102
RTVSPropertyOp19
 70
     1
102
RTVSPropertyOp20
 70
     1
102
RTVSPropertyOp21
 70
     1
102
RTVSPropertyOp22
 70
     1
102
RTVSPropertyOp23
 70
     1
102
RTVSPropertyOp24
 70
     1
102
RTVSPropertyOp25
 70
     1
102
RTVSPropertyOp26
 70
     1
102
RTVSPropertyOp27
 70
     1
102
RTVSPropertyOp28
 70
     1
102
RTVSPropertyOp29
 70
     1
102
RTVSPropertyOp30
 70
     1
102
RTVSPropertyOp31
 70
     1
102
RTVSPropertyOp32
 70
     1
102
RTVSPropertyOp33
 70
     1
102
RTVSPropertyOp34
 70
     1
102
RTVSPropertyOp35
 70
     1
102
RTVSPropertyOp36
 70
     1
102
RTVSPropertyOp37
 70
     1
102
RTVSPropertyOp38
 70
     1
102
RTVSPropertyOp39
 70
     1
102
RTVSPropertyOp40
 70
     1
102
RTVSPropertyOp41
 70
     1
102
RTVSPropertyOp42
 70
     1
102
RTVSPropertyOp43
 70
     1
102
RTVSPropertyOp44
 70
     1
102
RTVSPropertyOp45
 70
     1
102
RTVSPropertyOp46
 70
     1
102
RTVSPropertyOp47
 70
     1
102
RTVSPropertyOp48
 70
     1
102
RTVSPropertyOp49
 70
     1
102
RTVSPropertyOp50
 70
     1
102
RTVSPropertyOp51
 70
     0
102
RTVSPropertyOp52
 70
     0
102
RTVSPropertyOp53
 70
     1
102
RTVSPropertyOp54
 70
     1
102
RTVSPropertyOp55
 70
     1
102
RTVSPropertyOp56
 70
     1
102
RTVSPropertyOp57
 70
     1
102
RTVSPropertyOp58
 70
     1
102
RTVSPropertyOp59
 70
     1
102
RTVSPropertyOp60
 70
     1
102
RTVSPropertyOp61
 70
     1
102
RTVSPropertyOp62
 70
     1
  0
XRECORD
  5
448
102
{ACAD_REACTORS
330
447
102
}
330
447
100
AcDbXrecord
280
     1
102
RTVSPost2010Prop28
280
     0
102
RTVSPost2010PropOp28
 70
     1
102
RTVSPost2010Prop29
280
     1
102
RTVSPost2010PropOp29
 70
     1
102
RTVSPost2010Prop30
280
     1
102
RTVSPost2010PropOp30
 70
     1
102
RTVSPost2010Prop31
280
     0
102
RTVSPost2010PropOp31
 70
     1
102
RTVSPost2010Prop32
280
     0
102
RTVSPost2010PropOp32
 70
     1
102
RTVSPost2010Prop33
280
     0
102
RTVSPost2010PropOp33
 70
     1
102
RTVSPost2010Prop34
280
     0
102
RTVSPost2010PropOp34
 70
     1
102
RTVSPost2010Prop35
280
     0
102
RTVSPost2010PropOp35
 70
     1
102
RTVSPost2010Prop36
280
     0
102
RTVSPost2010PropOp36
 70
     1
102
RTVSPost2010Prop37
 90
       50
102
RTVSPost2010PropOp37
 70
     1
102
RTVSPost2010Prop38
140
0.0
102
RTVSPost2010PropOp38
 70
     1
102
RTVSPost2010Prop39
140
1.0
102
RTVSPost2010PropOp39
 70
     1
102
RTVSPost2010Prop40
 90
        0
102
RTVSPost2010PropOp40
 70
     1
102
RTVSPost2010Prop41ColorIndex
 90
       18
102
RTVSPost2010Prop41ColorRGB
 90
        0
102
RTVSPost2010PropOp41
 70
     1
102
RTVSPost2010Prop42
 90
       50
102
RTVSPost2010PropOp42
 70
     1
102
RTVSPost2010Prop43
 90
        3
102
RTVSPost2010PropOp43
 70
     1
102
RTVSPost2010Prop44ColorIndex
 90
        5
102
RTVSPost2010Prop44ColorRGB
 90
      255
102
RTVSPost2010PropOp44
 70
     1
102
RTVSPost2010Prop45
280
     0
102
RTVSPost2010PropOp45
 70
     1
102
RTVSPost2010Prop46
 90
       50
102
RTVSPost2010PropOp46
 70
     1
102
RTVSPost2010Prop47
 90
       50
102
RTVSPost2010PropOp47
 70
     1
102
RTVSPost2010Prop48
 90
       50
102
RTVSPost2010PropOp48
 70
     1
102
RTVSPost2010Prop49
280
     0
102
RTVSPost2010PropOp49
 70
     1
102
RTVSPost2010Prop50
 90
       50
102
RTVSPost2010PropOp50
 70
     1
102
RTVSPost2010Prop51ColorIndex
 90
      256
102
RTVSPost2010Prop51ColorRGB
 90
-16777216
102
RTVSPost2010PropOp51
 70
     0
102
RTVSPost2010Prop52
140
1.0
102
RTVSPost2010PropOp52
 70
     0
102
RTVSPost2010Prop53
 90
        2
102
RTVSPost2010PropOp53
 70
     1
102
RTVSPost2010Prop54
  1
strokes_ogs.tif
102
RTVSPost2010PropOp54
 70
     1
102
RTVSPost2010Prop55
280
     0
102
RTVSPost2010PropOp55
 70
     1
102
RTVSPost2010Prop56
140
1.0
102
RTVSPost2010PropOp56
 70
     1
102
RTVSPost2010Prop57
140
1.0
102
RTVSPost2010PropOp57
 70
     1
102
RTVSPropertyOp0
 70
     1
102
RTVSPropertyOp1
 70
     1
102
RTVSPropertyOp2
 70
     1
102
RTVSPropertyOp3
 70
     1
102
RTVSPropertyOp4
 70
     1
102
RTVSPropertyOp5
 70
     1
102
RTVSPropertyOp6
 70
     1
102
RTVSPropertyOp7
 70
     1
102
RTVSPropertyOp8
 70
     1
102
RTVSPropertyOp9
 70
     1
102
RTVSPropertyOp10
 70
     1
102
RTVSPropertyOp11
 70
     1
102
RTVSPropertyOp12
 70
     1
102
RTVSPropertyOp13
 70
     1
102
RTVSPropertyOp14
 70
     1
102
RTVSPropertyOp15
 70
     1
102
RTVSPropertyOp16
 70
     1
102
RTVSPropertyOp17
 70
     1
102
RTVSPropertyOp18
 70
     1
102
RTVSPropertyOp19
 70
     1
102
RTVSPropertyOp20
 70
     1
102
RTVSPropertyOp21
 70
     1
102
RTVSPropertyOp22
 70
     1
102
RTVSPropertyOp23
 70
     1
102
RTVSPropertyOp24
 70
     1
102
RTVSPropertyOp25
 70
     1
102
RTVSPropertyOp26
 70
     1
102
RTVSPropertyOp27
 70
     1
102
RTVSPropertyOp28
 70
     1
102
RTVSPropertyOp29
 70
     1
102
RTVSPropertyOp30
 70
     1
102
RTVSPropertyOp31
 70
     1
102
RTVSPropertyOp32
 70
     1
102
RTVSPropertyOp33
 70
     1
102
RTVSPropertyOp34
 70
     1
102
RTVSPropertyOp35
 70
     1
102
RTVSPropertyOp36
 70
     1
102
RTVSPropertyOp37
 70
     1
102
RTVSPropertyOp38
 70
     1
102
RTVSPropertyOp39
 70
     1
102
RTVSPropertyOp40
 70
     1
102
RTVSPropertyOp41
 70
     1
102
RTVSPropertyOp42
 70
     1
102
RTVSPropertyOp43
 70
     1
102
RTVSPropertyOp44
 70
     1
102
RTVSPropertyOp45
 70
     1
102
RTVSPropertyOp46
 70
     1
102
RTVSPropertyOp47
 70
     1
102
RTVSPropertyOp48
 70
     1
102
RTVSPropertyOp49
 70
     1
102
RTVSPropertyOp50
 70
     1
102
RTVSPropertyOp51
 70
     0
102
RTVSPropertyOp52
 70
     0
102
RTVSPropertyOp53
 70
     1
102
RTVSPropertyOp54
 70
     1
102
RTVSPropertyOp55
 70
     1
102
RTVSPropertyOp56
 70
     1
102
RTVSPropertyOp57
 70
     1
102
RTVSPropertyOp58
 70
     1
102
RTVSPropertyOp59
 70
     1
102
RTVSPropertyOp60
 70
     1
102
RTVSPropertyOp61
 70
     1
102
RTVSPropertyOp62
 70
     1
  0
XRECORD
  5
446
102
{ACAD_REACTORS
330
445
102
}
330
445
100
AcDbXrecord
280
     1
102
RTVSPost2010Prop28
280
     0
102
RTVSPost2010PropOp28
 70
     1
102
RTVSPost2010Prop29
280
     1
102
RTVSPost2010PropOp29
 70
     1
102
RTVSPost2010Prop30
280
     1
102
RTVSPost2010PropOp30
 70
     1
102
RTVSPost2010Prop31
280
     0
102
RTVSPost2010PropOp31
 70
     1
102
RTVSPost2010Prop32
280
     0
102
RTVSPost2010PropOp32
 70
     1
102
RTVSPost2010Prop33
280
     0
102
RTVSPost2010PropOp33
 70
     1
102
RTVSPost2010Prop34
280
     0
102
RTVSPost2010PropOp34
 70
     1
102
RTVSPost2010Prop35
280
     0
102
RTVSPost2010PropOp35
 70
     1
102
RTVSPost2010Prop36
280
     0
102
RTVSPost2010PropOp36
 70
     1
102
RTVSPost2010Prop37
 90
       50
102
RTVSPost2010PropOp37
 70
     1
102
RTVSPost2010Prop38
140
0.0
102
RTVSPost2010PropOp38
 70
     1
102
RTVSPost2010Prop39
140
1.0
102
RTVSPost2010PropOp39
 70
     1
102
RTVSPost2010Prop40
 90
        0
102
RTVSPost2010PropOp40
 70
     1
102
RTVSPost2010Prop41ColorIndex
 90
       18
102
RTVSPost2010Prop41ColorRGB
 90
        0
102
RTVSPost2010PropOp41
 70
     1
102
RTVSPost2010Prop42
 90
       50
102
RTVSPost2010PropOp42
 70
     1
102
RTVSPost2010Prop43
 90
        3
102
RTVSPost2010PropOp43
 70
     1
102
RTVSPost2010Prop44ColorIndex
 90
        5
102
RTVSPost2010Prop44ColorRGB
 90
      255
102
RTVSPost2010PropOp44
 70
     1
102
RTVSPost2010Prop45
280
     0
102
RTVSPost2010PropOp45
 70
     1
102
RTVSPost2010Prop46
 90
       50
102
RTVSPost2010PropOp46
 70
     1
102
RTVSPost2010Prop47
 90
       50
102
RTVSPost2010PropOp47
 70
     1
102
RTVSPost2010Prop48
 90
       50
102
RTVSPost2010PropOp48
 70
     1
102
RTVSPost2010Prop49
280
     0
102
RTVSPost2010PropOp49
 70
     1
102
RTVSPost2010Prop50
 90
       50
102
RTVSPost2010PropOp50
 70
     1
102
RTVSPost2010Prop51ColorIndex
 90
      256
102
RTVSPost2010Prop51ColorRGB
 90
-16777216
102
RTVSPost2010PropOp51
 70
     0
102
RTVSPost2010Prop52
140
1.0
102
RTVSPost2010PropOp52
 70
     0
102
RTVSPost2010Prop53
 90
        2
102
RTVSPost2010PropOp53
 70
     1
102
RTVSPost2010Prop54
  1
strokes_ogs.tif
102
RTVSPost2010PropOp54
 70
     1
102
RTVSPost2010Prop55
280
     0
102
RTVSPost2010PropOp55
 70
     1
102
RTVSPost2010Prop56
140
1.0
102
RTVSPost2010PropOp56
 70
     1
102
RTVSPost2010Prop57
140
1.0
102
RTVSPost2010PropOp57
 70
     1
102
RTVSPropertyOp0
 70
     1
102
RTVSPropertyOp1
 70
     1
102
RTVSPropertyOp2
 70
     1
102
RTVSPropertyOp3
 70
     1
102
RTVSPropertyOp4
 70
     1
102
RTVSPropertyOp5
 70
     1
102
RTVSPropertyOp6
 70
     1
102
RTVSPropertyOp7
 70
     1
102
RTVSPropertyOp8
 70
     1
102
RTVSPropertyOp9
 70
     1
102
RTVSPropertyOp10
 70
     1
102
RTVSPropertyOp11
 70
     1
102
RTVSPropertyOp12
 70
     1
102
RTVSPropertyOp13
 70
     1
102
RTVSPropertyOp14
 70
     1
102
RTVSPropertyOp15
 70
     1
102
RTVSPropertyOp16
 70
     1
102
RTVSPropertyOp17
 70
     1
102
RTVSPropertyOp18
 70
     1
102
RTVSPropertyOp19
 70
     1
102
RTVSPropertyOp20
 70
     1
102
RTVSPropertyOp21
 70
     1
102
RTVSPropertyOp22
 70
     1
102
RTVSPropertyOp23
 70
     1
102
RTVSPropertyOp24
 70
     1
102
RTVSPropertyOp25
 70
     1
102
RTVSPropertyOp26
 70
     1
102
RTVSPropertyOp27
 70
     1
102
RTVSPropertyOp28
 70
     1
102
RTVSPropertyOp29
 70
     1
102
RTVSPropertyOp30
 70
     1
102
RTVSPropertyOp31
 70
     1
102
RTVSPropertyOp32
 70
     1
102
RTVSPropertyOp33
 70
     1
102
RTVSPropertyOp34
 70
     1
102
RTVSPropertyOp35
 70
     1
102
RTVSPropertyOp36
 70
     1
102
RTVSPropertyOp37
 70
     1
102
RTVSPropertyOp38
 70
     1
102
RTVSPropertyOp39
 70
     1
102
RTVSPropertyOp40
 70
     1
102
RTVSPropertyOp41
 70
     1
102
RTVSPropertyOp42
 70
     1
102
RTVSPropertyOp43
 70
     1
102
RTVSPropertyOp44
 70
     1
102
RTVSPropertyOp45
 70
     1
102
RTVSPropertyOp46
 70
     1
102
RTVSPropertyOp47
 70
     1
102
RTVSPropertyOp48
 70
     1
102
RTVSPropertyOp49
 70
     1
102
RTVSPropertyOp50
 70
     1
102
RTVSPropertyOp51
 70
     0
102
RTVSPropertyOp52
 70
     0
102
RTVSPropertyOp53
 70
     1
102
RTVSPropertyOp54
 70
     1
102
RTVSPropertyOp55
 70
     1
102
RTVSPropertyOp56
 70
     1
102
RTVSPropertyOp57
 70
     1
102
RTVSPropertyOp58
 70
     1
102
RTVSPropertyOp59
 70
     1
102
RTVSPropertyOp60
 70
     1
102
RTVSPropertyOp61
 70
     1
102
RTVSPropertyOp62
 70
     1
  0
XRECORD
  5
440
102
{ACAD_REACTORS
330
43F
102
}
330
43F
100
AcDbXrecord
280
     1
102
RTVSPost2010Prop28
280
     0
102
RTVSPost2010PropOp28
 70
     1
102
RTVSPost2010Prop29
280
     1
102
RTVSPost2010PropOp29
 70
     1
102
RTVSPost2010Prop30
280
     1
102
RTVSPost2010PropOp30
 70
     1
102
RTVSPost2010Prop31
280
     0
102
RTVSPost2010PropOp31
 70
     1
102
RTVSPost2010Prop32
280
     0
102
RTVSPost2010PropOp32
 70
     1
102
RTVSPost2010Prop33
280
     0
102
RTVSPost2010PropOp33
 70
     1
102
RTVSPost2010Prop34
280
     0
102
RTVSPost2010PropOp34
 70
     1
102
RTVSPost2010Prop35
280
     0
102
RTVSPost2010PropOp35
 70
     1
102
RTVSPost2010Prop36
280
     0
102
RTVSPost2010PropOp36
 70
     1
102
RTVSPost2010Prop37
 90
       50
102
RTVSPost2010PropOp37
 70
     1
102
RTVSPost2010Prop38
140
0.0
102
RTVSPost2010PropOp38
 70
     1
102
RTVSPost2010Prop39
140
1.0
102
RTVSPost2010PropOp39
 70
     1
102
RTVSPost2010Prop40
 90
        0
102
RTVSPost2010PropOp40
 70
     1
102
RTVSPost2010Prop41ColorIndex
 90
       18
102
RTVSPost2010Prop41ColorRGB
 90
        0
102
RTVSPost2010PropOp41
 70
     1
102
RTVSPost2010Prop42
 90
       50
102
RTVSPost2010PropOp42
 70
     1
102
RTVSPost2010Prop43
 90
        3
102
RTVSPost2010PropOp43
 70
     1
102
RTVSPost2010Prop44ColorIndex
 90
        5
102
RTVSPost2010Prop44ColorRGB
 90
      255
102
RTVSPost2010PropOp44
 70
     1
102
RTVSPost2010Prop45
280
     0
102
RTVSPost2010PropOp45
 70
     1
102
RTVSPost2010Prop46
 90
       50
102
RTVSPost2010PropOp46
 70
     1
102
RTVSPost2010Prop47
 90
       50
102
RTVSPost2010PropOp47
 70
     1
102
RTVSPost2010Prop48
 90
       50
102
RTVSPost2010PropOp48
 70
     1
102
RTVSPost2010Prop49
280
     0
102
RTVSPost2010PropOp49
 70
     1
102
RTVSPost2010Prop50
 90
       50
102
RTVSPost2010PropOp50
 70
     1
102
RTVSPost2010Prop51ColorIndex
 90
      256
102
RTVSPost2010Prop51ColorRGB
 90
-16777216
102
RTVSPost2010PropOp51
 70
     0
102
RTVSPost2010Prop52
140
1.0
102
RTVSPost2010PropOp52
 70
     0
102
RTVSPost2010Prop53
 90
        2
102
RTVSPost2010PropOp53
 70
     1
102
RTVSPost2010Prop54
  1
strokes_ogs.tif
102
RTVSPost2010PropOp54
 70
     1
102
RTVSPost2010Prop55
280
     0
102
RTVSPost2010PropOp55
 70
     1
102
RTVSPost2010Prop56
140
1.0
102
RTVSPost2010PropOp56
 70
     1
102
RTVSPost2010Prop57
140
1.0
102
RTVSPost2010PropOp57
 70
     1
102
RTVSPropertyOp0
 70
     1
102
RTVSPropertyOp1
 70
     1
102
RTVSPropertyOp2
 70
     1
102
RTVSPropertyOp3
 70
     1
102
RTVSPropertyOp4
 70
     1
102
RTVSPropertyOp5
 70
     1
102
RTVSPropertyOp6
 70
     1
102
RTVSPropertyOp7
 70
     1
102
RTVSPropertyOp8
 70
     1
102
RTVSPropertyOp9
 70
     1
102
RTVSPropertyOp10
 70
     1
102
RTVSPropertyOp11
 70
     1
102
RTVSPropertyOp12
 70
     1
102
RTVSPropertyOp13
 70
     1
102
RTVSPropertyOp14
 70
     1
102
RTVSPropertyOp15
 70
     1
102
RTVSPropertyOp16
 70
     1
102
RTVSPropertyOp17
 70
     1
102
RTVSPropertyOp18
 70
     1
102
RTVSPropertyOp19
 70
     1
102
RTVSPropertyOp20
 70
     1
102
RTVSPropertyOp21
 70
     1
102
RTVSPropertyOp22
 70
     1
102
RTVSPropertyOp23
 70
     1
102
RTVSPropertyOp24
 70
     1
102
RTVSPropertyOp25
 70
     1
102
RTVSPropertyOp26
 70
     1
102
RTVSPropertyOp27
 70
     1
102
RTVSPropertyOp28
 70
     1
102
RTVSPropertyOp29
 70
     1
102
RTVSPropertyOp30
 70
     1
102
RTVSPropertyOp31
 70
     1
102
RTVSPropertyOp32
 70
     1
102
RTVSPropertyOp33
 70
     1
102
RTVSPropertyOp34
 70
     1
102
RTVSPropertyOp35
 70
     1
102
RTVSPropertyOp36
 70
     1
102
RTVSPropertyOp37
 70
     1
102
RTVSPropertyOp38
 70
     1
102
RTVSPropertyOp39
 70
     1
102
RTVSPropertyOp40
 70
     1
102
RTVSPropertyOp41
 70
     1
102
RTVSPropertyOp42
 70
     1
102
RTVSPropertyOp43
 70
     1
102
RTVSPropertyOp44
 70
     1
102
RTVSPropertyOp45
 70
     1
102
RTVSPropertyOp46
 70
     1
102
RTVSPropertyOp47
 70
     1
102
RTVSPropertyOp48
 70
     1
102
RTVSPropertyOp49
 70
     1
102
RTVSPropertyOp50
 70
     1
102
RTVSPropertyOp51
 70
     0
102
RTVSPropertyOp52
 70
     0
102
RTVSPropertyOp53
 70
     1
102
RTVSPropertyOp54
 70
     1
102
RTVSPropertyOp55
 70
     1
102
RTVSPropertyOp56
 70
     1
102
RTVSPropertyOp57
 70
     1
102
RTVSPropertyOp58
 70
     1
102
RTVSPropertyOp59
 70
     1
102
RTVSPropertyOp60
 70
     1
102
RTVSPropertyOp61
 70
     1
102
RTVSPropertyOp62
 70
     1
  0
XRECORD
  5
442
102
{ACAD_REACTORS
330
441
102
}
330
441
100
AcDbXrecord
280
     1
102
RTVSPost2010Prop28
280
     0
102
RTVSPost2010PropOp28
 70
     1
102
RTVSPost2010Prop29
280
     1
102
RTVSPost2010PropOp29
 70
     1
102
RTVSPost2010Prop30
280
     1
102
RTVSPost2010PropOp30
 70
     1
102
RTVSPost2010Prop31
280
     0
102
RTVSPost2010PropOp31
 70
     1
102
RTVSPost2010Prop32
280
     0
102
RTVSPost2010PropOp32
 70
     1
102
RTVSPost2010Prop33
280
     0
102
RTVSPost2010PropOp33
 70
     1
102
RTVSPost2010Prop34
280
     0
102
RTVSPost2010PropOp34
 70
     1
102
RTVSPost2010Prop35
280
     0
102
RTVSPost2010PropOp35
 70
     1
102
RTVSPost2010Prop36
280
     0
102
RTVSPost2010PropOp36
 70
     1
102
RTVSPost2010Prop37
 90
       50
102
RTVSPost2010PropOp37
 70
     1
102
RTVSPost2010Prop38
140
0.0
102
RTVSPost2010PropOp38
 70
     1
102
RTVSPost2010Prop39
140
1.0
102
RTVSPost2010PropOp39
 70
     1
102
RTVSPost2010Prop40
 90
        0
102
RTVSPost2010PropOp40
 70
     1
102
RTVSPost2010Prop41ColorIndex
 90
       18
102
RTVSPost2010Prop41ColorRGB
 90
        0
102
RTVSPost2010PropOp41
 70
     1
102
RTVSPost2010Prop42
 90
       50
102
RTVSPost2010PropOp42
 70
     1
102
RTVSPost2010Prop43
 90
        3
102
RTVSPost2010PropOp43
 70
     1
102
RTVSPost2010Prop44ColorIndex
 90
        5
102
RTVSPost2010Prop44ColorRGB
 90
      255
102
RTVSPost2010PropOp44
 70
     1
102
RTVSPost2010Prop45
280
     0
102
RTVSPost2010PropOp45
 70
     1
102
RTVSPost2010Prop46
 90
       50
102
RTVSPost2010PropOp46
 70
     1
102
RTVSPost2010Prop47
 90
       50
102
RTVSPost2010PropOp47
 70
     1
102
RTVSPost2010Prop48
 90
       50
102
RTVSPost2010PropOp48
 70
     1
102
RTVSPost2010Prop49
280
     0
102
RTVSPost2010PropOp49
 70
     1
102
RTVSPost2010Prop50
 90
       50
102
RTVSPost2010PropOp50
 70
     1
102
RTVSPost2010Prop51ColorIndex
 90
      256
102
RTVSPost2010Prop51ColorRGB
 90
-16777216
102
RTVSPost2010PropOp51
 70
     0
102
RTVSPost2010Prop52
140
1.0
102
RTVSPost2010PropOp52
 70
     0
102
RTVSPost2010Prop53
 90
        2
102
RTVSPost2010PropOp53
 70
     1
102
RTVSPost2010Prop54
  1
strokes_ogs.tif
102
RTVSPost2010PropOp54
 70
     1
102
RTVSPost2010Prop55
280
     0
102
RTVSPost2010PropOp55
 70
     1
102
RTVSPost2010Prop56
140
1.0
102
RTVSPost2010PropOp56
 70
     1
102
RTVSPost2010Prop57
140
1.0
102
RTVSPost2010PropOp57
 70
     1
102
RTVSPropertyOp0
 70
     1
102
RTVSPropertyOp1
 70
     1
102
RTVSPropertyOp2
 70
     1
102
RTVSPropertyOp3
 70
     1
102
RTVSPropertyOp4
 70
     1
102
RTVSPropertyOp5
 70
     1
102
RTVSPropertyOp6
 70
     1
102
RTVSPropertyOp7
 70
     1
102
RTVSPropertyOp8
 70
     1
102
RTVSPropertyOp9
 70
     1
102
RTVSPropertyOp10
 70
     1
102
RTVSPropertyOp11
 70
     1
102
RTVSPropertyOp12
 70
     1
102
RTVSPropertyOp13
 70
     1
102
RTVSPropertyOp14
 70
     1
102
RTVSPropertyOp15
 70
     1
102
RTVSPropertyOp16
 70
     1
102
RTVSPropertyOp17
 70
     1
102
RTVSPropertyOp18
 70
     1
102
RTVSPropertyOp19
 70
     1
102
RTVSPropertyOp20
 70
     1
102
RTVSPropertyOp21
 70
     1
102
RTVSPropertyOp22
 70
     1
102
RTVSPropertyOp23
 70
     1
102
RTVSPropertyOp24
 70
     1
102
RTVSPropertyOp25
 70
     1
102
RTVSPropertyOp26
 70
     1
102
RTVSPropertyOp27
 70
     1
102
RTVSPropertyOp28
 70
     1
102
RTVSPropertyOp29
 70
     1
102
RTVSPropertyOp30
 70
     1
102
RTVSPropertyOp31
 70
     1
102
RTVSPropertyOp32
 70
     1
102
RTVSPropertyOp33
 70
     1
102
RTVSPropertyOp34
 70
     1
102
RTVSPropertyOp35
 70
     1
102
RTVSPropertyOp36
 70
     1
102
RTVSPropertyOp37
 70
     1
102
RTVSPropertyOp38
 70
     1
102
RTVSPropertyOp39
 70
     1
102
RTVSPropertyOp40
 70
     1
102
RTVSPropertyOp41
 70
     1
102
RTVSPropertyOp42
 70
     1
102
RTVSPropertyOp43
 70
     1
102
RTVSPropertyOp44
 70
     1
102
RTVSPropertyOp45
 70
     1
102
RTVSPropertyOp46
 70
     1
102
RTVSPropertyOp47
 70
     1
102
RTVSPropertyOp48
 70
     1
102
RTVSPropertyOp49
 70
     1
102
RTVSPropertyOp50
 70
     1
102
RTVSPropertyOp51
 70
     0
102
RTVSPropertyOp52
 70
     0
102
RTVSPropertyOp53
 70
     1
102
RTVSPropertyOp54
 70
     1
102
RTVSPropertyOp55
 70
     1
102
RTVSPropertyOp56
 70
     1
102
RTVSPropertyOp57
 70
     1
102
RTVSPropertyOp58
 70
     1
102
RTVSPropertyOp59
 70
     1
102
RTVSPropertyOp60
 70
     1
102
RTVSPropertyOp61
 70
     1
102
RTVSPropertyOp62
 70
     1
  0
XRECORD
  5
438
102
{ACAD_REACTORS
330
437
102
}
330
437
100
AcDbXrecord
280
     1
102
RTVSPost2010Prop28
280
     0
102
RTVSPost2010PropOp28
 70
     1
102
RTVSPost2010Prop29
280
     1
102
RTVSPost2010PropOp29
 70
     1
102
RTVSPost2010Prop30
280
     1
102
RTVSPost2010PropOp30
 70
     1
102
RTVSPost2010Prop31
280
     0
102
RTVSPost2010PropOp31
 70
     1
102
RTVSPost2010Prop32
280
     0
102
RTVSPost2010PropOp32
 70
     1
102
RTVSPost2010Prop33
280
     0
102
RTVSPost2010PropOp33
 70
     1
102
RTVSPost2010Prop34
280
     0
102
RTVSPost2010PropOp34
 70
     1
102
RTVSPost2010Prop35
280
     0
102
RTVSPost2010PropOp35
 70
     1
102
RTVSPost2010Prop36
280
     0
102
RTVSPost2010PropOp36
 70
     1
102
RTVSPost2010Prop37
 90
       50
102
RTVSPost2010PropOp37
 70
     1
102
RTVSPost2010Prop38
140
0.0
102
RTVSPost2010PropOp38
 70
     1
102
RTVSPost2010Prop39
140
1.0
102
RTVSPost2010PropOp39
 70
     1
102
RTVSPost2010Prop40
 90
        0
102
RTVSPost2010PropOp40
 70
     1
102
RTVSPost2010Prop41ColorIndex
 90
       18
102
RTVSPost2010Prop41ColorRGB
 90
        0
102
RTVSPost2010PropOp41
 70
     1
102
RTVSPost2010Prop42
 90
       50
102
RTVSPost2010PropOp42
 70
     1
102
RTVSPost2010Prop43
 90
        3
102
RTVSPost2010PropOp43
 70
     1
102
RTVSPost2010Prop44ColorIndex
 90
        5
102
RTVSPost2010Prop44ColorRGB
 90
      255
102
RTVSPost2010PropOp44
 70
     1
102
RTVSPost2010Prop45
280
     0
102
RTVSPost2010PropOp45
 70
     1
102
RTVSPost2010Prop46
 90
       50
102
RTVSPost2010PropOp46
 70
     1
102
RTVSPost2010Prop47
 90
       50
102
RTVSPost2010PropOp47
 70
     1
102
RTVSPost2010Prop48
 90
       50
102
RTVSPost2010PropOp48
 70
     1
102
RTVSPost2010Prop49
280
     0
102
RTVSPost2010PropOp49
 70
     1
102
RTVSPost2010Prop50
 90
       50
102
RTVSPost2010PropOp50
 70
     1
102
RTVSPost2010Prop51ColorIndex
 90
      256
102
RTVSPost2010Prop51ColorRGB
 90
-16777216
102
RTVSPost2010PropOp51
 70
     0
102
RTVSPost2010Prop52
140
1.0
102
RTVSPost2010PropOp52
 70
     0
102
RTVSPost2010Prop53
 90
        2
102
RTVSPost2010PropOp53
 70
     1
102
RTVSPost2010Prop54
  1
strokes_ogs.tif
102
RTVSPost2010PropOp54
 70
     1
102
RTVSPost2010Prop55
280
     0
102
RTVSPost2010PropOp55
 70
     1
102
RTVSPost2010Prop56
140
1.0
102
RTVSPost2010PropOp56
 70
     1
102
RTVSPost2010Prop57
140
1.0
102
RTVSPost2010PropOp57
 70
     1
102
RTVSPropertyOp0
 70
     1
102
RTVSPropertyOp1
 70
     1
102
RTVSPropertyOp2
 70
     1
102
RTVSPropertyOp3
 70
     1
102
RTVSPropertyOp4
 70
     1
102
RTVSPropertyOp5
 70
     1
102
RTVSPropertyOp6
 70
     1
102
RTVSPropertyOp7
 70
     1
102
RTVSPropertyOp8
 70
     1
102
RTVSPropertyOp9
 70
     1
102
RTVSPropertyOp10
 70
     1
102
RTVSPropertyOp11
 70
     1
102
RTVSPropertyOp12
 70
     1
102
RTVSPropertyOp13
 70
     1
102
RTVSPropertyOp14
 70
     1
102
RTVSPropertyOp15
 70
     1
102
RTVSPropertyOp16
 70
     1
102
RTVSPropertyOp17
 70
     1
102
RTVSPropertyOp18
 70
     1
102
RTVSPropertyOp19
 70
     1
102
RTVSPropertyOp20
 70
     1
102
RTVSPropertyOp21
 70
     1
102
RTVSPropertyOp22
 70
     1
102
RTVSPropertyOp23
 70
     1
102
RTVSPropertyOp24
 70
     1
102
RTVSPropertyOp25
 70
     1
102
RTVSPropertyOp26
 70
     1
102
RTVSPropertyOp27
 70
     1
102
RTVSPropertyOp28
 70
     1
102
RTVSPropertyOp29
 70
     1
102
RTVSPropertyOp30
 70
     1
102
RTVSPropertyOp31
 70
     1
102
RTVSPropertyOp32
 70
     1
102
RTVSPropertyOp33
 70
     1
102
RTVSPropertyOp34
 70
     1
102
RTVSPropertyOp35
 70
     1
102
RTVSPropertyOp36
 70
     1
102
RTVSPropertyOp37
 70
     1
102
RTVSPropertyOp38
 70
     1
102
RTVSPropertyOp39
 70
     1
102
RTVSPropertyOp40
 70
     1
102
RTVSPropertyOp41
 70
     1
102
RTVSPropertyOp42
 70
     1
102
RTVSPropertyOp43
 70
     1
102
RTVSPropertyOp44
 70
     1
102
RTVSPropertyOp45
 70
     1
102
RTVSPropertyOp46
 70
     1
102
RTVSPropertyOp47
 70
     1
102
RTVSPropertyOp48
 70
     1
102
RTVSPropertyOp49
 70
     1
102
RTVSPropertyOp50
 70
     1
102
RTVSPropertyOp51
 70
     0
102
RTVSPropertyOp52
 70
     0
102
RTVSPropertyOp53
 70
     1
102
RTVSPropertyOp54
 70
     1
102
RTVSPropertyOp55
 70
     1
102
RTVSPropertyOp56
 70
     1
102
RTVSPropertyOp57
 70
     1
102
RTVSPropertyOp58
 70
     1
102
RTVSPropertyOp59
 70
     1
102
RTVSPropertyOp60
 70
     1
102
RTVSPropertyOp61
 70
     1
102
RTVSPropertyOp62
 70
     1
  0
XRECORD
  5
42C
102
{ACAD_REACTORS
330
42B
102
}
330
42B
100
AcDbXrecord
280
     1
102
RTVSPost2010Prop28
280
     0
102
RTVSPost2010PropOp28
 70
     1
102
RTVSPost2010Prop29
280
     1
102
RTVSPost2010PropOp29
 70
     1
102
RTVSPost2010Prop30
280
     1
102
RTVSPost2010PropOp30
 70
     1
102
RTVSPost2010Prop31
280
     0
102
RTVSPost2010PropOp31
 70
     1
102
RTVSPost2010Prop32
280
     0
102
RTVSPost2010PropOp32
 70
     1
102
RTVSPost2010Prop33
280
     0
102
RTVSPost2010PropOp33
 70
     1
102
RTVSPost2010Prop34
280
     0
102
RTVSPost2010PropOp34
 70
     1
102
RTVSPost2010Prop35
280
     0
102
RTVSPost2010PropOp35
 70
     1
102
RTVSPost2010Prop36
280
     0
102
RTVSPost2010PropOp36
 70
     1
102
RTVSPost2010Prop37
 90
       50
102
RTVSPost2010PropOp37
 70
     1
102
RTVSPost2010Prop38
140
0.0
102
RTVSPost2010PropOp38
 70
     1
102
RTVSPost2010Prop39
140
1.0
102
RTVSPost2010PropOp39
 70
     1
102
RTVSPost2010Prop40
 90
        0
102
RTVSPost2010PropOp40
 70
     1
102
RTVSPost2010Prop41ColorIndex
 90
       18
102
RTVSPost2010Prop41ColorRGB
 90
        0
102
RTVSPost2010PropOp41
 70
     1
102
RTVSPost2010Prop42
 90
       50
102
RTVSPost2010PropOp42
 70
     1
102
RTVSPost2010Prop43
 90
        3
102
RTVSPost2010PropOp43
 70
     1
102
RTVSPost2010Prop44ColorIndex
 90
        5
102
RTVSPost2010Prop44ColorRGB
 90
      255
102
RTVSPost2010PropOp44
 70
     1
102
RTVSPost2010Prop45
280
     0
102
RTVSPost2010PropOp45
 70
     1
102
RTVSPost2010Prop46
 90
       50
102
RTVSPost2010PropOp46
 70
     1
102
RTVSPost2010Prop47
 90
       50
102
RTVSPost2010PropOp47
 70
     1
102
RTVSPost2010Prop48
 90
       50
102
RTVSPost2010PropOp48
 70
     1
102
RTVSPost2010Prop49
280
     0
102
RTVSPost2010PropOp49
 70
     1
102
RTVSPost2010Prop50
 90
       50
102
RTVSPost2010PropOp50
 70
     1
102
RTVSPost2010Prop51ColorIndex
 90
      256
102
RTVSPost2010Prop51ColorRGB
 90
-16777216
102
RTVSPost2010PropOp51
 70
     0
102
RTVSPost2010Prop52
140
1.0
102
RTVSPost2010PropOp52
 70
     0
102
RTVSPost2010Prop53
 90
        2
102
RTVSPost2010PropOp53
 70
     1
102
RTVSPost2010Prop54
  1
strokes_ogs.tif
102
RTVSPost2010PropOp54
 70
     1
102
RTVSPost2010Prop55
280
     0
102
RTVSPost2010PropOp55
 70
     1
102
RTVSPost2010Prop56
140
1.0
102
RTVSPost2010PropOp56
 70
     1
102
RTVSPost2010Prop57
140
1.0
102
RTVSPost2010PropOp57
 70
     1
102
RTVSPropertyOp0
 70
     1
102
RTVSPropertyOp1
 70
     1
102
RTVSPropertyOp2
 70
     1
102
RTVSPropertyOp3
 70
     1
102
RTVSPropertyOp4
 70
     1
102
RTVSPropertyOp5
 70
     1
102
RTVSPropertyOp6
 70
     1
102
RTVSPropertyOp7
 70
     1
102
RTVSPropertyOp8
 70
     1
102
RTVSPropertyOp9
 70
     1
102
RTVSPropertyOp10
 70
     1
102
RTVSPropertyOp11
 70
     1
102
RTVSPropertyOp12
 70
     1
102
RTVSPropertyOp13
 70
     1
102
RTVSPropertyOp14
 70
     1
102
RTVSPropertyOp15
 70
     1
102
RTVSPropertyOp16
 70
     1
102
RTVSPropertyOp17
 70
     1
102
RTVSPropertyOp18
 70
     1
102
RTVSPropertyOp19
 70
     1
102
RTVSPropertyOp20
 70
     1
102
RTVSPropertyOp21
 70
     1
102
RTVSPropertyOp22
 70
     1
102
RTVSPropertyOp23
 70
     1
102
RTVSPropertyOp24
 70
     1
102
RTVSPropertyOp25
 70
     1
102
RTVSPropertyOp26
 70
     1
102
RTVSPropertyOp27
 70
     1
102
RTVSPropertyOp28
 70
     1
102
RTVSPropertyOp29
 70
     1
102
RTVSPropertyOp30
 70
     1
102
RTVSPropertyOp31
 70
     1
102
RTVSPropertyOp32
 70
     1
102
RTVSPropertyOp33
 70
     1
102
RTVSPropertyOp34
 70
     1
102
RTVSPropertyOp35
 70
     1
102
RTVSPropertyOp36
 70
     1
102
RTVSPropertyOp37
 70
     1
102
RTVSPropertyOp38
 70
     1
102
RTVSPropertyOp39
 70
     1
102
RTVSPropertyOp40
 70
     1
102
RTVSPropertyOp41
 70
     1
102
RTVSPropertyOp42
 70
     1
102
RTVSPropertyOp43
 70
     1
102
RTVSPropertyOp44
 70
     1
102
RTVSPropertyOp45
 70
     1
102
RTVSPropertyOp46
 70
     1
102
RTVSPropertyOp47
 70
     1
102
RTVSPropertyOp48
 70
     1
102
RTVSPropertyOp49
 70
     1
102
RTVSPropertyOp50
 70
     1
102
RTVSPropertyOp51
 70
     0
102
RTVSPropertyOp52
 70
     0
102
RTVSPropertyOp53
 70
     1
102
RTVSPropertyOp54
 70
     1
102
RTVSPropertyOp55
 70
     1
102
RTVSPropertyOp56
 70
     1
102
RTVSPropertyOp57
 70
     1
102
RTVSPropertyOp58
 70
     1
102
RTVSPropertyOp59
 70
     1
102
RTVSPropertyOp60
 70
     1
102
RTVSPropertyOp61
 70
     1
102
RTVSPropertyOp62
 70
     1
  0
XRECORD
  5
444
102
{ACAD_REACTORS
330
443
102
}
330
443
100
AcDbXrecord
280
     1
102
RTVSPost2010Prop28
280
     0
102
RTVSPost2010PropOp28
 70
     1
102
RTVSPost2010Prop29
280
     1
102
RTVSPost2010PropOp29
 70
     1
102
RTVSPost2010Prop30
280
     1
102
RTVSPost2010PropOp30
 70
     1
102
RTVSPost2010Prop31
280
     0
102
RTVSPost2010PropOp31
 70
     1
102
RTVSPost2010Prop32
280
     0
102
RTVSPost2010PropOp32
 70
     1
102
RTVSPost2010Prop33
280
     0
102
RTVSPost2010PropOp33
 70
     1
102
RTVSPost2010Prop34
280
     0
102
RTVSPost2010PropOp34
 70
     1
102
RTVSPost2010Prop35
280
     0
102
RTVSPost2010PropOp35
 70
     1
102
RTVSPost2010Prop36
280
     0
102
RTVSPost2010PropOp36
 70
     1
102
RTVSPost2010Prop37
 90
       50
102
RTVSPost2010PropOp37
 70
     1
102
RTVSPost2010Prop38
140
0.0
102
RTVSPost2010PropOp38
 70
     1
102
RTVSPost2010Prop39
140
1.0
102
RTVSPost2010PropOp39
 70
     1
102
RTVSPost2010Prop40
 90
        0
102
RTVSPost2010PropOp40
 70
     1
102
RTVSPost2010Prop41ColorIndex
 90
       18
102
RTVSPost2010Prop41ColorRGB
 90
        0
102
RTVSPost2010PropOp41
 70
     1
102
RTVSPost2010Prop42
 90
       50
102
RTVSPost2010PropOp42
 70
     1
102
RTVSPost2010Prop43
 90
        3
102
RTVSPost2010PropOp43
 70
     1
102
RTVSPost2010Prop44ColorIndex
 90
        5
102
RTVSPost2010Prop44ColorRGB
 90
      255
102
RTVSPost2010PropOp44
 70
     1
102
RTVSPost2010Prop45
280
     0
102
RTVSPost2010PropOp45
 70
     1
102
RTVSPost2010Prop46
 90
       50
102
RTVSPost2010PropOp46
 70
     1
102
RTVSPost2010Prop47
 90
       50
102
RTVSPost2010PropOp47
 70
     1
102
RTVSPost2010Prop48
 90
       50
102
RTVSPost2010PropOp48
 70
     1
102
RTVSPost2010Prop49
280
     0
102
RTVSPost2010PropOp49
 70
     1
102
RTVSPost2010Prop50
 90
       50
102
RTVSPost2010PropOp50
 70
     1
102
RTVSPost2010Prop51ColorIndex
 90
      256
102
RTVSPost2010Prop51ColorRGB
 90
-16777216
102
RTVSPost2010PropOp51
 70
     0
102
RTVSPost2010Prop52
140
1.0
102
RTVSPost2010PropOp52
 70
     0
102
RTVSPost2010Prop53
 90
        2
102
RTVSPost2010PropOp53
 70
     1
102
RTVSPost2010Prop54
  1
strokes_ogs.tif
102
RTVSPost2010PropOp54
 70
     1
102
RTVSPost2010Prop55
280
     0
102
RTVSPost2010PropOp55
 70
     1
102
RTVSPost2010Prop56
140
1.0
102
RTVSPost2010PropOp56
 70
     1
102
RTVSPost2010Prop57
140
1.0
102
RTVSPost2010PropOp57
 70
     1
102
RTVSPropertyOp0
 70
     1
102
RTVSPropertyOp1
 70
     1
102
RTVSPropertyOp2
 70
     1
102
RTVSPropertyOp3
 70
     1
102
RTVSPropertyOp4
 70
     1
102
RTVSPropertyOp5
 70
     1
102
RTVSPropertyOp6
 70
     1
102
RTVSPropertyOp7
 70
     1
102
RTVSPropertyOp8
 70
     1
102
RTVSPropertyOp9
 70
     1
102
RTVSPropertyOp10
 70
     1
102
RTVSPropertyOp11
 70
     1
102
RTVSPropertyOp12
 70
     1
102
RTVSPropertyOp13
 70
     1
102
RTVSPropertyOp14
 70
     1
102
RTVSPropertyOp15
 70
     1
102
RTVSPropertyOp16
 70
     1
102
RTVSPropertyOp17
 70
     1
102
RTVSPropertyOp18
 70
     1
102
RTVSPropertyOp19
 70
     1
102
RTVSPropertyOp20
 70
     1
102
RTVSPropertyOp21
 70
     1
102
RTVSPropertyOp22
 70
     1
102
RTVSPropertyOp23
 70
     1
102
RTVSPropertyOp24
 70
     1
102
RTVSPropertyOp25
 70
     1
102
RTVSPropertyOp26
 70
     1
102
RTVSPropertyOp27
 70
     1
102
RTVSPropertyOp28
 70
     1
102
RTVSPropertyOp29
 70
     1
102
RTVSPropertyOp30
 70
     1
102
RTVSPropertyOp31
 70
     1
102
RTVSPropertyOp32
 70
     1
102
RTVSPropertyOp33
 70
     1
102
RTVSPropertyOp34
 70
     1
102
RTVSPropertyOp35
 70
     1
102
RTVSPropertyOp36
 70
     1
102
RTVSPropertyOp37
 70
     1
102
RTVSPropertyOp38
 70
     1
102
RTVSPropertyOp39
 70
     1
102
RTVSPropertyOp40
 70
     1
102
RTVSPropertyOp41
 70
     1
102
RTVSPropertyOp42
 70
     1
102
RTVSPropertyOp43
 70
     1
102
RTVSPropertyOp44
 70
     1
102
RTVSPropertyOp45
 70
     1
102
RTVSPropertyOp46
 70
     1
102
RTVSPropertyOp47
 70
     1
102
RTVSPropertyOp48
 70
     1
102
RTVSPropertyOp49
 70
     1
102
RTVSPropertyOp50
 70
     1
102
RTVSPropertyOp51
 70
     0
102
RTVSPropertyOp52
 70
     0
102
RTVSPropertyOp53
 70
     1
102
RTVSPropertyOp54
 70
     1
102
RTVSPropertyOp55
 70
     1
102
RTVSPropertyOp56
 70
     1
102
RTVSPropertyOp57
 70
     1
102
RTVSPropertyOp58
 70
     1
102
RTVSPropertyOp59
 70
     1
102
RTVSPropertyOp60
 70
     1
102
RTVSPropertyOp61
 70
     1
102
RTVSPropertyOp62
 70
     1
  0
ENDSEC
  0
EOF
