  0
SECTION
  2
HEADER
  9
$ACADVER
  1
AC1015
  9
$ACADMAINTVER
 70
    20
  9
$DWGCODEPAGE
  3
ANSI_1252
  9
$INSBASE
 10
0.0
 20
0.0
 30
0.0
  9
$EXTMIN
 10
17.9741420121
 20
18.3571605895
 30
0.0
  9
$EXTMAX
 10
131.3076148745
 20
96.59226547360001
 30
0.0
  9
$LIMMIN
 10
0.0
 20
0.0
  9
$LIMMAX
 10
181.3333333333
 20
117.3333333333
  9
$ORTHOMODE
 70
     0
  9
$REGENMODE
 70
     1
  9
$FILLMODE
 70
     1
  9
$QTEXTMODE
 70
     0
  9
$MIRRTEXT
 70
     0
  9
$LTSCALE
 40
9.973333333300001
  9
$ATTMODE
 70
     1
  9
$TEXTSIZE
 40
0.2
  9
$TRACEWID
 40
0.05
  9
$TEXTSTYLE
  7
STANDARD
  9
$CLAYER
  8
0
  9
$CELTYPE
  6
BYLAYER
  9
$CECOLOR
 62
   256
  9
$CELTSCALE
 40
1.0
  9
$DISPSILH
 70
     0
  9
$DIMSCALE
 40
1.0
  9
$DIMASZ
 40
2.0
  9
$DIMEXO
 40
0.0625
  9
$DIMDLI
 40
6.890666666699999
  9
$DIMRND
 40
0.0
  9
$DIMDLE
 40
0.0
  9
$DIMEXE
 40
0.125
  9
$DIMTP
 40
0.001
  9
$DIMTM
 40
0.001
  9
$DIMTXT
 40
1.333333333299999
  9
$DIMCEN
 40
1.631999999999999
  9
$DIMTSZ
 40
0.0
  9
$DIMTOL
 70
     1
  9
$DIMLIM
 70
     0
  9
$DIMTIH
 70
     1
  9
$DIMTOH
 70
     1
  9
$DIMSE1
 70
     0
  9
$DIMSE2
 70
     0
  9
$DIMTAD
 70
     0
  9
$DIMZIN
 70
     0
  9
$DIMBLK
  1
_FILLED
  9
$DIMASO
 70
     1
  9
$DIMSHO
 70
     1
  9
$DIMPOST
  1

  9
$DIMAPOST
  1

  9
$DIMALT
 70
     1
  9
$DIMALTD
 70
     2
  9
$DIMALTF
 40
25.4
  9
$DIMLFAC
 40
1.0
  9
$DIMTOFL
 70
     0
  9
$DIMTVP
 40
0.0
  9
$DIMTIX
 70
     0
  9
$DIMSOXD
 70
     0
  9
$DIMSAH
 70
     0
  9
$DIMBLK1
  1

  9
$DIMBLK2
  1

  9
$DIMSTYLE
  2
STANDARD
  9
$DIMCLRD
 70
     0
  9
$DIMCLRE
 70
     0
  9
$DIMCLRT
 70
     0
  9
$DIMTFAC
 40
1.0
  9
$DIMGAP
 40
0.09
  9
$DIMJUST
 70
     0
  9
$DIMSD1
 70
     0
  9
$DIMSD2
 70
     0
  9
$DIMTOLJ
 70
     1
  9
$DIMTZIN
 70
     0
  9
$DIMALTZ
 70
     0
  9
$DIMALTTZ
 70
     0
  9
$DIMUPT
 70
     0
  9
$DIMDEC
 70
     4
  9
$DIMTDEC
 70
     4
  9
$DIMALTU
 70
     2
  9
$DIMALTTD
 70
     2
  9
$DIMTXSTY
  7
STANDARD
  9
$DIMAUNIT
 70
     0
  9
$DIMADEC
 70
     0
  9
$DIMALTRND
 40
0.0
  9
$DIMAZIN
 70
     0
  9
$DIMDSEP
 70
    46
  9
$DIMATFIT
 70
     3
  9
$DIMFRAC
 70
     0
  9
$DIMLDRBLK
  1

  9
$DIMLUNIT
 70
     2
  9
$DIMLWD
 70
    -2
  9
$DIMLWE
 70
    -2
  9
$DIMTMOVE
 70
     0
  9
$LUNITS
 70
     2
  9
$LUPREC
 70
     4
  9
$SKETCHINC
 40
0.1
  9
$FILLETRAD
 40
0.0
  9
$AUNITS
 70
     0
  9
$AUPREC
 70
     0
  9
$MENU
  1
.
  9
$ELEVATION
 40
0.0
  9
$PELEVATION
 40
0.0
  9
$THICKNESS
 40
0.0
  9
$LIMCHECK
 70
     0
  9
$CHAMFERA
 40
0.0
  9
$CHAMFERB
 40
0.0
  9
$CHAMFERC
 40
0.0
  9
$CHAMFERD
 40
0.0
  9
$SKPOLY
 70
     0
  9
$TDCREATE
 40
2459548.449097222
  9
$TDUCREATE
 40
2459548.657430556
  9
$TDUPDATE
 40
2459548.461666667
  9
$TDUUPDATE
 40
2459548.670000000
  9
$TDINDWG
 40
0.0025925926
  9
$TDUSRTIMER
 40
0.0025925926
  9
$USRTIMER
 70
     1
  9
$ANGBASE
 50
0.0
  9
$ANGDIR
 70
     0
  9
$PDMODE
 70
     3
  9
$PDSIZE
 40
0.03125
  9
$PLINEWID
 40
0.0
  9
$SPLFRAME
 70
     0
  9
$SPLINETYPE
 70
     6
  9
$SPLINESEGS
 70
     8
  9
$HANDSEED
  5
2F12
  9
$SURFTAB1
 70
     6
  9
$SURFTAB2
 70
     6
  9
$SURFTYPE
 70
     6
  9
$SURFU
 70
     6
  9
$SURFV
 70
     6
  9
$UCSBASE
  2

  9
$UCSNAME
  2

  9
$UCSORG
 10
0.0
 20
0.0
 30
0.0
  9
$UCSXDIR
 10
1.0
 20
0.0
 30
0.0
  9
$UCSYDIR
 10
0.0
 20
1.0
 30
0.0
  9
$UCSORTHOREF
  2

  9
$UCSORTHOVIEW
 70
     0
  9
$UCSORGTOP
 10
0.0
 20
0.0
 30
0.0
  9
$UCSORGBOTTOM
 10
0.0
 20
0.0
 30
0.0
  9
$UCSORGLEFT
 10
0.0
 20
0.0
 30
0.0
  9
$UCSORGRIGHT
 10
0.0
 20
0.0
 30
0.0
  9
$UCSORGFRONT
 10
0.0
 20
0.0
 30
0.0
  9
$UCSORGBACK
 10
0.0
 20
0.0
 30
0.0
  9
$PUCSBASE
  2

  9
$PUCSNAME
  2

  9
$PUCSORG
 10
0.0
 20
0.0
 30
0.0
  9
$PUCSXDIR
 10
1.0
 20
0.0
 30
0.0
  9
$PUCSYDIR
 10
0.0
 20
1.0
 30
0.0
  9
$PUCSORTHOREF
  2

  9
$PUCSORTHOVIEW
 70
     0
  9
$PUCSORGTOP
 10
0.0
 20
0.0
 30
0.0
  9
$PUCSORGBOTTOM
 10
0.0
 20
0.0
 30
0.0
  9
$PUCSORGLEFT
 10
0.0
 20
0.0
 30
0.0
  9
$PUCSORGRIGHT
 10
0.0
 20
0.0
 30
0.0
  9
$PUCSORGFRONT
 10
0.0
 20
0.0
 30
0.0
  9
$PUCSORGBACK
 10
0.0
 20
0.0
 30
0.0
  9
$USERI1
 70
     0
  9
$USERI2
 70
     0
  9
$USERI3
 70
     0
  9
$USERI4
 70
     0
  9
$USERI5
 70
     0
  9
$USERR1
 40
0.0
  9
$USERR2
 40
0.0
  9
$USERR3
 40
0.0
  9
$USERR4
 40
0.0
  9
$USERR5
 40
0.0
  9
$WORLDVIEW
 70
     1
  9
$SHADEDGE
 70
     3
  9
$SHADEDIF
 70
    70
  9
$TILEMODE
 70
     1
  9
$MAXACTVP
 70
    64
  9
$PINSBASE
 10
0.0
 20
0.0
 30
0.0
  9
$PLIMCHECK
 70
     0
  9
$PEXTMIN
 10
1.000000000000000E+20
 20
1.000000000000000E+20
 30
1.000000000000000E+20
  9
$PEXTMAX
 10
-1.000000000000000E+20
 20
-1.000000000000000E+20
 30
-1.000000000000000E+20
  9
$PLIMMIN
 10
0.0
 20
0.0
  9
$PLIMMAX
 10
12.0
 20
9.0
  9
$UNITMODE
 70
     0
  9
$VISRETAIN
 70
     1
  9
$PLINEGEN
 70
     0
  9
$PSLTSCALE
 70
     1
  9
$TREEDEPTH
 70
  3020
  9
$CMLSTYLE
  2
Standard
  9
$CMLJUST
 70
     0
  9
$CMLSCALE
 40
1.0
  9
$PROXYGRAPHICS
 70
     1
  9
$MEASUREMENT
 70
     0
  9
$CELWEIGHT
370
    -1
  9
$ENDCAPS
280
     0
  9
$JOINSTYLE
280
     0
  9
$LWDISPLAY
290
     0
  9
$INSUNITS
 70
     1
  9
$HYPERLINKBASE
  1

  9
$STYLESHEET
  1

  9
$XEDIT
290
     1
  9
$CEPSNTYPE
380
     0
  9
$PSTYLEMODE
290
     1
  9
$FINGERPRINTGUID
  2
{D34D6428-3733-EC4C-A0D0-A9DAB58A9F22}
  9
$VERSIONGUID
  2
{F2B43E74-3B71-D64B-9C56-126D9712EFA8}
  9
$EXTNAMES
290
     1
  9
$PSVPSCALE
 40
0.0
  9
$OLESTARTUP
290
     0
  0
ENDSEC
  0
SECTION
  2
CLASSES
  0
CLASS
  1
ACDBDICTIONARYWDFLT
  2
AcDbDictionaryWithDefault
  3
ObjectDBX Classes
 90
        0
280
     0
281
     0
  0
CLASS
  1
ACDBPLACEHOLDER
  2
AcDbPlaceHolder
  3
ObjectDBX Classes
 90
        0
280
     0
281
     0
  0
CLASS
  1
LAYOUT
  2
AcDbLayout
  3
ObjectDBX Classes
 90
        0
280
     0
281
     0
  0
CLASS
  1
RASTERVARIABLES
  2
AcDbRasterVariables
  3
ISM
 90
        0
280
     0
281
     0
  0
CLASS
  1
IMAGEDEF
  2
AcDbRasterImageDef
  3
ISM
 90
        0
280
     0
281
     0
  0
CLASS
  1
IMAGEDEF_REACTOR
  2
AcDbRasterImageDefReactor
  3
ISM
 90
    32769
280
     0
281
     0
  0
CLASS
  1
IMAGE
  2
AcDbRasterImage
  3
ISM
 90
    34943
280
     0
281
     1
  0
CLASS
  1
MATERIAL
  2
AcDbMaterial
  3
ObjectDBX Classes
 90
     1153
280
     0
281
     0
  0
CLASS
  1
VISUALSTYLE
  2
AcDbVisualStyle
  3
ObjectDBX Classes
 90
     4095
280
     0
281
     0
  0
CLASS
  1
TABLESTYLE
  2
AcDbTableStyle
  3
ObjectDBX Classes
 90
     4095
280
     0
281
     0
  0
CLASS
  1
SCALE
  2
AcDbScale
  3
ObjectDBX Classes
 90
     1153
280
     0
281
     0
  0
CLASS
  1
MLEADERSTYLE
  2
AcDbMLeaderStyle
  3
ACDB_MLEADERSTYLE_CLASS
 90
     4095
280
     0
281
     0
  0
CLASS
  1
ACDBSECTIONVIEWSTYLE
  2
AcDbSectionViewStyle
  3
ObjectDBX Classes
 90
     1025
280
     0
281
     0
  0
CLASS
  1
ACDBDETAILVIEWSTYLE
  2
AcDbDetailViewStyle
  3
ObjectDBX Classes
 90
     1025
280
     0
281
     0
  0
CLASS
  1
CELLSTYLEMAP
  2
AcDbCellStyleMap
  3
ObjectDBX Classes
 90
     1152
280
     0
281
     0
  0
CLASS
  1
DICTIONARYVAR
  2
AcDbDictionaryVar
  3
ObjectDBX Classes
 90
        0
280
     0
281
     0
  0
ENDSEC
  0
SECTION
  2
TABLES
  0
TABLE
  2
VPORT
  5
8
102
{ACAD_XDICTIONARY
360
2DBF
102
}
330
0
100
AcDbSymbolTable
 70
     1
  0
VPORT
  5
1F4
330
8
100
AcDbSymbolTableRecord
100
AcDbViewportTableRecord
  2
*ACTIVE
 70
     0
 10
0.0
 20
0.0
 11
1.0
 21
1.0
 12
51.07093776754559
 22
28.90400192108365
 13
0.0
 23
0.0
 14
1.0
 24
1.0
 15
0.0
 25
0.0
 16
0.0
 26
0.0
 36
1.0
 17
0.0
 27
0.0
 37
0.0
 40
44.82100989263062
 41
2.151735722284434
 42
50.0
 43
0.0
 44
0.0
 50
0.0
 51
0.0
 71
     0
 72
   100
 73
     1
 74
     1
 75
     0
 76
     0
 77
     0
 78
     0
281
     0
 65
     1
110
0.0
120
0.0
130
0.0
111
1.0
121
0.0
131
0.0
112
0.0
122
1.0
132
0.0
 79
     0
146
0.0
1001
ACAD_NAV_VCDISPLAY
1070
     3
  0
ENDTAB
  0
TABLE
  2
LTYPE
  5
5
330
0
100
AcDbSymbolTable
 70
     6
  0
LTYPE
  5
14
330
5
100
AcDbSymbolTableRecord
100
AcDbLinetypeTableRecord
  2
BYBLOCK
 70
     0
  3

 72
    65
 73
     0
 40
0.0
  0
LTYPE
  5
15
330
5
100
AcDbSymbolTableRecord
100
AcDbLinetypeTableRecord
  2
BYLAYER
 70
     0
  3

 72
    65
 73
     0
 40
0.0
  0
LTYPE
  5
16
330
5
100
AcDbSymbolTableRecord
100
AcDbLinetypeTableRecord
  2
CONTINUOUS
 70
     0
  3
Solid line
 72
    65
 73
     0
 40
0.0
  0
LTYPE
  5
1F5
330
5
100
AcDbSymbolTableRecord
100
AcDbLinetypeTableRecord
  2
CENTER
 70
     0
  3
____ _ ____ _ ____ _ ____ _ ____ _ ____ _ ____
 72
    65
 73
     4
 40
0.6
 49
0.375
 74
     0
 49
-0.075
 74
     0
 49
0.075
 74
     0
 49
-0.075
 74
     0
  0
LTYPE
  5
1F6
330
5
100
AcDbSymbolTableRecord
100
AcDbLinetypeTableRecord
  2
HIDDEN
 70
     0
  3
- - - - - - - - - - - - - - - - - - - -
 72
    65
 73
     2
 40
0.2
 49
0.1
 74
     0
 49
-0.1
 74
     0
  0
LTYPE
  5
1F7
330
5
100
AcDbSymbolTableRecord
100
AcDbLinetypeTableRecord
  2
PHANTOM
 70
     0
  3
_____ _ _ _____ _ _ _____ _ _ _____
 72
    65
 73
     6
 40
0.8
 49
0.45
 74
     0
 49
-0.05
 74
     0
 49
0.1
 74
     0
 49
-0.05
 74
     0
 49
0.1
 74
     0
 49
-0.05
 74
     0
  0
LTYPE
  5
1F8
330
5
100
AcDbSymbolTableRecord
100
AcDbLinetypeTableRecord
  2
DOT
 70
     0
  3
. . . . . . . . . . . . . . . . . . . .
 72
    65
 73
     2
 40
0.2
 49
0.1
 74
     0
 49
-0.1
 74
     0
  0
LTYPE
  5
1F9
330
5
100
AcDbSymbolTableRecord
100
AcDbLinetypeTableRecord
  2
DASHED
 70
     0
  3
- - - - - - - - - - - - - - - - - - - -
 72
    65
 73
     2
 40
0.2
 49
0.1
 74
     0
 49
-0.1
 74
     0
  0
ENDTAB
  0
TABLE
  2
LAYER
  5
2
330
0
100
AcDbSymbolTable
 70
    30
  0
LAYER
  5
10
102
{ACAD_XDICTIONARY
360
2E0D
102
}
330
2
100
AcDbSymbolTableRecord
100
AcDbLayerTableRecord
  2
0
 70
     0
 62
     7
  6
CONTINUOUS
370
    -3
390
F
  0
LAYER
  5
1FA
102
{ACAD_XDICTIONARY
360
2E0F
102
}
330
2
100
AcDbSymbolTableRecord
100
AcDbLayerTableRecord
  2
DEFAULT_1
 70
     0
 62
     7
  6
CENTER
370
    -3
390
F
  0
LAYER
  5
1FB
102
{ACAD_XDICTIONARY
360
2E11
102
}
330
2
100
AcDbSymbolTableRecord
100
AcDbLayerTableRecord
  2
DEFAULT_2
 70
     0
 62
     8
  6
HIDDEN
370
    -3
390
F
  0
LAYER
  5
1FC
102
{ACAD_XDICTIONARY
360
2E13
102
}
330
2
100
AcDbSymbolTableRecord
100
AcDbLayerTableRecord
  2
DEFAULT_3
 70
     0
 62
     7
  6
PHANTOM
370
    -3
390
F
  0
LAYER
  5
1FD
102
{ACAD_XDICTIONARY
360
2E15
102
}
330
2
100
AcDbSymbolTableRecord
100
AcDbLayerTableRecord
  2
0_DEFAULT
 70
     0
 62
     7
  6
CONTINUOUS
370
    -3
390
F
  0
LAYER
  5
1FE
102
{ACAD_XDICTIONARY
360
2E17
102
}
330
2
100
AcDbSymbolTableRecord
100
AcDbLayerTableRecord
  2
1_CURVES
 70
     0
 62
     7
  6
CONTINUOUS
370
    -3
390
F
  0
LAYER
  5
1FF
102
{ACAD_XDICTIONARY
360
2E19
102
}
330
2
100
AcDbSymbolTableRecord
100
AcDbLayerTableRecord
  2
1_CURVES_DOT
 70
     0
 62
     7
  6
CONTINUOUS
370
    -3
390
F
  0
LAYER
  5
200
102
{ACAD_XDICTIONARY
360
2E1B
102
}
330
2
100
AcDbSymbolTableRecord
100
AcDbLayerTableRecord
  2
1_CURVES_ILLUSIO
 70
     0
 62
     7
  6
CONTINUOUS
370
    -3
390
F
  0
LAYER
  5
201
102
{ACAD_XDICTIONARY
360
2E1D
102
}
330
2
100
AcDbSymbolTableRecord
100
AcDbLayerTableRecord
  2
1_CURVES_JETS
 70
     0
 62
     7
  6
CONTINUOUS
370
    -3
390
F
  0
LAYER
  5
202
102
{ACAD_XDICTIONARY
360
2E1F
102
}
330
2
100
AcDbSymbolTableRecord
100
AcDbLayerTableRecord
  2
1_CURVES_SPEC_FRONT
 70
     0
 62
     7
  6
CONTINUOUS
370
    -3
390
F
  0
LAYER
  5
203
102
{ACAD_XDICTIONARY
360
2E21
102
}
330
2
100
AcDbSymbolTableRecord
100
AcDbLayerTableRecord
  2
1_CURVES_SPEC_RIGHT
 70
     0
 62
     7
  6
CONTINUOUS
370
    -3
390
F
  0
LAYER
  5
204
102
{ACAD_XDICTIONARY
360
2E23
102
}
330
2
100
AcDbSymbolTableRecord
100
AcDbLayerTableRecord
  2
2_PLANES
 70
     0
 62
     7
  6
CONTINUOUS
370
    -3
390
F
  0
LAYER
  5
205
102
{ACAD_XDICTIONARY
360
2E25
102
}
330
2
100
AcDbSymbolTableRecord
100
AcDbLayerTableRecord
  2
2_PLANES_ILLUSIO
 70
     0
 62
     7
  6
CONTINUOUS
370
    -3
390
F
  0
LAYER
  5
206
102
{ACAD_XDICTIONARY
360
2E27
102
}
330
2
100
AcDbSymbolTableRecord
100
AcDbLayerTableRecord
  2
2_PLANES_JETS
 70
     0
 62
     7
  6
CONTINUOUS
370
    -3
390
F
  0
LAYER
  5
207
102
{ACAD_XDICTIONARY
360
2E29
102
}
330
2
100
AcDbSymbolTableRecord
100
AcDbLayerTableRecord
  2
3_POINTS
 70
     0
 62
     7
  6
CONTINUOUS
370
    -3
390
F
  0
LAYER
  5
208
102
{ACAD_XDICTIONARY
360
2E2B
102
}
330
2
100
AcDbSymbolTableRecord
100
AcDbLayerTableRecord
  2
3_POINTS_JETS
 70
     0
 62
     7
  6
CONTINUOUS
370
    -3
390
F
  0
LAYER
  5
209
102
{ACAD_XDICTIONARY
360
2E2D
102
}
330
2
100
AcDbSymbolTableRecord
100
AcDbLayerTableRecord
  2
3_POINTS_SPEC
 70
     0
 62
     7
  6
CONTINUOUS
370
    -3
390
F
  0
LAYER
  5
20A
102
{ACAD_XDICTIONARY
360
2E2F
102
}
330
2
100
AcDbSymbolTableRecord
100
AcDbLayerTableRecord
  2
4_CSYS
 70
     0
 62
     7
  6
CONTINUOUS
370
    -3
390
F
  0
LAYER
  5
20B
102
{ACAD_XDICTIONARY
360
2E31
102
}
330
2
100
AcDbSymbolTableRecord
100
AcDbLayerTableRecord
  2
5_AXIS
 70
     0
 62
     7
  6
CONTINUOUS
370
    -3
390
F
  0
LAYER
  5
20C
102
{ACAD_XDICTIONARY
360
2E33
102
}
330
2
100
AcDbSymbolTableRecord
100
AcDbLayerTableRecord
  2
5_AXIS_ILLUSIO
 70
     0
 62
     7
  6
CONTINUOUS
370
    -3
390
F
  0
LAYER
  5
20D
102
{ACAD_XDICTIONARY
360
2E35
102
}
330
2
100
AcDbSymbolTableRecord
100
AcDbLayerTableRecord
  2
5_AXIS_JETS
 70
     0
 62
     7
  6
CONTINUOUS
370
    -3
390
F
  0
LAYER
  5
20E
102
{ACAD_XDICTIONARY
360
2E37
102
}
330
2
100
AcDbSymbolTableRecord
100
AcDbLayerTableRecord
  2
6_SURFACES
 70
     0
 62
     7
  6
CONTINUOUS
370
    -3
390
F
  0
LAYER
  5
20F
102
{ACAD_XDICTIONARY
360
2E39
102
}
330
2
100
AcDbSymbolTableRecord
100
AcDbLayerTableRecord
  2
6_SURFACES_ILLUSIO
 70
     0
 62
     7
  6
CONTINUOUS
370
    -3
390
F
  0
LAYER
  5
210
102
{ACAD_XDICTIONARY
360
2E3B
102
}
330
2
100
AcDbSymbolTableRecord
100
AcDbLayerTableRecord
  2
6_SURFACES_OFFSET_FIBRE_ACRYLIQ
 70
     0
 62
     7
  6
CONTINUOUS
370
    -3
390
F
  0
LAYER
  5
211
102
{ACAD_XDICTIONARY
360
2E3D
102
}
330
2
100
AcDbSymbolTableRecord
100
AcDbLayerTableRecord
  2
6_SURFACES_TOOLING
 70
     0
 62
     7
  6
CONTINUOUS
370
    -3
390
F
  0
LAYER
  5
212
102
{ACAD_XDICTIONARY
360
2E3F
102
}
330
2
100
AcDbSymbolTableRecord
100
AcDbLayerTableRecord
  2
6_SURFACES_TOOLING_FS
 70
     0
 62
     7
  6
CONTINUOUS
370
    -3
390
F
  0
LAYER
  5
213
102
{ACAD_XDICTIONARY
360
2E41
102
}
330
2
100
AcDbSymbolTableRecord
100
AcDbLayerTableRecord
  2
7_NOTES
 70
     0
 62
     7
  6
CONTINUOUS
370
    -3
390
F
  0
LAYER
  5
214
102
{ACAD_XDICTIONARY
360
2E43
102
}
330
2
100
AcDbSymbolTableRecord
100
AcDbLayerTableRecord
  2
8_SOLIDS
 70
     0
 62
     7
  6
CONTINUOUS
370
    -3
390
F
  0
LAYER
  5
215
102
{ACAD_XDICTIONARY
360
2E45
102
}
330
2
100
AcDbSymbolTableRecord
100
AcDbLayerTableRecord
  2
DEGAGEMENT_SERIGRAPHIE
 70
     0
 62
     7
  6
CONTINUOUS
370
    -3
390
F
  0
LAYER
  5
216
102
{ACAD_XDICTIONARY
360
2E47
102
}
330
2
100
AcDbSymbolTableRecord
100
AcDbLayerTableRecord
  2
XSEC_DATUMS
 70
     0
 62
     7
  6
CONTINUOUS
370
    -3
390
F
  0
ENDTAB
  0
TABLE
  2
STYLE
  5
3
330
0
100
AcDbSymbolTable
 70
     8
  0
STYLE
  5
11
330
3
100
AcDbSymbolTableRecord
100
AcDbTextStyleTableRecord
  2
STANDARD
 70
     0
 40
0.0
 41
1.0
 50
0.0
 71
     0
 42
0.2
  3
trium.ttf
  4

  0
STYLE
  5
217
330
3
100
AcDbSymbolTableRecord
100
AcDbTextStyleTableRecord
  2
TEXTSTYLE_1
 70
     0
 40
0.0
 41
0.8
 50
0.0
 71
     0
 42
0.2
  3
gdt
  4

  0
STYLE
  5
218
330
3
100
AcDbSymbolTableRecord
100
AcDbTextStyleTableRecord
  2
TEXTSTYLE_2
 70
     0
 40
0.0
 41
1.0
 50
0.0
 71
     0
 42
0.2
  3
trium.ttf
  4

  0
STYLE
  5
219
330
3
100
AcDbSymbolTableRecord
100
AcDbTextStyleTableRecord
  2
TEXTSTYLE_3
 70
     0
 40
0.0
 41
1.0
 50
0.0
 71
     0
 42
0.2
  3
txt
  4

  0
STYLE
  5
21A
330
3
100
AcDbSymbolTableRecord
100
AcDbTextStyleTableRecord
  2
TEXTSTYLE_4
 70
     0
 40
0.0
 41
1.0
 50
0.0
 71
     0
 42
0.2
  3
txt
  4

  0
STYLE
  5
21B
330
3
100
AcDbSymbolTableRecord
100
AcDbTextStyleTableRecord
  2
TEXTSTYLE_5
 70
     0
 40
0.0
 41
1.0
 50
0.0
 71
     0
 42
0.2
  3
trium.ttf
  4

  0
STYLE
  5
21C
330
3
100
AcDbSymbolTableRecord
100
AcDbTextStyleTableRecord
  2
TEXTSTYLE_6
 70
     0
 40
0.0
 41
0.8
 50
0.0
 71
     0
 42
0.2
  3
txt
  4

  0
STYLE
  5
21D
330
3
100
AcDbSymbolTableRecord
100
AcDbTextStyleTableRecord
  2
TEXTSTYLE_7
 70
     0
 40
0.0
 41
1.0
 50
0.0
 71
     0
 42
0.2
  3
symbol_asme.ttf
  4

  0
ENDTAB
  0
TABLE
  2
VIEW
  5
6
330
0
100
AcDbSymbolTable
 70
     0
  0
ENDTAB
  0
TABLE
  2
UCS
  5
7
330
0
100
AcDbSymbolTable
 70
     0
  0
ENDTAB
  0
TABLE
  2
APPID
  5
9
330
0
100
AcDbSymbolTable
 70
     3
  0
APPID
  5
21E
330
9
100
AcDbSymbolTableRecord
100
AcDbRegAppTableRecord
  2
ACAD
 70
     0
  0
APPID
  5
2DF9
330
9
100
AcDbSymbolTableRecord
100
AcDbRegAppTableRecord
  2
ACAD_MLEADERVER
 70
     0
  0
APPID
  5
2E4A
330
9
100
AcDbSymbolTableRecord
100
AcDbRegAppTableRecord
  2
ACAD_NAV_VCDISPLAY
 70
     0
  0
ENDTAB
  0
TABLE
  2
DIMSTYLE
  5
A
330
0
100
AcDbSymbolTable
 70
     9
100
AcDbDimStyleTable
 71
     0
  0
DIMSTYLE
105
241
330
A
100
AcDbSymbolTableRecord
100
AcDbDimStyleTableRecord
  2
STANDARD
 70
     0
 41
2.0
 44
0.125
 47
0.001
 48
0.001
 71
     1
 78
     4
 79
     1
140
1.333333333299999
170
     1
179
     3
271
     3
272
     3
284
     4
340
11
341
221
342
221
343
221
344
221
  0
DIMSTYLE
105
242
330
A
100
AcDbSymbolTableRecord
100
AcDbDimStyleTableRecord
  2
DIMSTYLE_1
 70
     0
 41
2.0
 44
0.125
 47
0.00001
 48
0.00001
 78
     4
 79
     1
140
1.333333333299999
147
0.0625
170
     1
171
    -2
179
     3
271
     3
272
     8
274
     0
284
     4
340
11
341
221
342
221
343
221
344
221
  0
DIMSTYLE
105
243
330
A
100
AcDbSymbolTableRecord
100
AcDbDimStyleTableRecord
  2
DIMSTYLE_2
 70
     0
 41
2.0
 44
0.125
 47
0.001
 48
0.001
 78
     4
 79
     1
140
1.333333333299999
147
0.0625
170
     1
171
     0
179
     3
271
     3
272
     8
274
     0
284
     4
340
11
341
221
342
221
343
221
344
221
  0
DIMSTYLE
105
244
330
A
100
AcDbSymbolTableRecord
100
AcDbDimStyleTableRecord
  2
DIMSTYLE_3
 70
     0
 41
2.0
 44
0.125
 47
0.00001
 48
0.00001
 78
     4
 79
     1
140
1.333333333299999
147
0.0625
170
     1
171
     0
179
     3
271
     3
272
     8
274
     0
284
     4
340
11
341
221
342
221
343
221
344
221
  0
DIMSTYLE
105
245
330
A
100
AcDbSymbolTableRecord
100
AcDbDimStyleTableRecord
  2
DIMSTYLE_4
 70
     0
 41
2.0
 44
0.125
 47
0.001
 48
0.001
 78
     4
 79
     1
140
1.333333333299999
147
0.0625
170
     1
171
     1
179
     3
271
     5
272
    32
274
     1
284
     4
340
11
341
221
342
221
343
221
344
221
  0
DIMSTYLE
105
246
330
A
100
AcDbSymbolTableRecord
100
AcDbDimStyleTableRecord
  2
DIMSTYLE_5
 70
     0
 41
2.0
 44
0.125
 47
0.001
 48
0.001
 78
     4
 79
     1
140
1.333333333299999
147
0.0625
170
     1
171
     0
179
     3
271
     2
274
     0
284
     4
340
11
341
221
342
221
343
221
344
221
  0
DIMSTYLE
105
247
330
A
100
AcDbSymbolTableRecord
100
AcDbDimStyleTableRecord
  2
DIMSTYLE_6
 70
     0
 41
2.0
 44
0.125
 47
0.001
 48
0.001
 78
     4
 79
     1
140
1.333333333299999
147
0.0625
170
     1
171
     0
179
     3
272
    16
274
     0
284
     4
340
11
341
221
342
221
343
221
344
221
  0
DIMSTYLE
105
248
330
A
100
AcDbSymbolTableRecord
100
AcDbDimStyleTableRecord
  2
DIMSTYLE_7
 70
     0
 41
2.0
 44
0.125
 47
0.5
 48
0.5
 78
     4
 79
     1
140
1.333333333299999
147
0.0625
179
     3
271
     0
272
     0
284
     4
340
11
341
221
342
221
343
221
344
221
  0
DIMSTYLE
105
249
330
A
100
AcDbSymbolTableRecord
100
AcDbDimStyleTableRecord
  2
DIMSTYLE_8
 70
     0
 41
2.0
 44
0.125
 47
0.5
 48
0.5
 78
     4
 79
     1
140
1.333333333299999
147
0.0625
179
     3
271
     5
272
    32
284
     4
340
11
341
221
342
221
343
221
344
221
  0
ENDTAB
  0
TABLE
  2
BLOCK_RECORD
  5
1
330
0
100
AcDbSymbolTable
 70
    32
  0
BLOCK_RECORD
  5
21F
330
1
100
AcDbSymbolTableRecord
100
AcDbBlockTableRecord
  2
*Model_Space
340
2D68
  0
BLOCK_RECORD
  5
220
330
1
100
AcDbSymbolTableRecord
100
AcDbBlockTableRecord
  2
*Paper_Space
340
2D69
  0
BLOCK_RECORD
  5
221
330
1
100
AcDbSymbolTableRecord
100
AcDbBlockTableRecord
  2
_FILLED
340
0
102
{BLKREFS
102
}
  0
BLOCK_RECORD
  5
23E
330
1
100
AcDbSymbolTableRecord
100
AcDbBlockTableRecord
  2
L03-MOTEUR-CONTROLE-LED_BL2
340
0
  0
BLOCK_RECORD
  5
23F
330
1
100
AcDbSymbolTableRecord
100
AcDbBlockTableRecord
  2
L03-USAGE_INTERNE_SEULEM_BL1
340
0
  0
BLOCK_RECORD
  5
240
330
1
100
AcDbSymbolTableRecord
100
AcDbBlockTableRecord
  2
L03-NOTE_SPECS_BAINS_BL0
340
0
  0
ENDTAB
  0
ENDSEC
  0
SECTION
  2
BLOCKS
  0
BLOCK
  5
20
330
21F
100
AcDbEntity
  8
0
100
AcDbBlockBegin
  2
*Model_Space
 70
     0
 10
0.0
 20
0.0
 30
0.0
  3
*Model_Space
  1

  0
ENDBLK
  5
21
330
21F
100
AcDbEntity
  8
0
100
AcDbBlockEnd
  0
BLOCK
  5
1C
330
220
100
AcDbEntity
 67
     1
  8
0
100
AcDbBlockBegin
  2
*Paper_Space
 70
     0
 10
0.0
 20
0.0
 30
0.0
  3
*Paper_Space
  1

  0
ENDBLK
  5
1D
330
220
100
AcDbEntity
 67
     1
  8
0
100
AcDbBlockEnd
  0
BLOCK
  5
319
330
221
100
AcDbEntity
  8
0
100
AcDbBlockBegin
  2
_FILLED
 70
     0
 10
0.0
 20
0.0
 30
0.0
  3
_FILLED
  1

  0
SOLID
  5
31A
330
221
100
AcDbEntity
  8
0
  6
ByBlock
 62
     0
100
AcDbTrace
 10
0.0
 20
0.0
 30
0.0
 11
-1.0
 21
0.1666666667
 31
0.0
 12
-1.0
 22
-0.1666666667
 32
0.0
 13
-1.0
 23
-0.1666666667
 33
0.0
  0
ENDBLK
  5
31B
330
221
100
AcDbEntity
  8
0
  6
ByBlock
 62
     0
100
AcDbBlockEnd
  0
BLOCK
  5
24A
330
23E
100
AcDbEntity
  8
0
  6
Continuous
 62
     2
100
AcDbBlockBegin
  2
L03-MOTEUR-CONTROLE-LED_BL2
 70
     0
 10
76.281479278
 20
78.67075788470001
 30
0.0
  3
L03-MOTEUR-CONTROLE-LED_BL2
  1

  0
TEXT
  5
24B
330
23E
100
AcDbEntity
  8
0
  6
Continuous
 62
     2
100
AcDbText
 10
74.94814542589999
 20
78.0040909586
 30
0.0
 40
1.333333852099999
  1
DC
 41
1.166666666622919
 72
     5
 11
77.61481313
 21
78.0040909586
 31
0.0
100
AcDbText
  0
ELLIPSE
  5
24C
330
23E
100
AcDbEntity
  8
0
  6
Continuous
 62
     7
100
AcDbEllipse
 10
76.281479278
 20
78.67075788470001
 30
0.0
 11
-1.942887567899999
 21
0.0
 31
0.0
210
0.0
220
0.0
230
1.0
 40
0.6606458385
 41
0.0
 42
6.283185307179586
  0
ENDBLK
  5
24D
330
23E
100
AcDbEntity
  8
0
  6
ByBlock
 62
     0
100
AcDbBlockEnd
  0
BLOCK
  5
24E
330
23F
100
AcDbEntity
  8
0
  6
Continuous
 62
     2
100
AcDbBlockBegin
  2
L03-USAGE_INTERNE_SEULEM_BL1
 70
     0
 10
99.24436896790002
 20
48.68730372479999
 30
0.0
  3
L03-USAGE_INTERNE_SEULEM_BL1
  1

  0
TEXT
  5
24F
330
23F
100
AcDbEntity
  8
0
  6
Continuous
 62
     7
100
AcDbText
 10
92.93030866610001
 20
50.9323377106
 30
0.0
 40
1.1626666667
  1
INTERNAL USE 
 50
10.00000000025735
 41
0.898521505349985
  7
TEXTSTYLE_2
 72
     5
 11
105.0800642868
 21
53.0746674356
 31
0.0
100
AcDbText
  0
TEXT
  5
250
330
23F
100
AcDbEntity
  8
0
  6
Continuous
 62
     7
100
AcDbText
 10
92.18662446209998
 20
48.93081653300001
 30
0.0
 40
1.1626666667
  1
DOCUMENT ONLY
 50
9.999999999672899
 41
0.9764779873947645
  7
TEXTSTYLE_2
 72
     5
 11
106.2956076908
 21
51.4186109465
 31
0.0
100
AcDbText
  0
TEXT
  5
251
330
23F
100
AcDbEntity
  8
0
  6
Continuous
 62
     7
100
AcDbText
 10
98.30849184100001
 20
48.7418353282
 30
0.0
 40
1.1626666667
  1
 
 50
9.999999992915462
 41
0.4543859648938215
  7
TEXTSTYLE_2
 72
     5
 11
98.77921535719998
 21
48.82483658449999
 31
0.0
100
AcDbText
  0
TEXT
  5
252
330
23F
100
AcDbEntity
  8
0
  6
Continuous
 62
     7
100
AcDbText
 10
89.52670414229999
 20
44.50529407609999
 30
0.0
 40
1.1626666667
  1
DOCUMENT POUR USAGE
 50
9.999999999970015
 41
0.9550156294151401
  7
TEXTSTYLE_2
 72
     5
 11
109.8865564059
 21
48.0952853534
 31
0.0
100
AcDbText
  0
TEXT
  5
253
330
23F
100
AcDbEntity
  8
0
  6
Continuous
 62
     7
100
AcDbText
 10
89.9558035883
 20
42.4885456157
 30
0.0
 40
1.1626666667
  1
A L'INTERNE SEULEMENT
 50
10.00000000000814
 41
0.9468599033580915
  7
TEXTSTYLE_2
 72
     5
 11
110.1417850036
 21
46.04787877129999
 31
0.0
100
AcDbText
  0
LINE
  5
254
330
23F
100
AcDbEntity
  8
0
  6
Continuous
 62
     1
100
AcDbLine
 10
113.1009206912
 20
44.34377010689999
 30
0.0
 11
113.1076796238
 21
44.35052903949999
 31
0.0
  0
LINE
  5
255
330
23F
100
AcDbEntity
  8
0
  6
Continuous
 62
     1
100
AcDbLine
 10
112.3683511248
 20
44.2145983271
 30
0.0
 11
113.0172325699
 21
44.8634797722
 31
0.0
  0
LINE
  5
256
330
23F
100
AcDbEntity
  8
0
  6
Continuous
 62
     1
100
AcDbLine
 10
111.6357815584
 20
44.08542654729999
 30
0.0
 11
112.926785516
 21
45.37643050479999
 31
0.0
  0
LINE
  5
257
330
23F
100
AcDbEntity
  8
0
  6
Continuous
 62
     1
100
AcDbLine
 10
110.9032119919
 20
43.9562547674
 30
0.0
 11
112.836338462
 21
45.8893812375
 31
0.0
  0
LINE
  5
258
330
23F
100
AcDbEntity
  8
0
  6
Continuous
 62
     1
100
AcDbLine
 10
110.1706424255
 20
43.82708298759999
 30
0.0
 11
112.7458914081
 21
46.4023319702
 31
0.0
  0
LINE
  5
259
330
23F
100
AcDbEntity
  8
0
  6
Continuous
 62
     1
100
AcDbLine
 10
109.4380728591
 20
43.69791120779999
 30
0.0
 11
110.9790766739
 21
45.2389150226
 31
0.0
  0
LINE
  5
25A
330
23F
100
AcDbEntity
  8
0
  6
Continuous
 62
     1
100
AcDbLine
 10
111.5764218666
 20
45.83626021529999
 30
0.0
 11
112.6554443541
 21
46.9152827029
 31
0.0
  0
LINE
  5
25B
330
23F
100
AcDbEntity
  8
0
  6
Continuous
 62
     1
100
AcDbLine
 10
108.7055032927
 20
43.568739428
 30
0.0
 11
110.2465071075
 21
45.1097432428
 31
0.0
  0
LINE
  5
25C
330
23F
100
AcDbEntity
  8
0
  6
Continuous
 62
     1
100
AcDbLine
 10
111.4859748127
 20
46.349210948
 30
0.0
 11
112.5649973002
 21
47.4282334355
 31
0.0
  0
LINE
  5
25D
330
23F
100
AcDbEntity
  8
0
  6
Continuous
 62
     1
100
AcDbLine
 10
107.9729337263
 20
43.43956764819999
 30
0.0
 11
109.513937541
 21
44.980571463
 31
0.0
  0
LINE
  5
25E
330
23F
100
AcDbEntity
  8
0
  6
Continuous
 62
     1
100
AcDbLine
 10
111.3955277587
 20
46.86216168069999
 30
0.0
 11
112.4745502462
 21
47.94118416819999
 31
0.0
  0
LINE
  5
25F
330
23F
100
AcDbEntity
  8
0
  6
Continuous
 62
     1
100
AcDbLine
 10
107.2403641599
 20
43.3103958684
 30
0.0
 11
108.7813679746
 21
44.8513996832
 31
0.0
  0
LINE
  5
260
330
23F
100
AcDbEntity
  8
0
  6
Continuous
 62
     1
100
AcDbLine
 10
111.3050807048
 20
47.3751124133
 30
0.0
 11
112.3841031923
 21
48.4541349009
 31
0.0
  0
LINE
  5
261
330
23F
100
AcDbEntity
  8
0
  6
Continuous
 62
     1
100
AcDbLine
 10
106.5077945934
 20
43.18122408859999
 30
0.0
 11
108.0487984082
 21
44.7222279034
 31
0.0
  0
LINE
  5
262
330
23F
100
AcDbEntity
  8
0
  6
Continuous
 62
     1
100
AcDbLine
 10
111.2146336508
 20
47.888063146
 30
0.0
 11
112.2936561383
 21
48.9670856335
 31
0.0
  0
LINE
  5
263
330
23F
100
AcDbEntity
  8
0
  6
Continuous
 62
     1
100
AcDbLine
 10
105.775225027
 20
43.0520523088
 30
0.0
 11
107.3162288418
 21
44.59305612359999
 31
0.0
  0
LINE
  5
264
330
23F
100
AcDbEntity
  8
0
  6
Continuous
 62
     1
100
AcDbLine
 10
111.1241865969
 20
48.40101387869999
 30
0.0
 11
112.2032090844
 21
49.4800363662
 31
0.0
  0
LINE
  5
265
330
23F
100
AcDbEntity
  8
0
  6
Continuous
 62
     1
100
AcDbLine
 10
105.0426554606
 20
42.922880529
 30
0.0
 11
106.5836592754
 21
44.4638843438
 31
0.0
  0
LINE
  5
266
330
23F
100
AcDbEntity
  8
0
  6
Continuous
 62
     1
100
AcDbLine
 10
111.0337395429
 20
48.91396461140001
 30
0.0
 11
112.1127620305
 21
49.9929870989
 31
0.0
  0
LINE
  5
267
330
23F
100
AcDbEntity
  8
0
  6
Continuous
 62
     1
100
AcDbLine
 10
104.3100858942
 20
42.7937087492
 30
0.0
 11
105.851089709
 21
44.33471256399999
 31
0.0
  0
LINE
  5
268
330
23F
100
AcDbEntity
  8
0
  6
Continuous
 62
     1
100
AcDbLine
 10
110.943292489
 20
49.42691534399999
 30
0.0
 11
112.0223149765
 21
50.5059378315
 31
0.0
  0
LINE
  5
269
330
23F
100
AcDbEntity
  8
0
  6
Continuous
 62
     1
100
AcDbLine
 10
103.5775163278
 20
42.6645369694
 30
0.0
 11
105.1185201425
 21
44.2055407842
 31
0.0
  0
LINE
  5
26A
330
23F
100
AcDbEntity
  8
0
  6
Continuous
 62
     1
100
AcDbLine
 10
110.8528454351
 20
49.9398660767
 30
0.0
 11
111.9318679226
 21
51.0188885642
 31
0.0
  0
LINE
  5
26B
330
23F
100
AcDbEntity
  8
0
  6
Continuous
 62
     1
100
AcDbLine
 10
102.8449467613
 20
42.53536518959999
 30
0.0
 11
104.3859505761
 21
44.07636900439999
 31
0.0
  0
LINE
  5
26C
330
23F
100
AcDbEntity
  8
0
  6
Continuous
 62
     1
100
AcDbLine
 10
110.5499658352
 20
50.2403842635
 30
0.0
 11
111.8414208686
 21
51.53183929689999
 31
0.0
  0
LINE
  5
26D
330
23F
100
AcDbEntity
  8
0
  6
Continuous
 62
     1
100
AcDbLine
 10
102.1123771949
 20
42.4061934098
 30
0.0
 11
103.6533810097
 21
43.9471972246
 31
0.0
  0
LINE
  5
26E
330
23F
100
AcDbEntity
  8
0
  6
Continuous
 62
     1
100
AcDbLine
 10
109.8173962688
 20
50.1112124837
 30
0.0
 11
111.7509738147
 21
52.0447900295
 31
0.0
  0
LINE
  5
26F
330
23F
100
AcDbEntity
  8
0
  6
Continuous
 62
     1
100
AcDbLine
 10
101.3798076285
 20
42.27702163
 30
0.0
 11
102.9208114433
 21
43.81802544479999
 31
0.0
  0
LINE
  5
270
330
23F
100
AcDbEntity
  8
0
  6
Continuous
 62
     1
100
AcDbLine
 10
109.0848267024
 20
49.9820407039
 30
0.0
 11
110.1121690007
 21
51.0093830021
 31
0.0
  0
LINE
  5
271
330
23F
100
AcDbEntity
  8
0
  6
Continuous
 62
     1
100
AcDbLine
 10
110.5815042732
 20
51.4787182747
 30
0.0
 11
111.6605267607
 21
52.5577407622
 31
0.0
  0
LINE
  5
272
330
23F
100
AcDbEntity
  8
0
  6
Continuous
 62
     1
100
AcDbLine
 10
100.6472380621
 20
42.14784985019999
 30
0.0
 11
102.1882418769
 21
43.68885366489999
 31
0.0
  0
LINE
  5
273
330
23F
100
AcDbEntity
  8
0
  6
Continuous
 62
     1
100
AcDbLine
 10
108.352257136
 20
49.8528689241
 30
0.0
 11
109.3795992246
 21
50.8802110127
 31
0.0
  0
LINE
  5
274
330
23F
100
AcDbEntity
  8
0
  6
Continuous
 62
     1
100
AcDbLine
 10
110.4910572193
 20
51.99166900739999
 30
0.0
 11
111.5700797068
 21
53.0706914949
 31
0.0
  0
LINE
  5
275
330
23F
100
AcDbEntity
  8
0
  6
Continuous
 62
     1
100
AcDbLine
 10
99.9146684957
 20
42.0186780704
 30
0.0
 11
101.4556723104
 21
43.5596818851
 31
0.0
  0
LINE
  5
276
330
23F
100
AcDbEntity
  8
0
  6
Continuous
 62
     1
100
AcDbLine
 10
107.6196875696
 20
49.7236971443
 30
0.0
 11
108.6470294486
 21
50.7510390233
 31
0.0
  0
LINE
  5
277
330
23F
100
AcDbEntity
  8
0
  6
Continuous
 62
     1
100
AcDbLine
 10
110.4006101653
 20
52.50461974
 30
0.0
 11
111.4796326529
 21
53.5836422275
 31
0.0
  0
LINE
  5
278
330
23F
100
AcDbEntity
  8
0
  6
Continuous
 62
     1
100
AcDbLine
 10
99.18209892930001
 20
41.88950629059999
 30
0.0
 11
100.723102744
 21
43.43051010529999
 31
0.0
  0
LINE
  5
279
330
23F
100
AcDbEntity
  8
0
  6
Continuous
 62
     1
100
AcDbLine
 10
106.8871180031
 20
49.5945253644
 30
0.0
 11
107.9144596726
 21
50.6218670339
 31
0.0
  0
LINE
  5
27A
330
23F
100
AcDbEntity
  8
0
  6
Continuous
 62
     1
100
AcDbLine
 10
110.3101631114
 20
53.01757047270001
 30
0.0
 11
111.3891855989
 21
54.0965929602
 31
0.0
  0
LINE
  5
27B
330
23F
100
AcDbEntity
  8
0
  6
Continuous
 62
     1
100
AcDbLine
 10
98.44952936280002
 20
41.7603345108
 30
0.0
 11
99.99053317760001
 21
43.3013383255
 31
0.0
  0
LINE
  5
27C
330
23F
100
AcDbEntity
  8
0
  6
Continuous
 62
     1
100
AcDbLine
 10
106.1545484367
 20
49.4653535846
 30
0.0
 11
107.1818898965
 21
50.49269504449999
 31
0.0
  0
LINE
  5
27D
330
23F
100
AcDbEntity
  8
0
  6
Continuous
 62
     1
100
AcDbLine
 10
110.2197160575
 20
53.5305212054
 30
0.0
 11
111.298738545
 21
54.6095436929
 31
0.0
  0
LINE
  5
27E
330
23F
100
AcDbEntity
  8
0
  6
Continuous
 62
     1
100
AcDbLine
 10
97.7169597964
 20
41.63116273099999
 30
0.0
 11
99.25796361120001
 21
43.17216654569999
 31
0.0
  0
LINE
  5
27F
330
23F
100
AcDbEntity
  8
0
  6
Continuous
 62
     1
100
AcDbLine
 10
105.4219788703
 20
49.33618180479999
 30
0.0
 11
106.4493201205
 21
50.363523055
 31
0.0
  0
LINE
  5
280
330
23F
100
AcDbEntity
  8
0
  6
Continuous
 62
     1
100
AcDbLine
 10
110.1292690035
 20
54.043471938
 30
0.0
 11
111.208291491
 21
55.1224944256
 31
0.0
  0
LINE
  5
281
330
23F
100
AcDbEntity
  8
0
  6
Continuous
 62
     1
100
AcDbLine
 10
96.98439023
 20
41.50199095109999
 30
0.0
 11
98.52539404479999
 21
43.0429947659
 31
0.0
  0
LINE
  5
282
330
23F
100
AcDbEntity
  8
0
  6
Continuous
 62
     1
100
AcDbLine
 10
104.6894093039
 20
49.207010025
 30
0.0
 11
105.7167503445
 21
50.2343510656
 31
0.0
  0
LINE
  5
283
330
23F
100
AcDbEntity
  8
0
  6
Continuous
 62
     1
100
AcDbLine
 10
110.0388219496
 20
54.55642267069999
 30
0.0
 11
111.1178444371
 21
55.6354451582
 31
0.0
  0
LINE
  5
284
330
23F
100
AcDbEntity
  8
0
  6
Continuous
 62
     1
100
AcDbLine
 10
96.2518206636
 20
41.3728191713
 30
0.0
 11
97.79282447840001
 21
42.9138229861
 31
0.0
  0
LINE
  5
285
330
23F
100
AcDbEntity
  8
0
  6
Continuous
 62
     1
100
AcDbLine
 10
103.9568397375
 20
49.0778382452
 30
0.0
 11
104.9841805685
 21
50.10517907619999
 31
0.0
  0
LINE
  5
286
330
23F
100
AcDbEntity
  8
0
  6
Continuous
 62
     1
100
AcDbLine
 10
109.9483748956
 20
55.0693734034
 30
0.0
 11
111.0273973831
 21
56.14839589089999
 31
0.0
  0
LINE
  5
287
330
23F
100
AcDbEntity
  8
0
  6
Continuous
 62
     1
100
AcDbLine
 10
95.5192510972
 20
41.24364739149999
 30
0.0
 11
97.06025491190001
 21
42.78465120629999
 31
0.0
  0
LINE
  5
288
330
23F
100
AcDbEntity
  8
0
  6
Continuous
 62
     1
100
AcDbLine
 10
103.224270171
 20
48.9486664654
 30
0.0
 11
104.2516107924
 21
49.9760070868
 31
0.0
  0
LINE
  5
289
330
23F
100
AcDbEntity
  8
0
  6
Continuous
 62
     1
100
AcDbLine
 10
109.8579278417
 20
55.582324136
 30
0.0
 11
110.9369503292
 21
56.6613466236
 31
0.0
  0
LINE
  5
28A
330
23F
100
AcDbEntity
  8
0
  6
Continuous
 62
     1
100
AcDbLine
 10
94.7866815307
 20
41.1144756117
 30
0.0
 11
96.32768534549999
 21
42.6554794265
 31
0.0
  0
LINE
  5
28B
330
23F
100
AcDbEntity
  8
0
  6
Continuous
 62
     1
100
AcDbLine
 10
102.4917006046
 20
48.81949468560001
 30
0.0
 11
103.5190410164
 21
49.84683509739999
 31
0.0
  0
LINE
  5
28C
330
23F
100
AcDbEntity
  8
0
  6
Continuous
 62
     1
100
AcDbLine
 10
109.6830517403
 20
56.0108458212
 30
0.0
 11
110.8465032752
 21
57.1742973562
 31
0.0
  0
LINE
  5
28D
330
23F
100
AcDbEntity
  8
0
  6
Continuous
 62
     1
100
AcDbLine
 10
94.0541119643
 20
40.98530383189999
 30
0.0
 11
95.59511577909999
 21
42.5263076467
 31
0.0
  0
LINE
  5
28E
330
23F
100
AcDbEntity
  8
0
  6
Continuous
 62
     1
100
AcDbLine
 10
101.7591310382
 20
48.6903229058
 30
0.0
 11
102.7864712404
 21
49.717663108
 31
0.0
  0
LINE
  5
28F
330
23F
100
AcDbEntity
  8
0
  6
Continuous
 62
     1
100
AcDbLine
 10
108.9504821738
 20
55.8816740414
 30
0.0
 11
110.4914859886
 21
57.4226778562
 31
0.0
  0
LINE
  5
290
330
23F
100
AcDbEntity
  8
0
  6
Continuous
 62
     1
100
AcDbLine
 10
93.3215423979
 20
40.8561320521
 30
0.0
 11
94.86254621270001
 21
42.3971358669
 31
0.0
  0
LINE
  5
291
330
23F
100
AcDbEntity
  8
0
  6
Continuous
 62
     1
100
AcDbLine
 10
101.0265614718
 20
48.56115112600001
 30
0.0
 11
102.0539014643
 21
49.5884911185
 31
0.0
  0
LINE
  5
292
330
23F
100
AcDbEntity
  8
0
  6
Continuous
 62
     1
100
AcDbLine
 10
108.2179126074
 20
55.7525022616
 30
0.0
 11
109.7589164222
 21
57.2935060764
 31
0.0
  0
LINE
  5
293
330
23F
100
AcDbEntity
  8
0
  6
Continuous
 62
     1
100
AcDbLine
 10
92.5889728315
 20
40.7269602723
 30
0.0
 11
94.12997664629999
 21
42.2679640871
 31
0.0
  0
LINE
  5
294
330
23F
100
AcDbEntity
  8
0
  6
Continuous
 62
     1
100
AcDbLine
 10
100.2939919054
 20
48.4319793462
 30
0.0
 11
101.3213316883
 21
49.45931912909999
 31
0.0
  0
LINE
  5
295
330
23F
100
AcDbEntity
  8
0
  6
Continuous
 62
     1
100
AcDbLine
 10
107.485343041
 20
55.62333048180001
 30
0.0
 11
109.0263468558
 21
57.1643342966
 31
0.0
  0
LINE
  5
296
330
23F
100
AcDbEntity
  8
0
  6
Continuous
 62
     1
100
AcDbLine
 10
91.8564032651
 20
40.5977884925
 30
0.0
 11
93.39740707989999
 21
42.13879230729999
 31
0.0
  0
LINE
  5
297
330
23F
100
AcDbEntity
  8
0
  6
Continuous
 62
     1
100
AcDbLine
 10
99.56142233899999
 20
48.3028075664
 30
0.0
 11
100.5887619123
 21
49.3301471397
 31
0.0
  0
LINE
  5
298
330
23F
100
AcDbEntity
  8
0
  6
Continuous
 62
     1
100
AcDbLine
 10
106.7527734746
 20
55.494158702
 30
0.0
 11
108.2937772894
 21
57.03516251679999
 31
0.0
  0
LINE
  5
299
330
23F
100
AcDbEntity
  8
0
  6
Continuous
 62
     1
100
AcDbLine
 10
91.1238336987
 20
40.4686167127
 30
0.0
 11
92.6648375134
 21
42.00962052749999
 31
0.0
  0
LINE
  5
29A
330
23F
100
AcDbEntity
  8
0
  6
Continuous
 62
     1
100
AcDbLine
 10
98.8288527725
 20
48.1736357866
 30
0.0
 11
99.8561921363
 21
49.2009751503
 31
0.0
  0
LINE
  5
29B
330
23F
100
AcDbEntity
  8
0
  6
Continuous
 62
     1
100
AcDbLine
 10
106.0202039082
 20
55.3649869222
 30
0.0
 11
107.5612077229
 21
56.90599073699999
 31
0.0
  0
LINE
  5
29C
330
23F
100
AcDbEntity
  8
0
  6
Continuous
 62
     1
100
AcDbLine
 10
90.39126413219999
 20
40.33944493289999
 30
0.0
 11
91.93226794700001
 21
41.8804487477
 31
0.0
  0
LINE
  5
29D
330
23F
100
AcDbEntity
  8
0
  6
Continuous
 62
     1
100
AcDbLine
 10
98.09628320610002
 20
48.0444640068
 30
0.0
 11
99.12362236020001
 21
49.0718031609
 31
0.0
  0
LINE
  5
29E
330
23F
100
AcDbEntity
  8
0
  6
Continuous
 62
     1
100
AcDbLine
 10
105.2876343418
 20
55.23581514239999
 30
0.0
 11
106.8286381565
 21
56.7768189572
 31
0.0
  0
LINE
  5
29F
330
23F
100
AcDbEntity
  8
0
  6
Continuous
 62
     1
100
AcDbLine
 10
89.6586945658
 20
40.21027315309999
 30
0.0
 11
91.19969838059999
 21
41.75127696789999
 31
0.0
  0
LINE
  5
2A0
330
23F
100
AcDbEntity
  8
0
  6
Continuous
 62
     1
100
AcDbLine
 10
97.3637136397
 20
47.91529222699999
 30
0.0
 11
98.3910525842
 21
48.9426311715
 31
0.0
  0
LINE
  5
2A1
330
23F
100
AcDbEntity
  8
0
  6
Continuous
 62
     1
100
AcDbLine
 10
104.5550647753
 20
55.1066433626
 30
0.0
 11
106.0960685901
 21
56.64764717739999
 31
0.0
  0
LINE
  5
2A2
330
23F
100
AcDbEntity
  8
0
  6
Continuous
 62
     1
100
AcDbLine
 10
88.9261249994
 20
40.0811013733
 30
0.0
 11
90.46712881419999
 21
41.6221051881
 31
0.0
  0
LINE
  5
2A3
330
23F
100
AcDbEntity
  8
0
  6
Continuous
 62
     1
100
AcDbLine
 10
96.63114407329999
 20
47.7861204472
 30
0.0
 11
97.6584828082
 21
48.8134591821
 31
0.0
  0
LINE
  5
2A4
330
23F
100
AcDbEntity
  8
0
  6
Continuous
 62
     1
100
AcDbLine
 10
103.8224952089
 20
54.9774715828
 30
0.0
 11
105.3634990237
 21
56.5184753976
 31
0.0
  0
LINE
  5
2A5
330
23F
100
AcDbEntity
  8
0
  6
Continuous
 62
     1
100
AcDbLine
 10
88.19355543299998
 20
39.9519295935
 30
0.0
 11
89.73455924780001
 21
41.49293340829999
 31
0.0
  0
LINE
  5
2A6
330
23F
100
AcDbEntity
  8
0
  6
Continuous
 62
     1
100
AcDbLine
 10
95.89857450690001
 20
47.65694866739999
 30
0.0
 11
96.92591303209999
 21
48.6842871926
 31
0.0
  0
LINE
  5
2A7
330
23F
100
AcDbEntity
  8
0
  6
Continuous
 62
     1
100
AcDbLine
 10
103.0899256425
 20
54.848299803
 30
0.0
 11
104.6309294573
 21
56.38930361779999
 31
0.0
  0
LINE
  5
2A8
330
23F
100
AcDbEntity
  8
0
  6
Continuous
 62
     1
100
AcDbLine
 10
87.64223466049999
 20
40.0040066076
 30
0.0
 11
89.00198968129998
 21
41.3637616285
 31
0.0
  0
LINE
  5
2A9
330
23F
100
AcDbEntity
  8
0
  6
Continuous
 62
     1
100
AcDbLine
 10
95.16600494049999
 20
47.52777688760001
 30
0.0
 11
96.19334325610001
 21
48.5551152032
 31
0.0
  0
LINE
  5
2AA
330
23F
100
AcDbEntity
  8
0
  6
Continuous
 62
     1
100
AcDbLine
 10
102.3573560761
 20
54.7191280232
 30
0.0
 11
103.8983598909
 21
56.260131838
 31
0.0
  0
LINE
  5
2AB
330
23F
100
AcDbEntity
  8
0
  6
Continuous
 62
     1
100
AcDbLine
 10
87.5517876065
 20
40.51695734019999
 30
0.0
 11
88.630810094
 21
41.5959798278
 31
0.0
  0
LINE
  5
2AC
330
23F
100
AcDbEntity
  8
0
  6
Continuous
 62
     1
100
AcDbLine
 10
94.433435374
 20
47.39860510779999
 30
0.0
 11
95.46077348009999
 21
48.4259432138
 31
0.0
  0
LINE
  5
2AD
330
23F
100
AcDbEntity
  8
0
  6
Continuous
 62
     1
100
AcDbLine
 10
101.6247865097
 20
54.5899562434
 30
0.0
 11
103.1657903244
 21
56.1309600582
 31
0.0
  0
LINE
  5
2AE
330
23F
100
AcDbEntity
  8
0
  6
Continuous
 62
     1
100
AcDbLine
 10
87.4613405526
 20
41.0299080729
 30
0.0
 11
88.5403630401
 21
42.10893056039999
 31
0.0
  0
LINE
  5
2AF
330
23F
100
AcDbEntity
  8
0
  6
Continuous
 62
     1
100
AcDbLine
 10
93.7008658076
 20
47.26943332789999
 30
0.0
 11
94.7282037041
 21
48.29677122439999
 31
0.0
  0
LINE
  5
2B0
330
23F
100
AcDbEntity
  8
0
  6
Continuous
 62
     1
100
AcDbLine
 10
100.8922169432
 20
54.4607844636
 30
0.0
 11
102.433220758
 21
56.0017882784
 31
0.0
  0
LINE
  5
2B1
330
23F
100
AcDbEntity
  8
0
  6
Continuous
 62
     1
100
AcDbLine
 10
87.37089349860001
 20
41.54285880559999
 30
0.0
 11
88.44991598620001
 21
42.6218812931
 31
0.0
  0
LINE
  5
2B2
330
23F
100
AcDbEntity
  8
0
  6
Continuous
 62
     1
100
AcDbLine
 10
92.9682962412
 20
47.1402615481
 30
0.0
 11
93.99563392799999
 21
48.167599235
 31
0.0
  0
LINE
  5
2B3
330
23F
100
AcDbEntity
  8
0
  6
Continuous
 62
     1
100
AcDbLine
 10
100.1596473768
 20
54.33161268380001
 30
0.0
 11
101.7006511916
 21
55.8726164985
 31
0.0
  0
LINE
  5
2B4
330
23F
100
AcDbEntity
  8
0
  6
Continuous
 62
     1
100
AcDbLine
 10
87.28044644469999
 20
42.0558095382
 30
0.0
 11
88.35946893219999
 21
43.1348320258
 31
0.0
  0
LINE
  5
2B5
330
23F
100
AcDbEntity
  8
0
  6
Continuous
 62
     1
100
AcDbLine
 10
92.23572667479999
 20
47.01108976829999
 30
0.0
 11
93.26306415200001
 21
48.0384272456
 31
0.0
  0
LINE
  5
2B6
330
23F
100
AcDbEntity
  8
0
  6
Continuous
 62
     1
100
AcDbLine
 10
99.42707781040001
 20
54.202440904
 30
0.0
 11
100.9680816252
 21
55.74344471869999
 31
0.0
  0
LINE
  5
2B7
330
23F
100
AcDbEntity
  8
0
  6
Continuous
 62
     1
100
AcDbLine
 10
87.1899993907
 20
42.5687602709
 30
0.0
 11
88.26902187829999
 21
43.64778275839999
 31
0.0
  0
LINE
  5
2B8
330
23F
100
AcDbEntity
  8
0
  6
Continuous
 62
     1
100
AcDbLine
 10
91.50315710840001
 20
46.88191798850001
 30
0.0
 11
92.53049437600001
 21
47.90925525609999
 31
0.0
  0
LINE
  5
2B9
330
23F
100
AcDbEntity
  8
0
  6
Continuous
 62
     1
100
AcDbLine
 10
98.69450824399999
 20
54.0732691242
 30
0.0
 11
100.2355120588
 21
55.6142729389
 31
0.0
  0
LINE
  5
2BA
330
23F
100
AcDbEntity
  8
0
  6
Continuous
 62
     1
100
AcDbLine
 10
87.0995523368
 20
43.0817110036
 30
0.0
 11
88.1785748243
 21
44.16073349109999
 31
0.0
  0
LINE
  5
2BB
330
23F
100
AcDbEntity
  8
0
  6
Continuous
 62
     1
100
AcDbLine
 10
90.7705875419
 20
46.75274620869999
 30
0.0
 11
91.7979245999
 21
47.7800832667
 31
0.0
  0
LINE
  5
2BC
330
23F
100
AcDbEntity
  8
0
  6
Continuous
 62
     1
100
AcDbLine
 10
97.96193867760001
 20
53.94409734439999
 30
0.0
 11
99.50294249229999
 21
55.4851011591
 31
0.0
  0
LINE
  5
2BD
330
23F
100
AcDbEntity
  8
0
  6
Continuous
 62
     1
100
AcDbLine
 10
87.0091052829
 20
43.5946617363
 30
0.0
 11
88.08812777040001
 21
44.6736842238
 31
0.0
  0
LINE
  5
2BE
330
23F
100
AcDbEntity
  8
0
  6
Continuous
 62
     1
100
AcDbLine
 10
90.0380179755
 20
46.62357442890001
 30
0.0
 11
91.06535482389999
 21
47.65091127729999
 31
0.0
  0
LINE
  5
2BF
330
23F
100
AcDbEntity
  8
0
  6
Continuous
 62
     1
100
AcDbLine
 10
97.22936911120001
 20
53.8149255645
 30
0.0
 11
98.77037292590001
 21
55.3559293793
 31
0.0
  0
LINE
  5
2C0
330
23F
100
AcDbEntity
  8
0
  6
Continuous
 62
     1
100
AcDbLine
 10
86.91865822889999
 20
44.10761246889999
 30
0.0
 11
87.9976807164
 21
45.18663495640001
 31
0.0
  0
LINE
  5
2C1
330
23F
100
AcDbEntity
  8
0
  6
Continuous
 62
     1
100
AcDbLine
 10
89.3054484091
 20
46.49440264909999
 30
0.0
 11
90.33278504790001
 21
47.52173928789999
 31
0.0
  0
LINE
  5
2C2
330
23F
100
AcDbEntity
  8
0
  6
Continuous
 62
     1
100
AcDbLine
 10
96.4967995447
 20
53.6857537847
 30
0.0
 11
98.03780335950001
 21
55.2267575995
 31
0.0
  0
LINE
  5
2C3
330
23F
100
AcDbEntity
  8
0
  6
Continuous
 62
     1
100
AcDbLine
 10
86.82821117500001
 20
44.6205632016
 30
0.0
 11
87.9072336625
 21
45.69958568909999
 31
0.0
  0
LINE
  5
2C4
330
23F
100
AcDbEntity
  8
0
  6
Continuous
 62
     1
100
AcDbLine
 10
88.5728788427
 20
46.3652308693
 30
0.0
 11
89.60021527190001
 21
47.39256729850001
 31
0.0
  0
LINE
  5
2C5
330
23F
100
AcDbEntity
  8
0
  6
Continuous
 62
     1
100
AcDbLine
 10
95.76422997829999
 20
53.5565820049
 30
0.0
 11
97.3052337931
 21
55.0975858197
 31
0.0
  0
LINE
  5
2C6
330
23F
100
AcDbEntity
  8
0
  6
Continuous
 62
     1
100
AcDbLine
 10
86.737764121
 20
45.1335139343
 30
0.0
 11
87.81678660850001
 21
46.2125364218
 31
0.0
  0
LINE
  5
2C7
330
23F
100
AcDbEntity
  8
0
  6
Continuous
 62
     1
100
AcDbLine
 10
87.84030927629999
 20
46.2360590895
 30
0.0
 11
88.8676454958
 21
47.26339530909999
 31
0.0
  0
LINE
  5
2C8
330
23F
100
AcDbEntity
  8
0
  6
Continuous
 62
     1
100
AcDbLine
 10
95.0316604119
 20
53.42741022510001
 30
0.0
 11
96.5726642267
 21
54.9684140399
 31
0.0
  0
LINE
  5
2C9
330
23F
100
AcDbEntity
  8
0
  6
Continuous
 62
     1
100
AcDbLine
 10
86.64731706709998
 20
45.64646466689999
 30
0.0
 11
88.1350757198
 21
47.1342233196
 31
0.0
  0
LINE
  5
2CA
330
23F
100
AcDbEntity
  8
0
  6
Continuous
 62
     1
100
AcDbLine
 10
94.29909084549999
 20
53.2982384453
 30
0.0
 11
95.84009466030002
 21
54.8392422601
 31
0.0
  0
LINE
  5
2CB
330
23F
100
AcDbEntity
  8
0
  6
Continuous
 62
     1
100
AcDbLine
 10
86.55687001309999
 20
46.1594153996
 30
0.0
 11
87.63589250069999
 21
47.23843788709999
 31
0.0
  0
LINE
  5
2CC
330
23F
100
AcDbEntity
  8
0
  6
Continuous
 62
     1
100
AcDbLine
 10
93.56652127910001
 20
53.1690666655
 30
0.0
 11
95.10752509379999
 21
54.71007048029999
 31
0.0
  0
LINE
  5
2CD
330
23F
100
AcDbEntity
  8
0
  6
Continuous
 62
     1
100
AcDbLine
 10
86.46642295920001
 20
46.6723661323
 30
0.0
 11
87.5454454467
 21
47.75138861979999
 31
0.0
  0
LINE
  5
2CE
330
23F
100
AcDbEntity
  8
0
  6
Continuous
 62
     1
100
AcDbLine
 10
92.8339517126
 20
53.0398948857
 30
0.0
 11
94.37495552740001
 21
54.5808987005
 31
0.0
  0
LINE
  5
2CF
330
23F
100
AcDbEntity
  8
0
  6
Continuous
 62
     1
100
AcDbLine
 10
86.37597590530001
 20
47.18531686489999
 30
0.0
 11
87.4549983928
 21
48.2643393525
 31
0.0
  0
LINE
  5
2D0
330
23F
100
AcDbEntity
  8
0
  6
Continuous
 62
     1
100
AcDbLine
 10
92.1013821462
 20
52.9107231059
 30
0.0
 11
93.64238596099999
 21
54.45172692069999
 31
0.0
  0
LINE
  5
2D1
330
23F
100
AcDbEntity
  8
0
  6
Continuous
 62
     1
100
AcDbLine
 10
86.28552885129998
 20
47.69826759759999
 30
0.0
 11
87.36455133879999
 21
48.7772900851
 31
0.0
  0
LINE
  5
2D2
330
23F
100
AcDbEntity
  8
0
  6
Continuous
 62
     1
100
AcDbLine
 10
91.36881257979998
 20
52.78155132609999
 30
0.0
 11
92.90981639459998
 21
54.3225551409
 31
0.0
  0
LINE
  5
2D3
330
23F
100
AcDbEntity
  8
0
  6
Continuous
 62
     1
100
AcDbLine
 10
86.1950817974
 20
48.2112183303
 30
0.0
 11
87.27410428489999
 21
49.29024081779999
 31
0.0
  0
LINE
  5
2D4
330
23F
100
AcDbEntity
  8
0
  6
Continuous
 62
     1
100
AcDbLine
 10
90.6362430134
 20
52.6523795463
 30
0.0
 11
92.1772468282
 21
54.1933833611
 31
0.0
  0
LINE
  5
2D5
330
23F
100
AcDbEntity
  8
0
  6
Continuous
 62
     1
100
AcDbLine
 10
86.10463474339999
 20
48.72416906289999
 30
0.0
 11
87.1836572309
 21
49.80319155050001
 31
0.0
  0
LINE
  5
2D6
330
23F
100
AcDbEntity
  8
0
  6
Continuous
 62
     1
100
AcDbLine
 10
89.903673447
 20
52.52320776649999
 30
0.0
 11
91.44467726180002
 21
54.0642115813
 31
0.0
  0
LINE
  5
2D7
330
23F
100
AcDbEntity
  8
0
  6
Continuous
 62
     1
100
AcDbLine
 10
86.01418768950001
 20
49.2371197956
 30
0.0
 11
87.093210177
 21
50.31614228310001
 31
0.0
  0
LINE
  5
2D8
330
23F
100
AcDbEntity
  8
0
  6
Continuous
 62
     1
100
AcDbLine
 10
89.17110388060001
 20
52.3940359867
 30
0.0
 11
90.71210769530001
 21
53.9350398015
 31
0.0
  0
LINE
  5
2D9
330
23F
100
AcDbEntity
  8
0
  6
Continuous
 62
     1
100
AcDbLine
 10
85.9237406355
 20
49.7500705283
 30
0.0
 11
87.0027631231
 21
50.82909301579999
 31
0.0
  0
LINE
  5
2DA
330
23F
100
AcDbEntity
  8
0
  6
Continuous
 62
     1
100
AcDbLine
 10
88.4385343141
 20
52.26486420689999
 30
0.0
 11
89.97953812889999
 21
53.8058680217
 31
0.0
  0
LINE
  5
2DB
330
23F
100
AcDbEntity
  8
0
  6
Continuous
 62
     1
100
AcDbLine
 10
85.8332935816
 20
50.2630212609
 30
0.0
 11
86.91231606909999
 21
51.3420437485
 31
0.0
  0
LINE
  5
2DC
330
23F
100
AcDbEntity
  8
0
  6
Continuous
 62
     1
100
AcDbLine
 10
87.7059647477
 20
52.1356924271
 30
0.0
 11
89.24696856249999
 21
53.6766962419
 31
0.0
  0
LINE
  5
2DD
330
23F
100
AcDbEntity
  8
0
  6
Continuous
 62
     1
100
AcDbLine
 10
85.74284652760001
 20
50.77597199359999
 30
0.0
 11
86.82186901520001
 21
51.85499448109999
 31
0.0
  0
LINE
  5
2DE
330
23F
100
AcDbEntity
  8
0
  6
Continuous
 62
     1
100
AcDbLine
 10
86.97339518129998
 20
52.00652064729999
 30
0.0
 11
88.51439899610001
 21
53.5475244621
 31
0.0
  0
LINE
  5
2DF
330
23F
100
AcDbEntity
  8
0
  6
Continuous
 62
     1
100
AcDbLine
 10
85.65239947370001
 20
51.2889227263
 30
0.0
 11
87.7818294297
 21
53.4183526822
 31
0.0
  0
LINE
  5
2E0
330
23F
100
AcDbEntity
  8
0
  6
Continuous
 62
     1
100
AcDbLine
 10
85.56195241979999
 20
51.801873459
 30
0.0
 11
87.04925986319999
 21
53.2891809024
 31
0.0
  0
LINE
  5
2E1
330
23F
100
AcDbEntity
  8
0
  6
Continuous
 62
     1
100
AcDbLine
 10
85.4715053658
 20
52.31482419159999
 30
0.0
 11
86.31669029680001
 21
53.1600091226
 31
0.0
  0
LINE
  5
2E2
330
23F
100
AcDbEntity
  8
0
  6
Continuous
 62
     1
100
AcDbLine
 10
85.3810583119
 20
52.8277749243
 30
0.0
 11
85.58412073040001
 21
53.0308373428
 31
0.0
  0
ENDBLK
  5
2E3
330
23F
100
AcDbEntity
  8
0
  6
ByBlock
 62
     0
100
AcDbBlockEnd
  0
BLOCK
  5
2E4
330
240
100
AcDbEntity
  8
0
  6
Continuous
 62
     2
100
AcDbBlockBegin
  2
L03-NOTE_SPECS_BAINS_BL0
 70
     0
 10
160.6665744185
 20
55.3333957601
 30
0.0
  3
L03-NOTE_SPECS_BAINS_BL0
  1

  0
TEXT
  5
2E5
330
240
100
AcDbEntity
  8
0
  6
Continuous
 62
     2
100
AcDbText
 10
144.4187893423
 20
63.1068291512
 30
0.0
 40
0.5
  1
Infomations Techniques/Technical Infomations
 41
0.8282282282286493
 72
     5
 11
159.0113819349
 21
63.1068291512
 31
0.0
100
AcDbText
  0
TEXT
  5
2E6
330
240
100
AcDbEntity
  8
0
  6
Continuous
 62
     2
100
AcDbText
 10
144.6665744185
 20
61.6667290935
 30
0.0
 40
0.6666666667
  1
NOMBRE DE JETS:     
 41
0.7951282050848596
 72
     5
 11
154.5110188629
 21
61.6667290935
 31
0.0
100
AcDbText
  0
TEXT
  5
2E7
330
240
100
AcDbEntity
  8
0
  6
Continuous
 62
     2
100
AcDbText
 10
154.5110188629
 20
61.6667290935
 30
0.0
 40
0.6666666667
  1
34
 41
0.9200000000240017
 72
     5
 11
155.5332410852
 21
61.6667290935
 31
0.0
100
AcDbText
  0
TEXT
  5
2E8
330
240
100
AcDbEntity
  8
0
  6
Continuous
 62
     2
100
AcDbText
 10
144.6665744185
 20
60.6667290935
 30
0.0
 40
0.6666666667
  1
 
 41
0.4543859649325198
 72
     5
 11
144.9406484926
 21
60.6667290935
 31
0.0
100
AcDbText
  0
TEXT
  5
2E9
330
240
100
AcDbEntity
  8
0
  6
Continuous
 62
     2
100
AcDbText
 10
144.6665744185
 20
59.6667290935
 30
0.0
 40
0.6666666667
  1
NIVEAU D'EAU              GALLONS(US)        LITRES        GALLONS(UK)
 41
0.7326737696243262
 72
     5
 11
175.2295373815
 21
59.6667290935
 31
0.0
100
AcDbText
  0
TEXT
  5
2EA
330
240
100
AcDbEntity
  8
0
  6
Continuous
 62
     2
100
AcDbText
 10
144.6665744185
 20
58.6667290935
 30
0.0
 40
0.6666666667
  1
PLEIN
 41
1.076090014011386
 72
     5
 11
147.3653398506
 21
58.6667290935
 31
0.0
100
AcDbText
  0
TEXT
  5
2EB
330
240
100
AcDbEntity
  8
0
  6
Continuous
 62
     2
100
AcDbText
 10
144.6665744185
 20
57.6667290935
 30
0.0
 40
0.6666666667
  1
HAUT T.PLEIN
 41
0.9533333332923344
 72
     5
 11
151.0221299741
 21
57.6667290935
 31
0.0
100
AcDbText
  0
TEXT
  5
2EC
330
240
100
AcDbEntity
  8
0
  6
Continuous
 62
     2
100
AcDbText
 10
144.6665744185
 20
56.6667290935
 30
0.0
 40
0.6666666667
  1
MILIEU T.PLEIN
 41
0.9753472221684196
 72
     5
 11
151.6023768876
 21
56.6667290935
 31
0.0
100
AcDbText
  0
TEXT
  5
2ED
330
240
100
AcDbEntity
  8
0
  6
Continuous
 62
     2
100
AcDbText
 10
144.6665744185
 20
55.6667290935
 30
0.0
 40
0.6666666667
  1
BAS T.PLEIN
 41
0.945267489669402
 72
     5
 11
150.3381793568
 21
55.6667290935
 31
0.0
100
AcDbText
  0
TEXT
  5
2EE
330
240
100
AcDbEntity
  8
0
  6
Continuous
 62
     2
100
AcDbText
 10
144.6665744185
 20
54.6667290935
 30
0.0
 40
0.6666666667
  1
3" EN BAS T.PLEIN
 41
0.8791712504189138
 72
     5
 11
153.123364542
 21
54.6667290935
 31
0.0
100
AcDbText
  0
TEXT
  5
2EF
330
240
100
AcDbEntity
  8
0
  6
Continuous
 62
     2
100
AcDbText
 10
144.6665744185
 20
53.6667290935
 30
0.0
 40
0.6666666667
  1
 
 41
0.4543859649325198
 72
     5
 11
144.9406484926
 21
53.6667290935
 31
0.0
100
AcDbText
  0
TEXT
  5
2F0
330
240
100
AcDbEntity
  8
0
  6
Continuous
 62
     2
100
AcDbText
 10
144.4664129129
 20
53.1199421686
 30
0.0
 40
0.5
  1
Legende/Legend
 41
0.8786122090482196
 72
     5
 11
149.7590055055
 21
53.1199421686
 31
0.0
100
AcDbText
  0
TEXT
  5
2F1
330
240
100
AcDbEntity
  8
0
  6
Continuous
 62
     2
100
AcDbText
 10
150.995247857
 20
51.6086771909
 30
0.0
 40
0.6666666667
  1
ZONE DE ROBINETTERIE
 41
0.9557651991088162
 72
     5
 11
162.2520379804
 21
51.6086771909
 31
0.0
100
AcDbText
  0
TEXT
  5
2F2
330
240
100
AcDbEntity
  8
0
  6
Continuous
 62
     2
100
AcDbText
 10
145.91552329
 20
50.1134326765
 30
0.0
 40
0.6666666667
  1
L   :  SYSTEME LED       DC   :  DOUBLE DOSSIER CHAUFFANT
 41
0.795242424203509
 72
     5
 11
173.6858936604
 21
50.1134326765
 31
0.0
100
AcDbText
  0
TEXT
  5
2F3
330
240
100
AcDbEntity
  8
0
  6
Continuous
 62
     2
100
AcDbText
 10
145.91552329
 20
48.7800993432
 30
0.0
 40
0.6666666667
  1
C   :  CONTROLE
 41
0.8195121950846322
 72
     5
 11
153.3821899567
 21
48.7800993432
 31
0.0
100
AcDbText
  0
TEXT
  5
2F4
330
240
100
AcDbEntity
  8
0
  6
Continuous
 62
     2
100
AcDbText
 10
145.91552329
 20
47.4467660099
 30
0.0
 40
0.6666666667
  1
T   :  MOTEUR
 41
0.7954116058934268
 72
     5
 11
152.152560327
 21
47.4467660099
 31
0.0
100
AcDbText
  0
TEXT
  5
2F5
330
240
100
AcDbEntity
  8
0
  6
Continuous
 62
     2
100
AcDbText
 10
157.4992711178
 20
58.6667290935
 30
0.0
 40
0.6666666667
  1
90
 41
0.9470588234614575
 72
     5
 11
158.52149334
 21
58.6667290935
 31
0.0
100
AcDbText
  0
TEXT
  5
2F6
330
240
100
AcDbEntity
  8
0
  6
Continuous
 62
     2
100
AcDbText
 10
157.4992711178
 20
57.6667290935
 30
0.0
 40
0.6666666667
  1
74
 41
0.9199999999339873
 72
     5
 11
158.52149334
 21
57.6667290935
 31
0.0
100
AcDbText
  0
TEXT
  5
2F7
330
240
100
AcDbEntity
  8
0
  6
Continuous
 62
     2
100
AcDbText
 10
157.4992711178
 20
56.6667290935
 30
0.0
 40
0.6666666667
  1
73
 41
0.9470588234614574
 72
     5
 11
158.52149334
 21
56.6667290935
 31
0.0
100
AcDbText
  0
TEXT
  5
2F8
330
240
100
AcDbEntity
  8
0
  6
Continuous
 62
     2
100
AcDbText
 10
157.4992711178
 20
55.6667290935
 30
0.0
 40
0.6666666667
  1
72
 41
0.9470588234614574
 72
     5
 11
158.52149334
 21
55.6667290935
 31
0.0
100
AcDbText
  0
TEXT
  5
2F9
330
240
100
AcDbEntity
  8
0
  6
Continuous
 62
     2
100
AcDbText
 10
157.4992711178
 20
54.6667290935
 30
0.0
 40
0.6666666667
  1
56
 41
0.9757575756875622
 72
     5
 11
158.52149334
 21
54.6667290935
 31
0.0
100
AcDbText
  0
TEXT
  5
2FA
330
240
100
AcDbEntity
  8
0
  6
Continuous
 62
     2
100
AcDbText
 10
164.4194770615
 20
58.68380849560001
 30
0.0
 40
0.6666666667
  1
340
 41
0.8944444443802737
 72
     5
 11
165.9528103948
 21
58.68380849560001
 31
0.0
100
AcDbText
  0
TEXT
  5
2FB
330
240
100
AcDbEntity
  8
0
  6
Continuous
 62
     2
100
AcDbText
 10
164.4194770615
 20
57.6838084956
 30
0.0
 40
0.6666666667
  1
282
 41
0.8944444443802732
 72
     5
 11
165.9528103948
 21
57.6838084956
 31
0.0
100
AcDbText
  0
TEXT
  5
2FC
330
240
100
AcDbEntity
  8
0
  6
Continuous
 62
     2
100
AcDbText
 10
164.4194770615
 20
56.6838084956
 30
0.0
 40
0.6666666667
  1
277
 41
0.8944444443802735
 72
     5
 11
165.9528103948
 21
56.6838084956
 31
0.0
100
AcDbText
  0
TEXT
  5
2FD
330
240
100
AcDbEntity
  8
0
  6
Continuous
 62
     2
100
AcDbText
 10
164.4194770615
 20
55.6838084956
 30
0.0
 40
0.6666666667
  1
273
 41
0.8944444443802735
 72
     5
 11
165.9528103948
 21
55.6838084956
 31
0.0
100
AcDbText
  0
TEXT
  5
2FE
330
240
100
AcDbEntity
  8
0
  6
Continuous
 62
     2
100
AcDbText
 10
164.4194770615
 20
54.6838084956
 30
0.0
 40
0.6666666667
  1
210
 41
0.9659999999306956
 72
     5
 11
165.9528103948
 21
54.6838084956
 31
0.0
100
AcDbText
  0
TEXT
  5
2FF
330
240
100
AcDbEntity
  8
0
  6
Continuous
 62
     2
100
AcDbText
 10
171.364115999
 20
58.6667290935
 30
0.0
 40
0.6666666667
  1
75
 41
0.9470588234614575
 72
     5
 11
172.3863382212
 21
58.6667290935
 31
0.0
100
AcDbText
  0
TEXT
  5
300
330
240
100
AcDbEntity
  8
0
  6
Continuous
 62
     2
100
AcDbText
 10
171.364115999
 20
57.6667290935
 30
0.0
 40
0.6666666667
  1
62
 41
0.9470588234614575
 72
     5
 11
172.3863382212
 21
57.6667290935
 31
0.0
100
AcDbText
  0
TEXT
  5
301
330
240
100
AcDbEntity
  8
0
  6
Continuous
 62
     2
100
AcDbText
 10
171.364115999
 20
56.6667290935
 30
0.0
 40
0.6666666667
  1
61
 41
1.287999999907581
 72
     5
 11
172.3863382212
 21
56.6667290935
 31
0.0
100
AcDbText
  0
TEXT
  5
302
330
240
100
AcDbEntity
  8
0
  6
Continuous
 62
     2
100
AcDbText
 10
171.364115999
 20
55.6667290935
 30
0.0
 40
0.6666666667
  1
60
 41
0.9470588234614575
 72
     5
 11
172.3863382212
 21
55.6667290935
 31
0.0
100
AcDbText
  0
TEXT
  5
303
330
240
100
AcDbEntity
  8
0
  6
Continuous
 62
     2
100
AcDbText
 10
171.364115999
 20
54.6667290935
 30
0.0
 40
0.6666666667
  1
46
 41
0.9757575756875622
 72
     5
 11
172.3863382212
 21
54.6667290935
 31
0.0
100
AcDbText
  0
LINE
  5
304
330
240
100
AcDbEntity
  8
0
  6
Continuous
 62
     7
100
AcDbLine
 10
143.9999077518
 20
64.00006242679999
 30
0.0
 11
143.9999077518
 21
46.6667290935
 31
0.0
  0
LINE
  5
305
330
240
100
AcDbEntity
  8
0
  6
Continuous
 62
     7
100
AcDbLine
 10
143.9999077518
 20
64.00006242679999
 30
0.0
 11
177.3332410852
 21
64.00006242679999
 31
0.0
  0
LINE
  5
306
330
240
100
AcDbEntity
  8
0
  6
Continuous
 62
     7
100
AcDbLine
 10
177.3332410852
 20
64.00006242679999
 30
0.0
 11
177.3332410852
 21
46.6667290935
 31
0.0
  0
LINE
  5
307
330
240
100
AcDbEntity
  8
0
  6
Continuous
 62
     7
100
AcDbLine
 10
143.9999077518
 20
46.6667290935
 30
0.0
 11
177.3332410852
 21
46.6667290935
 31
0.0
  0
LINE
  5
308
330
240
100
AcDbEntity
  8
0
  6
Continuous
 62
     7
100
AcDbLine
 10
145.3332410852
 20
54.00006242679999
 30
0.0
 11
175.9999077518
 21
54.00006242679999
 31
0.0
  0
LINE
  5
309
330
240
100
AcDbEntity
  8
0
  6
Continuous
 62
     7
100
AcDbLine
 10
145.3332410852
 20
61.0000624268
 30
0.0
 11
175.9999077518
 21
61.0000624268
 31
0.0
  0
LINE
  5
30A
330
240
100
AcDbEntity
  8
0
  6
Continuous
 62
     7
100
AcDbLine
 10
144.8088143111
 20
52.3782269312
 30
0.0
 11
144.4397935688
 21
52.0092061888
 31
0.0
  0
LINE
  5
30B
330
240
100
AcDbEntity
  8
0
  6
Continuous
 62
     7
100
AcDbLine
 10
145.4754809778
 20
52.3782269312
 30
0.0
 11
144.6774651873
 21
51.58021114069999
 31
0.0
  0
LINE
  5
30C
330
240
100
AcDbEntity
  8
0
  6
Continuous
 62
     7
100
AcDbLine
 10
146.1421476444
 20
52.3782269312
 30
0.0
 11
145.344131854
 21
51.58021114069999
 31
0.0
  0
LINE
  5
30D
330
240
100
AcDbEntity
  8
0
  6
Continuous
 62
     7
100
AcDbLine
 10
146.8088143111
 20
52.3782269312
 30
0.0
 11
146.0107985207
 21
51.58021114069999
 31
0.0
  0
LINE
  5
30E
330
240
100
AcDbEntity
  8
0
  6
Continuous
 62
     7
100
AcDbLine
 10
147.4754809778
 20
52.3782269312
 30
0.0
 11
146.6774651873
 21
51.58021114069999
 31
0.0
  0
LINE
  5
30F
330
240
100
AcDbEntity
  8
0
  6
Continuous
 62
     7
100
AcDbLine
 10
148.1421476444
 20
52.3782269312
 30
0.0
 11
147.344131854
 21
51.58021114069999
 31
0.0
  0
LINE
  5
310
330
240
100
AcDbEntity
  8
0
  6
Continuous
 62
     7
100
AcDbLine
 10
148.8088143111
 20
52.3782269312
 30
0.0
 11
148.0107985207
 21
51.58021114069999
 31
0.0
  0
LINE
  5
311
330
240
100
AcDbEntity
  8
0
  6
Continuous
 62
     7
100
AcDbLine
 10
149.4754809778
 20
52.3782269312
 30
0.0
 11
148.6774651873
 21
51.58021114069999
 31
0.0
  0
LINE
  5
312
330
240
100
AcDbEntity
  8
0
  6
Continuous
 62
     7
100
AcDbLine
 10
150.1421476444
 20
52.3782269312
 30
0.0
 11
149.344131854
 21
51.58021114069999
 31
0.0
  0
LINE
  5
313
330
240
100
AcDbEntity
  8
0
  6
Continuous
 62
     7
100
AcDbLine
 10
150.5856350786
 20
52.15504769859999
 30
0.0
 11
150.0107985207
 21
51.58021114069999
 31
0.0
  0
ELLIPSE
  5
314
330
240
100
AcDbEntity
  8
0
  6
Continuous
 62
     7
100
AcDbEllipse
 10
146.145310234
 20
50.4310101337
 30
0.0
 11
1.0473539356
 21
0.0
 31
0.0
210
0.0
220
0.0
230
1.0
 40
0.4938647983
 41
0.0
 42
6.283185307179586
  0
ELLIPSE
  5
315
330
240
100
AcDbEntity
  8
0
  6
Continuous
 62
     7
100
AcDbEllipse
 10
146.145310234
 20
49.0976768004
 30
0.0
 11
1.0473539356
 21
0.0
 31
0.0
210
0.0
220
0.0
230
1.0
 40
0.4938647983
 41
0.0
 42
6.283185307179586
  0
ELLIPSE
  5
316
330
240
100
AcDbEntity
  8
0
  6
Continuous
 62
     7
100
AcDbEllipse
 10
146.145310234
 20
47.7643434671
 30
0.0
 11
1.0473539356
 21
0.0
 31
0.0
210
0.0
220
0.0
230
1.0
 40
0.4938647983
 41
0.0
 42
6.283185307179586
  0
ELLIPSE
  5
317
330
240
100
AcDbEntity
  8
0
  6
Continuous
 62
     7
100
AcDbEllipse
 10
157.1639458151
 20
50.4505314908
 30
0.0
 11
1.0473539356
 21
0.0
 31
0.0
210
0.0
220
0.0
230
1.0
 40
0.4938647983
 41
0.0
 42
6.283185307179586
  0
ENDBLK
  5
318
330
240
100
AcDbEntity
  8
0
  6
ByBlock
 62
     0
100
AcDbBlockEnd
  0
ENDSEC
  0
SECTION
  2
ENTITIES
  0
TEXT
  5
4A6
330
21F
100
AcDbEntity
  8
0
  6
Continuous
 62
     2
100
AcDbText
 10
168.210790069
 20
31.1666666667
 30
0.0
 40
0.3333333333
  1
 
 41
0.454385964835003
  7
TEXTSTYLE_2
 72
     5
 11
168.347827106
 21
31.1666666667
 31
0.0
100
AcDbText
  0
LWPOLYLINE
  5
157F
330
21F
100
AcDbEntity
  8
0
  6
Continuous
 62
     7
100
AcDbPolyline
 90
        3
 70
     0
 43
0.0
 10
29.150439139
 20
18.3594724556
 10
29.1711949729
 20
18.3577390021
 10
29.192015034
 20
18.3571605895
  0
LWPOLYLINE
  5
1580
330
21F
100
AcDbEntity
  8
0
  6
Continuous
 62
     7
100
AcDbPolyline
 90
       18
 70
     0
 43
0.0
 10
28.8657237197
 20
18.5473390773
 10
28.8764883222
 20
18.5295084085
 10
28.8882262827
 20
18.5123028946
 10
28.9009013911
 20
18.4957756123
 10
28.9144745464
 20
18.4799775463
 10
28.9289038773
 20
18.4649574313
 10
28.9441448711
 20
18.4507616024
 10
28.9601505115
 20
18.4374338519
 10
28.9768714231
 20
18.4250152942
 10
28.9942560243
 20
18.4135442388
 10
29.0122506858
 20
18.4030560725
 10
29.0307998965
 20
18.3935831499
 10
29.0498464345
 20
18.3851546936
 10
29.0693315438
 20
18.3777967044
 10
29.0891951154
 20
18.3715318807
 10
29.1093758728
 20
18.3663795486
 10
29.1298115612
 20
18.3623556025
 10
29.150439139
 20
18.3594724556
  0
LINE
  5
1581
330
21F
100
AcDbEntity
  8
0
  6
Continuous
 62
     7
100
AcDbLine
 10
17.9741420286
 20
44.27166493449999
 30
0.0
 11
17.9759100501
 21
44.2344999302
 31
0.0
  0
LINE
  5
1582
330
21F
100
AcDbEntity
  8
0
  6
Continuous
 62
     7
100
AcDbLine
 10
17.9741467427
 20
44.27334839069999
 30
0.0
 11
17.9741420286
 21
44.27166493449999
 31
0.0
  0
LINE
  5
1583
330
21F
100
AcDbEntity
  8
0
  6
Continuous
 62
     7
100
AcDbLine
 10
17.974147006
 20
44.27339794319999
 30
0.0
 11
17.9741467427
 21
44.27334839069999
 31
0.0
  0
LINE
  5
1584
330
21F
100
AcDbEntity
  8
DEFAULT_2
  6
HIDDEN
 62
     8
100
AcDbLine
 10
52.95498607329999
 20
22.3603262355
 30
0.0
 11
68.7263935496
 21
22.7733038502
 31
0.0
  0
LINE
  5
1585
330
21F
100
AcDbEntity
  8
0
  6
Continuous
 62
     7
100
AcDbLine
 10
72.72614746329999
 20
18.3571605895
 30
0.0
 11
29.1920232779
 21
18.3571605895
 31
0.0
  0
LINE
  5
1586
330
21F
100
AcDbEntity
  8
DEFAULT_2
  6
HIDDEN
 62
     8
100
AcDbLine
 10
52.3340916469
 20
21.8571605895
 30
0.0
 11
49.58409164689999
 21
21.8571605895
 31
0.0
  0
LINE
  5
1587
330
21F
100
AcDbEntity
  8
DEFAULT_2
  6
HIDDEN
 62
     8
100
AcDbLine
 10
48.9631972206
 20
22.3603262354
 30
0.0
 11
33.1917897453
 21
22.7733038488
 31
0.0
  0
LINE
  5
1588
330
21F
100
AcDbEntity
  8
DEFAULT_2
  6
HIDDEN
 62
     8
100
AcDbLine
 10
19.5408344728
 20
43.5489887874
 30
0.0
 11
19.5408094553
 21
43.5490277779
 31
0.0
  0
LINE
  5
1589
330
21F
100
AcDbEntity
  8
DEFAULT_2
  6
HIDDEN
 62
     8
100
AcDbLine
 10
19.5408094553
 20
43.5490277779
 30
0.0
 11
19.5175201147
 21
43.5896280558
 31
0.0
  0
LINE
  5
158A
330
21F
100
AcDbEntity
  8
0
  6
Continuous
 62
     7
100
AcDbLine
 10
28.8566107603
 20
18.5644436043
 30
0.0
 11
28.8657237197
 21
18.5473390773
 31
0.0
  0
LWPOLYLINE
  5
158B
330
21F
100
AcDbEntity
  8
6_SURFACES
  6
Continuous
 62
     7
100
AcDbPolyline
 90
       39
 70
     0
 43
0.0
 10
17.9873796956
 20
44.1624664392
 10
18.1468007557
 20
43.2604884299
 10
18.3093133797
 20
42.3646085941
 10
18.4738752498
 20
41.4972827736
 10
18.6428707519
 20
40.6562902766
 10
18.8178624983
 20
39.8400916954
 10
18.999985249
 20
39.04715712690001
 10
19.1900777766
 20
38.27588482719999
 10
19.388710653
 20
37.5247662936
 10
19.596268151
 20
36.792269227
 10
19.8130241768
 20
36.0767573344
 10
20.0389593237
 20
35.3772134385
 10
20.2748138195
 20
34.69020174860001
 10
20.5208462429
 20
34.013935347
 10
20.7789321655
 20
33.3425941628
 10
21.0508475158
 20
32.6714978423
 10
21.3387007095
 20
31.9958611402
 10
21.6454353272
 20
31.3097139989
 10
21.9718011701
 20
30.6124661106
 10
22.3211417819
 20
29.8981413246
 10
22.6885280886
 20
29.1772764591
 10
23.0706886101
 20
28.4553670947
 10
23.4620926421
 20
27.7408509515
 10
23.8563869658
 20
27.0422997654
 10
24.24928614340001
 20
26.3637418809
 10
24.633801912
 20
25.7134236059
 10
25.0106873934
 20
25.08644754900001
 10
25.3786772136
 20
24.4817661743
 10
25.7379631656
 20
23.8962548797
 10
26.0885794277
 20
23.3273404413
 10
26.4305368312
 20
22.7726872003
 10
26.7638091523
 20
22.230141605
 10
27.0887543295
 20
21.6969645735
 10
27.405497067
 20
21.1707390304
 10
27.7142181575
 20
20.6487841918
 10
28.0148121373
 20
20.1285918106
 10
28.3069070154
 20
19.6076463618
 10
28.590394574
 20
19.08221884
 10
28.8566110915
 20
18.5644429265
  0
LINE
  5
158C
330
21F
100
AcDbEntity
  8
0
  6
Continuous
 62
     7
100
AcDbLine
 10
17.97996432619999
 20
44.2046837299
 30
0.0
 11
17.9799548207
 21
44.20473788
 31
0.0
  0
LINE
  5
158D
330
21F
100
AcDbEntity
  8
0
  6
Continuous
 62
     7
100
AcDbLine
 10
17.9759100501
 20
44.2344999302
 30
0.0
 11
17.9799544147
 21
44.204721599
 31
0.0
  0
LINE
  5
158E
330
21F
100
AcDbEntity
  8
0
  6
Continuous
 62
     7
100
AcDbLine
 10
28.8566083047
 20
18.5644655037
 30
0.0
 11
28.8566114022
 21
18.5644423067
 31
0.0
  0
LINE
  5
158F
330
21F
100
AcDbEntity
  8
DEFAULT_2
  6
HIDDEN
 62
     8
100
AcDbLine
 10
49.3840916469
 20
21.9571605895
 30
0.0
 11
49.1566531646
 21
22.2604118994
 31
0.0
  0
LINE
  5
1590
330
21F
100
AcDbEntity
  8
0
  6
Continuous
 62
     7
100
AcDbLine
 10
80.7572379151
 20
43.1107198659
 30
0.0
 11
80.55898644130001
 21
43.07329835189999
 31
0.0
  0
LWPOLYLINE
  5
1591
330
21F
100
AcDbEntity
  8
0
  6
Continuous
 62
     7
100
AcDbPolyline
 90
        3
 70
     0
 43
0.0
 10
80.55898644130001
 20
43.07329835189999
 10
80.34739047749999
 20
43.0356765118
 10
80.3215421281
 20
43.03134557729999
  0
LINE
  5
1592
330
21F
100
AcDbEntity
  8
0
  6
Continuous
 62
     7
100
AcDbLine
 10
80.5595326004
 20
43.06752917699999
 30
0.0
 11
80.62532588119999
 21
43.0778979376
 31
0.0
  0
LINE
  5
1593
330
21F
100
AcDbEntity
  8
0
  6
Continuous
 62
     7
100
AcDbLine
 10
80.55961816079999
 20
43.06754308979999
 30
0.0
 11
80.34007329999999
 21
43.0340223841
 31
0.0
  0
LINE
  5
1594
330
21F
100
AcDbEntity
  8
0
  6
Continuous
 62
     7
100
AcDbLine
 10
80.34007329999999
 20
43.0340223841
 30
0.0
 11
80.0430822176
 21
42.9911223577
 31
0.0
  0
LWPOLYLINE
  5
1595
330
21F
100
AcDbEntity
  8
0
  6
Continuous
 62
     7
100
AcDbPolyline
 90
      114
 70
     0
 43
0.0
 10
80.0430822176
 20
42.9911223577
 10
79.7312245616
 20
42.94880480699999
 10
79.40415167880001
 20
42.9071144915
 10
79.0615016963
 20
42.8661029955
 10
78.70291210399999
 20
42.825832239
 10
78.3279262066
 20
42.78636525849999
 10
77.9360979556
 20
42.74778055289999
 10
77.52694013350001
 20
42.7101627697
 10
77.0999673252
 20
42.67360642469999
 10
76.6547558426
 20
42.63822125439999
 10
76.1906865199
 20
42.6041116477
 10
75.70786253459999
 20
42.57144312269999
 10
75.2060925773
 20
42.5403614966
 10
74.6857079663
 20
42.5110456298
 10
74.1469674596
 20
42.4836647513
 10
73.59000093029999
 20
42.4583778721
 10
73.0151513114
 20
42.4353495174
 10
72.42208649310001
 20
42.4147160105
 10
71.8106648449
 20
42.3966247469
 10
71.18058650960001
 20
42.38122264429999
 10
70.53154889529999
 20
42.3686615303
 10
69.8633277638
 20
42.3590992665
 10
69.17533611839999
 20
42.3526940522
 10
68.468321109
 20
42.3496155853
 10
67.74242528239999
 20
42.3500182154
 10
66.99896394079999
 20
42.354039204
 10
66.23900483989999
 20
42.36179042639999
 10
65.46355895259999
 20
42.3733597173
 10
64.6740684711
 20
42.388801965
 10
63.8703259594
 20
42.4081852902
 10
63.0528814634
 20
42.4315520814
 10
62.2207854877
 20
42.4589828807
 10
61.3734640502
 20
42.4905533144
 10
60.5102622627
 20
42.5263435726
 10
59.6305487045
 20
42.56643581409999
 10
58.7336703995
 20
42.6109129985
 10
57.81895524180001
 20
42.659858213
 10
56.88578130239999
 20
42.7133497191
 10
55.9325674047
 20
42.7715211188
 10
54.9614732585
 20
42.83426518249999
 10
53.97218105909999
 20
42.90160039179999
 10
52.9705234602
 20
42.97308105099999
 10
51.96064686199999
 20
43.0482960623
 10
50.94725875219999
 20
43.12672471099999
 10
49.9349143854
 20
43.2077994143
 10
48.9281630022
 20
43.2909076576
 10
47.931700956
 20
43.37538712039999
 10
46.9496233287
 20
43.4605964264
 10
45.9877784239
 20
43.54571874869999
 10
45.04557595739999
 20
43.63050402319999
 10
44.1250119879
 20
43.7144902838
 10
43.22417421499999
 20
43.7975937268
 10
42.3421527663
 20
43.8796632088
 10
41.47798172679999
 20
43.9605761414
 10
40.63072149239999
 20
44.0402241595
 10
39.799448838
 20
44.11851088899999
 10
38.9832243796
 20
44.195358872
 10
38.1811750524
 20
44.2706914026
 10
37.3920345875
 20
44.3444755892
 10
36.6161442343
 20
44.4165400376
 10
35.8529230117
 20
44.4868025778
 10
35.1039982689
 20
44.55498424179999
 10
34.3703851449
 20
44.6208796843
 10
33.6532620925
 20
44.6842782542
 10
32.95402107760001
 20
44.7449678377
 10
32.2729665971
 20
44.8028501825
 10
31.6111037971
 20
44.8577781668
 10
30.9677487177
 20
44.9097619404
 10
30.3426946939
 20
44.95877279680001
 10
29.7356096497
 20
45.00479379899999
 10
29.1461571697
 20
45.04781831189999
 10
28.5741380845
 20
45.0878353686
 10
28.0191303453
 20
45.12485802439999
 10
27.481446234
 20
45.1588576063
 10
26.9611280045
 20
45.1898348395
 10
26.4585088936
 20
45.2177771496
 10
25.9739159248
 20
45.24267850909999
 10
25.5073254174
 20
45.26455890850001
 10
25.0589947515
 20
45.2834257665
 10
24.62830888860001
 20
45.2993399559
 10
24.2149228525
 20
45.31236806339999
 10
23.8183360322
 20
45.3225862225
 10
23.4380882766
 20
45.33007075119999
 10
23.0737675371
 20
45.3348589855
 10
22.7248991306
 20
45.33683234869999
 10
22.3912206056
 20
45.3358264539
 10
22.0724171782
 20
45.3316101921
 10
21.7682465204
 20
45.3240318995
 10
21.478462126
 20
45.3133072163
 10
21.2027520315
 20
45.2997132559
 10
20.9408780951
 20
45.2834330834
 10
20.6922530496
 20
45.2645936151
 10
20.4564959508
 20
45.243336388
 10
20.232892921
 20
45.21975444659999
 10
20.020886652
 20
45.19393883439999
 10
19.8199654077
 20
45.165951833
 10
19.6296604145
 20
45.13582393319999
 10
19.4496887571
 20
45.1035762697
 10
19.27976994319999
 20
45.0692002608
 10
19.1197995625
 20
45.03268821199999
 10
18.9696896333
 20
44.99401474609999
 10
18.8293965431
 20
44.9531329738
 10
18.6988646122
 20
44.90996335689999
 10
18.5783201067
 20
44.8644857364
 10
18.4678591076
 20
44.8166231551
 10
18.3678243055
 20
44.76637615629999
 10
18.2784722424
 20
44.71369566039999
 10
18.1999975229
 20
44.6584703642
 10
18.13256591
 20
44.6005301247
 10
18.076470381
 20
44.53974353979999
 10
18.031938336
 20
44.4758141984
 10
17.9997056049
 20
44.4090736479
 10
17.9803575288
 20
44.34006419520001
 10
17.974147006
 20
44.27339794319999
  0
LINE
  5
1596
330
21F
100
AcDbEntity
  8
DEFAULT_2
  6
HIDDEN
 62
     8
100
AcDbLine
 10
52.5176480408
 20
39.45288134030001
 30
0.0
 11
49.3933285477
 21
39.45288134030001
 31
0.0
  0
LINE
  5
1597
330
21F
100
AcDbEntity
  8
DEFAULT_2
  6
HIDDEN
 62
     8
100
AcDbLine
 10
49.644715378
 20
39.5950363294
 30
0.0
 11
52.2691437522
 21
39.5950363294
 31
0.0
  0
LINE
  5
1598
330
21F
100
AcDbEntity
  8
DEFAULT_1
  6
CENTER
 62
     7
100
AcDbLine
 10
54.0249031036
 20
39.86360666239999
 30
0.0
 11
47.89244081899999
 21
39.86360666239999
 31
0.0
  0
LINE
  5
1599
330
21F
100
AcDbEntity
  8
DEFAULT_2
  6
HIDDEN
 62
     8
100
AcDbLine
 10
49.6482001703
 20
40.1321769954
 30
0.0
 11
52.27262854460001
 21
40.1321769954
 31
0.0
  0
LINE
  5
159A
330
21F
100
AcDbEntity
  8
DEFAULT_2
  6
HIDDEN
 62
     8
100
AcDbLine
 10
49.39831567270001
 20
40.2915893156
 30
0.0
 11
52.5226351659
 21
40.2915893156
 31
0.0
  0
LINE
  5
159B
330
21F
100
AcDbEntity
  8
DEFAULT_1
  6
CENTER
 62
     7
100
AcDbLine
 10
50.8853658518
 20
40.95571034599999
 30
0.0
 11
51.0363371639
 21
38.7065618471
 31
0.0
  0
LINE
  5
159C
330
21F
100
AcDbEntity
  8
DEFAULT_1
  6
CENTER
 62
     7
100
AcDbLine
 10
50.9566498867
 20
38.9203455044
 30
0.0
 11
50.97107076060001
 21
41.1431573876
 31
0.0
  0
LINE
  5
159D
330
21F
100
AcDbEntity
  8
DEFAULT_2
  6
HIDDEN
 62
     8
100
AcDbLine
 10
52.53409164689999
 20
21.9571605895
 30
0.0
 11
52.7615301295
 21
22.2604118995
 31
0.0
  0
LWPOLYLINE
  5
159E
330
21F
100
AcDbEntity
  8
0
  6
Continuous
 62
     7
100
AcDbPolyline
 90
       72
 70
     0
 43
0.0
 10
83.9440410327
 20
44.27341276359999
 10
83.93805686689999
 20
44.3385374913
 10
83.9195087659
 20
44.4062076233
 10
83.88860565079999
 20
44.4718501377
 10
83.84573580899999
 20
44.53487799770001
 10
83.79151887189999
 20
44.5949304125
 10
83.72617505939999
 20
44.6522871424
 10
83.649984758
 20
44.7070644809
 10
83.56304047180001
 20
44.7594489904
 10
83.46541769869999
 20
44.809555722
 10
83.35727674479999
 20
44.8574143052
 10
83.23881045989999
 20
44.9030366033
 10
83.11021616640001
 20
44.94642709789999
 10
82.97184972310001
 20
44.9875499511
 10
82.8236814193
 20
45.02647779180001
 10
82.6657702834
 20
45.0632365488
 10
82.4980550633
 20
45.0978551157
 10
82.3204504087
 20
45.1303451295
 10
82.1328262793
 20
45.160700011
 10
81.93506841959999
 20
45.1888912529
 10
81.72678124729999
 20
45.21490342719999
 10
81.5076341696
 20
45.2386830526
 10
81.2769542596
 20
45.26018229429999
 10
81.03406517960001
 20
45.27932126949999
 10
80.77820363929999
 20
45.29599925529999
 10
80.5084695168
 20
45.31011482319999
 10
80.2241988998
 20
45.32148748189999
 10
79.9242836343
 20
45.32983983909999
 10
79.60891587739999
 20
45.3349200206
 10
79.27796878649999
 20
45.33672719979999
 10
78.9316565825
 20
45.33539206199999
 10
78.57013435510001
 20
45.33123686319999
 10
78.19356798459999
 20
45.3244729058
 10
77.802295086
 20
45.3150033204
 10
77.39626434979999
 20
45.30274240899999
 10
76.9757626505
 20
45.2877350633
 10
76.5401508993
 20
45.2699958956
 10
76.0890127481
 20
45.2494884634
 10
75.62181930779999
 20
45.2261608424
 10
75.13797520939999
 20
45.1999589377
 10
74.63710697899999
 20
45.170843173
 10
74.11850878760001
 20
45.13876136479999
 10
73.58246892149999
 20
45.1037323743
 10
73.02896594659999
 20
45.06576053839999
 10
72.4582622638
 20
45.0248734539
 10
71.87060338710001
 20
44.9811080434
 10
71.266108246
 20
44.9344932693
 10
70.6450278864
 20
44.88507971869999
 10
70.00728956439999
 20
44.8329003028
 10
69.3529082443
 20
44.7780044847
 10
68.6818560764
 20
44.7204490509
 10
67.9940843656
 20
44.66029545449999
 10
67.2895611722
 20
44.59761978989999
 10
66.5682692535
 20
44.53250708979999
 10
65.8300656775
 20
44.4650376584
 10
65.0748884642
 20
44.3953137225
 10
64.30251440239999
 20
44.32342801079999
 10
63.512745488
 20
44.2494844002
 10
62.7053883652
 20
44.1736025016
 10
61.8800154007
 20
44.0958877477
 10
61.0370480055
 20
44.01654087989999
 10
60.1761569965
 20
43.935706451
 10
59.29915225630001
 20
43.85374417609999
 10
58.4072283658
 20
43.7709680037
 10
57.501913431
 20
43.6877325786
 10
56.5846503736
 20
43.60439078
 10
55.6568806833
 20
43.5212995385
 10
54.7200424296
 20
43.438816488
 10
53.775570098
 20
43.3572969709
 10
52.8248888063
 20
43.2770901888
 10
51.86944380229999
 20
43.19853885399999
 10
50.95887767979999
 20
43.125825493
  0
LWPOLYLINE
  5
159F
330
21F
100
AcDbEntity
  8
0
  6
Continuous
 62
     7
100
AcDbPolyline
 90
       21
 70
     0
 43
0.0
 10
82.4373232497
 20
43.62262595549999
 10
82.4366780271
 20
43.6221136038
 10
82.42996813919999
 20
43.6171406038
 10
82.4161601151
 20
43.6077948453
 10
82.39463795069999
 20
43.5944653839
 10
82.3650378367
 20
43.57764032729999
 10
82.3269746835
 20
43.55772324239999
 10
82.28014911619998
 20
43.5351035031
 10
82.2242897295
 20
43.5101317351
 10
82.1591288099
 20
43.4831164689
 10
82.084476974
 20
43.45435888479999
 10
82.00001869319999
 20
43.4240772442
 10
81.90554152439998
 20
43.3924937159
 10
81.8008319976
 20
43.35979726539999
 10
81.6857862244
 20
43.32618617569999
 10
81.5600123147
 20
43.2917580728
 10
81.42320618099999
 20
43.2566284457
 10
81.27494767399999
 20
43.2208774041
 10
81.1148478205
 20
43.1845947465
 10
80.94244385560001
 20
43.14785417199999
 10
80.7572379151
 20
43.1107198659
  0
LINE
  5
15A0
330
21F
100
AcDbEntity
  8
0
  6
Continuous
 62
     7
100
AcDbLine
 10
83.9440458071
 20
44.2716985725
 30
0.0
 11
83.9440410327
 21
44.27341276359999
 31
0.0
  0
LINE
  5
15A1
330
21F
100
AcDbEntity
  8
0
  6
Continuous
 62
     7
100
AcDbLine
 10
83.94229099369999
 20
44.235112747
 30
0.0
 11
83.94404581279999
 21
44.2716837049
 31
0.0
  0
LINE
  5
15A2
330
21F
100
AcDbEntity
  8
0
  6
Continuous
 62
     7
100
AcDbLine
 10
83.93818977089999
 20
44.20505145359999
 30
0.0
 11
83.94229099369999
 21
44.235112747
 31
0.0
  0
LINE
  5
15A3
330
21F
100
AcDbEntity
  8
0
  6
Continuous
 62
     7
100
AcDbLine
 10
83.93575089530001
 20
44.1912534596
 30
0.0
 11
83.93818983600001
 21
44.20505205029999
 31
0.0
  0
LINE
  5
15A4
330
21F
100
AcDbEntity
  8
0
  6
Continuous
 62
     7
100
AcDbLine
 10
83.93076424680002
 20
44.1630442227
 30
0.0
 11
83.93575089530001
 21
44.1912534596
 31
0.0
  0
LWPOLYLINE
  5
15A5
330
21F
100
AcDbEntity
  8
6_SURFACES
  6
Continuous
 62
     7
100
AcDbPolyline
 90
       39
 70
     0
 43
0.0
 10
73.0615731843
 20
18.5644502901
 10
73.3261906947
 20
19.0792571675
 10
73.6078496957
 20
19.6016233285
 10
73.8979381784
 20
20.1194208337
 10
74.1964054852
 20
20.6364010698
 10
74.5029519074
 20
21.1551435444
 10
74.81746646810001
 20
21.6781035532
 10
75.1401733144
 20
22.2080011003
 10
75.4711379035
 20
22.7471277284
 10
75.810683048
 20
23.298138329
 10
76.15873258319999
 20
23.8630738457
 10
76.5152424745
 20
24.4441406731
 10
76.8802302023
 20
25.043831646
 10
77.25380202310001
 20
25.6650584476
 10
77.6348950704
 20
26.3091176606
 10
78.02429862380001
 20
26.9808644059
 10
78.4154745912
 20
27.6727530495
 10
78.8044931639
 20
28.381366907
 10
79.1851380828
 20
29.0984456846
 10
79.55210810469999
 20
29.8161330427
 10
79.9019428566
 20
30.5287660898
 10
80.22970037849999
 20
31.2260382686
 10
80.53833403010001
 20
31.9132733347
 10
80.82825539359999
 20
32.5904233409
 10
81.10243647750001
 20
33.2635761623
 10
81.36292251070001
 20
33.9374195044
 10
81.61146807420001
 20
34.61662930300001
 10
81.84989674630001
 20
35.3069216246
 10
82.07850625350001
 20
36.01027112150001
 10
82.2980578874
 20
36.7302823159
 10
82.5084699255
 20
37.4679053218
 10
82.7099739684
 20
38.2247581176
 10
82.90291200570001
 20
39.0023371001
 10
83.0878204487
 20
39.8021162192
 10
83.2655004169
 20
40.625595085
 10
83.43707691689999
 20
41.4742480805
 10
83.60409830180001
 20
42.3494209429
 10
83.7689719061
 20
43.25313358609999
 10
83.9307627622
 20
44.1630358249
  0
LINE
  5
15A6
330
21F
100
AcDbEntity
  8
DEFAULT_2
  6
HIDDEN
 62
     8
100
AcDbLine
 10
79.328009521
 20
38.6973452718
 30
0.0
 11
79.376672083
 21
38.7759597019
 31
0.0
  0
LINE
  5
15A7
330
21F
100
AcDbEntity
  8
0
  6
Continuous
 62
     7
100
AcDbLine
 10
82.37731883770001
 20
43.54894205689999
 30
0.0
 11
82.3773411418
 21
43.54897681799999
 31
0.0
  0
ARC
  5
2BDC
330
21F
100
AcDbEntity
  8
0
  6
Continuous
 62
     9
100
AcDbCircle
 10
57.0017745381
 20
-2139.2562411707
 30
0.0
 40
2157.8815006914
100
AcDbArc
 50
89.75121277120001
 51
89.8816393417
  0
ARC
  5
2BDD
330
21F
100
AcDbEntity
  8
0
  6
Continuous
 62
     7
100
AcDbCircle
 10
29.1920232779
 20
18.7321605895
 30
0.0
 40
0.375
100
AcDbArc
 50
206.5633564978
 51
270.0000000058
  0
ARC
  5
2BDE
330
21F
100
AcDbEntity
  8
0
  6
Continuous
 62
     7
100
AcDbCircle
 10
18.3066585901
 20
44.218587197
 30
0.0
 40
0.3241633173
100
AcDbArc
 50
182.3966478158
 51
189.9699647185
  0
ARC
  5
2BDF
330
21F
100
AcDbEntity
  8
0
  6
Continuous
 62
     7
100
AcDbCircle
 10
18.3064370442
 20
44.2186007426
 30
0.0
 40
0.3239420832
100
AcDbArc
 50
182.3937960704
 51
189.9777005234
  0
ARC
  5
2BE0
330
21F
100
AcDbEntity
  8
0
  6
Continuous
 62
     9
100
AcDbCircle
 10
18.2980559563
 20
44.26057188069999
 30
0.0
 40
0.3229673455
100
AcDbArc
 50
186.7660575971
 51
189.955089781
  0
ARC
  5
2BE1
330
21F
100
AcDbEntity
  8
0
  6
Continuous
 62
     7
100
AcDbCircle
 10
18.3046422553
 20
44.21846721689999
 30
0.0
 40
0.3221437313
100
AcDbArc
 50
179.9299920394
 51
182.3833134442
  0
ARC
  5
2BE2
330
21F
100
AcDbEntity
  8
0
  6
Continuous
 62
     9
100
AcDbCircle
 10
18.2968629201
 20
44.2601989998
 30
0.0
 40
0.3217451933
100
AcDbArc
 50
179.9111105719
 51
183.2326536938
  0
ARC
  5
2BE3
330
21F
100
AcDbEntity
  8
0
  6
Continuous
 62
     7
100
AcDbCircle
 10
18.3041573561
 20
44.2184677938
 30
0.0
 40
0.3216588336
100
AcDbArc
 50
179.9299872827
 51
182.3870956986
  0
ARC
  5
2BE4
330
21F
100
AcDbEntity
  8
0
  6
Continuous
 62
     7
100
AcDbCircle
 10
18.3026562114
 20
44.218341138
 30
0.0
 40
0.320189598
100
AcDbArc
 50
168.4087724577
 51
170.3542964148
  0
ARC
  5
2BE5
330
21F
100
AcDbEntity
  8
0
  6
Continuous
 62
     9
100
AcDbCircle
 10
18.2947267854
 20
44.2603203617
 30
0.0
 40
0.3196086726
100
AcDbArc
 50
177.9833536221
 51
179.681379786
  0
ARC
  5
2BE6
330
21F
100
AcDbEntity
  8
0
  6
Continuous
 62
     9
100
AcDbCircle
 10
18.2942308807
 20
44.26007464819999
 30
0.0
 40
0.3191103307
100
AcDbArc
 50
183.2370110317
 51
186.7583162558
  0
ARC
  5
2BE7
330
21F
100
AcDbEntity
  8
0
  6
Continuous
 62
     7
100
AcDbCircle
 10
18.3002340714
 20
44.2187453226
 30
0.0
 40
0.3177339155999999
100
AcDbArc
 50
170.6622467497
 51
179.5549949094
  0
ARC
  5
2BE8
330
21F
100
AcDbEntity
  8
0
  6
Continuous
 62
     9
100
AcDbCircle
 10
18.2919784548
 20
44.2604187793
 30
0.0
 40
0.3168585626
100
AcDbArc
 50
171.3809751431
 51
177.6748040791
  0
ARC
  5
2BE9
330
21F
100
AcDbEntity
  8
DEFAULT_2
  6
HIDDEN
 62
     8
100
AcDbCircle
 10
49.58409164689999
 20
22.1071605895
 30
0.0
 40
0.25
100
AcDbArc
 50
216.8698976459
 51
270.0
  0
ARC
  5
2BEA
330
21F
100
AcDbEntity
  8
DEFAULT_2
  6
HIDDEN
 62
     8
100
AcDbCircle
 10
48.95665316449999
 20
22.1104118995
 30
0.0
 40
0.25
100
AcDbArc
 50
36.8698976425
 51
88.5000408025
  0
ARC
  5
2BEB
330
21F
100
AcDbEntity
  8
0
  6
Continuous
 62
     9
100
AcDbCircle
 10
18.036173618
 20
44.2730582752
 30
0.0
 40
0.0620266537
100
AcDbArc
 50
179.7320149927999
 51
190.1780515254
  0
ARC
  5
2BEC
330
21F
100
AcDbEntity
  8
0
  6
Continuous
 62
     9
100
AcDbCircle
 10
18.0361591762
 20
44.2716524376
 30
0.0
 40
0.0620161874
100
AcDbArc
 50
179.9884544725
 51
190.1738650607
  0
ARC
  5
2BED
330
21F
100
AcDbEntity
  8
0
  6
Continuous
 62
     9
100
AcDbCircle
 10
81.0497593864
 20
46.78598915899999
 30
0.0
 40
3.4991289872
100
AcDbArc
 50
292.3181073157
 51
293.7012761971
  0
ARC
  5
2BEE
330
21F
100
AcDbEntity
  8
0
  6
Continuous
 62
     9
100
AcDbCircle
 10
83.562515824
 20
44.2776962272
 30
0.0
 40
0.3830192383
100
AcDbArc
 50
336.7653752711
 51
340.8330243732
  0
ARC
  5
2BEF
330
21F
100
AcDbEntity
  8
0
  6
Continuous
 62
     7
100
AcDbCircle
 10
72.72616552310001
 20
18.7321605895
 30
0.0
 40
0.375
100
AcDbArc
 50
270.0
 51
333.4340805197
  0
ARC
  5
2BF0
330
21F
100
AcDbEntity
  8
0
  6
Continuous
 62
     9
100
AcDbCircle
 10
83.58623354550001
 20
44.2692687627
 30
0.0
 40
0.3578494082
100
AcDbArc
 50
340.8607618178
 51
344.8824336472
  0
ARC
  5
2BF1
330
21F
100
AcDbEntity
  8
0
  6
Continuous
 62
     9
100
AcDbCircle
 10
83.60393372329999
 20
44.26435494999999
 30
0.0
 40
0.3394802846
100
AcDbArc
 50
344.9039598427
 51
348.8497252675
  0
ARC
  5
2BF2
330
21F
100
AcDbEntity
  8
0
  6
Continuous
 62
     9
100
AcDbCircle
 10
82.1332864484
 20
43.7446539061
 30
0.0
 40
0.306497055
100
AcDbArc
 50
358.2443582392
 51
359.8550730905
  0
ARC
  5
2BF3
330
21F
100
AcDbEntity
  8
0
  6
Continuous
 62
     9
100
AcDbCircle
 10
82.78370024270001
 20
44.182967163
 30
0.0
 40
0.3056779778
100
AcDbArc
 50
357.8978860123001
 51
359.5486374942
  0
ARC
  5
2BF4
330
21F
100
AcDbEntity
  8
DEFAULT_2
  6
HIDDEN
 62
     8
100
AcDbCircle
 10
52.3340916469
 20
22.1071605895
 30
0.0
 40
0.25
100
AcDbArc
 50
270.0
 51
323.1301023541
  0
ARC
  5
2BF5
330
21F
100
AcDbEntity
  8
DEFAULT_2
  6
HIDDEN
 62
     8
100
AcDbCircle
 10
52.96153012939999
 20
22.1104118995
 30
0.0
 40
0.25
100
AcDbArc
 50
91.4999592026
 51
143.1301023575
  0
ARC
  5
2BF6
330
21F
100
AcDbEntity
  8
0
  6
Continuous
 62
     9
100
AcDbCircle
 10
83.88218066029999
 20
44.2716810126
 30
0.0
 40
0.0618641899
100
AcDbArc
 50
0.0162628496
 51
2.449578833499999
  0
ARC
  5
2BF7
330
21F
100
AcDbEntity
  8
0
  6
Continuous
 62
     9
100
AcDbCircle
 10
83.88246331100001
 20
44.2716912805
 30
0.0
 40
0.0615813586
100
AcDbArc
 50
2.451274081399999
 51
6.0029331364
  0
ARC
  5
2BF8
330
21F
100
AcDbEntity
  8
0
  6
Continuous
 62
     7
100
AcDbCircle
 10
75.5210572846
 20
75.61196403640001
 30
0.0
 40
33.0570432822
100
AcDbArc
 50
277.9020494917
 51
278.6927388481
  0
ARC
  5
2BF9
330
21F
100
AcDbEntity
  8
0
  6
Continuous
 62
     7
100
AcDbCircle
 10
75.6056626459
 20
75.0362400125
 30
0.0
 40
32.4751441964
100
AcDbArc
 50
277.9380144984
 51
278.8132790114
  0
ARC
  5
2BFA
330
21F
100
AcDbEntity
  8
0
  6
Continuous
 62
     7
100
AcDbCircle
 10
75.9223042983
 20
72.9696114358
 30
0.0
 40
30.3844006931
100
AcDbArc
 50
278.6978594494
 51
278.8214777189
  0
ARC
  5
2BFB
330
21F
100
AcDbEntity
  8
0
  6
Continuous
 62
     7
100
AcDbCircle
 10
76.0794474592
 20
71.9598940865
 30
0.0
 40
29.3625284407
100
AcDbArc
 50
278.8206233856
 51
279.0169528442
  0
ARC
  5
2BFC
330
21F
100
AcDbEntity
  8
0
  6
Continuous
 62
     7
100
AcDbCircle
 10
76.0819672514
 20
71.94457738619999
 30
0.0
 40
29.347008352
100
AcDbArc
 50
278.8191513979
 51
279.0162098309
  0
ARC
  5
2BFD
330
21F
100
AcDbEntity
  8
0
  6
Continuous
 62
     9
100
AcDbCircle
 10
76.5849209601
 20
64.8841714944
 30
0.0
 40
22.1701447984
100
AcDbArc
 50
279.7116318857
 51
280.3258641686
  0
ARC
  5
2BFE
330
21F
100
AcDbEntity
  8
0
  6
Continuous
 62
     9
100
AcDbCircle
 10
76.9436664487
 20
62.8976750486
 30
0.0
 40
20.1515174816
100
AcDbArc
 50
280.3822642334
 51
280.5251702458
  0
ARC
  5
2BFF
330
21F
100
AcDbEntity
  8
DEFAULT_2
  6
HIDDEN
 62
     8
100
AcDbCircle
 10
424.810275995
 20
-174.8250196412
 30
0.0
 40
406.1400531080999
100
AcDbArc
 50
147.5215827183
 51
148.2691725185
  0
SPLINE
  5
2C33
330
21F
100
AcDbEntity
  8
DEFAULT_2
  6
HIDDEN
 62
     8
100
AcDbSpline
210
0.0
220
0.0
230
1.0
 70
     8
 71
     3
 72
    15
 73
    11
 74
     0
 42
0.0000001
 43
0.0000000001
 40
0.0
 40
0.0
 40
0.0
 40
0.0
 40
0.1249988183
 40
0.2499971865
 40
0.3749960984
 40
0.4999958755
 40
0.6249957441
 40
0.7499957973
 40
0.8749969429
 40
1.0
 40
1.0
 40
1.0
 40
1.0
 10
31.56157819780001
 20
23.7946936142
 30
0.0
 10
31.0820912499
 20
24.6447864517
 30
0.0
 10
30.1131877384
 20
26.3393726171
 30
0.0
 10
28.6397239417
 20
28.8696069219
 30
0.0
 10
27.1506700423
 20
31.3907051047
 30
0.0
 10
25.6480538628
 20
33.9037506854
 30
0.0
 10
24.1338831902
 20
36.4098604542
 30
0.0
 10
22.6074374263
 20
38.9085285521
 30
0.0
 10
21.0680011655
 20
41.39924097459999
 30
0.0
 10
20.0310673782
 20
43.0531268135
 30
0.0
 10
19.5083180656
 20
43.87736180810001
 30
0.0
  0
SPLINE
  5
2C34
330
21F
100
AcDbEntity
  8
DEFAULT_2
  6
HIDDEN
 62
     8
100
AcDbSpline
210
0.0
220
0.0
230
1.0
 70
     8
 71
     3
 72
    13
 73
     9
 74
     0
 42
0.0000001
 43
0.0000000001
 40
0.0
 40
0.0
 40
0.0
 40
0.0
 40
0.2499994139
 40
0.3749996025
 40
0.4999997475
 40
0.6250000052
 40
0.7500004557
 40
1.0
 40
1.0
 40
1.0
 40
1.0
 10
70.36989142
 20
23.7720057132
 30
0.0
 10
71.0979426553
 20
25.0267229017
 30
0.0
 10
72.1990918933
 20
26.903547746
 30
0.0
 10
73.68085000349999
 20
29.3979272526
 30
0.0
 10
74.79813342359999
 20
31.2651643675
 30
0.0
 10
75.92135881739999
 20
33.1288345075
 30
0.0
 10
77.42661488500001
 20
35.6091086515
 30
0.0
 10
78.5645270358
 20
37.46386624260001
 30
0.0
 10
79.32801536470001
 20
38.6973416547
 30
0.0
  0
SPLINE
  5
2C35
330
21F
100
AcDbEntity
  8
DEFAULT_2
  6
HIDDEN
 62
     8
100
AcDbSpline
210
0.0
220
0.0
230
1.0
 70
     8
 71
     3
 72
    11
 73
     7
 74
     0
 42
0.0000001
 43
0.0000000001
 40
0.0
 40
0.0
 40
0.0
 40
0.0
 40
0.2496614608
 40
0.4996847133
 40
0.7498720551000001
 40
1.0
 40
1.0
 40
1.0
 40
1.0
 10
19.5081260929
 20
43.87726922379999
 30
0.0
 10
19.4717814858
 20
43.9332902768
 30
0.0
 10
19.3875565008
 20
44.0384129263
 30
0.0
 10
19.2326206648
 20
44.167793545
 30
0.0
 10
19.0551008142
 20
44.2641298988
 30
0.0
 10
18.9261880143
 20
44.30374943819999
 30
0.0
 10
18.8606022168
 20
44.31695820989999
 30
0.0
  0
SPLINE
  5
2C36
330
21F
100
AcDbEntity
  8
DEFAULT_2
  6
HIDDEN
 62
     8
100
AcDbSpline
210
0.0
220
0.0
230
1.0
 70
     8
 71
     3
 72
    21
 73
    17
 74
     0
 42
0.0000001
 43
0.0000000001
 40
0.0
 40
0.0
 40
0.0
 40
0.0
 40
0.0547065305
 40
0.1107666357
 40
0.2304089904
 40
0.2945900718
 40
0.3613043698
 40
0.429947751
 40
0.4996037012
 40
0.5692739512000001
 40
0.6379598936999999
 40
0.7047443494
 40
0.7690214995999999
 40
0.8889222406
 40
0.945134574
 40
1.0
 40
1.0
 40
1.0
 40
1.0
 10
68.6972887581
 20
22.7735005432
 30
0.0
 10
68.7346328757
 20
22.7744842673
 30
0.0
 10
68.8102497851
 20
22.7766296957
 30
0.0
 10
68.9672883857
 20
22.7869416217
 30
0.0
 10
69.1295135367
 20
22.8142298781
 30
0.0
 10
69.29398049709999
 20
22.8618399071
 30
0.0
 10
69.42179701399999
 20
22.9094360735
 30
0.0
 10
69.5491039091
 20
22.9679699892
 30
0.0
 10
69.67369157260001
 20
23.0363841195
 30
0.0
 10
69.7930722837
 20
23.1135792155
 30
0.0
 10
69.9050943552
 20
23.1978919373
 30
0.0
 10
70.00777340399999
 20
23.2878826778
 30
0.0
 10
70.1279721334
 20
23.4102255964
 30
0.0
 10
70.22925532790001
 20
23.5402883424
 30
0.0
 10
70.3131999488
 20
23.6738661849
 30
0.0
 10
70.35117097299999
 20
23.7395387271
 30
0.0
 10
70.369864066
 20
23.7720077532
 30
0.0
  0
SPLINE
  5
2C37
330
21F
100
AcDbEntity
  8
DEFAULT_2
  6
HIDDEN
 62
     8
100
AcDbSpline
210
0.0
220
0.0
230
1.0
 70
     8
 71
     3
 72
    21
 73
    17
 74
     0
 42
0.0000001
 43
0.0000000001
 40
0.0
 40
0.0
 40
0.0
 40
0.0
 40
0.0547748355
 40
0.1108802636
 40
0.2304953545
 40
0.2946071894
 40
0.3612254982
 40
0.4297580685000001
 40
0.4993017091
 40
0.5688715824
 40
0.6374819135000001
 40
0.7042274958000001
 40
0.7685118496
 40
0.8885823504999999
 40
0.9449515310999998
 40
1.0
 40
1.0
 40
1.0
 40
1.0
 10
33.2426029586
 20
22.7730071339
 30
0.0
 10
33.2047829814
 20
22.774006551
 30
0.0
 10
33.1282193607
 20
22.7761868815
 30
0.0
 10
32.9693229806
 20
22.7867028978
 30
0.0
 10
32.8052991601
 20
22.8145897803
 30
0.0
 10
32.6392398574
 20
22.8633041693
 30
0.0
 10
32.5103625109
 20
22.9120003805
 30
0.0
 10
32.3821510224
 20
22.9718940903
 30
0.0
 10
32.2568317684
 20
23.0419027659
 30
0.0
 10
32.1369119814
 20
23.1209013549
 30
0.0
 10
32.0245497833
 20
23.2071879158
 30
0.0
 10
31.921738813
 20
23.2992877211
 30
0.0
 10
31.801577801
 20
23.4245510152
 30
0.0
 10
31.7007654317
 20
23.557673211
 30
0.0
 10
31.6176163522
 20
23.6942869113
 30
0.0
 10
31.5800643048
 20
23.7614698456
 30
0.0
 10
31.5615738831
 20
23.7946931875
 30
0.0
  0
SPLINE
  5
2C38
330
21F
100
AcDbEntity
  8
DEFAULT_2
  6
HIDDEN
 62
     8
100
AcDbSpline
210
0.0
220
0.0
230
1.0
 70
     8
 71
     3
 72
    27
 73
    23
 74
     0
 42
0.0000001
 43
0.0000000001
 40
0.0
 40
0.0
 40
0.0
 40
0.0
 40
0.0639654007
 40
0.0959268268
 40
0.1278611873
 40
0.1916097128
 40
0.25518577
 40
0.2869059946
 40
0.3185703335
 40
0.3817017905
 40
0.4445761411
 40
0.5071816826
 40
0.5695160506
 40
0.6315864252000001
 40
0.6934093991000001
 40
0.7242447306000001
 40
0.7550284845000001
 40
0.8164413190999999
 40
0.8777064522999999
 40
0.9083070329999999
 40
0.9388883141999999
 40
1.0
 40
1.0
 40
1.0
 40
1.0
 10
52.5230688289
 20
40.28843348739999
 30
0.0
 10
52.53673295239999
 20
40.28843348739999
 30
0.0
 10
52.5572402034
 20
40.2875149224
 30
0.0
 10
52.5843886547
 20
40.28445884349999
 30
0.0
 10
52.6113285634
 20
40.2801938102
 30
0.0
 10
52.64454291989999
 20
40.27260924
 30
0.0
 10
52.67689322909999
 20
40.2620679283
 30
0.0
 10
52.7020537726
 20
40.25192169
 30
0.0
 10
52.7266384532
 20
40.24067739489999
 30
0.0
 10
52.75627960619999
 20
40.2245746615
 30
0.0
 10
52.7898044867
 20
40.2021250935
 30
0.0
 10
52.8209651737
 20
40.17676010989999
 30
0.0
 10
52.84948568909999
 20
40.14870220329999
 30
0.0
 10
52.8751140739
 20
40.1181992609
 30
0.0
 10
52.8938941426
 20
40.09093298709999
 30
0.0
 10
52.9072480584
 20
40.0681847076
 30
0.0
 10
52.9194472809
 20
40.04489563359999
 30
0.0
 10
52.9325316596
 20
40.0147780484
 30
0.0
 10
52.9426077441
 20
39.9835658732
 30
0.0
 10
52.9487968602
 20
39.958141945
 30
0.0
 10
52.9537268444
 20
39.9324797501
 30
0.0
 10
52.95600186489999
 20
39.9129833369
 30
0.0
 10
52.9568761498
 20
39.89995812570001
 30
0.0
  0
SPLINE
  5
2C39
330
21F
100
AcDbEntity
  8
DEFAULT_2
  6
HIDDEN
 62
     8
100
AcDbSpline
210
0.0
220
0.0
230
1.0
 70
     8
 71
     3
 72
    25
 73
    21
 74
     0
 42
0.0000001
 43
0.0000000001
 40
0.0
 40
0.0
 40
0.0
 40
0.0
 40
0.0639675503
 40
0.1278492382
 40
0.1915998446
 40
0.2551779796
 40
0.3185480846
 40
0.3816816051
 40
0.4445580093000001
 40
0.5071655926
 40
0.5695019951
 40
0.6315743956000001
 40
0.6933993863
 40
0.7242357240000001
 40
0.7550204827
 40
0.8164353214
 40
0.8777024539999999
 40
0.9083040344
 40
0.9388863155999999
 40
1.0
 40
1.0
 40
1.0
 40
1.0
 10
52.27262854460001
 20
40.1321769954
 30
0.0
 10
52.281412648
 20
40.1321769954
 30
0.0
 10
52.2989792738
 20
40.13139034339999
 30
0.0
 10
52.3250858147
 20
40.1278578101
 30
0.0
 10
52.35071927779999
 20
40.12200405979999
 30
0.0
 10
52.3756519694
 20
40.1138801376
 30
0.0
 10
52.39966572350001
 20
40.1035570417
 30
0.0
 10
52.4225493995
 20
40.0911250186
 30
0.0
 10
52.44410189779999
 20
40.0766927604
 30
0.0
 10
52.464133571
 20
40.06038672769999
 30
0.0
 10
52.482468258
 20
40.0423494289
 30
0.0
 10
52.4989436277
 20
40.0227403362
 30
0.0
 10
52.5110165191
 20
40.0052119611
 30
0.0
 10
52.5196011666
 20
39.9905880255
 30
0.0
 10
52.5274435088
 20
39.9756164362
 30
0.0
 10
52.5358548595
 20
39.95625507510001
 30
0.0
 10
52.54233230770001
 20
39.9361900549
 30
0.0
 10
52.5463109943
 20
39.9198460629
 30
0.0
 10
52.54948024429999
 20
39.9033489005
 30
0.0
 10
52.55094268729999
 20
39.8908154617
 30
0.0
 10
52.5515047269
 20
39.8824420962
 30
0.0
  0
SPLINE
  5
2C3A
330
21F
100
AcDbEntity
  8
DEFAULT_2
  6
HIDDEN
 62
     8
100
AcDbSpline
210
0.0
220
0.0
230
1.0
 70
     8
 71
     3
 72
    25
 73
    21
 74
     0
 42
0.0000001
 43
0.0000000001
 40
0.0
 40
0.0
 40
0.0
 40
0.0
 40
0.0611136844
 40
0.0916959656
 40
0.122297546
 40
0.1835646786
 40
0.2449795173
 40
0.275764276
 40
0.3066006137
 40
0.3684256044
 40
0.4304980049
 40
0.4928344074
 40
0.5554419907
 40
0.6183183949000001
 40
0.6814519154000001
 40
0.7448220204000001
 40
0.8084001554
 40
0.8721507618
 40
0.9360324497
 40
1.0
 40
1.0
 40
1.0
 40
1.0
 10
49.3658391956
 20
39.8447712286
 30
0.0
 10
49.3664012353
 20
39.8363978631
 30
0.0
 10
49.36786367829999
 20
39.82386442420001
 30
0.0
 10
49.37103292819999
 20
39.8073672619
 30
0.0
 10
49.3750116148
 20
39.7910232698
 30
0.0
 10
49.381489063
 20
39.7709582496
 30
0.0
 10
49.3899004137
 20
39.7515968886
 30
0.0
 10
49.3977427559
 20
39.7366252992
 30
0.0
 10
49.40632740339999
 20
39.7220013636
 30
0.0
 10
49.41840029479999
 20
39.7044729885
 30
0.0
 10
49.43487566449999
 20
39.6848638958
 30
0.0
 10
49.4532103515
 20
39.6668265971
 30
0.0
 10
49.47324202469999
 20
39.6505205644
 30
0.0
 10
49.494794523
 20
39.6360883061
 30
0.0
 10
49.51767819899999
 20
39.6236562831
 30
0.0
 10
49.54169195310001
 20
39.6133331872
 30
0.0
 10
49.56662464469999
 20
39.605209265
 30
0.0
 10
49.5922581078
 20
39.5993555146
 30
0.0
 10
49.6183646487
 20
39.5958229814
 30
0.0
 10
49.6359312745
 20
39.5950363294
 30
0.0
 10
49.644715378
 20
39.5950363294
 30
0.0
  0
SPLINE
  5
2C3B
330
21F
100
AcDbEntity
  8
DEFAULT_2
  6
HIDDEN
 62
     8
100
AcDbSpline
210
0.0
220
0.0
230
1.0
 70
     8
 71
     3
 72
    29
 73
    25
 74
     0
 42
0.0000001
 43
0.0000000001
 40
0.0
 40
0.0
 40
0.0
 40
0.0
 40
0.0304990197
 40
0.0610058111
 40
0.0915280585
 40
0.1220732719
 40
0.1832394756
 40
0.2445799039
 40
0.2753408535
 40
0.3061617702
 40
0.337046855
 40
0.3679996107
 40
0.4300976357
 40
0.492489964
 40
0.5551771681000001
 40
0.6181475349000002
 40
0.6813777124
 40
0.7130897937000001
 40
0.7448533213
 40
0.8084923635999999
 40
0.8722641173000001
 40
0.9041921706999998
 40
0.9361322526
 40
1.0
 40
1.0
 40
1.0
 40
1.0
 10
48.9595212268
 20
39.84135670190001
 30
0.0
 10
48.95904310149999
 20
39.8484798754
 30
0.0
 10
48.9584693447
 20
39.86275672420001
 30
0.0
 10
48.95875961819999
 20
39.8841892937
 30
0.0
 10
48.960199956
 20
39.9055874049
 30
0.0
 10
48.96364908089999
 20
39.9340026635
 30
0.0
 10
48.9708191455
 20
39.9691784378
 30
0.0
 10
48.98170538399999
 20
40.0034390194
 30
0.0
 10
48.9925671855
 20
40.0300957888
 30
0.0
 10
49.0017832984
 20
40.04969171469999
 30
0.0
 10
49.0120362176
 20
40.06881653319999
 30
0.0
 10
49.0270657141
 20
40.0936434608
 30
0.0
 10
49.0483225572
 20
40.12326236269999
 30
0.0
 10
49.07744737319999
 20
40.1560956196
 30
0.0
 10
49.10991882939999
 20
40.1859287024
 30
0.0
 10
49.1453910737
 20
40.2124453021
 30
0.0
 10
49.1771220152
 20
40.2315355694
 30
0.0
 10
49.2036140747
 20
40.2448944366
 30
0.0
 10
49.2308233168
 20
40.2569631619
 30
0.0
 10
49.2659694441
 20
40.2695256965
 30
0.0
 10
49.302216233
 20
40.2785836565
 30
0.0
 10
49.3316672263
 20
40.2836808478
 30
0.0
 10
49.36135224930001
 20
40.28733323059999
 30
0.0
 10
49.38379919129999
 20
40.28843348739999
 30
0.0
 10
49.39874933569999
 20
40.28843348739999
 30
0.0
  0
SPLINE
  5
2C3C
330
21F
100
AcDbEntity
  8
DEFAULT_2
  6
HIDDEN
 62
     8
100
AcDbSpline
210
0.0
220
0.0
230
1.0
 70
     8
 71
     3
 72
    27
 73
    23
 74
     0
 42
0.0000001
 43
0.0000000001
 40
0.0
 40
0.0
 40
0.0
 40
0.0
 40
0.0609864493
 40
0.0915100111
 40
0.1220565404
 40
0.1832253801
 40
0.2445684536
 40
0.2753307303
 40
0.306152977
 40
0.3679723734
 40
0.4300730769
 40
0.4924680956000001
 40
0.5551580029
 40
0.6181310855
 40
0.6813639898
 40
0.7130774382
 40
0.7448423345000001
 40
0.8084841170999998
 40
0.8722586104000001
 40
0.9041880637
 40
0.9361294564999999
 40
1.0
 40
1.0
 40
1.0
 40
1.0
 10
52.5515047269
 20
39.8824420962
 30
0.0
 10
52.55211931339999
 20
39.87328587989999
 30
0.0
 10
52.5523026092
 20
39.8594824318
 30
0.0
 10
52.5510682482
 20
39.8411514806
 30
0.0
 10
52.5488509684
 20
39.8228838106
 30
0.0
 10
52.54424154279999
 20
39.8002711943
 30
0.0
 10
52.53724331579999
 20
39.778246621
 30
0.0
 10
52.53026051169999
 20
39.7611098869
 30
0.0
 10
52.52235475009999
 20
39.7442997315
 30
0.0
 10
52.51079406229999
 20
39.7240346131
 30
0.0
 10
52.4944184285
 20
39.701218546
 30
0.0
 10
52.4756945871
 20
39.680110105
 30
0.0
 10
52.45482029319999
 20
39.6609321295
 30
0.0
 10
52.4320166733
 20
39.6438856905
 30
0.0
 10
52.4116182447
 20
39.6316134415
 30
0.0
 10
52.3945876528
 20
39.6230256254
 30
0.0
 10
52.37709602
 20
39.6152671879
 30
0.0
 10
52.35450211399999
 20
39.6071913029
 30
0.0
 10
52.331200642
 20
39.6013683437
 30
0.0
 10
52.31226789749999
 20
39.5980915946
 30
0.0
 10
52.29318470049999
 20
39.5957436312
 30
0.0
 10
52.2787545501
 20
39.5950363294
 30
0.0
 10
52.2691437522
 20
39.5950363294
 30
0.0
  0
SPLINE
  5
2C3D
330
21F
100
AcDbEntity
  8
DEFAULT_2
  6
HIDDEN
 62
     8
100
AcDbSpline
210
0.0
220
0.0
230
1.0
 70
     8
 71
     3
 72
    27
 73
    23
 74
     0
 42
0.0000001
 43
0.0000000001
 40
0.0
 40
0.0
 40
0.0
 40
0.0
 40
0.0638705435
 40
0.0958119363
 40
0.1277413896
 40
0.1915158829
 40
0.2551576655
 40
0.2869225618
 40
0.3186360102
 40
0.3818689145
 40
0.4448419971
 40
0.5075319044
 40
0.5699269231000001
 40
0.6320276266000001
 40
0.693847023
 40
0.7246692697000001
 40
0.7554315464
 40
0.8167746198999999
 40
0.8779434595999999
 40
0.9084899888999999
 40
0.9390135507
 40
1.0
 40
1.0
 40
1.0
 40
1.0
 10
49.6482001703
 20
40.1321769954
 30
0.0
 10
49.6385893724
 20
40.1321769954
 30
0.0
 10
49.62415922199999
 20
40.1314696935
 30
0.0
 10
49.605076025
 20
40.1291217302
 30
0.0
 10
49.5861432805
 20
40.12584498099999
 30
0.0
 10
49.5628418085
 20
40.12002202179999
 30
0.0
 10
49.5402479025
 20
40.11194613679999
 30
0.0
 10
49.5227562697
 20
40.1041876994
 30
0.0
 10
49.5057256778
 20
40.0955998832
 30
0.0
 10
49.48532724919999
 20
40.0833276342
 30
0.0
 10
49.4625236293
 20
40.0662811952
 30
0.0
 10
49.4416493354
 20
40.0471032198
 30
0.0
 10
49.422925494
 20
40.02599477879999
 30
0.0
 10
49.4065498602
 20
40.0031787116
 30
0.0
 10
49.39498917239999
 20
39.9829135932
 30
0.0
 10
49.3870834108
 20
39.9661034378
 30
0.0
 10
49.38010060669999
 20
39.94896670380001
 30
0.0
 10
49.3731023797
 20
39.9269421305
 30
0.0
 10
49.3684929541
 20
39.9043295142
 30
0.0
 10
49.36627567430001
 20
39.8860618441
 30
0.0
 10
49.3650413133
 20
39.8677308929
 30
0.0
 10
49.3652246091
 20
39.85392744489999
 30
0.0
 10
49.3658391956
 20
39.8447712286
 30
0.0
  0
SPLINE
  5
2C3E
330
21F
100
AcDbEntity
  8
DEFAULT_2
  6
HIDDEN
 62
     8
100
AcDbSpline
210
0.0
220
0.0
230
1.0
 70
     8
 71
     3
 72
    39
 73
    35
 74
     0
 42
0.0000001
 43
0.0000000001
 40
0.0
 40
0.0
 40
0.0
 40
0.0
 40
0.0311827548
 40
0.0623714466
 40
0.0935693203
 40
0.1247778259
 40
0.1559987523
 40
0.1872331572
 40
0.2184816506
 40
0.2497442826
 40
0.2810205642000001
 40
0.3123094818
 40
0.3436095374
 40
0.3749188066
 40
0.4062350129
 40
0.4375556150000001
 40
0.4688779042000001
 40
0.5001991075
 40
0.5315164935
 40
0.5628274765
 40
0.5941297153000001
 40
0.6254212026000001
 40
0.6567003425
 40
0.6879660112
 40
0.7192176018000001
 40
0.750455048
 40
0.7816788277
 40
0.8128899457999999
 40
0.8440898915
 40
0.8752806031999998
 40
0.9064643044
 40
0.9376437423
 40
0.9688210794999999
 40
1.0
 40
1.0
 40
1.0
 40
1.0
 10
48.20915571850001
 20
40.3573542465
 30
0.0
 10
48.2091862255
 20
40.3329297375
 30
0.0
 10
48.2116591822
 20
40.2840448511
 30
0.0
 10
48.2225674231
 20
40.2114568243
 30
0.0
 10
48.2405687826
 20
40.1402671039
 30
0.0
 10
48.2654904832
 20
40.0711704656
 30
0.0
 10
48.29709183439999
 20
40.00483008529999
 30
0.0
 10
48.3350685413
 20
39.9418854703
 30
0.0
 10
48.3790545989
 20
39.8829425659
 30
0.0
 10
48.4286262835
 20
39.8285689668
 30
0.0
 10
48.4833060766
 20
39.7792881583
 30
0.0
 10
48.5425673274
 20
39.7355745787
 30
0.0
 10
48.6058393135
 20
39.69784904260001
 30
0.0
 10
48.6725127316
 20
39.6664746959
 30
0.0
 10
48.74194555979999
 20
39.6417535121
 30
0.0
 10
48.8134692531
 20
39.6239234312
 30
0.0
 10
48.88639516529999
 20
39.6131560737
 30
0.0
 10
48.9600211665
 20
39.6095550979
 30
0.0
 10
49.03363838729999
 20
39.6131552042
 30
0.0
 10
49.1065380287
 20
39.6239217991
 30
0.0
 10
49.17801817149999
 20
39.6417513225
 30
0.0
 10
49.2473905227
 20
39.6664722337
 30
0.0
 10
49.31398703430001
 20
39.6978466485
 30
0.0
 10
49.377166328
 20
39.7355726185
 30
0.0
 10
49.4363198922
 20
39.7792869907
 30
0.0
 10
49.4908779456
 20
39.8285689108
 30
0.0
 10
49.5403149268
 20
39.88294387110001
 30
0.0
 10
49.58415455189999
 20
39.9418882924
 30
0.0
 10
49.6219744709
 20
40.00483446949999
 30
0.0
 10
49.65341018100001
 20
40.071176339
 30
0.0
 10
49.678159008
 20
40.1402742796
 30
0.0
 10
49.6959819721
 20
40.2114650101
 30
0.0
 10
49.7067081126
 20
40.2840536813
 30
0.0
 10
49.70905807850001
 20
40.3329327408
 30
0.0
 10
49.7090275753
 20
40.3573542465
 30
0.0
  0
SPLINE
  5
2C3F
330
21F
100
AcDbEntity
  8
DEFAULT_2
  6
HIDDEN
 62
     8
100
AcDbSpline
210
0.0
220
0.0
230
1.0
 70
     8
 71
     3
 72
    39
 73
    35
 74
     0
 42
0.0000001
 43
0.0000000001
 40
0.0
 40
0.0
 40
0.0
 40
0.0
 40
0.0311789205
 40
0.0623562577
 40
0.0935356956
 40
0.1247193968
 40
0.1559101085
 40
0.1871100542
 40
0.2183211723
 40
0.249544952
 40
0.2807823982
 40
0.3120339888
 40
0.3432996575
 40
0.3745787974
 40
0.4058702847
 40
0.4371725235000001
 40
0.4684835065
 40
0.4998008925
 40
0.5311220958
 40
0.5624443850000001
 40
0.5937649871000001
 40
0.6250811934
 40
0.6563904626000001
 40
0.6876905182
 40
0.7189794358000001
 40
0.7502557174
 40
0.7815183494
 40
0.8127668427999999
 40
0.8440012476999999
 40
0.8752221740999999
 40
0.9064306797
 40
0.9376285534
 40
0.9688172451999999
 40
1.0
 40
1.0
 40
1.0
 40
1.0
 10
48.20915571850001
 20
40.3573542465
 30
0.0
 10
48.2091252154
 20
40.38177575219999
 30
0.0
 10
48.2114751813
 20
40.4306548117
 30
0.0
 10
48.2222013218
 20
40.5032434828
 30
0.0
 10
48.2400242859
 20
40.5744342133
 30
0.0
 10
48.2647731128
 20
40.64353215389999
 30
0.0
 10
48.296208823
 20
40.70987402340001
 30
0.0
 10
48.334028742
 20
40.7728202006
 30
0.0
 10
48.3778683671
 20
40.83176462179999
 30
0.0
 10
48.4273053483
 20
40.88613958209999
 30
0.0
 10
48.4818634017
 20
40.9354215023
 30
0.0
 10
48.54101696589999
 20
40.97913587449999
 30
0.0
 10
48.6041962596
 20
41.0168618445
 30
0.0
 10
48.6707927712
 20
41.0482362592
 30
0.0
 10
48.7401651224
 20
41.0729571704
 30
0.0
 10
48.8116452652
 20
41.09078669379999
 30
0.0
 10
48.8845449066
 20
41.1015532888
 30
0.0
 10
48.95816212739999
 20
41.105153395
 30
0.0
 10
49.0317881286
 20
41.1015524192
 30
0.0
 10
49.10471404079999
 20
41.0907850617
 30
0.0
 10
49.17623773409999
 20
41.0729549808
 30
0.0
 10
49.24567056229999
 20
41.0482337971
 30
0.0
 10
49.3123439804
 20
41.0168594503
 30
0.0
 10
49.37561596649999
 20
40.97913391419999
 30
0.0
 10
49.4348772173
 20
40.9354203346
 30
0.0
 10
49.4895570104
 20
40.8861395262
 30
0.0
 10
49.539128695
 20
40.8317659271
 30
0.0
 10
49.5831147526
 20
40.7728230226
 30
0.0
 10
49.6210914595
 20
40.70987840759999
 30
0.0
 10
49.6526928106
 20
40.6435380273
 30
0.0
 10
49.6776145113
 20
40.57444138909999
 30
0.0
 10
49.6956158708
 20
40.5032516686
 30
0.0
 10
49.7065241117
 20
40.43066364179999
 30
0.0
 10
49.7089970684
 20
40.3817787555
 30
0.0
 10
49.7090275753
 20
40.3573542465
 30
0.0
  0
SPLINE
  5
2C40
330
21F
100
AcDbEntity
  8
DEFAULT_2
  6
HIDDEN
 62
     8
100
AcDbSpline
210
0.0
220
0.0
230
1.0
 70
     8
 71
     3
 72
    39
 73
    35
 74
     0
 42
0.0000001
 43
0.0000000001
 40
0.0
 40
0.0
 40
0.0
 40
0.0
 40
0.0311800816
 40
0.0623544247
 40
0.0935268286
 40
0.1246997276
 40
0.1558762856
 40
0.1870592732
 40
0.218251283
 40
0.2494545413
 40
0.2806708436
 40
0.3119014814
 40
0.3431471935
 40
0.3744081387
 40
0.4056838904
 40
0.4369734548000001
 40
0.4682753087
 40
0.4995874591
 40
0.5309075197
 40
0.5622328018000001
 40
0.5935604175
 40
0.6248873898
 40
0.6562107656000001
 40
0.6875277291
 40
0.7188357088
 40
0.7501324769
 40
0.7814162345000001
 40
0.8126856819
 40
0.8439400637
 40
0.8751792211999999
 40
0.9064035093000001
 40
0.9376141076999999
 40
0.9688119747
 40
1.0
 40
1.0
 40
1.0
 40
1.0
 10
52.1593804688
 20
40.3573542465
 30
0.0
 10
52.15931727640001
 20
40.33293612709999
 30
0.0
 10
52.16160066789999
 20
40.284063861
 30
0.0
 10
52.1722261955
 20
40.2114802276
 30
0.0
 10
52.1899485519
 20
40.1402942212
 30
0.0
 10
52.2145978043
 20
40.071200668
 30
0.0
 10
52.2459359651
 20
40.004862854
 30
0.0
 10
52.2836613213
 20
39.9419204124
 30
0.0
 10
52.3274102861
 20
39.8829794273
 30
0.0
 10
52.3767613711
 20
39.8286076254
 30
0.0
 10
52.4312390923
 20
39.7793286045
 30
0.0
 10
52.49031862229999
 20
39.7356168833
 30
0.0
 10
52.5534308434
 20
39.6978933159
 30
0.0
 10
52.6199678356
 20
39.6665210421
 30
0.0
 10
52.6892887391
 20
39.6418019833
 30
0.0
 10
52.7607259515
 20
39.6239739844
 30
0.0
 10
52.8335915511
 20
39.61320853610001
 30
0.0
 10
52.907183917
 20
39.6096091425
 30
0.0
 10
52.98079447380001
 20
39.6132103381
 30
0.0
 10
53.053714501
 20
39.6239773662
 30
0.0
 10
53.1252419408
 20
39.6418065202
 30
0.0
 10
53.1946881405
 20
39.6665261432
 30
0.0
 10
53.2613844676
 20
39.6978982755
 30
0.0
 10
53.32468872919999
 20
39.7356209431
 30
0.0
 10
53.3839913651
 20
39.7793310213
 30
0.0
 10
53.4387213079
 20
39.8286077386
 30
0.0
 10
53.48835147289999
 20
39.8829767203
 30
0.0
 10
53.5324038182
 20
39.9419145633
 30
0.0
 10
53.5704540092
 20
40.00485376949999
 30
0.0
 10
53.6021353457
 20
40.0711884996
 30
0.0
 10
53.6271427583
 20
40.14027935589999
 30
0.0
 10
53.645234714
 20
40.211463271
 30
0.0
 10
53.6562375165
 20
40.28404557019999
 30
0.0
 10
53.6587757193
 20
40.3329299062
 30
0.0
 10
53.6588389278
 20
40.3573542465
 30
0.0
  0
SPLINE
  5
2C41
330
21F
100
AcDbEntity
  8
DEFAULT_2
  6
HIDDEN
 62
     8
100
AcDbSpline
210
0.0
220
0.0
230
1.0
 70
     8
 71
     3
 72
    39
 73
    35
 74
     0
 42
0.0000001
 43
0.0000000001
 40
0.0
 40
0.0
 40
0.0
 40
0.0
 40
0.0311880253
 40
0.0623858923
 40
0.0935964907
 40
0.1248207788
 40
0.1560599363
 40
0.1873143181
 40
0.2185837655
 40
0.2498675231
 40
0.2811642912
 40
0.3124722709
 40
0.3437892344
 40
0.3751126102
 40
0.4064395825
 40
0.4377671982
 40
0.4690924803
 40
0.5004125409000002
 40
0.5317246913
 40
0.5630265452000001
 40
0.5943161096000001
 40
0.6255918613000001
 40
0.6568528065
 40
0.6880985186000001
 40
0.7193291564000001
 40
0.7505454587
 40
0.7817487170000001
 40
0.8129407268000001
 40
0.8441237144
 40
0.8753002723999999
 40
0.9064731714
 40
0.9376455753
 40
0.9688199184
 40
1.0
 40
1.0
 40
1.0
 40
1.0
 10
52.1593804688
 20
40.3573542465
 30
0.0
 10
52.15944367729999
 20
40.3817785868
 30
0.0
 10
52.1619818801
 20
40.4306629227
 30
0.0
 10
52.1729846826
 20
40.5032452219
 30
0.0
 10
52.1910766383
 20
40.5744291371
 30
0.0
 10
52.2160840509
 20
40.6435199934
 30
0.0
 10
52.2477653875
 20
40.7098547235
 30
0.0
 10
52.28581557840001
 20
40.7727939296
 30
0.0
 10
52.3298679237
 20
40.83173177259999
 30
0.0
 10
52.37949808869999
 20
40.8861007544
 30
0.0
 10
52.4342280315
 20
40.9353774716
 30
0.0
 10
52.49353066739999
 20
40.97908754979999
 30
0.0
 10
52.5568349291
 20
41.0168102175
 30
0.0
 10
52.62353125609999
 20
41.04818234969999
 30
0.0
 10
52.6929774558
 20
41.0729019727
 30
0.0
 10
52.76450489560001
 20
41.09073112669999
 30
0.0
 10
52.8374249228
 20
41.10149815489999
 30
0.0
 10
52.9110354797
 20
41.10509935039999
 30
0.0
 10
52.9846278455
 20
41.10149995679999
 30
0.0
 10
53.0574934451
 20
41.0907345086
 30
0.0
 10
53.12893065749999
 20
41.0729065096
 30
0.0
 10
53.19825156100001
 20
41.0481874508
 30
0.0
 10
53.2647885532
 20
41.016815177
 30
0.0
 10
53.32790077430001
 20
40.97909160959999
 30
0.0
 10
53.3869803043
 20
40.9353798884
 30
0.0
 10
53.4414580256
 20
40.8861008676
 30
0.0
 10
53.4908091105
 20
40.8317290657
 30
0.0
 10
53.5345580753
 20
40.77278808049999
 30
0.0
 10
53.5722834316
 20
40.70984563889999
 30
0.0
 10
53.6036215923
 20
40.6435078249
 30
0.0
 10
53.62827084470001
 20
40.57441427179999
 30
0.0
 10
53.64599320119999
 20
40.5032282653
 30
0.0
 10
53.65661872869999
 20
40.43064463199999
 30
0.0
 10
53.6589021202
 20
40.3817723658
 30
0.0
 10
53.6588389278
 20
40.3573542465
 30
0.0
  0
SPLINE
  5
2C42
330
21F
100
AcDbEntity
  8
DEFAULT_2
  6
HIDDEN
 62
     8
100
AcDbSpline
210
0.0
220
0.0
230
1.0
 70
     8
 71
     3
 72
    29
 73
    25
 74
     0
 42
0.0000001
 43
0.0000000001
 40
0.0
 40
0.0
 40
0.0
 40
0.0
 40
0.0307344039
 40
0.0614740767
 40
0.0922240758
 40
0.1229895301
 40
0.1845643541
 40
0.2462569157
 40
0.2771681962
 40
0.308120286
 40
0.3391161726
 40
0.3701583958
 40
0.4323687635000001
 40
0.4947827859000001
 40
0.5574022717
 40
0.6202203477000001
 40
0.6832217712000001
 40
0.7147941045000001
 40
0.7464030220000001
 40
0.8096951479999999
 40
0.8730822245999998
 40
0.9048087509
 40
0.9365439147
 40
1.0
 40
1.0
 40
1.0
 40
1.0
 10
48.9595212235
 20
39.8413567017
 30
0.0
 10
48.95903785319999
 20
39.84855788239999
 30
0.0
 10
48.9584561001
 20
39.8629903354
 30
0.0
 10
48.9587416314
 20
39.8846551991
 30
0.0
 10
48.9601843317
 20
39.9062823586
 30
0.0
 10
48.9636449005
 20
39.9349913511
 30
0.0
 10
48.970842119
 20
39.9705141042
 30
0.0
 10
48.9817737412
 20
40.0051057079
 30
0.0
 10
48.9926785293
 20
40.0320053294
 30
0.0
 10
49.0019254486
 20
40.05176530369999
 30
0.0
 10
49.012208777
 20
40.0710410842
 30
0.0
 10
49.0272712505
 20
40.096042619
 30
0.0
 10
49.0485594069
 20
40.1258474688
 30
0.0
 10
49.0777117062
 20
40.1588653038
 30
0.0
 10
49.1101851261
 20
40.1888364511
 30
0.0
 10
49.1456299048
 20
40.2154510669
 30
0.0
 10
49.1773209326
 20
40.2346010077
 30
0.0
 10
49.2037653949
 20
40.2479928393
 30
0.0
 10
49.2309053468
 20
40.2600818509
 30
0.0
 10
49.2659514818
 20
40.272661779
 30
0.0
 10
49.30209322989999
 20
40.281731143
 30
0.0
 10
49.3314521996
 20
40.2868331142
 30
0.0
 10
49.36104001859999
 20
40.29048827429999
 30
0.0
 10
49.383414228
 20
40.2915893156
 30
0.0
 10
49.39831567270001
 20
40.2915893156
 30
0.0
  0
SPLINE
  5
2C43
330
21F
100
AcDbEntity
  8
DEFAULT_2
  6
HIDDEN
 62
     8
100
AcDbSpline
210
0.0
220
0.0
230
1.0
 70
     8
 71
     3
 72
    27
 73
    23
 74
     0
 42
0.0000001
 43
0.0000000001
 40
0.0
 40
0.0
 40
0.0
 40
0.0
 40
0.0615432017
 40
0.0923347447
 40
0.1231394069
 40
0.1847857256
 40
0.2465317543
 40
0.277460054
 40
0.308423376
 40
0.3704481441
 40
0.4326423772
 40
0.4950185077000001
 40
0.5575826557
 40
0.6203343020000001
 40
0.6832663490000001
 40
0.7148043287000001
 40
0.7463818188
 40
0.8096281848
 40
0.8729972551999999
 40
0.904727012
 40
0.9364760304
 40
1.0
 40
1.0
 40
1.0
 40
1.0
 10
52.956876153
 20
39.8999581259
 30
0.0
 10
52.95599197399999
 20
39.913130496
 30
0.0
 10
52.95369555899999
 20
39.9328461095
 30
0.0
 10
52.9487236846
 20
39.9587969688
 30
0.0
 10
52.9424861352
 20
39.9844980239
 30
0.0
 10
52.9323384115
 20
40.0160390085
 30
0.0
 10
52.91916599859999
 20
40.0464698037
 30
0.0
 10
52.9068908709
 20
40.0699906433
 30
0.0
 10
52.8934669094
 20
40.09294441899999
 30
0.0
 10
52.87460268010001
 20
40.1204398978
 30
0.0
 10
52.8488759767
 20
40.15118200249999
 30
0.0
 10
52.8202735457
 20
40.1794345545
 30
0.0
 10
52.7890532387
 20
40.20495242169999
 30
0.0
 10
52.7554952666
 20
40.22751744719999
 30
0.0
 10
52.72584225520001
 20
40.24369417379999
 30
0.0
 10
52.7012632417
 20
40.2549826563
 30
0.0
 10
52.6761306966
 20
40.26515999119999
 30
0.0
 10
52.6438312698
 20
40.27572973459999
 30
0.0
 10
52.6106752883
 20
40.28333368
 30
0.0
 10
52.583793592
 20
40.2876077269
 30
0.0
 10
52.5567153718
 20
40.290669049
 30
0.0
 10
52.536262084
 20
40.2915893156
 30
0.0
 10
52.5226351659
 20
40.2915893156
 30
0.0
  0
SPLINE
  5
2C44
330
21F
100
AcDbEntity
  8
DEFAULT_2
  6
HIDDEN
 62
     8
100
AcDbSpline
210
0.0
220
0.0
230
1.0
 70
     8
 71
     3
 72
    29
 73
    25
 74
     0
 42
0.0000001
 43
0.0000000001
 40
0.0
 40
0.0
 40
0.0
 40
0.0
 40
0.0304990197
 40
0.0610058111
 40
0.0915280585
 40
0.1220732719
 40
0.1832394756
 40
0.2445799039
 40
0.2753408535
 40
0.3061617702
 40
0.337046855
 40
0.3679996107
 40
0.4300976357
 40
0.492489964
 40
0.5551771681000001
 40
0.6181475349000002
 40
0.6813777124
 40
0.7130897937000001
 40
0.7448533213
 40
0.8084923635999999
 40
0.8722641173000001
 40
0.9041921706999998
 40
0.9361322526
 40
1.0
 40
1.0
 40
1.0
 40
1.0
 10
52.9568761498
 20
39.89995812570001
 30
0.0
 10
52.9573542751
 20
39.8928349522
 30
0.0
 10
52.9579280318
 20
39.8785581035
 30
0.0
 10
52.95763775840001
 20
39.8571255339
 30
0.0
 10
52.9561974205
 20
39.83572742280001
 30
0.0
 10
52.9527482956
 20
39.8073121642
 30
0.0
 10
52.94557823109999
 20
39.7721363898
 30
0.0
 10
52.9346919926
 20
39.7378758083
 30
0.0
 10
52.923830191
 20
39.7112190389
 30
0.0
 10
52.91461407819999
 20
39.691623113
 30
0.0
 10
52.904361159
 20
39.6724982945
 30
0.0
 10
52.8893316625
 20
39.6476713669
 30
0.0
 10
52.86807481930001
 20
39.618052465
 30
0.0
 10
52.8389500034
 20
39.58521920800001
 30
0.0
 10
52.8064785472
 20
39.5553861252
 30
0.0
 10
52.77100630279999
 20
39.5288695255
 30
0.0
 10
52.7392753614
 20
39.5097792582
 30
0.0
 10
52.7127833019
 20
39.496420391
 30
0.0
 10
52.6855740598
 20
39.4843516658
 30
0.0
 10
52.6504279324
 20
39.47178913110001
 30
0.0
 10
52.6141811436
 20
39.46273117110001
 30
0.0
 10
52.58473015029999
 20
39.45763397989999
 30
0.0
 10
52.5550451272
 20
39.45398159710001
 30
0.0
 10
52.5325981853
 20
39.45288134030001
 30
0.0
 10
52.5176480408
 20
39.45288134030001
 30
0.0
  0
SPLINE
  5
2C45
330
21F
100
AcDbEntity
  8
DEFAULT_2
  6
HIDDEN
 62
     8
100
AcDbSpline
210
0.0
220
0.0
230
1.0
 70
     8
 71
     3
 72
    27
 73
    23
 74
     0
 42
0.0000001
 43
0.0000000001
 40
0.0
 40
0.0
 40
0.0
 40
0.0
 40
0.0639654007
 40
0.0959268268
 40
0.1278611873
 40
0.1916097128
 40
0.25518577
 40
0.2869059946
 40
0.3185703335
 40
0.3817017905
 40
0.4445761411
 40
0.5071816826
 40
0.5695160506
 40
0.6315864252000001
 40
0.6934093991000001
 40
0.7242447306000001
 40
0.7550284845000001
 40
0.8164413190999999
 40
0.8777064522999999
 40
0.9083070329999999
 40
0.9388883141999999
 40
1.0
 40
1.0
 40
1.0
 40
1.0
 10
49.3933285477
 20
39.45288134030001
 30
0.0
 10
49.3796644242
 20
39.45288134030001
 30
0.0
 10
49.3591571732
 20
39.4537999052
 30
0.0
 10
49.33200872189999
 20
39.4568559841
 30
0.0
 10
49.30506881319999
 20
39.4611210174
 30
0.0
 10
49.2718544566
 20
39.4687055876
 30
0.0
 10
49.2395041474
 20
39.4792468993
 30
0.0
 10
49.21434360399999
 20
39.4893931377
 30
0.0
 10
49.1897589234
 20
39.50063743280001
 30
0.0
 10
49.1601177704
 20
39.5167401661
 30
0.0
 10
49.12659288979999
 20
39.5391897341
 30
0.0
 10
49.0954322029
 20
39.5645547177
 30
0.0
 10
49.0669116875
 20
39.5926126244
 30
0.0
 10
49.0412833027
 20
39.6231155667
 30
0.0
 10
49.0225032339
 20
39.6503818405
 30
0.0
 10
49.0091493182
 20
39.67313012010001
 30
0.0
 10
48.99695009569999
 20
39.696419194
 30
0.0
 10
48.983865717
 20
39.7265367792
 30
0.0
 10
48.9737896325
 20
39.7577489545
 30
0.0
 10
48.96760051640001
 20
39.7831728827
 30
0.0
 10
48.9626705322
 20
39.8088350775
 30
0.0
 10
48.9603955116
 20
39.8283314907
 30
0.0
 10
48.9595212268
 20
39.84135670190001
 30
0.0
  0
SPLINE
  5
2C46
330
21F
100
AcDbEntity
  8
DEFAULT_2
  6
HIDDEN
 62
     8
100
AcDbSpline
210
0.0
220
0.0
230
1.0
 70
     8
 71
     3
 72
    39
 73
    35
 74
     0
 42
0.0000001
 43
0.0000000001
 40
0.0
 40
0.0
 40
0.0
 40
0.0
 40
0.0031216536
 40
0.0066453038
 40
0.0106858769
 40
0.0153304842
 40
0.0206453808
 40
0.0266779271
 40
0.0334615332
 40
0.0410185017
 40
0.0493545749
 40
0.0584652178
 40
0.0683358662
 40
0.0789427686
 40
0.0902567923
 40
0.1022421917
 40
0.1148603838
 40
0.1280702048
 40
0.1418290409
 40
0.1560960782
 40
0.1708279798
 40
0.1859864138
 40
0.2174369905
 40
0.2501781054
 40
0.2839851649
 40
0.3186716792
 40
0.390095655
 40
0.4635291019
 40
0.5383511818
 40
0.6141429748000001
 40
0.6906156823
 40
0.7675656244
 40
0.8448463469
 40
1.0
 40
1.0
 40
1.0
 40
1.0
 10
82.41021973909999
 20
43.8775268312
 30
0.0
 10
82.3983973682
 20
43.9030583631
 30
0.0
 10
82.36669664649999
 20
43.9545051642
 30
0.0
 10
82.30092759379999
 20
44.02548319979999
 30
0.0
 10
82.21426583779999
 20
44.09386485609999
 30
0.0
 10
82.1062634561
 20
44.1595798089
 30
0.0
 10
81.97628238850001
 20
44.22229286159999
 30
0.0
 10
81.82391191479998
 20
44.28171809689999
 30
0.0
 10
81.6488587211
 20
44.3375038818
 30
0.0
 10
81.45103844000001
 20
44.38921097409999
 30
0.0
 10
81.2306407025
 20
44.4365440862
 30
0.0
 10
80.98808891819999
 20
44.4791480006
 30
0.0
 10
80.72402660649999
 20
44.5167272678
 30
0.0
 10
80.43928032270001
 20
44.54905340409999
 30
0.0
 10
80.1348331113
 20
44.5759192377
 30
0.0
 10
79.81178156270001
 20
44.59723232149999
 30
0.0
 10
79.47130357569999
 20
44.6128874902
 30
0.0
 10
79.11462356760001
 20
44.6228435616
 30
0.0
 10
78.74296898999999
 20
44.6270923502
 30
0.0
 10
78.35757807170001
 20
44.62555951379999
 30
0.0
 10
77.95962583819999
 20
44.61919589859999
 30
0.0
 10
77.4069184066
 20
44.605412403
 30
0.0
 10
76.6921740275
 20
44.5794012291
 30
0.0
 10
75.8099060408
 20
44.536917525
 30
0.0
 10
74.8989579295
 20
44.4845416468
 30
0.0
 10
73.6405120563
 20
44.4027010164
 30
0.0
 10
72.02666159340001
 20
44.2829804037
 30
0.0
 10
70.05335018380001
 20
44.1202050114
 30
0.0
 10
68.0417965443
 20
43.9426353387
 30
0.0
 10
66.0036522819
 20
43.7549913959
 30
0.0
 10
63.9467998474
 20
43.56142503939999
 30
0.0
 10
61.876698985
 20
43.3654106171
 30
0.0
 10
59.10042686729999
 20
43.1043377745
 30
0.0
 10
57.01416373399999
 20
42.9134788502
 30
0.0
 10
55.6211013196
 20
42.7911812679
 30
0.0
  0
SPLINE
  5
2C47
330
21F
100
AcDbEntity
  8
DEFAULT_2
  6
HIDDEN
 62
     8
100
AcDbSpline
210
0.0
220
0.0
230
1.0
 70
     8
 71
     3
 72
     8
 73
     4
 74
     0
 42
0.0000001
 43
0.0000000001
 40
0.0
 40
0.0
 40
0.0
 40
0.0
 40
1.0
 40
1.0
 40
1.0
 40
1.0
 10
55.6211013196
 20
42.7911812679
 30
0.0
 10
55.3643710807
 20
42.7686428036
 30
0.0
 10
55.1076255126
 20
42.7462781415
 30
0.0
 10
54.8508635454
 20
42.72410405459999
 30
0.0
  0
SPLINE
  5
2C48
330
21F
100
AcDbEntity
  8
DEFAULT_2
  6
HIDDEN
 62
     8
100
AcDbSpline
210
0.0
220
0.0
230
1.0
 70
     8
 71
     3
 72
    34
 73
    30
 74
     0
 42
0.0000001
 43
0.0000000001
 40
0.0
 40
0.0
 40
0.0
 40
0.0
 40
0.1469268503
 40
0.2203732031
 40
0.2937318745
 40
0.3669177901
 40
0.4398097983
 40
0.5122314852000001
 40
0.5839212872
 40
0.6544796212000001
 40
0.7232815208
 40
0.7567330648999999
 40
0.7893315767
 40
0.8208578688999999
 40
0.8510360297
 40
0.8795252000999999
 40
0.9059202712999999
 40
0.9181911634
 40
0.9297645520000001
 40
0.9405842599999999
 40
0.9506002776999999
 40
0.9597708543999999
 40
0.9680663723
 40
0.975471154
 40
0.9819876959
 40
0.9876409684
 40
0.992473975
 40
0.9965572561
 40
1.0
 40
1.0
 40
1.0
 40
1.0
 10
54.8508635454
 20
42.72410405459999
 30
0.0
 10
53.1130343202
 20
42.57402428699999
 30
0.0
 10
50.5053118345
 20
42.361858858
 30
0.0
 10
47.0265690232
 20
42.11933523349999
 30
0.0
 10
44.41954693239999
 20
41.962214794
 30
0.0
 10
41.8174891504
 20
41.8345627462
 30
0.0
 10
39.2250930019
 20
41.74100296219999
 30
0.0
 10
36.6493296405
 20
41.6862482342
 30
0.0
 10
34.1006788985
 20
41.6751179642
 30
0.0
 10
31.5952311734
 20
41.7127424262
 30
0.0
 10
29.5448383659
 20
41.7896014402
 30
0.0
 10
27.9465101069
 20
41.88194443559999
 30
0.0
 10
26.7910935541
 20
41.9658997956
 30
0.0
 10
25.675922985
 20
42.06550600559999
 30
0.0
 10
24.6113100627
 20
42.1808466003
 30
0.0
 10
23.6098618627
 20
42.31151303679999
 30
0.0
 10
22.8221162656
 20
42.43513661969999
 30
0.0
 10
22.2353573746
 20
42.5422926011
 30
0.0
 10
21.8319369541
 20
42.62370912669999
 30
0.0
 10
21.4564711143
 20
42.707910306
 30
0.0
 10
21.1109054002
 20
42.79460833299999
 30
0.0
 10
20.7969118723
 20
42.8834597382
 30
0.0
 10
20.5158424553
 20
42.9741671967
 30
0.0
 10
20.268635266
 20
43.0664376614
 30
0.0
 10
20.0557378533
 20
43.1599894387
 30
0.0
 10
19.8770832833
 20
43.2544114463
 30
0.0
 10
19.7321829388
 20
43.349525255
 30
0.0
 10
19.6203561193
 20
43.4452149768
 30
0.0
 10
19.5629076118
 20
43.5145763542
 30
0.0
 10
19.5408378169
 20
43.5489773878
 30
0.0
  0
LINE
  5
2C49
330
21F
100
AcDbEntity
  8
DEFAULT_2
  6
HIDDEN
 62
     8
100
AcDbLine
 10
82.1930529413
 20
43.26482699449999
 30
0.0
 11
82.37540235279999
 21
43.5501676197
 31
0.0
  0
LINE
  5
2C4A
330
21F
100
AcDbEntity
  8
DEFAULT_2
  6
HIDDEN
 62
     8
100
AcDbLine
 10
82.37540235279999
 20
43.5501676197
 30
0.0
 11
82.4006672486
 21
43.58963511949999
 31
0.0
  0
LINE
  5
2C4B
330
21F
100
AcDbEntity
  8
0
  6
Continuous
 62
     7
100
AcDbLine
 10
17.9873945001
 20
44.16247295709999
 30
0.0
 11
17.9875008518
 21
44.1618698125
 31
0.0
  0
SPLINE
  5
2C4C
330
21F
100
AcDbEntity
  8
0
  6
Continuous
 62
     7
100
AcDbSpline
210
0.0
220
0.0
230
1.0
 70
     8
 71
     3
 72
    21
 73
    17
 74
     0
 42
0.0000001
 43
0.0000000001
 40
0.0
 40
0.0
 40
0.0
 40
0.0
 40
0.0239603569
 40
0.0504364175
 40
0.0805777378
 40
0.1152958731
 40
0.1552724334
 40
0.2009776353
 40
0.2527450036
 40
0.3108152628
 40
0.3753306979
 40
0.4462943708
 40
0.5236188021000001
 40
0.6071923168
 40
0.7924358967
 40
1.0
 40
1.0
 40
1.0
 40
1.0
 10
83.93076635939999
 20
44.1630446583
 30
0.0
 10
83.9257993868
 20
44.1349472566
 30
0.0
 10
83.90747872060002
 20
44.0770218957
 30
0.0
 10
83.85848848390001
 20
43.9937914856
 30
0.0
 10
83.7867931136
 20
43.9113449591
 30
0.0
 10
83.69183159370001
 20
43.8297852805
 30
0.0
 10
83.57299192640001
 20
43.74915050600001
 30
0.0
 10
83.42985438220001
 20
43.6694235164
 30
0.0
 10
83.26203693550001
 20
43.5907410552
 30
0.0
 10
83.0692836929
 20
43.5133288456
 30
0.0
 10
82.8515757345
 20
43.43744309629999
 30
0.0
 10
82.6092379464
 20
43.3631656863
 30
0.0
 10
82.34279430489999
 20
43.290595725
 30
0.0
 10
81.9422851737
 20
43.192947358
 30
0.0
 10
81.38655973789999
 20
43.0781156289
 30
0.0
 10
80.9254612351
 20
42.9989680196
 30
0.0
 10
80.6813395962
 20
42.96022744720001
 30
0.0
  0
LINE
  5
2C4D
330
21F
100
AcDbEntity
  8
0
  6
Continuous
 62
     9
100
AcDbLine
 10
82.1607074087
 20
43.48380335459999
 30
0.0
 11
82.41002812060001
 21
43.8776186452
 31
0.0
  0
SPLINE
  5
2C4E
330
21F
100
AcDbEntity
  8
0
  6
Continuous
 62
     9
100
AcDbSpline
210
0.0
220
0.0
230
1.0
 70
     8
 71
     3
 72
     9
 73
     5
 74
     0
 42
0.0000001
 43
0.0000000001
 40
0.0
 40
0.0
 40
0.0
 40
0.0
 40
0.4906194938000001
 40
1.0
 40
1.0
 40
1.0
 40
1.0
 10
82.4397825229
 20
43.7438786375
 30
0.0
 10
82.4398370393
 20
43.7664195364
 30
0.0
 10
82.4348215574
 20
43.8125091577
 30
0.0
 10
82.4198589344
 20
43.85638066739999
 30
0.0
 10
82.4100281205
 20
43.8776186452
 30
0.0
  0
LINE
  5
2C4F
330
21F
100
AcDbEntity
  8
0
  6
Continuous
 62
     9
100
AcDbLine
 10
82.4396396272
 20
43.735263776
 30
0.0
 11
82.3272536276
 21
43.5585286193
 31
0.0
  0
SPLINE
  5
2C50
330
21F
100
AcDbEntity
  8
0
  6
Continuous
 62
     9
100
AcDbSpline
210
0.0
220
0.0
230
1.0
 70
     8
 71
     3
 72
     9
 73
     5
 74
     0
 42
0.0000001
 43
0.0000000001
 40
0.0
 40
0.0
 40
0.0
 40
0.0
 40
0.2543617523
 40
1.0
 40
1.0
 40
1.0
 40
1.0
 10
82.40652848739999
 20
43.6016881911
 30
0.0
 10
82.40792153639999
 20
43.604674922
 30
0.0
 10
82.41325538540001
 20
43.6164828645
 30
0.0
 10
82.41800709569998
 20
43.6285552718
 30
0.0
 10
82.4211827467
 20
43.63767923909999
 30
0.0
  0
SPLINE
  5
2C51
330
21F
100
AcDbEntity
  8
0
  6
Continuous
 62
     9
100
AcDbSpline
210
0.0
220
0.0
230
1.0
 70
     8
 71
     3
 72
     9
 73
     5
 74
     0
 42
0.0000001
 43
0.0000000001
 40
0.0
 40
0.0
 40
0.0
 40
0.0
 40
0.5089458179000001
 40
1.0
 40
1.0
 40
1.0
 40
1.0
 10
82.4211827467
 20
43.63767923909999
 30
0.0
 10
82.4267373175
 20
43.6536380847
 30
0.0
 10
82.43546264809999
 20
43.6858148963
 30
0.0
 10
82.43913990459999
 20
43.71896759899999
 30
0.0
 10
82.4396396272
 20
43.735263776
 30
0.0
  0
LINE
  5
2C52
330
21F
100
AcDbEntity
  8
0
  6
Continuous
 62
     9
100
AcDbLine
 10
83.86896449529999
 20
44.332906618
 30
0.0
 11
83.86896741799999
 21
44.33430725
 31
0.0
  0
LINE
  5
2C53
330
21F
100
AcDbEntity
  8
0
  6
Continuous
 62
     7
100
AcDbLine
 10
80.0657388297
 20
42.8688123827
 30
0.0
 11
80.03966938020001
 21
42.86519627719999
 31
0.0
  0
SPLINE
  5
2C54
330
21F
100
AcDbEntity
  8
0
  6
Continuous
 62
     7
100
AcDbSpline
210
0.0
220
0.0
230
1.0
 70
     8
 71
     3
 72
    53
 73
    49
 74
     0
 42
0.0000001
 43
0.0000000001
 40
0.0
 40
0.0
 40
0.0
 40
0.0
 40
0.0131843428
 40
0.027164947
 40
0.0418232214
 40
0.0570527199
 40
0.0888630837
 40
0.1220108276
 40
0.1560874812
 40
0.1908108503
 40
0.2259859015
 40
0.2614763702
 40
0.297185765
 40
0.3330445936
 40
0.4050201856000001
 40
0.4771364456000001
 40
0.5492320343000001
 40
0.6211270363
 40
0.6569095657
 40
0.6925077889
 40
0.7278391148000001
 40
0.7627869267000001
 40
0.7971848809000001
 40
0.8307910254000001
 40
0.8471920943
 40
0.8632514754999998
 40
0.8788988711
 40
0.8940506434000001
 40
0.9086084676999998
 40
0.9224578946999999
 40
0.9290780334999999
 40
0.9354736454999999
 40
0.9475216501
 40
0.958469417
 40
0.9634935962
 40
0.9682005487000001
 40
0.9725798981999998
 40
0.9766239668999999
 40
0.9803283164999999
 40
0.9836922379
 40
0.9867193214
 40
0.98941815
 40
0.9918024667
 40
0.9938915804999998
 40
0.9957119612999999
 40
0.9973015198
 40
0.9987101598
 40
1.0
 40
1.0
 40
1.0
 40
1.0
 10
80.03966938020001
 20
42.86519627719999
 30
0.0
 10
79.76786822470001
 20
42.8275942712
 30
0.0
 10
79.20698165489999
 20
42.75633310749999
 30
0.0
 10
78.34165301270001
 20
42.6620342553
 30
0.0
 10
77.4326038441
 20
42.5770538136
 30
0.0
 10
76.1525970583
 20
42.4748549955
 30
0.0
 10
74.48672713229999
 20
42.3726348115
 30
0.0
 10
72.42724499020001
 20
42.288303322
 30
0.0
 10
70.3059842699
 20
42.2395861876
 30
0.0
 10
68.1420423121
 20
42.22483000909999
 30
0.0
 10
65.94870622800001
 20
42.2419859889
 30
0.0
 10
63.7352885707
 20
42.2887866952
 30
0.0
 10
61.50839054359999
 20
42.3629905701
 30
0.0
 10
58.52386452600001
 20
42.495221334
 30
0.0
 10
54.7851011683
 20
42.7167221233
 30
0.0
 10
50.298281964
 20
43.052579948
 30
0.0
 10
45.817263426
 20
43.43881569759999
 30
0.0
 10
42.0919443033
 20
43.78544061359999
 30
0.0
 10
39.12332939650001
 20
44.06580415119999
 30
0.0
 10
36.9121918956
 20
44.2734973267
 30
0.0
 10
34.7179280918
 20
44.4750447903
 30
0.0
 10
32.5477776341
 20
44.6659025526
 30
0.0
 10
30.4123032183
 20
44.8408671238
 30
0.0
 10
28.6603328031
 20
44.96913305079999
 30
0.0
 10
27.2881628842
 20
45.0568994943
 30
0.0
 10
26.2885455555
 20
45.1135480297
 30
0.0
 10
25.3144409783
 20
45.1602777246
 30
0.0
 10
24.3711241884
 20
45.1956971313
 30
0.0
 10
23.4648472715
 20
45.2185465181
 30
0.0
 10
22.7358517315
 20
45.2257620651
 30
0.0
 10
22.1767388075
 20
45.22180340520001
 30
0.0
 10
21.6552104244
 20
45.2112468997
 30
0.0
 10
21.0439818353
 20
45.1846911409
 30
0.0
 10
20.4625300242
 20
45.1380492468
 30
0.0
 10
20.0348941959
 20
45.08935334359999
 30
0.0
 10
19.7439706613
 20
45.0490869705
 30
0.0
 10
19.4743697343
 20
45.0042421051
 30
0.0
 10
19.2267646088
 20
44.95503040689999
 30
0.0
 10
19.0016615438
 20
44.9017328653
 30
0.0
 10
18.7993815467
 20
44.84466240359999
 30
0.0
 10
18.620047441
 20
44.7841387514
 30
0.0
 10
18.4636037673
 20
44.72043553499999
 30
0.0
 10
18.3298219621
 20
44.65384369
 30
0.0
 10
18.2183257624
 20
44.5846432646
 30
0.0
 10
18.1286657
 20
44.5129805167
 30
0.0
 10
18.0602947445
 20
44.4389617481
 30
0.0
 10
18.0127576843
 20
44.36271605339999
 30
0.0
 10
17.9943896996
 20
44.3089727189
 30
0.0
 10
17.988996552
 20
44.28267617359999
 30
0.0
  0
LINE
  5
2C55
330
21F
100
AcDbEntity
  8
0
  6
Continuous
 62
     7
100
AcDbLine
 10
17.9869932311
 20
44.2719905704
 30
0.0
 11
17.9867104421
 21
44.2702989352
 31
0.0
  0
SPLINE
  5
2C56
330
21F
100
AcDbEntity
  8
0
  6
Continuous
 62
     9
100
AcDbSpline
210
0.0
220
0.0
230
1.0
 70
     8
 71
     3
 72
     9
 73
     5
 74
     0
 42
0.0000001
 43
0.0000000001
 40
0.0
 40
0.0
 40
0.0
 40
0.0
 40
0.5162745670000001
 40
1.0
 40
1.0
 40
1.0
 40
1.0
 10
83.04941496179999
 20
44.0236949013
 30
0.0
 10
83.0615521256
 20
44.04731340109999
 30
0.0
 10
83.08079781329999
 20
44.0954852688
 30
0.0
 10
83.0885350051
 20
44.1468915331
 30
0.0
 10
83.08921372890001
 20
44.1717626637
 30
0.0
  0
SPLINE
  5
2C57
330
21F
100
AcDbEntity
  8
0
  6
Continuous
 62
     9
100
AcDbSpline
210
0.0
220
0.0
230
1.0
 70
     8
 71
     3
 72
     9
 73
     5
 74
     0
 42
0.0000001
 43
0.0000000001
 40
0.0
 40
0.0
 40
0.0
 40
0.0
 40
0.4901388806000001
 40
1.0
 40
1.0
 40
1.0
 40
1.0
 10
83.08932830059999
 20
44.18055131609999
 30
0.0
 10
83.0892938907
 20
44.20364919819999
 30
0.0
 10
83.0838409086
 20
44.25090282649999
 30
0.0
 10
83.06814395100001
 20
44.29578014079999
 30
0.0
 10
83.05789315869999
 20
44.317511075
 30
0.0
  0
SPLINE
  5
2C58
330
21F
100
AcDbEntity
  8
0
  6
Continuous
 62
     9
100
AcDbSpline
210
0.0
220
0.0
230
1.0
 70
     8
 71
     3
 72
    38
 73
    34
 74
     0
 42
0.0000001
 43
0.0000000001
 40
0.0
 40
0.0
 40
0.0
 40
0.0
 40
0.0030386585
 40
0.0065325904
 40
0.0106088503
 40
0.0153563195
 40
0.0208407
 40
0.027104474
 40
0.0341762145
 40
0.0420675612
 40
0.0507757385
 40
0.0602872912
 40
0.0705771709
 40
0.0816130672
 40
0.0933548465
 40
0.1057602617
 40
0.1187856422
 40
0.1323841171
 40
0.1465112925
 40
0.161115681
 40
0.1761600994
 40
0.1916049041
 40
0.2235396329
 40
0.2566576451
 40
0.2907358119
 40
0.3255927548
 40
0.3970894591
 40
0.4702841406000001
 40
0.5446128384000001
 40
0.6197042159000001
 40
0.6953061214
 40
0.8473932066999999
 40
1.0
 40
1.0
 40
1.0
 40
1.0
 10
83.05789315869999
 20
44.317511075
 30
0.0
 10
83.0441590506
 20
44.3465766113
 30
0.0
 10
83.00629327859999
 20
44.40526233759999
 30
0.0
 10
82.9268348177
 20
44.4853277241
 30
0.0
 10
82.82126600220001
 20
44.5624387367
 30
0.0
 10
82.68892629879999
 20
44.63648481359999
 30
0.0
 10
82.52912558869999
 20
44.70711107329999
 30
0.0
 10
82.34146117139999
 20
44.7740452181
 30
0.0
 10
82.1257269009
 20
44.8367926102
 30
0.0
 10
81.88206204390001
 20
44.89494563939999
 30
0.0
 10
81.61091554169999
 20
44.9480766919
 30
0.0
 10
81.31303958089999
 20
44.99574051119999
 30
0.0
 10
80.9894531139
 20
45.0375912729
 30
0.0
 10
80.6414112344
 20
45.0732986195
 30
0.0
 10
80.2703270319
 20
45.10266182659999
 30
0.0
 10
79.87770050459999
 20
45.1254596788
 30
0.0
 10
79.4650842093
 20
45.14148591569999
 30
0.0
 10
79.034039925
 20
45.1505937677
 30
0.0
 10
78.5862085464
 20
45.1529423888
 30
0.0
 10
78.12308771100001
 20
45.15035920969999
 30
0.0
 10
77.6460729283
 20
45.14327078149999
 30
0.0
 10
76.98583995069999
 20
45.1279516879
 30
0.0
 10
76.13469816830001
 20
45.0988466101
 30
0.0
 10
75.0870493635
 20
45.05061025279999
 30
0.0
 10
74.0090475733
 20
44.99062832399999
 30
0.0
 10
72.52635043499999
 20
44.8963903581
 30
0.0
 10
70.6319037042
 20
44.7572771169
 30
0.0
 10
68.3226077455
 20
44.56719066389999
 30
0.0
 10
65.97657610999999
 20
44.36040754479999
 30
0.0
 10
63.6058955104
 20
44.14345287479999
 30
0.0
 10
60.4163980318
 20
43.8472862403
 30
0.0
 10
56.41010948369999
 20
43.4778826457
 30
0.0
 10
53.1982243913
 20
43.20418414779999
 30
0.0
 10
51.5887655258
 20
43.0769493129
 30
0.0
  0
SPLINE
  5
2C59
330
21F
100
AcDbEntity
  8
0
  6
Continuous
 62
     9
100
AcDbSpline
210
0.0
220
0.0
230
1.0
 70
     8
 71
     3
 72
    42
 73
    38
 74
     0
 42
0.0000001
 43
0.0000000001
 40
0.0
 40
0.0
 40
0.0
 40
0.0
 40
0.0027003301
 40
0.0055812575
 40
0.008841089
 40
0.0126417088
 40
0.0170989488
 40
0.0222940106
 40
0.0282832534
 40
0.0351030546
 40
0.0427722325
 40
0.0512939343
 40
0.0606582512
 40
0.0708445251
 40
0.0818230647
 40
0.0935566247
 40
0.1060021122
 40
0.1191126813
 40
0.1328400396
 40
0.1471356146
 40
0.1619510731
 40
0.1772399438
 40
0.1929576787
 40
0.2090626605
 40
0.2255168071
 40
0.2422852685
 40
0.2766400783
 40
0.3119082275
 40
0.3479127511
 40
0.3845113764
 40
0.4590582552000001
 40
0.5348819693
 40
0.6115470379
 40
0.6887631620999999
 40
0.7663340517
 40
0.8441237329000001
 40
1.0
 40
1.0
 40
1.0
 40
1.0
 10
83.86896457170001
 20
44.33430669929999
 30
0.0
 10
83.86883824219999
 20
44.36427860819999
 30
0.0
 10
83.85948135979999
 20
44.4265277974
 30
0.0
 10
83.8179646534
 20
44.5166525785
 30
0.0
 10
83.7484696919
 20
44.6034805829
 30
0.0
 10
83.6508228477
 20
44.68685213069999
 30
0.0
 10
83.5243273832
 20
44.766904372
 30
0.0
 10
83.36819604629999
 20
44.8434165701
 30
0.0
 10
83.18181583140001
 20
44.91601284549999
 30
0.0
 10
82.96486063649998
 20
44.984242923
 30
0.0
 10
82.7173459784
 20
45.0476466973
 30
0.0
 10
82.439638809
 20
45.10577744899999
 30
0.0
 10
82.1324313857
 20
45.1582012704
 30
0.0
 10
81.79670260239999
 20
45.2045022375
 30
0.0
 10
81.43368027560001
 20
45.24428306039999
 30
0.0
 10
81.0448047128
 20
45.2771919918
 30
0.0
 10
80.6316829322
 20
45.30294562549999
 30
0.0
 10
80.1960295878
 20
45.32155389199999
 30
0.0
 10
79.73957703020001
 20
45.3325013408
 30
0.0
 10
79.26408865129999
 20
45.335957195
 30
0.0
 10
78.7712733827
 20
45.3329099206
 30
0.0
 10
78.2627295101
 20
45.3249820043
 30
0.0
 10
77.7399614973
 20
45.31242859489999
 30
0.0
 10
77.204383961
 20
45.29529920709999
 30
0.0
 10
76.6572812348
 20
45.2741144105
 30
0.0
 10
75.9079560229
 20
45.24056548149999
 30
0.0
 10
74.95038859899999
 20
45.18974471209999
 30
0.0
 10
73.7802222049
 20
45.11710689810001
 30
0.0
 10
72.5857739074
 20
45.034219131
 30
0.0
 10
70.9571070327
 20
44.9113922526
 30
0.0
 10
68.8889161741
 20
44.7399856664
 30
0.0
 10
66.3789237784
 20
44.51586485049999
 30
0.0
 10
63.840267041
 20
44.2798876109
 30
0.0
 10
61.2826370711
 20
44.0385635692
 30
0.0
 10
58.712448505
 20
43.797427417
 30
0.0
 10
55.27227644609999
 20
43.48253172009999
 30
0.0
 10
52.68810529189999
 20
43.26123043069999
 30
0.0
 10
50.9633021612
 20
43.125433482
 30
0.0
  0
LINE
  5
2C5A
330
21F
100
AcDbEntity
  8
0
  6
Continuous
 62
     7
100
AcDbLine
 10
17.9825023224
 20
44.22121451209999
 30
0.0
 11
17.9825065325
 21
44.2188593407
 31
0.0
  0
LINE
  5
2C5B
330
21F
100
AcDbEntity
  8
0
  6
Continuous
 62
     9
100
AcDbLine
 10
17.9751184422
 20
44.2606963338
 30
0.0
 11
17.9751227463
 21
44.262099401
 31
0.0
  0
LINE
  5
2C5C
330
21F
100
AcDbEntity
  8
0
  6
Continuous
 62
     9
100
AcDbLine
 10
17.9753160639
 20
44.2715673437
 30
0.0
 11
17.9753807776
 21
44.2732741071
 31
0.0
  0
SPLINE
  5
2C5D
330
21F
100
AcDbEntity
  8
0
  6
Continuous
 62
     9
100
AcDbSpline
210
0.0
220
0.0
230
1.0
 70
     8
 71
     3
 72
    67
 73
    63
 74
     0
 42
0.0000001
 43
0.0000000001
 40
0.0
 40
0.0
 40
0.0
 40
0.0
 40
0.0006709969
 40
0.0013642942
 40
0.0028635397
 40
0.0045871966
 40
0.0066018208
 40
0.0089549434
 40
0.0116789331
 40
0.0147958275
 40
0.0183196337
 40
0.0222565184
 40
0.0266057255
 40
0.0313605605
 40
0.0365094968
 40
0.0420370868
 40
0.0479247876
 40
0.0541517827
 40
0.0606958108
 40
0.0675334927
 40
0.0746417146
 40
0.0819977909
 40
0.089579577
 40
0.1053376963
 40
0.1217663057
 40
0.1387393214
 40
0.1561526537
 40
0.1919810104
 40
0.2287568388
 40
0.2661584927
 40
0.3039754934
 40
0.3420666503
 40
0.4187140314000001
 40
0.4956255758000001
 40
0.572549057
 40
0.6492446468000001
 40
0.6873829508
 40
0.7252702670000001
 40
0.7627764742
 40
0.7997093377
 40
0.8357790184999998
 40
0.870543754
 40
0.8872394209999999
 40
0.9033342710999999
 40
0.918693397
 40
0.9331634233
 40
0.9465689681999998
 40
0.9528158104999999
 40
0.9587303773
 40
0.9642908549999999
 40
0.9694765590999999
 40
0.9742728456
 40
0.9786709140999999
 40
0.9826630834000001
 40
0.9845055865999999
 40
0.9862456086999999
 40
0.9894224379999998
 40
0.9922081019
 40
0.9946231977
 40
0.9957009119
 40
0.9966981290999999
 40
1.0
 40
1.0
 40
1.0
 40
1.0
 10
17.9786982793
 20
44.3079043595
 30
0.0
 10
17.9809319265
 20
44.32263245409999
 30
0.0
 10
17.9876091796
 20
44.3522962906
 30
0.0
 10
18.0100406178
 20
44.4119642348
 30
0.0
 10
18.0567064815
 20
44.48641037569999
 30
0.0
 10
18.1382706414
 20
44.570153936
 30
0.0
 10
18.2474404826
 20
44.6507389981
 30
0.0
 10
18.3849592019
 20
44.72800650199999
 30
0.0
 10
18.5514831278
 20
44.80175310729999
 30
0.0
 10
18.7474698714
 20
44.8715775759
 30
0.0
 10
18.9731105282
 20
44.9370288475
 30
0.0
 10
19.2282740978
 20
44.99767841619999
 30
0.0
 10
19.5125030581
 20
45.0531066383
 30
0.0
 10
19.825037
 20
45.1029144921
 30
0.0
 10
20.1648548114
 20
45.1467175016
 30
0.0
 10
20.5307197105
 20
45.1841293935
 30
0.0
 10
20.9212163225
 20
45.2148224533
 30
0.0
 10
21.3347956027
 20
45.2385773243
 30
0.0
 10
21.769819172
 20
45.2553985903
 30
0.0
 10
22.2246344619
 20
45.26473443039999
 30
0.0
 10
22.6975605651
 20
45.2668984154
 30
0.0
 10
23.186991673
 20
45.2633098417
 30
0.0
 10
23.8683708735
 20
45.2518353598
 30
0.0
 10
24.7509164622
 20
45.2261476382
 30
0.0
 10
25.8413343732
 20
45.17990506229999
 30
0.0
 10
26.9678852082
 20
45.1200795725
 30
0.0
 10
28.5237347532
 20
45.02387287789999
 30
0.0
 10
30.5169585032
 20
44.8788139503
 30
0.0
 10
32.9508937932
 20
44.67791727
 30
0.0
 10
35.4274668208
 20
44.45762768499999
 30
0.0
 10
37.9322662137
 20
44.225377455
 30
0.0
 10
41.3041314167
 20
43.9074801198
 30
0.0
 10
45.54033744379999
 20
43.5107060251
 30
0.0
 10
50.6383556978
 20
43.0711866852
 30
0.0
 10
55.74289245350001
 20
42.69874346769999
 30
0.0
 10
59.9941563723
 20
42.46848472729999
 30
0.0
 10
63.3825544483
 20
42.3468088234
 30
0.0
 10
65.9024852661
 20
42.2905799055
 30
0.0
 10
68.39623348319999
 20
42.27262046329999
 30
0.0
 10
70.849607893
 20
42.2961573498
 30
0.0
 10
73.2412882201
 20
42.3640132418
 30
0.0
 10
75.18230905979999
 20
42.4603894287
 30
0.0
 10
76.67857857279999
 20
42.5632977733
 30
0.0
 10
77.7439145285
 20
42.6515951123
 30
0.0
 10
78.75855259959999
 20
42.7519530422
 30
0.0
 10
79.71187546600001
 20
42.8640784711
 30
0.0
 10
80.46215543409999
 20
42.9693475984
 30
0.0
 10
81.022425843
 20
43.0604002512
 30
0.0
 10
81.4097153896
 20
43.12978391709999
 30
0.0
 10
81.77254550669999
 20
43.20177244719999
 30
0.0
 10
82.1094881339
 20
43.27628430639999
 30
0.0
 10
82.4193783325
 20
43.3531754517
 30
0.0
 10
82.70130472359999
 20
43.4322187643
 30
0.0
 10
82.9177379687
 20
43.50147084069999
 30
0.0
 10
83.07605082710001
 20
43.5582277043
 30
0.0
 10
83.2159902395
 20
43.61243739459999
 30
0.0
 10
83.37291438300001
 20
43.68066910449999
 30
0.0
 10
83.5380715352
 20
43.76658556219999
 30
0.0
 10
83.6557679198
 20
43.84170813639999
 30
0.0
 10
83.73467890509999
 20
43.9028364637
 30
0.0
 10
83.8237282008
 20
43.98195858869999
 30
0.0
 10
83.8855684109
 20
44.0592313408
 30
0.0
 10
83.91447109380001
 20
44.1265961775
 30
0.0
  0
LINE
  5
2C5E
330
21F
100
AcDbEntity
  8
0
  6
Continuous
 62
     9
100
AcDbLine
 10
83.93700575949999
 20
44.1987052555
 30
0.0
 11
83.93817250540001
 21
44.204953675
 31
0.0
  0
LINE
  5
2C5F
330
21F
100
AcDbEntity
  8
0
  6
Continuous
 62
     9
100
AcDbLine
 10
17.9820966129
 20
44.2211401877
 30
0.0
 11
17.9788099194
 21
44.23976992479999
 31
0.0
  0
LINE
  5
2C60
330
21F
100
AcDbEntity
  8
0
  6
Continuous
 62
     9
100
AcDbLine
 10
17.9788099194
 20
44.23976992479999
 30
0.0
 11
17.975118114
 21
44.2606981593
 31
0.0
  0
SPLINE
  5
2C61
330
21F
100
AcDbEntity
  8
0
  6
Continuous
 62
     9
100
AcDbSpline
210
0.0
220
0.0
230
1.0
 70
     8
 71
     3
 72
    11
 73
     7
 74
     0
 42
0.0000001
 43
0.0000000001
 40
0.0
 40
0.0
 40
0.0
 40
0.0
 40
0.2509928586
 40
0.5015532038
 40
0.7511979351000001
 40
1.0
 40
1.0
 40
1.0
 40
1.0
 10
83.86896734830001
 20
44.33290716979999
 30
0.0
 10
83.8774623932
 20
44.3345508724
 30
0.0
 10
83.8953297785
 20
44.33431401029999
 30
0.0
 10
83.9195623185
 20
44.32330569789999
 30
0.0
 10
83.9373276923
 20
44.30357504659999
 30
0.0
 10
83.94280996319999
 20
44.2866614632
 30
0.0
 10
83.9437069909
 20
44.2781314206
 30
0.0
  0
SPLINE
  5
2C62
330
21F
100
AcDbEntity
  8
0
  6
Continuous
 62
     9
100
AcDbSpline
210
0.0
220
0.0
230
1.0
 70
     8
 71
     3
 72
    11
 73
     7
 74
     0
 42
0.0000001
 43
0.0000000001
 40
0.0
 40
0.0
 40
0.0
 40
0.0
 40
0.2510654584
 40
0.5016302872999999
 40
0.7511985490999999
 40
1.0
 40
1.0
 40
1.0
 40
1.0
 10
83.86896457170001
 20
44.33430669929999
 30
0.0
 10
83.8779542309
 20
44.336046714
 30
0.0
 10
83.89693042100001
 20
44.3355700758
 30
0.0
 10
83.92220943799999
 20
44.3229507691
 30
0.0
 10
83.93974963579999
 20
44.30089067109999
 30
0.0
 10
83.94399224029999
 20
44.28248656989999
 30
0.0
 10
83.9440401416
 20
44.27341275889999
 30
0.0
  0
SPLINE
  5
2C63
330
21F
100
AcDbEntity
  8
0
  6
Continuous
 62
     9
100
AcDbSpline
210
0.0
220
0.0
230
1.0
 70
     8
 71
     3
 72
    11
 73
     7
 74
     0
 42
0.0000001
 43
0.0000000001
 40
0.0
 40
0.0
 40
0.0
 40
0.0
 40
0.2828264316
 40
0.5448266112
 40
0.7842851899
 40
1.0
 40
1.0
 40
1.0
 40
1.0
 10
80.62532552849999
 20
43.07789806479999
 30
0.0
 10
80.80257438750001
 20
43.10603966739999
 30
0.0
 10
81.14353011309999
 20
43.16342299729999
 30
0.0
 10
81.6323437489
 20
43.25718660739999
 30
0.0
 10
82.07678052170001
 20
43.3553582038
 30
0.0
 10
82.3565935657
 20
43.4273294752
 30
0.0
 10
82.4883498285
 20
43.46444046779999
 30
0.0
  0
SPLINE
  5
2C64
330
21F
100
AcDbEntity
  8
0
  6
Continuous
 62
     9
100
AcDbSpline
210
0.0
220
0.0
230
1.0
 70
     8
 71
     3
 72
    15
 73
    11
 74
     0
 42
0.0000001
 43
0.0000000001
 40
0.0
 40
0.0
 40
0.0
 40
0.0
 40
0.1802619128
 40
0.3440169164
 40
0.4912055408000001
 40
0.6221376999000001
 40
0.7374330756000001
 40
0.8379454152999999
 40
0.9248756701000001
 40
1.0
 40
1.0
 40
1.0
 40
1.0
 10
82.4883498285
 20
43.46444046779999
 30
0.0
 10
82.57379988729999
 20
43.4885086709
 30
0.0
 10
82.73621030799999
 20
43.5368728091
 30
0.0
 10
82.96536296010001
 20
43.6145956938
 30
0.0
 10
83.1681009859
 20
43.69392875729999
 30
0.0
 10
83.34436830199999
 20
43.77466029629999
 30
0.0
 10
83.49441394240001
 20
43.856535503
 30
0.0
 10
83.618662996
 20
43.9394110907
 30
0.0
 10
83.7175710434
 20
44.0232039864
 30
0.0
 10
83.7704375144
 20
44.0836073888
 30
0.0
 10
83.79187640119999
 20
44.11375959509999
 30
0.0
  0
SPLINE
  5
2C65
330
21F
100
AcDbEntity
  8
0
  6
Continuous
 62
     9
100
AcDbSpline
210
0.0
220
0.0
230
1.0
 70
     8
 71
     3
 72
    10
 73
     6
 74
     0
 42
0.0000001
 43
0.0000000001
 40
0.0
 40
0.0
 40
0.0
 40
0.0
 40
0.5275158275000001
 40
0.7677440443000001
 40
1.0
 40
1.0
 40
1.0
 40
1.0
 10
83.79187640119999
 20
44.11375959509999
 30
0.0
 10
83.8158809457
 20
44.1475202088
 30
0.0
 10
83.845532546
 20
44.2012832468
 30
0.0
 10
83.86568072279999
 20
44.27748460100001
 30
0.0
 10
83.8689629147
 20
44.31466864789999
 30
0.0
 10
83.86896734830001
 20
44.33290716979999
 30
0.0
  0
LINE
  5
2C66
330
21F
100
AcDbEntity
  8
0
  6
Continuous
 62
     9
100
AcDbLine
 10
80.55883821150001
 20
43.0730894015
 30
0.0
 11
80.5752656123
 21
43.0760922579
 31
0.0
  0
SPLINE
  5
2C67
330
21F
100
AcDbEntity
  8
0
  6
Continuous
 62
     9
100
AcDbSpline
210
0.0
220
0.0
230
1.0
 70
     8
 71
     3
 72
    13
 73
     9
 74
     0
 42
0.0000001
 43
0.0000000001
 40
0.0
 40
0.0
 40
0.0
 40
0.0
 40
0.2993063603999999
 40
0.5667274911
 40
0.6879192228000001
 40
0.8005693687999999
 40
0.9045987012999999
 40
1.0
 40
1.0
 40
1.0
 40
1.0
 10
80.62469286909999
 20
43.08521176649999
 30
0.0
 10
80.8029152735
 20
43.1183259772
 30
0.0
 10
81.13955284140001
 20
43.1856018091
 30
0.0
 10
81.5450393683
 20
43.28191627619999
 30
0.0
 10
81.83769139749999
 20
43.3627749473
 30
0.0
 10
82.0333902551
 20
43.4226720846
 30
0.0
 10
82.21230068569999
 20
43.48373361350001
 30
0.0
 10
82.3251007384
 20
43.5270317772
 30
0.0
 10
82.37854849899999
 20
43.5489807927
 30
0.0
  0
SPLINE
  5
2C68
330
21F
100
AcDbEntity
  8
0
  6
Continuous
 62
     9
100
AcDbSpline
210
0.0
220
0.0
230
1.0
 70
     8
 71
     3
 72
    13
 73
     9
 74
     0
 42
0.0000001
 43
0.0000000001
 40
0.0
 40
0.0
 40
0.0
 40
0.0
 40
0.3246097323
 40
0.4663179483000001
 40
0.5950641697
 40
0.7116718318000001
 40
0.8172036558
 40
1.0
 40
1.0
 40
1.0
 40
1.0
 10
82.45629786850001
 20
43.58199896439999
 30
0.0
 10
82.530767996
 20
43.61472969229999
 30
0.0
 10
82.6361950675
 20
43.6657119006
 30
0.0
 10
82.76438058630001
 20
43.7420699913
 30
0.0
 10
82.844290399
 20
43.7971819983
 30
0.0
 10
82.91260129359999
 20
43.85277510589999
 30
0.0
 10
82.98498882439998
 20
43.92392834729999
 30
0.0
 10
83.028477772
 20
43.98295189609999
 30
0.0
 10
83.04941496179999
 20
44.0236949013
 30
0.0
  0
LINE
  5
2C69
330
21F
100
AcDbEntity
  8
0
  6
Continuous
 62
     7
100
AcDbLine
 10
80.68197325159999
 20
42.96032573669999
 30
0.0
 11
80.6810511061
 21
42.96017939499999
 31
0.0
  0
LINE
  5
2C6A
330
21F
100
AcDbEntity
  8
0
  6
Continuous
 62
     7
100
AcDbLine
 10
80.0905351741
 20
42.8722709013
 30
0.0
 11
80.06504032729999
 21
42.8687164536
 31
0.0
  0
LINE
  5
2C6B
330
21F
100
AcDbEntity
  8
0
  6
Continuous
 62
     7
100
AcDbLine
 10
80.06504032729999
 20
42.8687164536
 30
0.0
 11
80.039102761
 21
42.8651191598
 31
0.0
  0
SPLINE
  5
2C6C
330
21F
100
AcDbEntity
  8
0
  6
Continuous
 62
     7
100
AcDbSpline
210
0.0
220
0.0
230
1.0
 70
     8
 71
     3
 72
    62
 73
    58
 74
     0
 42
0.0000001
 43
0.0000000001
 40
0.0
 40
0.0
 40
0.0
 40
0.0
 40
0.0132562504
 40
0.0273169639
 40
0.0420616855
 40
0.0573822444
 40
0.0731831908
 40
0.0893840845
 40
0.1227290692
 40
0.1570052247
 40
0.1919283184
 40
0.227302274
 40
0.2629902867
 40
0.2988955994
 40
0.3349487471
 40
0.4073084287
 40
0.4798031363000001
 40
0.5522702860000001
 40
0.5884393059000001
 40
0.6245225677000001
 40
0.6604739437
 40
0.6962303823
 40
0.7317043472
 40
0.7667716375
 40
0.8012544437
 40
0.8181996545
 40
0.8348926871999999
 40
0.8512822934
 40
0.8673059023
 40
0.8828878490999999
 40
0.8979386081000001
 40
0.9052326904999999
 40
0.9123533221999998
 40
0.9192846062
 40
0.9260102287999998
 40
0.9325141108
 40
0.9387790386
 40
0.9447874251
 40
0.9505224468999999
 40
0.9559683085999999
 40
0.9611100785999999
 40
0.9659344045999999
 40
0.9704301034999998
 40
0.9745885704
 40
0.9784042826999998
 40
0.9818754355999999
 40
0.9850045722
 40
0.9877990262
 40
0.9902714258999999
 40
0.9924398995999998
 40
0.9943294034
 40
0.9959756288999999
 40
0.9974266296999999
 40
0.9980984392999999
 40
0.9987451654999999
 40
0.9993759601999999
 40
1.0
 40
1.0
 40
1.0
 40
1.0
 10
80.039102761
 20
42.8651191598
 30
0.0
 10
79.76554906930001
 20
42.8272796405
 30
0.0
 10
79.20096114679999
 20
42.7555964309
 30
0.0
 10
78.3298241307
 20
42.6608130381
 30
0.0
 10
77.4145149726
 20
42.57546712139999
 30
0.0
 10
76.46199952239999
 20
42.4996840366
 30
0.0
 10
75.4783667445
 20
42.43348276449999
 30
0.0
 10
74.1191543534
 20
42.3572470691
 30
0.0
 10
72.3742576563
 20
42.28656642499999
 30
0.0
 10
70.23846536939998
 20
42.23854263719999
 30
0.0
 10
68.0599191128
 20
42.22484406679999
 30
0.0
 10
65.8520109382
 20
42.24337047639999
 30
0.0
 10
63.62410199340001
 20
42.2918453057
 30
0.0
 10
61.3828150421
 20
42.3678698643
 30
0.0
 10
58.37931356520001
 20
42.50280544559999
 30
0.0
 10
54.617102191
 20
42.7280107894
 30
0.0
 10
50.1024863933
 20
43.0684374793
 30
0.0
 10
46.3431390355
 20
43.3940979381
 30
0.0
 10
43.3408682696
 20
43.66912049839999
 30
0.0
 10
41.0965641686
 20
43.8794034629
 30
0.0
 10
38.8609781523
 20
44.09057450689999
 30
0.0
 10
36.6378853827
 20
44.2990354022
 30
0.0
 10
34.4326581953
 20
44.50072112079999
 30
0.0
 10
32.2530415804
 20
44.69095422459999
 30
0.0
 10
30.456991468
 20
44.83625976069999
 30
0.0
 10
29.0417259482
 20
44.9408488092
 30
0.0
 10
28.0019529933
 20
45.0119637704
 30
0.0
 10
26.9809033917
 20
45.07518695259999
 30
0.0
 10
25.9825039655
 20
45.1292586886
 30
0.0
 10
25.0115033981
 20
45.1727657262
 30
0.0
 10
24.2218295294
 20
45.1994363359
 30
0.0
 10
23.6081668954
 20
45.214118491
 30
0.0
 10
23.1635374362
 20
45.22152931109999
 30
0.0
 10
22.7306993167
 20
45.2249123116
 30
0.0
 10
22.3106957503
 20
45.2235594405
 30
0.0
 10
21.9046205842
 20
45.2170510202
 30
0.0
 10
21.5136213082
 20
45.2048546762
 30
0.0
 10
21.1388797257
 20
45.1868388668
 30
0.0
 10
20.781546626
 20
45.1632232596
 30
0.0
 10
20.4427175482
 20
45.1342972836
 30
0.0
 10
20.1234405409
 20
45.1001893055
 30
0.0
 10
19.8246859623
 20
45.0610730605
 30
0.0
 10
19.5473107589
 20
45.01718584579999
 30
0.0
 10
19.2920266357
 20
44.9688400024
 30
0.0
 10
19.0593943509
 20
44.9163116202
 30
0.0
 10
18.8497975782
 20
44.85988020029999
 30
0.0
 10
18.6634222224
 20
44.79984464029999
 30
0.0
 10
18.500253752
 20
44.7365115207
 30
0.0
 10
18.3600935123
 20
44.67019453569999
 30
0.0
 10
18.242590818
 20
44.6011926501
 30
0.0
 10
18.1473028674
 20
44.5296487703
 30
0.0
 10
18.0737077443
 20
44.45573203499999
 30
0.0
 10
18.0289142732
 20
44.3905212668
 30
0.0
 10
18.0046531108
 20
44.33804590729999
 30
0.0
 10
17.9920245701
 20
44.2993440381
 30
0.0
 10
17.9844162405
 20
44.2603696389
 30
0.0
 10
17.9826139062
 20
44.23421285159999
 30
0.0
 10
17.9825097392
 20
44.2212130748
 30
0.0
  0
LINE
  5
2C6D
330
21F
100
AcDbEntity
  8
0
  6
Continuous
 62
     7
100
AcDbLine
 10
17.9825099432
 20
44.22121194109999
 30
0.0
 11
17.9824985901
 21
44.218861804
 31
0.0
  0
SPLINE
  5
2C6E
330
21F
100
AcDbEntity
  8
0
  6
Continuous
 62
     7
100
AcDbSpline
210
0.0
220
0.0
230
1.0
 70
    24
 71
     3
 72
     8
 73
     4
 74
     0
 42
0.0000001
 43
0.0000000001
 40
0.0
 40
0.0
 40
0.0
 40
0.0
 40
1.0
 40
1.0
 40
1.0
 40
1.0
 10
17.9827771837
 20
44.20507097539999
 30
0.0
 10
17.982777731
 20
44.2050578487
 30
0.0
 10
17.98277827819999
 20
44.205044722
 30
0.0
 10
17.9827788255
 20
44.20503159529999
 30
0.0
  0
LINE
  5
2C6F
330
21F
100
AcDbEntity
  8
0
  6
Continuous
 62
     7
100
AcDbLine
 10
83.93076371779999
 20
44.1630358789
 30
0.0
 11
83.93068833390001
 21
44.16261114930001
 31
0.0
  0
SPLINE
  5
2C70
330
21F
100
AcDbEntity
  8
0
  6
Continuous
 62
     7
100
AcDbSpline
210
0.0
220
0.0
230
1.0
 70
     8
 71
     3
 72
    24
 73
    20
 74
     0
 42
0.0000001
 43
0.0000000001
 40
0.0
 40
0.0
 40
0.0
 40
0.0
 40
0.0117741649
 40
0.0240163624
 40
0.0505081688
 40
0.0806626768
 40
0.1153974459
 40
0.155390168
 40
0.2011063962
 40
0.252875437
 40
0.3109443859
 40
0.375454689
 40
0.446410255
 40
0.5237212629
 40
0.6072757941
 40
0.6969369348000001
 40
0.7924830698000001
 40
0.8936104163999999
 40
1.0
 40
1.0
 40
1.0
 40
1.0
 10
83.93068833390001
 20
44.16261114930001
 30
0.0
 10
83.9282313582
 20
44.148820466
 30
0.0
 10
83.9214111215
 20
44.120984341
 30
0.0
 10
83.90018796659999
 20
44.0646391884
 30
0.0
 10
83.85826270229999
 20
43.9934649154
 30
0.0
 10
83.78657233510001
 20
43.91113548989999
 30
0.0
 10
83.69162761590001
 20
43.82963808229999
 30
0.0
 10
83.57286195409999
 20
43.7490533855
 30
0.0
 10
83.42982786330001
 20
43.6693872178
 30
0.0
 10
83.2621557563
 20
43.5907794352
 30
0.0
 10
83.0695877642
 20
43.5134523676
 30
0.0
 10
82.85211399999999
 20
43.4376156981
 30
0.0
 10
82.6100458622
 20
43.3633894404
 30
0.0
 10
82.3439103047
 20
43.2908734717
 30
0.0
 10
82.0543176322
 20
43.2202303426
 30
0.0
 10
81.74199328710001
 20
43.1516138293
 30
0.0
 10
81.40786460380001
 20
43.0851514169
 30
0.0
 10
81.0530638968
 20
43.02089637909999
 30
0.0
 10
80.8094839776
 20
42.9805748093
 30
0.0
 10
80.6844776413
 20
42.96072333029999
 30
0.0
  0
LINE
  5
2C71
330
21F
100
AcDbEntity
  8
0
  6
Continuous
 62
     7
100
AcDbLine
 10
80.6844776413
 20
42.96072333029999
 30
0.0
 11
80.68197325159999
 21
42.96032573669999
 31
0.0
  0
SPLINE
  5
2C72
330
21F
100
AcDbEntity
  8
0
  6
Continuous
 62
     9
100
AcDbSpline
210
0.0
220
0.0
230
1.0
 70
     8
 71
     3
 72
    45
 73
    41
 74
     0
 42
0.0000001
 43
0.0000000001
 40
0.0
 40
0.0
 40
0.0
 40
0.0
 40
0.0000211436
 40
0.0000699933
 40
0.0001475825
 40
0.0002542032
 40
0.0003900325
 40
0.0005552135
 40
0.0009741377
 40
0.001511949
 40
0.0021695776
 40
0.0029480445
 40
0.0038487135
 40
0.0048730168
 40
0.0060223841
 40
0.0087020224
 40
0.0118982895
 40
0.0156199079
 40
0.0198752798
 40
0.0246722068
 40
0.0300176776
 40
0.0359185084
 40
0.0494081714
 40
0.0651784889
 40
0.0832537285
 40
0.1036432422
 40
0.1263388916
 40
0.1513143453
 40
0.1785265577
 40
0.2079171668
 40
0.2394129648
 40
0.2729276365
 40
0.3456211507
 40
0.4251570696
 40
0.5106458589000001
 40
0.6012233692
 40
0.6961027784000001
 40
0.7945815448000002
 40
0.8960509853000001
 40
1.0
 40
1.0
 40
1.0
 40
1.0
 10
73.0615731874
 20
18.5644503313
 30
0.0
 10
73.0615521141
 20
18.5644081514
 30
0.0
 10
73.06136980399999
 20
18.5643763991
 30
0.0
 10
73.0610710167
 20
18.5643124241
 30
0.0
 10
73.06054016880001
 20
18.5642631632
 30
0.0
 10
73.05983455919999
 20
18.5642051657
 30
0.0
 10
73.0589248676
 20
18.5641511957
 30
0.0
 10
73.05732235100001
 20
18.5640723551
 30
0.0
 10
73.054821265
 20
18.563982455
 30
0.0
 10
73.05122277869999
 20
18.5638843992
 30
0.0
 10
73.0468217194
 20
18.5637914617
 30
0.0
 10
73.04161139199999
 20
18.5637035905
 30
0.0
 10
73.03558313149999
 20
18.5636214439
 30
0.0
 10
73.02872762859999
 20
18.5635452765
 30
0.0
 10
73.01790495520001
 20
18.5634470882
 30
0.0
 10
73.00223856649999
 20
18.5633455296
 30
0.0
 10
72.9808358008
 20
18.5632566421
 30
0.0
 10
72.9559189598
 20
18.5631979609
 30
0.0
 10
72.92743251720001
 20
18.5631716529
 30
0.0
 10
72.8953247964
 20
18.5631797017
 30
0.0
 10
72.85954765060001
 20
18.5632235715
 30
0.0
 10
72.80438537720001
 20
18.5633372699
 30
0.0
 10
72.7259754552
 20
18.5635859681
 30
0.0
 10
72.62041659229999
 20
18.5640361276
 30
0.0
 10
72.49947140109999
 20
18.5646637796
 30
0.0
 10
72.36308317729999
 20
18.5654750399
 30
0.0
 10
72.2113079848
 20
18.5664680642
 30
0.0
 10
72.0443186854
 20
18.5676359335
 30
0.0
 10
71.8624001376
 20
18.5689732043
 30
0.0
 10
71.66594172439999
 20
18.5704734555
 30
0.0
 10
71.4554292459
 20
18.5721211032
 30
0.0
 10
71.14835240020001
 20
18.574553261
 30
0.0
 10
70.73414720619999
 20
18.5778416382
 30
0.0
 10
70.2040401396
 20
18.5819550523
 30
0.0
 10
69.63405036420001
 20
18.5861490807
 30
0.0
 10
69.0298427487
 20
18.5903079303
 30
0.0
 10
68.396665347
 20
18.5943347664
 30
0.0
 10
67.73919664970001
 20
18.5981445779
 30
0.0
 10
67.0615005967
 20
18.6017010767
 30
0.0
 10
66.60341273020001
 20
18.6038722904
 30
0.0
 10
66.3716038039
 20
18.6049168572
 30
0.0
  0
SPLINE
  5
2C73
330
21F
100
AcDbEntity
  8
0
  6
Continuous
 62
     9
100
AcDbSpline
210
0.0
220
0.0
230
1.0
 70
     8
 71
     3
 72
    15
 73
    11
 74
     0
 42
0.0000001
 43
0.0000000001
 40
0.0
 40
0.0
 40
0.0
 40
0.0
 40
0.1249515824
 40
0.2511716369
 40
0.3778813535
 40
0.5046652256000001
 40
0.6311835057000001
 40
0.7568661065000001
 40
0.8805913709
 40
1.0
 40
1.0
 40
1.0
 40
1.0
 10
61.45948670300001
 20
18.6206551856
 30
0.0
 10
60.3877332818
 20
18.6230173321
 30
0.0
 10
58.23334398850001
 20
18.6267231308
 30
0.0
 10
54.9921173981
 20
18.6302549088
 30
0.0
 10
51.735173339
 20
18.6323143131
 30
0.0
 10
48.4756707958
 20
18.6332556115
 30
0.0
 10
45.2249780553
 20
18.6329361053
 30
0.0
 10
42.0005205851
 20
18.6309357886
 30
0.0
 10
38.8370475594
 20
18.6265679527
 30
0.0
 10
36.7516040001
 20
18.6211055686
 30
0.0
 10
35.7273989543
 20
18.6173150469
 30
0.0
  0
SPLINE
  5
2C74
330
21F
100
AcDbEntity
  8
0
  6
Continuous
 62
     9
100
AcDbSpline
210
0.0
220
0.0
230
1.0
 70
     8
 71
     3
 72
    46
 73
    42
 74
     0
 42
0.0000001
 43
0.0000000001
 40
0.0
 40
0.0
 40
0.0
 40
0.0
 40
0.1034104033
 40
0.2044374292
 40
0.3025798275
 40
0.3972376403
 40
0.4877095015
 40
0.5732091988
 40
0.6528623511000001
 40
0.7257589769
 40
0.7593987569000001
 40
0.7910289104000002
 40
0.8205589698
 40
0.8479113518000001
 40
0.8730230531
 40
0.8958471863999999
 40
0.9163543869999999
 40
0.934533871
 40
0.9503930320999998
 40
0.9574592618
 40
0.9639555470000001
 40
0.9698868264999999
 40
0.9752587119000001
 40
0.9800776573
 40
0.9843503818000002
 40
0.9880855395999999
 40
0.9912928246999999
 40
0.9939819439
 40
0.9951352232999999
 40
0.9961625995
 40
0.9970652861999999
 40
0.9978444980999999
 40
0.9985014571999998
 40
0.9990374061
 40
0.9994536100999999
 40
0.9996172179
 40
0.9997513940000001
 40
0.9998563342
 40
0.9999322839999999
 40
0.9999796583
 40
1.0
 40
1.0
 40
1.0
 40
1.0
 10
35.7273989543
 20
18.6173150469
 30
0.0
 10
35.4905538651
 20
18.6164384974
 30
0.0
 10
35.0223228621
 20
18.6145866984
 30
0.0
 10
34.329314196
 20
18.6114467582
 30
0.0
 10
33.6563539508
 20
18.607968402
 30
0.0
 10
33.0075709862
 20
18.6041584194
 30
0.0
 10
32.3877467311
 20
18.60005312
 30
0.0
 10
31.8022906783
 20
18.5957547262
 30
0.0
 10
31.2570906293
 20
18.5912968948
 30
0.0
 10
30.8306671156
 20
18.5874857778
 30
0.0
 10
30.5142306143
 20
18.5844868765
 30
0.0
 10
30.2971152514
 20
18.5823575952
 30
0.0
 10
30.0944001897
 20
18.5803084222
 30
0.0
 10
29.9066144871
 20
18.5783574225
 30
0.0
 10
29.7341874085
 20
18.5765194477
 30
0.0
 10
29.5774378085
 20
18.5748058026
 30
0.0
 10
29.4365649717
 20
18.5732240102
 30
0.0
 10
29.3116438918
 20
18.5717781949
 30
0.0
 10
29.217505846
 20
18.5706479341
 30
0.0
 10
29.1501249591
 20
18.5698069977
 30
0.0
 10
29.1054809047
 20
18.5692330208
 30
0.0
 10
29.0647174291
 20
18.5686900266
 30
0.0
 10
29.0277956038
 20
18.5681772522
 30
0.0
 10
28.9946724179
 20
18.5676944662
 30
0.0
 10
28.9652978937
 20
18.5672415826
 30
0.0
 10
28.9396146651
 20
18.5668167873
 30
0.0
 10
28.9175585508
 20
18.5664177152
 30
0.0
 10
28.9014155699
 20
18.5660898237
 30
0.0
 10
28.8902649043
 20
18.5658371399
 30
0.0
 10
28.8832050617
 20
18.5656645159
 30
0.0
 10
28.877002029
 20
18.5654994428
 30
0.0
 10
28.8716475553
 20
18.5653424157
 30
0.0
 10
28.8671329709
 20
18.565194175
 30
0.0
 10
28.8634506339
 20
18.5650522784
 30
0.0
 10
28.8608970521
 20
18.5649311118
 30
0.0
 10
28.859266163
 20
18.5648305066
 30
0.0
 10
28.8583434879
 20
18.5647620819
 30
0.0
 10
28.8576323742
 20
18.5646930591
 30
0.0
 10
28.8570967443
 20
18.5646280703
 30
0.0
 10
28.8568052302
 20
18.564560822
 30
0.0
 10
28.8566203845
 20
18.5645105003
 30
0.0
 10
28.8566083047
 20
18.5644655037
 30
0.0
  0
LINE
  5
2C75
330
21F
100
AcDbEntity
  8
0
  6
Continuous
 62
     9
100
AcDbLine
 10
17.9824987645
 20
44.2188608343
 30
0.0
 11
17.9848402728
 21
44.205589853
 31
0.0
  0
SPLINE
  5
2C76
330
21F
100
AcDbEntity
  8
0
  6
Continuous
 62
     9
100
AcDbSpline
210
0.0
220
0.0
230
1.0
 70
     8
 71
     3
 72
    26
 73
    22
 74
     0
 42
0.0000001
 43
0.0000000001
 40
0.0
 40
0.0
 40
0.0
 40
0.0
 40
0.0618019342
 40
0.1236526993
 40
0.1856107489
 40
0.24775763
 40
0.3101871795
 40
0.3729938047999999
 40
0.4362487198
 40
0.4999741536000001
 40
0.5641209226
 40
0.6285499948
 40
0.6930184838
 40
0.7571719956000001
 40
0.8205450998999999
 40
0.8517657965000001
 40
0.8825721486999999
 40
0.912882832
 40
0.9426127436999999
 40
0.9716789129
 40
1.0
 40
1.0
 40
1.0
 40
1.0
 10
17.9848402728
 20
44.205589853
 30
0.0
 10
18.0854120901
 20
43.6355940468
 30
0.0
 10
18.2873552717
 20
42.4952681314
 30
0.0
 10
18.6164841235
 20
40.78826425469999
 30
0.0
 10
18.9910184148
 20
39.0871851944
 30
0.0
 10
19.4253229547
 20
37.3946302812
 30
0.0
 10
19.9300095295
 20
35.7132965006
 30
0.0
 10
20.5109586583
 20
34.04572013380001
 30
0.0
 10
21.1696710729
 20
32.3942379423
 30
0.0
 10
21.9035692625
 20
30.7610617582
 30
0.0
 10
22.7060757136
 20
29.1483007628
 30
0.0
 10
23.5666365891
 20
27.5579762191
 30
0.0
 10
24.4707318941
 20
25.9920616252
 30
0.0
 10
25.3998537509
 20
24.4525303097
 30
0.0
 10
26.1801349471
 20
23.1870110507
 30
0.0
 10
26.7945838876
 20
22.186148039
 30
0.0
 10
27.2433493596
 20
21.4469144595
 30
0.0
 10
27.6784225988
 20
20.7157290869
 30
0.0
 10
28.09542315010001
 20
19.9928199238
 30
0.0
 10
28.4898897355
 20
19.278565442
 30
0.0
 10
28.7379970269
 20
18.8017056015
 30
0.0
 10
28.8566083047
 20
18.5644655037
 30
0.0
  0
ENDSEC
  0
SECTION
  2
OBJECTS
  0
DICTIONARY
  5
C
330
0
100
AcDbDictionary
281
     1
  3
ACAD_CIP_PREVIOUS_PRODUCT_INFO
350
2E0C
  3
ACAD_COLOR
350
2DA1
  3
ACAD_DETAILVIEWSTYLE
350
2DBA
  3
ACAD_GROUP
350
D
  3
ACAD_IMAGE_DICT
350
2D66
  3
ACAD_IMAGE_VARS
350
2D67
  3
ACAD_LAYOUT
350
1A
  3
ACAD_MATERIAL
350
2D6F
  3
ACAD_MLEADERSTYLE
350
2DB6
  3
ACAD_MLINESTYLE
350
17
  3
ACAD_PLOTSETTINGS
350
19
  3
ACAD_PLOTSTYLENAME
350
E
  3
ACAD_SCALELIST
350
2DA4
  3
ACAD_SECTIONVIEWSTYLE
350
2DB8
  3
ACAD_TABLESTYLE
350
2DA2
  3
ACAD_VISUALSTYLE
350
2D88
  3
ACDB_RECOMPOSE_DATA
350
2ED4
  3
AcDbVariableDictionary
350
2DFE
  3
DWGPROPS
350
2ED5
  0
DICTIONARY
  5
2DBF
330
8
100
AcDbDictionary
280
     1
281
     1
  0
DICTIONARY
  5
2E0D
330
10
100
AcDbDictionary
280
     1
281
     1
  3
ADSK_XREC_LAYER_RECONCILED
360
2E0E
  0
DICTIONARY
  5
2E0F
330
1FA
100
AcDbDictionary
280
     1
281
     1
  3
ADSK_XREC_LAYER_RECONCILED
360
2E10
  0
DICTIONARY
  5
2E11
330
1FB
100
AcDbDictionary
280
     1
281
     1
  3
ADSK_XREC_LAYER_RECONCILED
360
2E12
  0
DICTIONARY
  5
2E13
330
1FC
100
AcDbDictionary
280
     1
281
     1
  3
ADSK_XREC_LAYER_RECONCILED
360
2E14
  0
DICTIONARY
  5
2E15
330
1FD
100
AcDbDictionary
280
     1
281
     1
  3
ADSK_XREC_LAYER_RECONCILED
360
2E16
  0
DICTIONARY
  5
2E17
330
1FE
100
AcDbDictionary
280
     1
281
     1
  3
ADSK_XREC_LAYER_RECONCILED
360
2E18
  0
DICTIONARY
  5
2E19
330
1FF
100
AcDbDictionary
280
     1
281
     1
  3
ADSK_XREC_LAYER_RECONCILED
360
2E1A
  0
DICTIONARY
  5
2E1B
330
200
100
AcDbDictionary
280
     1
281
     1
  3
ADSK_XREC_LAYER_RECONCILED
360
2E1C
  0
DICTIONARY
  5
2E1D
330
201
100
AcDbDictionary
280
     1
281
     1
  3
ADSK_XREC_LAYER_RECONCILED
360
2E1E
  0
DICTIONARY
  5
2E1F
330
202
100
AcDbDictionary
280
     1
281
     1
  3
ADSK_XREC_LAYER_RECONCILED
360
2E20
  0
DICTIONARY
  5
2E21
330
203
100
AcDbDictionary
280
     1
281
     1
  3
ADSK_XREC_LAYER_RECONCILED
360
2E22
  0
DICTIONARY
  5
2E23
330
204
100
AcDbDictionary
280
     1
281
     1
  3
ADSK_XREC_LAYER_RECONCILED
360
2E24
  0
DICTIONARY
  5
2E25
330
205
100
AcDbDictionary
280
     1
281
     1
  3
ADSK_XREC_LAYER_RECONCILED
360
2E26
  0
DICTIONARY
  5
2E27
330
206
100
AcDbDictionary
280
     1
281
     1
  3
ADSK_XREC_LAYER_RECONCILED
360
2E28
  0
DICTIONARY
  5
2E29
330
207
100
AcDbDictionary
280
     1
281
     1
  3
ADSK_XREC_LAYER_RECONCILED
360
2E2A
  0
DICTIONARY
  5
2E2B
330
208
100
AcDbDictionary
280
     1
281
     1
  3
ADSK_XREC_LAYER_RECONCILED
360
2E2C
  0
DICTIONARY
  5
2E2D
330
209
100
AcDbDictionary
280
     1
281
     1
  3
ADSK_XREC_LAYER_RECONCILED
360
2E2E
  0
DICTIONARY
  5
2E2F
330
20A
100
AcDbDictionary
280
     1
281
     1
  3
ADSK_XREC_LAYER_RECONCILED
360
2E30
  0
DICTIONARY
  5
2E31
330
20B
100
AcDbDictionary
280
     1
281
     1
  3
ADSK_XREC_LAYER_RECONCILED
360
2E32
  0
DICTIONARY
  5
2E33
330
20C
100
AcDbDictionary
280
     1
281
     1
  3
ADSK_XREC_LAYER_RECONCILED
360
2E34
  0
DICTIONARY
  5
2E35
330
20D
100
AcDbDictionary
280
     1
281
     1
  3
ADSK_XREC_LAYER_RECONCILED
360
2E36
  0
DICTIONARY
  5
2E37
330
20E
100
AcDbDictionary
280
     1
281
     1
  3
ADSK_XREC_LAYER_RECONCILED
360
2E38
  0
DICTIONARY
  5
2E39
330
20F
100
AcDbDictionary
280
     1
281
     1
  3
ADSK_XREC_LAYER_RECONCILED
360
2E3A
  0
DICTIONARY
  5
2E3B
330
210
100
AcDbDictionary
280
     1
281
     1
  3
ADSK_XREC_LAYER_RECONCILED
360
2E3C
  0
DICTIONARY
  5
2E3D
330
211
100
AcDbDictionary
280
     1
281
     1
  3
ADSK_XREC_LAYER_RECONCILED
360
2E3E
  0
DICTIONARY
  5
2E3F
330
212
100
AcDbDictionary
280
     1
281
     1
  3
ADSK_XREC_LAYER_RECONCILED
360
2E40
  0
DICTIONARY
  5
2E41
330
213
100
AcDbDictionary
280
     1
281
     1
  3
ADSK_XREC_LAYER_RECONCILED
360
2E42
  0
DICTIONARY
  5
2E43
330
214
100
AcDbDictionary
280
     1
281
     1
  3
ADSK_XREC_LAYER_RECONCILED
360
2E44
  0
DICTIONARY
  5
2E45
330
215
100
AcDbDictionary
280
     1
281
     1
  3
ADSK_XREC_LAYER_RECONCILED
360
2E46
  0
DICTIONARY
  5
2E47
330
216
100
AcDbDictionary
280
     1
281
     1
  3
ADSK_XREC_LAYER_RECONCILED
360
2E48
  0
XRECORD
  5
2E0C
102
{ACAD_REACTORS
330
C
102
}
330
C
100
AcDbXrecord
280
     1
300
ACDLT
300
2018
300

  0
DICTIONARY
  5
2DA1
102
{ACAD_REACTORS
330
C
102
}
330
C
100
AcDbDictionary
281
     1
  0
DICTIONARY
  5
2DBA
102
{ACAD_REACTORS
330
C
102
}
330
C
100
AcDbDictionary
281
     1
  3
Imperial24
350
2DBB
  0
DICTIONARY
  5
D
102
{ACAD_REACTORS
330
C
102
}
330
C
100
AcDbDictionary
281
     1
  0
DICTIONARY
  5
2D66
330
C
100
AcDbDictionary
281
     1
  3
a0001612_img_1
350
2D6A
  0
RASTERVARIABLES
  5
2D67
330
C
100
AcDbRasterVariables
 90
        0
 70
     0
 71
     1
 72
     5
  0
DICTIONARY
  5
1A
102
{ACAD_REACTORS
330
C
102
}
330
C
100
AcDbDictionary
281
     1
  3
Layout1
350
2D69
  3
Model
350
2D68
  0
DICTIONARY
  5
2D6F
102
{ACAD_REACTORS
330
C
102
}
330
C
100
AcDbDictionary
281
     1
  3
ByBlock
350
2D78
  3
ByLayer
350
2D70
  3
Global
350
2D80
  0
DICTIONARY
  5
2DB6
102
{ACAD_REACTORS
330
C
102
}
330
C
100
AcDbDictionary
281
     1
  3
Standard
350
2DB7
  0
DICTIONARY
  5
17
102
{ACAD_REACTORS
330
C
102
}
330
C
100
AcDbDictionary
281
     1
  3
Standard
350
18
  0
DICTIONARY
  5
19
102
{ACAD_REACTORS
330
C
102
}
330
C
100
AcDbDictionary
281
     1
  0
ACDBDICTIONARYWDFLT
  5
E
102
{ACAD_REACTORS
330
C
102
}
330
C
100
AcDbDictionary
281
     1
  3
Normal
350
F
100
AcDbDictionaryWithDefault
340
F
  0
DICTIONARY
  5
2DA4
102
{ACAD_REACTORS
330
C
102
}
330
C
100
AcDbDictionary
281
     1
  3
A0
350
2DA5
  3
A1
350
2DA6
  3
A2
350
2DA7
  3
A3
350
2DA8
  3
A4
350
2DA9
  3
A5
350
2DAA
  3
A6
350
2DAB
  3
A7
350
2DAC
  3
A8
350
2DAD
  3
A9
350
2DAE
  3
B0
350
2DAF
  3
B1
350
2DB0
  3
B2
350
2DB1
  3
B3
350
2DB2
  3
B4
350
2DB3
  3
B5
350
2DB4
  3
B6
350
2DB5
  0
DICTIONARY
  5
2DB8
102
{ACAD_REACTORS
330
C
102
}
330
C
100
AcDbDictionary
281
     1
  3
Imperial24
350
2DB9
  0
DICTIONARY
  5
2DA2
102
{ACAD_REACTORS
330
C
102
}
330
C
100
AcDbDictionary
281
     1
  3
Standard
350
2DA3
  0
DICTIONARY
  5
2D88
102
{ACAD_REACTORS
330
C
102
}
330
C
100
AcDbDictionary
281
     1
  3
2dWireframe
350
2D8E
  3
Basic
350
2D8D
  3
Brighten
350
2D94
  3
ColorChange
350
2D98
  3
Conceptual
350
2D91
  3
Dim
350
2D93
  3
EdgeColorOff
350
2DA0
  3
Facepattern
350
2D97
  3
Flat
350
2D89
  3
FlatWithEdges
350
2D8A
  3
Gouraud
350
2D8B
  3
GouraudWithEdges
350
2D8C
  3
Hidden
350
2D90
  3
JitterOff
350
2D9E
  3
Linepattern
350
2D96
  3
OverhangOff
350
2D9F
  3
Realistic
350
2D92
  3
Shaded
350
2D9D
  3
Shaded with edges
350
2D9C
  3
Shades of Gray
350
2D99
  3
Sketchy
350
2D9A
  3
Thicken
350
2D95
  3
Wireframe
350
2D8F
  3
X-Ray
350
2D9B
  0
XRECORD
  5
2ED4
102
{ACAD_REACTORS
330
C
102
}
330
C
100
AcDbXrecord
280
     1
 90
        1
330
2DA3
  0
DICTIONARY
  5
2DFE
102
{ACAD_REACTORS
330
C
102
}
330
C
100
AcDbDictionary
281
     1
  3
CANNOSCALE
350
2E03
  3
CMLEADERSTYLE
350
2E00
  3
CTABLESTYLE
350
2DFF
  3
CVIEWDETAILSTYLE
350
2E01
  3
CVIEWSECTIONSTYLE
350
2E02
  3
DIMASSOC
350
2E06
  3
INDEXCTL
350
2E05
  3
LAYEREVAL
350
2E8C
  3
LAYERNOTIFY
350
2E8D
  3
LIGHTINGUNITS
350
2E8B
  3
MSLTSCALE
350
2E8A
  3
SORTENTS
350
2E04
  3
XCLIPFRAME
350
2E49
  0
XRECORD
  5
2ED5
102
{ACAD_REACTORS
330
C
102
}
330
C
100
AcDbXrecord
280
     1
  1
DWGPROPS COOKIE
  2

  3

  4

  6

  7

  8
guillaumes
  9

300
=
301
=
302
=
303
=
304
=
305
=
306
=
307
=
308
=
309
=
 40
0.0025925925925926
 41
2459548.449097222
 42
2459548.461666667
  1

 90
        0
  0
XRECORD
  5
2E0E
102
{ACAD_REACTORS
330
2E0D
102
}
330
2E0D
100
AcDbXrecord
280
     1
290
     1
  0
XRECORD
  5
2E10
102
{ACAD_REACTORS
330
2E0F
102
}
330
2E0F
100
AcDbXrecord
280
     1
290
     1
  0
XRECORD
  5
2E12
102
{ACAD_REACTORS
330
2E11
102
}
330
2E11
100
AcDbXrecord
280
     1
290
     1
  0
XRECORD
  5
2E14
102
{ACAD_REACTORS
330
2E13
102
}
330
2E13
100
AcDbXrecord
280
     1
290
     1
  0
XRECORD
  5
2E16
102
{ACAD_REACTORS
330
2E15
102
}
330
2E15
100
AcDbXrecord
280
     1
290
     1
  0
XRECORD
  5
2E18
102
{ACAD_REACTORS
330
2E17
102
}
330
2E17
100
AcDbXrecord
280
     1
290
     1
  0
XRECORD
  5
2E1A
102
{ACAD_REACTORS
330
2E19
102
}
330
2E19
100
AcDbXrecord
280
     1
290
     1
  0
XRECORD
  5
2E1C
102
{ACAD_REACTORS
330
2E1B
102
}
330
2E1B
100
AcDbXrecord
280
     1
290
     1
  0
XRECORD
  5
2E1E
102
{ACAD_REACTORS
330
2E1D
102
}
330
2E1D
100
AcDbXrecord
280
     1
290
     1
  0
XRECORD
  5
2E20
102
{ACAD_REACTORS
330
2E1F
102
}
330
2E1F
100
AcDbXrecord
280
     1
290
     1
  0
XRECORD
  5
2E22
102
{ACAD_REACTORS
330
2E21
102
}
330
2E21
100
AcDbXrecord
280
     1
290
     1
  0
XRECORD
  5
2E24
102
{ACAD_REACTORS
330
2E23
102
}
330
2E23
100
AcDbXrecord
280
     1
290
     1
  0
XRECORD
  5
2E26
102
{ACAD_REACTORS
330
2E25
102
}
330
2E25
100
AcDbXrecord
280
     1
290
     1
  0
XRECORD
  5
2E28
102
{ACAD_REACTORS
330
2E27
102
}
330
2E27
100
AcDbXrecord
280
     1
290
     1
  0
XRECORD
  5
2E2A
102
{ACAD_REACTORS
330
2E29
102
}
330
2E29
100
AcDbXrecord
280
     1
290
     1
  0
XRECORD
  5
2E2C
102
{ACAD_REACTORS
330
2E2B
102
}
330
2E2B
100
AcDbXrecord
280
     1
290
     1
  0
XRECORD
  5
2E2E
102
{ACAD_REACTORS
330
2E2D
102
}
330
2E2D
100
AcDbXrecord
280
     1
290
     1
  0
XRECORD
  5
2E30
102
{ACAD_REACTORS
330
2E2F
102
}
330
2E2F
100
AcDbXrecord
280
     1
290
     1
  0
XRECORD
  5
2E32
102
{ACAD_REACTORS
330
2E31
102
}
330
2E31
100
AcDbXrecord
280
     1
290
     1
  0
XRECORD
  5
2E34
102
{ACAD_REACTORS
330
2E33
102
}
330
2E33
100
AcDbXrecord
280
     1
290
     1
  0
XRECORD
  5
2E36
102
{ACAD_REACTORS
330
2E35
102
}
330
2E35
100
AcDbXrecord
280
     1
290
     1
  0
XRECORD
  5
2E38
102
{ACAD_REACTORS
330
2E37
102
}
330
2E37
100
AcDbXrecord
280
     1
290
     1
  0
XRECORD
  5
2E3A
102
{ACAD_REACTORS
330
2E39
102
}
330
2E39
100
AcDbXrecord
280
     1
290
     1
  0
XRECORD
  5
2E3C
102
{ACAD_REACTORS
330
2E3B
102
}
330
2E3B
100
AcDbXrecord
280
     1
290
     1
  0
XRECORD
  5
2E3E
102
{ACAD_REACTORS
330
2E3D
102
}
330
2E3D
100
AcDbXrecord
280
     1
290
     1
  0
XRECORD
  5
2E40
102
{ACAD_REACTORS
330
2E3F
102
}
330
2E3F
100
AcDbXrecord
280
     1
290
     1
  0
XRECORD
  5
2E42
102
{ACAD_REACTORS
330
2E41
102
}
330
2E41
100
AcDbXrecord
280
     1
290
     1
  0
XRECORD
  5
2E44
102
{ACAD_REACTORS
330
2E43
102
}
330
2E43
100
AcDbXrecord
280
     1
290
     1
  0
XRECORD
  5
2E46
102
{ACAD_REACTORS
330
2E45
102
}
330
2E45
100
AcDbXrecord
280
     1
290
     1
  0
XRECORD
  5
2E48
102
{ACAD_REACTORS
330
2E47
102
}
330
2E47
100
AcDbXrecord
280
     1
290
     1
  0
ACDBDETAILVIEWSTYLE
  5
2DBB
102
{ACAD_XDICTIONARY
360
2F10
102
}
102
{ACAD_REACTORS
330
2DBA
102
}
330
2DBA
100
AcDbModelDocViewStyle
 70
     0
  3
Imperial24
290
     0
100
AcDbDetailViewStyle
 70
     0
 71
     0
 90
        3
 71
     1
340
11
 40
0.24
340
0
 40
0.24
300

 40
0.36
280
     3
 71
     2
340
16
 90
       25
 71
     3
340
11
 40
0.24
 90
        1
 40
0.75
 90
        1
300
%<\AcVar ViewType \f "%tc1">% %<\AcVar ViewDetailId>%\PSCALE %<\AcVar ViewScale \f "%sn">%
 71
     4
340
16
 90
       25
340
16
 90
       25
280
     0
  0
IMAGEDEF
  5
2D6A
102
{ACAD_REACTORS
330
2D66
102
}
330
2D66
100
AcDbRasterImageDef
 90
        0
  1
a0001612_img_1.png
 10
7554.0
 20
7464.0
 11
0.0066666667
 21
0.0066666667
280
     1
281
     0
  0
LAYOUT
  5
2D69
102
{ACAD_XDICTIONARY
360
2ED8
102
}
102
{ACAD_REACTORS
330
1A
102
}
330
1A
100
AcDbPlotSettings
  1

  2
none_device
  4
ANSI_B_(17.00_x_11.00_Inches)
  6

 40
0.0
 41
0.0
 42
0.0
 43
0.0
 44
431.8
 45
279.4
 46
0.0
 47
0.0
 48
0.0
 49
0.0
140
0.0
141
0.0
142
1.0
143
1.0
 70
     0
 72
     0
 73
     0
 74
     0
  7

 75
     0
147
1.0
148
0.0
149
0.0
100
AcDbLayout
  1
Layout1
 70
     1
 71
     1
 10
0.0
 20
0.0
 11
12.0
 21
9.0
 12
0.0
 22
0.0
 32
0.0
 14
1.000000000000000E+20
 24
1.000000000000000E+20
 34
1.000000000000000E+20
 15
-1.000000000000000E+20
 25
-1.000000000000000E+20
 35
-1.000000000000000E+20
146
0.0
 13
0.0
 23
0.0
 33
0.0
 16
1.0
 26
0.0
 36
0.0
 17
0.0
 27
1.0
 37
0.0
 76
     0
330
220
  0
LAYOUT
  5
2D68
102
{ACAD_XDICTIONARY
360
2ED6
102
}
102
{ACAD_REACTORS
330
1A
102
}
330
1A
100
AcDbPlotSettings
  1

  2
none_device
  4
ANSI_B_(17.00_x_11.00_Inches)
  6

 40
0.0
 41
0.0
 42
0.0
 43
0.0
 44
431.8
 45
279.4
 46
0.0
 47
0.0
 48
0.0
 49
0.0
140
0.0
141
0.0
142
1.0
143
1.0
 70
  1024
 72
     0
 73
     0
 74
     0
  7

 75
     0
147
1.0
148
0.0
149
0.0
100
AcDbLayout
  1
Model
 70
     0
 71
     0
 10
0.0
 20
0.0
 11
17.0
 21
11.0
 12
0.0
 22
0.0
 32
0.0
 14
0.0
 24
0.0
 34
0.0
 15
0.0
 25
0.0
 35
0.0
146
0.0
 13
0.0
 23
0.0
 33
0.0
 16
1.0
 26
0.0
 36
0.0
 17
0.0
 27
1.0
 37
0.0
 76
     0
330
21F
331
1F4
  0
MATERIAL
  5
2D78
102
{ACAD_XDICTIONARY
360
2D79
102
}
102
{ACAD_REACTORS
330
2D6F
102
}
330
2D6F
100
AcDbMaterial
  1
ByBlock
 72
     0
 43
0.0208333333333333
 43
0.0
 43
0.0
 43
0.0
 43
0.0
 43
0.0208333333333333
 43
0.0
 43
0.0
 43
0.0
 43
0.0
 43
1.0
 43
0.0
 43
0.0
 43
0.0
 43
0.0
 43
1.0
 77
     0
 47
0.0208333333333333
 47
0.0
 47
0.0
 47
0.0
 47
0.0
 47
0.0208333333333333
 47
0.0
 47
0.0
 47
0.0
 47
0.0
 47
1.0
 47
0.0
 47
0.0
 47
0.0
 47
0.0
 47
1.0
171
     0
 49
0.0208333333333333
 49
0.0
 49
0.0
 49
0.0
 49
0.0
 49
0.0208333333333333
 49
0.0
 49
0.0
 49
0.0
 49
0.0
 49
1.0
 49
0.0
 49
0.0
 49
0.0
 49
0.0
 49
1.0
175
     0
142
0.0208333333333333
142
0.0
142
0.0
142
0.0
142
0.0
142
0.0208333333333333
142
0.0
142
0.0
142
0.0
142
0.0
142
1.0
142
0.0
142
0.0
142
0.0
142
0.0
142
1.0
179
     0
144
0.0208333333333333
144
0.0
144
0.0
144
0.0
144
0.0
144
0.0208333333333333
144
0.0
144
0.0
144
0.0
144
0.0
144
1.0
144
0.0
144
0.0
144
0.0
144
0.0
144
1.0
147
0.0208333333333333
147
0.0
147
0.0
147
0.0
147
0.0
147
0.0208333333333333
147
0.0
147
0.0
147
0.0
147
0.0
147
1.0
147
0.0
147
0.0
147
0.0
147
0.0
147
1.0
  0
MATERIAL
  5
2D70
102
{ACAD_XDICTIONARY
360
2D71
102
}
102
{ACAD_REACTORS
330
2D6F
102
}
330
2D6F
100
AcDbMaterial
  1
ByLayer
 72
     0
 43
0.0208333333333333
 43
0.0
 43
0.0
 43
0.0
 43
0.0
 43
0.0208333333333333
 43
0.0
 43
0.0
 43
0.0
 43
0.0
 43
1.0
 43
0.0
 43
0.0
 43
0.0
 43
0.0
 43
1.0
 77
     0
 47
0.0208333333333333
 47
0.0
 47
0.0
 47
0.0
 47
0.0
 47
0.0208333333333333
 47
0.0
 47
0.0
 47
0.0
 47
0.0
 47
1.0
 47
0.0
 47
0.0
 47
0.0
 47
0.0
 47
1.0
171
     0
 49
0.0208333333333333
 49
0.0
 49
0.0
 49
0.0
 49
0.0
 49
0.0208333333333333
 49
0.0
 49
0.0
 49
0.0
 49
0.0
 49
1.0
 49
0.0
 49
0.0
 49
0.0
 49
0.0
 49
1.0
175
     0
142
0.0208333333333333
142
0.0
142
0.0
142
0.0
142
0.0
142
0.0208333333333333
142
0.0
142
0.0
142
0.0
142
0.0
142
1.0
142
0.0
142
0.0
142
0.0
142
0.0
142
1.0
179
     0
144
0.0208333333333333
144
0.0
144
0.0
144
0.0
144
0.0
144
0.0208333333333333
144
0.0
144
0.0
144
0.0
144
0.0
144
1.0
144
0.0
144
0.0
144
0.0
144
0.0
144
1.0
147
0.0208333333333333
147
0.0
147
0.0
147
0.0
147
0.0
147
0.0208333333333333
147
0.0
147
0.0
147
0.0
147
0.0
147
1.0
147
0.0
147
0.0
147
0.0
147
0.0
147
1.0
  0
MATERIAL
  5
2D80
102
{ACAD_XDICTIONARY
360
2D81
102
}
102
{ACAD_REACTORS
330
2D6F
102
}
330
2D6F
100
AcDbMaterial
  1
Global
 72
     0
 43
0.0208333333333333
 43
0.0
 43
0.0
 43
0.0
 43
0.0
 43
0.0208333333333333
 43
0.0
 43
0.0
 43
0.0
 43
0.0
 43
1.0
 43
0.0
 43
0.0
 43
0.0
 43
0.0
 43
1.0
 77
     0
 47
0.0208333333333333
 47
0.0
 47
0.0
 47
0.0
 47
0.0
 47
0.0208333333333333
 47
0.0
 47
0.0
 47
0.0
 47
0.0
 47
1.0
 47
0.0
 47
0.0
 47
0.0
 47
0.0
 47
1.0
171
     0
 49
0.0208333333333333
 49
0.0
 49
0.0
 49
0.0
 49
0.0
 49
0.0208333333333333
 49
0.0
 49
0.0
 49
0.0
 49
0.0
 49
1.0
 49
0.0
 49
0.0
 49
0.0
 49
0.0
 49
1.0
175
     0
142
0.0208333333333333
142
0.0
142
0.0
142
0.0
142
0.0
142
0.0208333333333333
142
0.0
142
0.0
142
0.0
142
0.0
142
1.0
142
0.0
142
0.0
142
0.0
142
0.0
142
1.0
179
     0
144
0.0208333333333333
144
0.0
144
0.0
144
0.0
144
0.0
144
0.0208333333333333
144
0.0
144
0.0
144
0.0
144
0.0
144
1.0
144
0.0
144
0.0
144
0.0
144
0.0
144
1.0
147
0.0208333333333333
147
0.0
147
0.0
147
0.0
147
0.0
147
0.0208333333333333
147
0.0
147
0.0
147
0.0
147
0.0
147
1.0
147
0.0
147
0.0
147
0.0
147
0.0
147
1.0
  0
MLEADERSTYLE
  5
2DB7
102
{ACAD_REACTORS
330
2DB6
102
}
330
2DB6
100
AcDbMLeaderStyle
170
     2
171
     1
172
     0
 90
        2
 40
0.0
 41
0.0
173
     1
 91
-1056964608
340
14
 92
       -2
290
     1
 42
0.09
291
     1
 43
0.36
  3
Standard
 44
0.18
300

342
11
174
     1
178
     6
175
     1
176
     0
 93
-1056964608
 45
0.18
292
     0
297
     0
 46
0.18
 94
-1056964608
 47
1.0
 49
1.0
140
1.0
293
     1
141
0.0
294
     1
177
     0
142
1.0
295
     0
296
     0
143
0.125
1001
ACAD_MLEADERVER
1070
     2
  0
MLINESTYLE
  5
18
102
{ACAD_REACTORS
330
17
102
}
330
17
100
AcDbMlineStyle
  2
STANDARD
 70
     0
  3

 62
   256
 51
90.0
 52
90.0
 71
     2
 49
0.5
 62
   256
  6
BYLAYER
 49
-0.5
 62
   256
  6
BYLAYER
  0
ACDBPLACEHOLDER
  5
F
102
{ACAD_REACTORS
330
E
102
}
330
E
  0
SCALE
  5
2DA5
102
{ACAD_REACTORS
330
2DA4
102
}
330
2DA4
100
AcDbScale
 70
     0
300
1:1
140
1.0
141
1.0
290
     1
  0
SCALE
  5
2DA6
102
{ACAD_REACTORS
330
2DA4
102
}
330
2DA4
100
AcDbScale
 70
     0
300
1/128" = 1'-0"
140
0.0078125
141
12.0
290
     0
  0
SCALE
  5
2DA7
102
{ACAD_REACTORS
330
2DA4
102
}
330
2DA4
100
AcDbScale
 70
     0
300
1/64" = 1'-0"
140
0.015625
141
12.0
290
     0
  0
SCALE
  5
2DA8
102
{ACAD_REACTORS
330
2DA4
102
}
330
2DA4
100
AcDbScale
 70
     0
300
1/32" = 1'-0"
140
0.03125
141
12.0
290
     0
  0
SCALE
  5
2DA9
102
{ACAD_REACTORS
330
2DA4
102
}
330
2DA4
100
AcDbScale
 70
     0
300
1/16" = 1'-0"
140
0.0625
141
12.0
290
     0
  0
SCALE
  5
2DAA
102
{ACAD_REACTORS
330
2DA4
102
}
330
2DA4
100
AcDbScale
 70
     0
300
3/32" = 1'-0"
140
0.09375
141
12.0
290
     0
  0
SCALE
  5
2DAB
102
{ACAD_REACTORS
330
2DA4
102
}
330
2DA4
100
AcDbScale
 70
     0
300
1/8" = 1'-0"
140
0.125
141
12.0
290
     0
  0
SCALE
  5
2DAC
102
{ACAD_REACTORS
330
2DA4
102
}
330
2DA4
100
AcDbScale
 70
     0
300
3/16" = 1'-0"
140
0.1875
141
12.0
290
     0
  0
SCALE
  5
2DAD
102
{ACAD_REACTORS
330
2DA4
102
}
330
2DA4
100
AcDbScale
 70
     0
300
1/4" = 1'-0"
140
0.25
141
12.0
290
     0
  0
SCALE
  5
2DAE
102
{ACAD_REACTORS
330
2DA4
102
}
330
2DA4
100
AcDbScale
 70
     0
300
3/8" = 1'-0"
140
0.375
141
12.0
290
     0
  0
SCALE
  5
2DAF
102
{ACAD_REACTORS
330
2DA4
102
}
330
2DA4
100
AcDbScale
 70
     0
300
1/2" = 1'-0"
140
0.5
141
12.0
290
     0
  0
SCALE
  5
2DB0
102
{ACAD_REACTORS
330
2DA4
102
}
330
2DA4
100
AcDbScale
 70
     0
300
3/4" = 1'-0"
140
0.75
141
12.0
290
     0
  0
SCALE
  5
2DB1
102
{ACAD_REACTORS
330
2DA4
102
}
330
2DA4
100
AcDbScale
 70
     0
300
1" = 1'-0"
140
1.0
141
12.0
290
     0
  0
SCALE
  5
2DB2
102
{ACAD_REACTORS
330
2DA4
102
}
330
2DA4
100
AcDbScale
 70
     0
300
1-1/2" = 1'-0"
140
1.5
141
12.0
290
     0
  0
SCALE
  5
2DB3
102
{ACAD_REACTORS
330
2DA4
102
}
330
2DA4
100
AcDbScale
 70
     0
300
3" = 1'-0"
140
3.0
141
12.0
290
     0
  0
SCALE
  5
2DB4
102
{ACAD_REACTORS
330
2DA4
102
}
330
2DA4
100
AcDbScale
 70
     0
300
6" = 1'-0"
140
6.0
141
12.0
290
     0
  0
SCALE
  5
2DB5
102
{ACAD_REACTORS
330
2DA4
102
}
330
2DA4
100
AcDbScale
 70
     0
300
1'-0" = 1'-0"
140
12.0
141
12.0
290
     0
  0
ACDBSECTIONVIEWSTYLE
  5
2DB9
102
{ACAD_XDICTIONARY
360
2F0E
102
}
102
{ACAD_REACTORS
330
2DB8
102
}
330
2DB8
100
AcDbModelDocViewStyle
 70
     0
  3
Imperial24
290
     0
100
AcDbSectionViewStyle
 70
     0
 71
     0
 90
       78
 71
     1
340
11
 40
0.24
340
0
340
0
 40
0.24
300
I, O, Q, S, X, Z
 40
0.48
 90
        3
 40
0.18
 90
        1
 71
     2
340
16
 90
       25
340
16
 90
       50
 40
0.24
 40
0.0
 40
0.24
 71
     3
340
11
 40
0.24
 90
        1
 40
0.75
 90
        1
300
%<\AcVar ViewType \f "%tc1">% %<\AcVar ViewSectionStartId>%-%<\AcVar ViewSectionEndId>%\PSCALE %<\AcVar ViewScale \f "%sn">%
 71
     4
300
ANSI31
 40
1.0
 90
        0
290
     0
290
     0
 90
        6
 40
0.0
 40
1.570796326794896
 40
0.2617993877991494
 40
1.308996938995747
 40
-0.2617993877991494
 40
1.832595714594046
  0
TABLESTYLE
  5
2DA3
102
{ACAD_XDICTIONARY
360
2DBC
102
}
102
{ACAD_REACTORS
330
2DA2
102
}
330
2DA2
100
AcDbTableStyle
  3
Standard
 70
     0
 71
     0
 40
0.06
 41
0.06
280
     0
281
     0
  7
STANDARD
140
0.18
170
     2
 62
     0
 63
     7
283
     0
274
    -2
284
     1
 64
     0
275
    -2
285
     1
 65
     0
276
    -2
286
     1
 66
     0
277
    -2
287
     1
 67
     0
278
    -2
288
     1
 68
     0
279
    -2
289
     1
 69
     0
  7
STANDARD
140
0.25
170
     5
 62
     0
 63
     7
283
     0
274
    -2
284
     1
 64
     0
275
    -2
285
     1
 65
     0
276
    -2
286
     1
 66
     0
277
    -2
287
     1
 67
     0
278
    -2
288
     1
 68
     0
279
    -2
289
     1
 69
     0
  7
STANDARD
140
0.18
170
     5
 62
     0
 63
     7
283
     0
274
    -2
284
     1
 64
     0
275
    -2
285
     1
 65
     0
276
    -2
286
     1
 66
     0
277
    -2
287
     1
 67
     0
278
    -2
288
     1
 68
     0
279
    -2
289
     1
 69
     0
  0
VISUALSTYLE
  5
2D8E
102
{ACAD_XDICTIONARY
360
2EE7
102
}
102
{ACAD_REACTORS
330
2D88
102
}
330
2D88
100
AcDbVisualStyle
  2
2dWireframe
 70
     4
 71
     0
 72
     2
 73
     0
 90
        0
 40
-0.6
 41
-30.0
 62
     5
 63
     7
 74
     1
 91
        4
 64
     7
 65
   257
 75
     1
175
     1
 42
1.0
 92
        0
 66
   257
 43
1.0
 76
     1
 77
     6
 78
     2
 67
     7
 79
     5
170
     0
171
     0
290
     0
174
     0
 93
        1
 44
0.0
173
     0
291
     0
 45
0.0
1001
ACAD
1000
AcDbSavedByObjectVersion
1070
     0
  0
VISUALSTYLE
  5
2D8D
102
{ACAD_XDICTIONARY
360
2EE5
102
}
102
{ACAD_REACTORS
330
2D88
102
}
330
2D88
100
AcDbVisualStyle
  2
Basic
 70
     7
 71
     1
 72
     0
 73
     1
 90
        0
 40
-0.6
 41
-30.0
 62
     5
 63
     7
 74
     0
 91
        4
 64
     7
 65
   257
 75
     1
175
     1
 42
1.0
 92
        8
 66
     7
 43
1.0
 76
     1
 77
     6
 78
     2
 67
     7
 79
     5
170
     0
171
     0
290
     0
174
     0
 93
        1
 44
0.0
173
     0
291
     1
 45
0.0
1001
ACAD
1000
AcDbSavedByObjectVersion
1070
     0
  0
VISUALSTYLE
  5
2D94
102
{ACAD_XDICTIONARY
360
2EF3
102
}
102
{ACAD_REACTORS
330
2D88
102
}
330
2D88
100
AcDbVisualStyle
  2
Brighten
 70
    12
 71
     2
 72
     2
 73
     0
 90
        0
 40
-0.6
 41
-30.0
 62
     5
 63
     7
 74
     1
 91
        4
 64
     7
 65
   257
 75
     1
175
     1
 42
1.0
 92
        8
 66
     7
 43
1.0
 76
     1
 77
     6
 78
     2
 67
     7
 79
     5
170
     0
171
     0
290
     0
174
     0
 93
        1
 44
50.0
173
     0
291
     1
 45
0.0
1001
ACAD
1000
AcDbSavedByObjectVersion
1070
     0
  0
VISUALSTYLE
  5
2D98
102
{ACAD_XDICTIONARY
360
2EFB
102
}
102
{ACAD_REACTORS
330
2D88
102
}
330
2D88
100
AcDbVisualStyle
  2
ColorChange
 70
    16
 71
     2
 72
     2
 73
     3
 90
        0
 40
-0.6
 41
-30.0
 62
     5
 63
     8
 74
     1
 91
        4
 64
     7
 65
   257
 75
     1
175
     1
 42
1.0
 92
        8
 66
     8
 43
1.0
 76
     1
 77
     6
 78
     2
 67
     7
 79
     5
170
     0
171
     0
290
     0
174
     0
 93
        1
 44
0.0
173
     0
291
     1
 45
0.0
1001
ACAD
1000
AcDbSavedByObjectVersion
1070
     0
  0
VISUALSTYLE
  5
2D91
102
{ACAD_XDICTIONARY
360
2EED
102
}
102
{ACAD_REACTORS
330
2D88
102
}
330
2D88
100
AcDbVisualStyle
  2
Conceptual
 70
     9
 71
     3
 72
     2
 73
     0
 90
        0
 40
-0.6
 41
-30.0
 62
     5
 63
     7
 74
     2
 91
        2
 64
     7
 65
   257
 75
     1
175
     1
 42
179.0
 92
        8
 66
     7
 43
1.0
 76
     1
 77
     6
 78
     2
 67
     7
 79
     3
170
     0
171
     0
290
     0
174
     0
 93
        1
 44
0.0
173
     0
291
     0
 45
0.0
1001
ACAD
1000
AcDbSavedByObjectVersion
1070
     0
  0
VISUALSTYLE
  5
2D93
102
{ACAD_XDICTIONARY
360
2EF1
102
}
102
{ACAD_REACTORS
330
2D88
102
}
330
2D88
100
AcDbVisualStyle
  2
Dim
 70
    11
 71
     2
 72
     2
 73
     0
 90
        0
 40
-0.6
 41
-30.0
 62
     5
 63
     7
 74
     1
 91
        4
 64
     7
 65
   257
 75
     1
175
     1
 42
1.0
 92
        8
 66
     7
 43
1.0
 76
     1
 77
     6
 78
     2
 67
     7
 79
     5
170
     0
171
     0
290
     0
174
     0
 93
        1
 44
-50.0
173
     0
291
     1
 45
0.0
1001
ACAD
1000
AcDbSavedByObjectVersion
1070
     0
  0
VISUALSTYLE
  5
2DA0
102
{ACAD_XDICTIONARY
360
2F0B
102
}
102
{ACAD_REACTORS
330
2D88
102
}
330
2D88
100
AcDbVisualStyle
  2
EdgeColorOff
 70
    22
 71
     2
 72
     2
 73
     0
 90
        0
 40
-0.6
 41
-30.0
 62
     5
 63
     7
 74
     1
 91
        4
 64
     7
 65
   257
 75
     1
175
     1
 42
1.0
 92
        8
 66
     7
 43
1.0
 76
     1
 77
     6
 78
     2
 67
     7
 79
     5
170
     0
171
     0
290
     0
174
     0
 93
        1
 44
0.0
173
     0
291
     1
 45
0.0
1001
ACAD
1000
AcDbSavedByObjectVersion
1070
     0
  0
VISUALSTYLE
  5
2D97
102
{ACAD_XDICTIONARY
360
2EF9
102
}
102
{ACAD_REACTORS
330
2D88
102
}
330
2D88
100
AcDbVisualStyle
  2
Facepattern
 70
    15
 71
     2
 72
     2
 73
     0
 90
        0
 40
-0.6
 41
-30.0
 62
     5
 63
     7
 74
     1
 91
        4
 64
     7
 65
   257
 75
     1
175
     1
 42
1.0
 92
        8
 66
     7
 43
1.0
 76
     1
 77
     6
 78
     2
 67
     7
 79
     5
170
     0
171
     0
290
     0
174
     0
 93
        1
 44
0.0
173
     0
291
     1
 45
0.0
1001
ACAD
1000
AcDbSavedByObjectVersion
1070
     0
  0
VISUALSTYLE
  5
2D89
102
{ACAD_XDICTIONARY
360
2EDD
102
}
102
{ACAD_REACTORS
330
2D88
102
}
330
2D88
100
AcDbVisualStyle
  2
Flat
 70
     0
 71
     2
 72
     1
 73
     1
 90
        2
 40
-0.6
 41
30.0
 62
     5
 63
     7
 74
     0
 91
        0
 64
     7
 65
   257
 75
     1
175
     1
 42
1.0
 92
        8
 66
     7
 43
1.0
 76
     1
 77
     6
 78
     2
 67
     7
 79
     5
170
     0
171
     0
290
     0
174
     0
 93
       13
 44
0.0
173
     0
291
     1
 45
0.0
1001
ACAD
1000
AcDbSavedByObjectVersion
1070
     0
  0
VISUALSTYLE
  5
2D8A
102
{ACAD_XDICTIONARY
360
2EDF
102
}
102
{ACAD_REACTORS
330
2D88
102
}
330
2D88
100
AcDbVisualStyle
  2
FlatWithEdges
 70
     1
 71
     2
 72
     1
 73
     1
 90
        2
 40
-0.6
 41
30.0
 62
     5
 63
     7
 74
     1
 91
        0
 64
     7
 65
   257
 75
     1
175
     1
 42
1.0
 92
        0
 66
   257
 43
1.0
 76
     1
 77
     6
 78
     2
 67
     7
 79
     5
170
     0
171
     0
290
     0
174
     0
 93
       13
 44
0.0
173
     0
291
     1
 45
0.0
1001
ACAD
1000
AcDbSavedByObjectVersion
1070
     0
  0
VISUALSTYLE
  5
2D8B
102
{ACAD_XDICTIONARY
360
2EE1
102
}
102
{ACAD_REACTORS
330
2D88
102
}
330
2D88
100
AcDbVisualStyle
  2
Gouraud
 70
     2
 71
     2
 72
     2
 73
     1
 90
        2
 40
-0.6
 41
30.0
 62
     5
 63
     7
 74
     0
 91
        0
 64
     7
 65
   257
 75
     1
175
     1
 42
1.0
 92
        0
 66
     7
 43
1.0
 76
     1
 77
     6
 78
     2
 67
     7
 79
     5
170
     0
171
     0
290
     0
174
     0
 93
       13
 44
0.0
173
     0
291
     1
 45
0.0
1001
ACAD
1000
AcDbSavedByObjectVersion
1070
     0
  0
VISUALSTYLE
  5
2D8C
102
{ACAD_XDICTIONARY
360
2EE3
102
}
102
{ACAD_REACTORS
330
2D88
102
}
330
2D88
100
AcDbVisualStyle
  2
GouraudWithEdges
 70
     3
 71
     2
 72
     2
 73
     1
 90
        2
 40
-0.6
 41
30.0
 62
     5
 63
     7
 74
     1
 91
        0
 64
     7
 65
   257
 75
     1
175
     1
 42
1.0
 92
        0
 66
   257
 43
1.0
 76
     1
 77
     6
 78
     2
 67
     7
 79
     5
170
     0
171
     0
290
     0
174
     0
 93
       13
 44
0.0
173
     0
291
     1
 45
0.0
1001
ACAD
1000
AcDbSavedByObjectVersion
1070
     0
  0
VISUALSTYLE
  5
2D90
102
{ACAD_XDICTIONARY
360
2EEB
102
}
102
{ACAD_REACTORS
330
2D88
102
}
330
2D88
100
AcDbVisualStyle
  2
Hidden
 70
     6
 71
     1
 72
     2
 73
     2
 90
        0
 40
-0.6
 41
-30.0
 62
     5
 63
     7
 74
     2
 91
        2
 64
     7
 65
   257
 75
     2
175
     1
 42
40.0
 92
        0
 66
   257
 43
1.0
 76
     1
 77
     6
 78
     2
 67
     7
 79
     3
170
     0
171
     0
290
     0
174
     0
 93
        1
 44
0.0
173
     0
291
     0
 45
0.0
1001
ACAD
1000
AcDbSavedByObjectVersion
1070
     0
  0
VISUALSTYLE
  5
2D9E
102
{ACAD_XDICTIONARY
360
2F07
102
}
102
{ACAD_REACTORS
330
2D88
102
}
330
2D88
100
AcDbVisualStyle
  2
JitterOff
 70
    20
 71
     2
 72
     2
 73
     0
 90
        0
 40
-0.6
 41
-30.0
 62
     5
 63
     7
 74
     1
 91
        4
 64
     7
 65
   257
 75
     1
175
     1
 42
1.0
 92
       10
 66
     7
 43
1.0
 76
     1
 77
     6
 78
     2
 67
     7
 79
     5
170
     0
171
     0
290
     0
174
     0
 93
        1
 44
0.0
173
     0
291
     1
 45
0.0
1001
ACAD
1000
AcDbSavedByObjectVersion
1070
     0
  0
VISUALSTYLE
  5
2D96
102
{ACAD_XDICTIONARY
360
2EF7
102
}
102
{ACAD_REACTORS
330
2D88
102
}
330
2D88
100
AcDbVisualStyle
  2
Linepattern
 70
    14
 71
     2
 72
     2
 73
     0
 90
        0
 40
-0.6
 41
-30.0
 62
     5
 63
     7
 74
     1
 91
        4
 64
     7
 65
   257
 75
     7
175
     7
 42
1.0
 92
        8
 66
     7
 43
1.0
 76
     1
 77
     6
 78
     2
 67
     7
 79
     5
170
     0
171
     0
290
     0
174
     0
 93
        1
 44
0.0
173
     0
291
     1
 45
0.0
1001
ACAD
1000
AcDbSavedByObjectVersion
1070
     0
  0
VISUALSTYLE
  5
2D9F
102
{ACAD_XDICTIONARY
360
2F09
102
}
102
{ACAD_REACTORS
330
2D88
102
}
330
2D88
100
AcDbVisualStyle
  2
OverhangOff
 70
    21
 71
     2
 72
     2
 73
     0
 90
        0
 40
-0.6
 41
-30.0
 62
     5
 63
     7
 74
     1
 91
        4
 64
     7
 65
   257
 75
     1
175
     1
 42
1.0
 92
        9
 66
     7
 43
1.0
 76
     1
 77
     6
 78
     2
 67
     7
 79
     5
170
     0
171
     0
290
     0
174
     0
 93
        1
 44
0.0
173
     0
291
     1
 45
0.0
1001
ACAD
1000
AcDbSavedByObjectVersion
1070
     0
  0
VISUALSTYLE
  5
2D92
102
{ACAD_XDICTIONARY
360
2EEF
102
}
102
{ACAD_REACTORS
330
2D88
102
}
330
2D88
100
AcDbVisualStyle
  2
Realistic
 70
     8
 71
     2
 72
     2
 73
     0
 90
        2
 40
-0.6
 41
30.0
 62
     5
 63
     7
 74
     0
 91
        0
 64
     7
 65
   257
 75
     1
175
     1
 42
1.0
 92
        8
 66
   257
 43
1.0
 76
     1
 77
     6
 78
     2
 67
     7
 79
     3
170
     0
171
     0
290
     0
174
     0
 93
       13
 44
0.0
173
     0
291
     0
 45
0.0
1001
ACAD
1000
AcDbSavedByObjectVersion
1070
     0
  0
VISUALSTYLE
  5
2D9D
102
{ACAD_XDICTIONARY
360
2F05
102
}
102
{ACAD_REACTORS
330
2D88
102
}
330
2D88
100
AcDbVisualStyle
  2
Shaded
 70
    27
 71
     2
 72
     2
 73
     1
 90
        2
 40
-0.6
 41
30.0
 62
     5
 63
     7
 74
     0
 91
        4
 64
     7
 65
   257
 75
     1
175
     1
 42
1.0
 92
        8
 66
   257
 43
1.0
 76
     1
 77
     6
 78
     2
 67
     8
 79
     3
170
     0
171
     0
290
     0
174
     0
 93
        5
 44
0.0
173
     0
291
     0
 45
0.0
1001
ACAD
1000
AcDbSavedByObjectVersion
1070
     0
  0
VISUALSTYLE
  5
2D9C
102
{ACAD_XDICTIONARY
360
2F03
102
}
102
{ACAD_REACTORS
330
2D88
102
}
330
2D88
100
AcDbVisualStyle
  2
Shaded with edges
 70
    26
 71
     2
 72
     2
 73
     1
 90
        2
 40
-0.6
 41
30.0
 62
     5
 63
     7
 74
     1
 91
        2
 64
     7
 65
   257
 75
     2
175
     1
 42
1.0
 92
        8
 66
   257
 43
1.0
 76
     1
 77
     6
 78
     2
 67
     7
 79
     3
170
     0
171
     0
290
     0
174
     0
 93
        5
 44
0.0
173
     0
291
     0
 45
0.0
1001
ACAD
1000
AcDbSavedByObjectVersion
1070
     0
  0
VISUALSTYLE
  5
2D99
102
{ACAD_XDICTIONARY
360
2EFD
102
}
102
{ACAD_REACTORS
330
2D88
102
}
330
2D88
100
AcDbVisualStyle
  2
Shades of Gray
 70
    23
 71
     2
 72
     2
 73
     3
 90
        0
 40
-0.6
 41
-30.0
 62
     5
 63
     7
 74
     2
 91
        2
 64
     7
 65
     7
 75
     1
175
     1
 42
40.0
 92
        8
 66
     7
 43
1.0
 76
     1
 77
     6
 78
     2
 67
     7
 79
     3
170
     0
171
     0
290
     0
174
     0
 93
        1
 44
0.0
173
     0
291
     0
 45
0.0
1001
ACAD
1000
AcDbSavedByObjectVersion
1070
     0
  0
VISUALSTYLE
  5
2D9A
102
{ACAD_XDICTIONARY
360
2EFF
102
}
102
{ACAD_REACTORS
330
2D88
102
}
330
2D88
100
AcDbVisualStyle
  2
Sketchy
 70
    24
 71
     1
 72
     2
 73
     2
 90
        0
 40
-0.6
 41
-30.0
 62
     5
 63
     7
 74
     2
 91
        2
 64
     7
 65
     7
 75
     1
175
     1
 42
40.0
 92
       11
 66
     7
 43
1.0
 76
     1
 77
     6
 78
     2
 67
     7
 79
     6
170
     0
171
     0
290
     0
174
     0
 93
        1
 44
0.0
173
     0
291
     0
 45
0.0
1001
ACAD
1000
AcDbSavedByObjectVersion
1070
     0
  0
VISUALSTYLE
  5
2D95
102
{ACAD_XDICTIONARY
360
2EF5
102
}
102
{ACAD_REACTORS
330
2D88
102
}
330
2D88
100
AcDbVisualStyle
  2
Thicken
 70
    13
 71
     2
 72
     2
 73
     0
 90
        0
 40
-0.6
 41
-30.0
 62
     5
 63
     7
 74
     1
 91
        4
 64
     7
 65
   257
 75
     1
175
     1
 42
1.0
 92
       12
 66
     7
 43
1.0
 76
     1
 77
     6
 78
     2
 67
     7
 79
     5
170
     0
171
     0
290
     0
174
     0
 93
        1
 44
0.0
173
     0
291
     1
 45
0.0
1001
ACAD
1000
AcDbSavedByObjectVersion
1070
     0
  0
VISUALSTYLE
  5
2D8F
102
{ACAD_XDICTIONARY
360
2EE9
102
}
102
{ACAD_REACTORS
330
2D88
102
}
330
2D88
100
AcDbVisualStyle
  2
Wireframe
 70
     5
 71
     0
 72
     2
 73
     0
 90
        0
 40
-0.6
 41
-30.0
 62
     5
 63
     7
 74
     1
 91
        4
 64
     7
 65
   257
 75
     1
175
     1
 42
1.0
 92
        0
 66
   257
 43
1.0
 76
     1
 77
     6
 78
     2
 67
     7
 79
     3
170
     0
171
     0
290
     0
174
     0
 93
        1
 44
0.0
173
     0
291
     0
 45
0.0
1001
ACAD
1000
AcDbSavedByObjectVersion
1070
     0
  0
VISUALSTYLE
  5
2D9B
102
{ACAD_XDICTIONARY
360
2F01
102
}
102
{ACAD_REACTORS
330
2D88
102
}
330
2D88
100
AcDbVisualStyle
  2
X-Ray
 70
    25
 71
     2
 72
     2
 73
     1
 90
        1
 40
0.5
 41
-30.0
 62
     5
 63
     7
 74
     1
 91
        0
 64
     7
 65
   257
 75
     1
175
     1
 42
1.0
 92
        8
 66
     7
 43
1.0
 76
     1
 77
     6
 78
     2
 67
     7
 79
     3
170
     0
171
     0
290
     0
174
     0
 93
       13
 44
0.0
173
     0
291
     0
 45
0.0
1001
ACAD
1000
AcDbSavedByObjectVersion
1070
     0
  0
DICTIONARYVAR
  5
2E03
102
{ACAD_REACTORS
330
2DFE
102
}
330
2DFE
100
DictionaryVariables
280
     0
  1
1:1
  0
DICTIONARYVAR
  5
2E00
102
{ACAD_REACTORS
330
2DFE
102
}
330
2DFE
100
DictionaryVariables
280
     0
  1
STANDARD
  0
DICTIONARYVAR
  5
2DFF
102
{ACAD_REACTORS
330
2DFE
102
}
330
2DFE
100
DictionaryVariables
280
     0
  1
STANDARD
  0
DICTIONARYVAR
  5
2E01
102
{ACAD_REACTORS
330
2DFE
102
}
330
2DFE
100
DictionaryVariables
280
     0
  1
Imperial24
  0
DICTIONARYVAR
  5
2E02
102
{ACAD_REACTORS
330
2DFE
102
}
330
2DFE
100
DictionaryVariables
280
     0
  1
Imperial24
  0
DICTIONARYVAR
  5
2E06
102
{ACAD_REACTORS
330
2DFE
102
}
330
2DFE
100
DictionaryVariables
280
     0
  1
1
  0
DICTIONARYVAR
  5
2E05
102
{ACAD_REACTORS
330
2DFE
102
}
330
2DFE
100
DictionaryVariables
280
     0
  1
0
  0
DICTIONARYVAR
  5
2E8C
102
{ACAD_REACTORS
330
2DFE
102
}
330
2DFE
100
DictionaryVariables
280
     0
  1
1
  0
DICTIONARYVAR
  5
2E8D
102
{ACAD_REACTORS
330
2DFE
102
}
330
2DFE
100
DictionaryVariables
280
     0
  1
15
  0
DICTIONARYVAR
  5
2E8B
102
{ACAD_REACTORS
330
2DFE
102
}
330
2DFE
100
DictionaryVariables
280
     0
  1
0
  0
DICTIONARYVAR
  5
2E8A
102
{ACAD_REACTORS
330
2DFE
102
}
330
2DFE
100
DictionaryVariables
280
     0
  1
0
  0
DICTIONARYVAR
  5
2E04
102
{ACAD_REACTORS
330
2DFE
102
}
330
2DFE
100
DictionaryVariables
280
     0
  1
127
  0
DICTIONARYVAR
  5
2E49
102
{ACAD_REACTORS
330
2DFE
102
}
330
2DFE
100
DictionaryVariables
280
     0
  1
2
  0
DICTIONARY
  5
2F10
330
2DBB
100
AcDbDictionary
280
     1
281
     1
  3
ACAD_XREC_ROUNDTRIP
360
2F11
  0
DICTIONARY
  5
2ED8
330
2D69
100
AcDbDictionary
280
     1
281
     1
  3
ACAD_XREC_ROUNDTRIP
360
2ED9
  0
DICTIONARY
  5
2ED6
330
2D68
100
AcDbDictionary
280
     1
281
     1
  3
ACAD_XREC_ROUNDTRIP
360
2ED7
  0
DICTIONARY
  5
2D79
330
2D78
100
AcDbDictionary
280
     1
281
     1
  3
ACAD_XREC_ROUNDTRIP
360
2EDB
  3
BUMPTILE
360
2D7B
  3
DIFFUSETILE
360
2D7A
  3
OPACITYTILE
360
2D7E
  3
REFLECTIONTILE
360
2D7D
  3
REFRACTIONTILE
360
2D7F
  3
SPECULARTILE
360
2D7C
  0
DICTIONARY
  5
2D71
330
2D70
100
AcDbDictionary
280
     1
281
     1
  3
ACAD_XREC_ROUNDTRIP
360
2EDA
  3
BUMPTILE
360
2D73
  3
DIFFUSETILE
360
2D72
  3
OPACITYTILE
360
2D76
  3
REFLECTIONTILE
360
2D75
  3
REFRACTIONTILE
360
2D77
  3
SPECULARTILE
360
2D74
  0
DICTIONARY
  5
2D81
330
2D80
100
AcDbDictionary
280
     1
281
     1
  3
ACAD_XREC_ROUNDTRIP
360
2EDC
  3
BUMPTILE
360
2D83
  3
DIFFUSETILE
360
2D82
  3
OPACITYTILE
360
2D86
  3
REFLECTIONTILE
360
2D85
  3
REFRACTIONTILE
360
2D87
  3
SPECULARTILE
360
2D84
  0
DICTIONARY
  5
2F0E
330
2DB9
100
AcDbDictionary
280
     1
281
     1
  3
ACAD_XREC_ROUNDTRIP
360
2F0F
  0
DICTIONARY
  5
2DBC
330
2DA3
100
AcDbDictionary
280
     1
281
     1
  3
ACAD_ROUNDTRIP_2008_TABLESTYLE_CELLSTYLEMAP
360
2ED3
  3
ACAD_XREC_ROUNDTRIP
360
2F0D
  0
DICTIONARY
  5
2EE7
330
2D8E
100
AcDbDictionary
280
     1
281
     1
  3
ACAD_XREC_ROUNDTRIP
360
2EE8
  0
DICTIONARY
  5
2EE5
330
2D8D
100
AcDbDictionary
280
     1
281
     1
  3
ACAD_XREC_ROUNDTRIP
360
2EE6
  0
DICTIONARY
  5
2EF3
330
2D94
100
AcDbDictionary
280
     1
281
     1
  3
ACAD_XREC_ROUNDTRIP
360
2EF4
  0
DICTIONARY
  5
2EFB
330
2D98
100
AcDbDictionary
280
     1
281
     1
  3
ACAD_XREC_ROUNDTRIP
360
2EFC
  0
DICTIONARY
  5
2EED
330
2D91
100
AcDbDictionary
280
     1
281
     1
  3
ACAD_XREC_ROUNDTRIP
360
2EEE
  0
DICTIONARY
  5
2EF1
330
2D93
100
AcDbDictionary
280
     1
281
     1
  3
ACAD_XREC_ROUNDTRIP
360
2EF2
  0
DICTIONARY
  5
2F0B
330
2DA0
100
AcDbDictionary
280
     1
281
     1
  3
ACAD_XREC_ROUNDTRIP
360
2F0C
  0
DICTIONARY
  5
2EF9
330
2D97
100
AcDbDictionary
280
     1
281
     1
  3
ACAD_XREC_ROUNDTRIP
360
2EFA
  0
DICTIONARY
  5
2EDD
330
2D89
100
AcDbDictionary
280
     1
281
     1
  3
ACAD_XREC_ROUNDTRIP
360
2EDE
  0
DICTIONARY
  5
2EDF
330
2D8A
100
AcDbDictionary
280
     1
281
     1
  3
ACAD_XREC_ROUNDTRIP
360
2EE0
  0
DICTIONARY
  5
2EE1
330
2D8B
100
AcDbDictionary
280
     1
281
     1
  3
ACAD_XREC_ROUNDTRIP
360
2EE2
  0
DICTIONARY
  5
2EE3
330
2D8C
100
AcDbDictionary
280
     1
281
     1
  3
ACAD_XREC_ROUNDTRIP
360
2EE4
  0
DICTIONARY
  5
2EEB
330
2D90
100
AcDbDictionary
280
     1
281
     1
  3
ACAD_XREC_ROUNDTRIP
360
2EEC
  0
DICTIONARY
  5
2F07
330
2D9E
100
AcDbDictionary
280
     1
281
     1
  3
ACAD_XREC_ROUNDTRIP
360
2F08
  0
DICTIONARY
  5
2EF7
330
2D96
100
AcDbDictionary
280
     1
281
     1
  3
ACAD_XREC_ROUNDTRIP
360
2EF8
  0
DICTIONARY
  5
2F09
330
2D9F
100
AcDbDictionary
280
     1
281
     1
  3
ACAD_XREC_ROUNDTRIP
360
2F0A
  0
DICTIONARY
  5
2EEF
330
2D92
100
AcDbDictionary
280
     1
281
     1
  3
ACAD_XREC_ROUNDTRIP
360
2EF0
  0
DICTIONARY
  5
2F05
330
2D9D
100
AcDbDictionary
280
     1
281
     1
  3
ACAD_XREC_ROUNDTRIP
360
2F06
  0
DICTIONARY
  5
2F03
330
2D9C
100
AcDbDictionary
280
     1
281
     1
  3
ACAD_XREC_ROUNDTRIP
360
2F04
  0
DICTIONARY
  5
2EFD
330
2D99
100
AcDbDictionary
280
     1
281
     1
  3
ACAD_XREC_ROUNDTRIP
360
2EFE
  0
DICTIONARY
  5
2EFF
330
2D9A
100
AcDbDictionary
280
     1
281
     1
  3
ACAD_XREC_ROUNDTRIP
360
2F00
  0
DICTIONARY
  5
2EF5
330
2D95
100
AcDbDictionary
280
     1
281
     1
  3
ACAD_XREC_ROUNDTRIP
360
2EF6
  0
DICTIONARY
  5
2EE9
330
2D8F
100
AcDbDictionary
280
     1
281
     1
  3
ACAD_XREC_ROUNDTRIP
360
2EEA
  0
DICTIONARY
  5
2F01
330
2D9B
100
AcDbDictionary
280
     1
281
     1
  3
ACAD_XREC_ROUNDTRIP
360
2F02
  0
XRECORD
  5
2F11
102
{ACAD_REACTORS
330
2F10
102
}
330
2F10
100
AcDbXrecord
280
     1
102
DISPLAYNAME
  1
Imperial24
102
FLAGS
 90
        0
  0
XRECORD
  5
2ED9
102
{ACAD_REACTORS
330
2ED8
102
}
330
2ED8
100
AcDbXrecord
280
     1
102
SHADEPLOT
 70
     0
102
SHADEPLOTRESLEVEL
 70
     2
102
SHADEPLOTCUSTOMDPI
 70
   300
  0
XRECORD
  5
2ED7
102
{ACAD_REACTORS
330
2ED6
102
}
330
2ED6
100
AcDbXrecord
280
     1
102
SHADEPLOT
 70
     0
102
SHADEPLOTRESLEVEL
 70
     2
102
SHADEPLOTCUSTOMDPI
 70
   300
  0
XRECORD
  5
2EDB
102
{ACAD_REACTORS
330
2D79
102
}
330
2D79
100
AcDbXrecord
280
     1
102
MATERIAL
148
0.0
149
0.0
149
0.0
 93
        0
 94
      127
282
     0
 72
     0
 77
     0
171
     0
175
     0
179
     0
273
     0
  0
XRECORD
  5
2D7B
102
{ACAD_REACTORS
330
2D79
102
}
330
2D79
100
AcDbXrecord
280
     1
270
     1
271
     1
  0
XRECORD
  5
2D7A
102
{ACAD_REACTORS
330
2D79
102
}
330
2D79
100
AcDbXrecord
280
     1
270
     1
271
     1
  0
XRECORD
  5
2D7E
102
{ACAD_REACTORS
330
2D79
102
}
330
2D79
100
AcDbXrecord
280
     1
270
     1
271
     1
  0
XRECORD
  5
2D7D
102
{ACAD_REACTORS
330
2D79
102
}
330
2D79
100
AcDbXrecord
280
     1
270
     1
271
     1
  0
XRECORD
  5
2D7F
102
{ACAD_REACTORS
330
2D79
102
}
330
2D79
100
AcDbXrecord
280
     1
270
     1
271
     1
  0
XRECORD
  5
2D7C
102
{ACAD_REACTORS
330
2D79
102
}
330
2D79
100
AcDbXrecord
280
     1
270
     1
271
     1
  0
XRECORD
  5
2EDA
102
{ACAD_REACTORS
330
2D71
102
}
330
2D71
100
AcDbXrecord
280
     1
102
MATERIAL
148
0.0
149
0.0
149
0.0
 93
        0
 94
      127
282
     0
 72
     0
 77
     0
171
     0
175
     0
179
     0
273
     0
  0
XRECORD
  5
2D73
102
{ACAD_REACTORS
330
2D71
102
}
330
2D71
100
AcDbXrecord
280
     1
270
     1
271
     1
  0
XRECORD
  5
2D72
102
{ACAD_REACTORS
330
2D71
102
}
330
2D71
100
AcDbXrecord
280
     1
270
     1
271
     1
  0
XRECORD
  5
2D76
102
{ACAD_REACTORS
330
2D71
102
}
330
2D71
100
AcDbXrecord
280
     1
270
     1
271
     1
  0
XRECORD
  5
2D75
102
{ACAD_REACTORS
330
2D71
102
}
330
2D71
100
AcDbXrecord
280
     1
270
     1
271
     1
  0
XRECORD
  5
2D77
102
{ACAD_REACTORS
330
2D71
102
}
330
2D71
100
AcDbXrecord
280
     1
270
     1
271
     1
  0
XRECORD
  5
2D74
102
{ACAD_REACTORS
330
2D71
102
}
330
2D71
100
AcDbXrecord
280
     1
270
     1
271
     1
  0
XRECORD
  5
2EDC
102
{ACAD_REACTORS
330
2D81
102
}
330
2D81
100
AcDbXrecord
280
     1
102
MATERIAL
148
0.0
149
0.0
149
0.0
 93
        0
 94
      127
282
     0
 72
     0
 77
     0
171
     0
175
     0
179
     0
273
     0
  0
XRECORD
  5
2D83
102
{ACAD_REACTORS
330
2D81
102
}
330
2D81
100
AcDbXrecord
280
     1
270
     1
271
     1
  0
XRECORD
  5
2D82
102
{ACAD_REACTORS
330
2D81
102
}
330
2D81
100
AcDbXrecord
280
     1
270
     1
271
     1
  0
XRECORD
  5
2D86
102
{ACAD_REACTORS
330
2D81
102
}
330
2D81
100
AcDbXrecord
280
     1
270
     1
271
     1
  0
XRECORD
  5
2D85
102
{ACAD_REACTORS
330
2D81
102
}
330
2D81
100
AcDbXrecord
280
     1
270
     1
271
     1
  0
XRECORD
  5
2D87
102
{ACAD_REACTORS
330
2D81
102
}
330
2D81
100
AcDbXrecord
280
     1
270
     1
271
     1
  0
XRECORD
  5
2D84
102
{ACAD_REACTORS
330
2D81
102
}
330
2D81
100
AcDbXrecord
280
     1
270
     1
271
     1
  0
XRECORD
  5
2F0F
102
{ACAD_REACTORS
330
2F0E
102
}
330
2F0E
100
AcDbXrecord
280
     1
102
DISPLAYNAME
  1
Imperial24
102
FLAGS
 90
        0
  0
CELLSTYLEMAP
  5
2ED3
102
{ACAD_REACTORS
330
2DBC
102
}
330
2DBC
100
AcDbCellStyleMap
 90
        3
300
CELLSTYLE
  1
TABLEFORMAT_BEGIN
 90
        5
170
     1
 91
        0
 92
    32768
 62
   257
 93
        1
300
CONTENTFORMAT
  1
CONTENTFORMAT_BEGIN
 90
        0
 91
        0
 92
      512
 93
        0
300

 40
0.0
140
1.0
 94
        5
 62
     0
340
11
144
0.25
309
CONTENTFORMAT_END
171
     0
 94
        0
309
TABLEFORMAT_END
  1
CELLSTYLE_BEGIN
 90
        1
 91
        1
300
_TITLE
309
CELLSTYLE_END
300
CELLSTYLE
  1
TABLEFORMAT_BEGIN
 90
        5
170
     1
 91
        0
 92
        0
 62
   257
 93
        1
300
CONTENTFORMAT
  1
CONTENTFORMAT_BEGIN
 90
        0
 91
        0
 92
      512
 93
        0
300

 40
0.0
140
1.0
 94
        5
 62
     0
340
11
144
0.18
309
CONTENTFORMAT_END
171
     0
 94
        0
309
TABLEFORMAT_END
  1
CELLSTYLE_BEGIN
 90
        2
 91
        1
300
_HEADER
309
CELLSTYLE_END
300
CELLSTYLE
  1
TABLEFORMAT_BEGIN
 90
        5
170
     1
 91
        0
 92
        0
 62
   257
 93
        1
300
CONTENTFORMAT
  1
CONTENTFORMAT_BEGIN
 90
        0
 91
        0
 92
      512
 93
        0
300

 40
0.0
140
1.0
 94
        2
 62
     0
340
11
144
0.18
309
CONTENTFORMAT_END
171
     0
 94
        0
309
TABLEFORMAT_END
  1
CELLSTYLE_BEGIN
 90
        3
 91
        2
300
_DATA
309
CELLSTYLE_END
  0
XRECORD
  5
2F0D
102
{ACAD_REACTORS
330
2DBC
102
}
330
2DBC
100
AcDbXrecord
280
     1
102
ACAD_ROUNDTRIP_PRE2007_TABLESTYLE
 90
      512
 91
        0
  1

 92
      512
 93
        0
  2

 94
      512
 95
        0
  3

  0
XRECORD
  5
2EE8
102
{ACAD_REACTORS
330
2EE7
102
}
330
2EE7
100
AcDbXrecord
280
     1
102
RTVSPost2010Prop28
280
     1
102
RTVSPost2010PropOp28
 70
     1
102
RTVSPost2010Prop29
280
     1
102
RTVSPost2010PropOp29
 70
     1
102
RTVSPost2010Prop30
280
     0
102
RTVSPost2010PropOp30
 70
     1
102
RTVSPost2010Prop31
280
     0
102
RTVSPost2010PropOp31
 70
     1
102
RTVSPost2010Prop32
280
     0
102
RTVSPost2010PropOp32
 70
     1
102
RTVSPost2010Prop33
280
     0
102
RTVSPost2010PropOp33
 70
     1
102
RTVSPost2010Prop34
280
     0
102
RTVSPost2010PropOp34
 70
     1
102
RTVSPost2010Prop35
280
     0
102
RTVSPost2010PropOp35
 70
     1
102
RTVSPost2010Prop36
280
     0
102
RTVSPost2010PropOp36
 70
     1
102
RTVSPost2010Prop37
 90
       50
102
RTVSPost2010PropOp37
 70
     1
102
RTVSPost2010Prop38
140
0.0
102
RTVSPost2010PropOp38
 70
     1
102
RTVSPost2010Prop39
140
1.0
102
RTVSPost2010PropOp39
 70
     1
102
RTVSPost2010Prop40
 90
        0
102
RTVSPost2010PropOp40
 70
     1
102
RTVSPost2010Prop41ColorIndex
 90
       18
102
RTVSPost2010Prop41ColorRGB
 90
        0
102
RTVSPost2010PropOp41
 70
     1
102
RTVSPost2010Prop42
 90
       50
102
RTVSPost2010PropOp42
 70
     1
102
RTVSPost2010Prop43
 90
        3
102
RTVSPost2010PropOp43
 70
     1
102
RTVSPost2010Prop44ColorIndex
 90
        5
102
RTVSPost2010Prop44ColorRGB
 90
      255
102
RTVSPost2010PropOp44
 70
     1
102
RTVSPost2010Prop45
280
     0
102
RTVSPost2010PropOp45
 70
     1
102
RTVSPost2010Prop46
 90
       50
102
RTVSPost2010PropOp46
 70
     1
102
RTVSPost2010Prop47
 90
       50
102
RTVSPost2010PropOp47
 70
     1
102
RTVSPost2010Prop48
 90
       50
102
RTVSPost2010PropOp48
 70
     1
102
RTVSPost2010Prop49
280
     0
102
RTVSPost2010PropOp49
 70
     1
102
RTVSPost2010Prop50
 90
       50
102
RTVSPost2010PropOp50
 70
     1
102
RTVSPost2010Prop51ColorIndex
 90
      256
102
RTVSPost2010Prop51ColorRGB
 90
-16777216
102
RTVSPost2010PropOp51
 70
     0
102
RTVSPost2010Prop52
140
1.0
102
RTVSPost2010PropOp52
 70
     0
102
RTVSPost2010Prop53
 90
        2
102
RTVSPost2010PropOp53
 70
     1
102
RTVSPost2010Prop54
  1
strokes_ogs.tif
102
RTVSPost2010PropOp54
 70
     1
102
RTVSPost2010Prop55
280
     0
102
RTVSPost2010PropOp55
 70
     1
102
RTVSPost2010Prop56
140
1.0
102
RTVSPost2010PropOp56
 70
     1
102
RTVSPost2010Prop57
140
1.0
102
RTVSPost2010PropOp57
 70
     1
102
RTVSPropertyOp0
 70
     1
102
RTVSPropertyOp1
 70
     1
102
RTVSPropertyOp2
 70
     1
102
RTVSPropertyOp3
 70
     1
102
RTVSPropertyOp4
 70
     1
102
RTVSPropertyOp5
 70
     1
102
RTVSPropertyOp6
 70
     1
102
RTVSPropertyOp7
 70
     1
102
RTVSPropertyOp8
 70
     1
102
RTVSPropertyOp9
 70
     1
102
RTVSPropertyOp10
 70
     1
102
RTVSPropertyOp11
 70
     1
102
RTVSPropertyOp12
 70
     1
102
RTVSPropertyOp13
 70
     1
102
RTVSPropertyOp14
 70
     1
102
RTVSPropertyOp15
 70
     1
102
RTVSPropertyOp16
 70
     1
102
RTVSPropertyOp17
 70
     1
102
RTVSPropertyOp18
 70
     1
102
RTVSPropertyOp19
 70
     1
102
RTVSPropertyOp20
 70
     1
102
RTVSPropertyOp21
 70
     1
102
RTVSPropertyOp22
 70
     1
102
RTVSPropertyOp23
 70
     1
102
RTVSPropertyOp24
 70
     1
102
RTVSPropertyOp25
 70
     1
102
RTVSPropertyOp26
 70
     1
102
RTVSPropertyOp27
 70
     1
102
RTVSPropertyOp28
 70
     1
102
RTVSPropertyOp29
 70
     1
102
RTVSPropertyOp30
 70
     1
102
RTVSPropertyOp31
 70
     1
102
RTVSPropertyOp32
 70
     1
102
RTVSPropertyOp33
 70
     1
102
RTVSPropertyOp34
 70
     1
102
RTVSPropertyOp35
 70
     1
102
RTVSPropertyOp36
 70
     1
102
RTVSPropertyOp37
 70
     1
102
RTVSPropertyOp38
 70
     1
102
RTVSPropertyOp39
 70
     1
102
RTVSPropertyOp40
 70
     1
102
RTVSPropertyOp41
 70
     1
102
RTVSPropertyOp42
 70
     1
102
RTVSPropertyOp43
 70
     1
102
RTVSPropertyOp44
 70
     1
102
RTVSPropertyOp45
 70
     1
102
RTVSPropertyOp46
 70
     1
102
RTVSPropertyOp47
 70
     1
102
RTVSPropertyOp48
 70
     1
102
RTVSPropertyOp49
 70
     1
102
RTVSPropertyOp50
 70
     1
102
RTVSPropertyOp51
 70
     0
102
RTVSPropertyOp52
 70
     0
102
RTVSPropertyOp53
 70
     1
102
RTVSPropertyOp54
 70
     1
102
RTVSPropertyOp55
 70
     1
102
RTVSPropertyOp56
 70
     1
102
RTVSPropertyOp57
 70
     1
102
RTVSPropertyOp58
 70
     1
102
RTVSPropertyOp59
 70
     1
102
RTVSPropertyOp60
 70
     1
102
RTVSPropertyOp61
 70
     1
102
RTVSPropertyOp62
 70
     1
  0
XRECORD
  5
2EE6
102
{ACAD_REACTORS
330
2EE5
102
}
330
2EE5
100
AcDbXrecord
280
     1
102
RTVSPost2010Prop28
280
     0
102
RTVSPost2010PropOp28
 70
     1
102
RTVSPost2010Prop29
280
     1
102
RTVSPost2010PropOp29
 70
     1
102
RTVSPost2010Prop30
280
     1
102
RTVSPost2010PropOp30
 70
     1
102
RTVSPost2010Prop31
280
     0
102
RTVSPost2010PropOp31
 70
     1
102
RTVSPost2010Prop32
280
     0
102
RTVSPost2010PropOp32
 70
     1
102
RTVSPost2010Prop33
280
     0
102
RTVSPost2010PropOp33
 70
     1
102
RTVSPost2010Prop34
280
     0
102
RTVSPost2010PropOp34
 70
     1
102
RTVSPost2010Prop35
280
     0
102
RTVSPost2010PropOp35
 70
     1
102
RTVSPost2010Prop36
280
     0
102
RTVSPost2010PropOp36
 70
     1
102
RTVSPost2010Prop37
 90
       50
102
RTVSPost2010PropOp37
 70
     1
102
RTVSPost2010Prop38
140
0.0
102
RTVSPost2010PropOp38
 70
     1
102
RTVSPost2010Prop39
140
1.0
102
RTVSPost2010PropOp39
 70
     1
102
RTVSPost2010Prop40
 90
        0
102
RTVSPost2010PropOp40
 70
     1
102
RTVSPost2010Prop41ColorIndex
 90
       18
102
RTVSPost2010Prop41ColorRGB
 90
        0
102
RTVSPost2010PropOp41
 70
     1
102
RTVSPost2010Prop42
 90
       50
102
RTVSPost2010PropOp42
 70
     1
102
RTVSPost2010Prop43
 90
        3
102
RTVSPost2010PropOp43
 70
     1
102
RTVSPost2010Prop44ColorIndex
 90
        5
102
RTVSPost2010Prop44ColorRGB
 90
      255
102
RTVSPost2010PropOp44
 70
     1
102
RTVSPost2010Prop45
280
     0
102
RTVSPost2010PropOp45
 70
     1
102
RTVSPost2010Prop46
 90
       50
102
RTVSPost2010PropOp46
 70
     1
102
RTVSPost2010Prop47
 90
       50
102
RTVSPost2010PropOp47
 70
     1
102
RTVSPost2010Prop48
 90
       50
102
RTVSPost2010PropOp48
 70
     1
102
RTVSPost2010Prop49
280
     0
102
RTVSPost2010PropOp49
 70
     1
102
RTVSPost2010Prop50
 90
       50
102
RTVSPost2010PropOp50
 70
     1
102
RTVSPost2010Prop51ColorIndex
 90
      256
102
RTVSPost2010Prop51ColorRGB
 90
-16777216
102
RTVSPost2010PropOp51
 70
     0
102
RTVSPost2010Prop52
140
1.0
102
RTVSPost2010PropOp52
 70
     0
102
RTVSPost2010Prop53
 90
        2
102
RTVSPost2010PropOp53
 70
     1
102
RTVSPost2010Prop54
  1
strokes_ogs.tif
102
RTVSPost2010PropOp54
 70
     1
102
RTVSPost2010Prop55
280
     0
102
RTVSPost2010PropOp55
 70
     1
102
RTVSPost2010Prop56
140
1.0
102
RTVSPost2010PropOp56
 70
     1
102
RTVSPost2010Prop57
140
1.0
102
RTVSPost2010PropOp57
 70
     1
102
RTVSPropertyOp0
 70
     1
102
RTVSPropertyOp1
 70
     1
102
RTVSPropertyOp2
 70
     1
102
RTVSPropertyOp3
 70
     1
102
RTVSPropertyOp4
 70
     1
102
RTVSPropertyOp5
 70
     1
102
RTVSPropertyOp6
 70
     1
102
RTVSPropertyOp7
 70
     1
102
RTVSPropertyOp8
 70
     1
102
RTVSPropertyOp9
 70
     1
102
RTVSPropertyOp10
 70
     1
102
RTVSPropertyOp11
 70
     1
102
RTVSPropertyOp12
 70
     1
102
RTVSPropertyOp13
 70
     1
102
RTVSPropertyOp14
 70
     1
102
RTVSPropertyOp15
 70
     1
102
RTVSPropertyOp16
 70
     1
102
RTVSPropertyOp17
 70
     1
102
RTVSPropertyOp18
 70
     1
102
RTVSPropertyOp19
 70
     1
102
RTVSPropertyOp20
 70
     1
102
RTVSPropertyOp21
 70
     1
102
RTVSPropertyOp22
 70
     1
102
RTVSPropertyOp23
 70
     1
102
RTVSPropertyOp24
 70
     1
102
RTVSPropertyOp25
 70
     1
102
RTVSPropertyOp26
 70
     1
102
RTVSPropertyOp27
 70
     1
102
RTVSPropertyOp28
 70
     1
102
RTVSPropertyOp29
 70
     1
102
RTVSPropertyOp30
 70
     1
102
RTVSPropertyOp31
 70
     1
102
RTVSPropertyOp32
 70
     1
102
RTVSPropertyOp33
 70
     1
102
RTVSPropertyOp34
 70
     1
102
RTVSPropertyOp35
 70
     1
102
RTVSPropertyOp36
 70
     1
102
RTVSPropertyOp37
 70
     1
102
RTVSPropertyOp38
 70
     1
102
RTVSPropertyOp39
 70
     1
102
RTVSPropertyOp40
 70
     1
102
RTVSPropertyOp41
 70
     1
102
RTVSPropertyOp42
 70
     1
102
RTVSPropertyOp43
 70
     1
102
RTVSPropertyOp44
 70
     1
102
RTVSPropertyOp45
 70
     1
102
RTVSPropertyOp46
 70
     1
102
RTVSPropertyOp47
 70
     1
102
RTVSPropertyOp48
 70
     1
102
RTVSPropertyOp49
 70
     1
102
RTVSPropertyOp50
 70
     1
102
RTVSPropertyOp51
 70
     0
102
RTVSPropertyOp52
 70
     0
102
RTVSPropertyOp53
 70
     1
102
RTVSPropertyOp54
 70
     1
102
RTVSPropertyOp55
 70
     1
102
RTVSPropertyOp56
 70
     1
102
RTVSPropertyOp57
 70
     1
102
RTVSPropertyOp58
 70
     1
102
RTVSPropertyOp59
 70
     1
102
RTVSPropertyOp60
 70
     1
102
RTVSPropertyOp61
 70
     1
102
RTVSPropertyOp62
 70
     1
  0
XRECORD
  5
2EF4
102
{ACAD_REACTORS
330
2EF3
102
}
330
2EF3
100
AcDbXrecord
280
     1
102
RTVSPost2010Prop28
280
     0
102
RTVSPost2010PropOp28
 70
     1
102
RTVSPost2010Prop29
280
     1
102
RTVSPost2010PropOp29
 70
     1
102
RTVSPost2010Prop30
280
     1
102
RTVSPost2010PropOp30
 70
     1
102
RTVSPost2010Prop31
280
     0
102
RTVSPost2010PropOp31
 70
     1
102
RTVSPost2010Prop32
280
     0
102
RTVSPost2010PropOp32
 70
     1
102
RTVSPost2010Prop33
280
     0
102
RTVSPost2010PropOp33
 70
     1
102
RTVSPost2010Prop34
280
     0
102
RTVSPost2010PropOp34
 70
     1
102
RTVSPost2010Prop35
280
     0
102
RTVSPost2010PropOp35
 70
     1
102
RTVSPost2010Prop36
280
     0
102
RTVSPost2010PropOp36
 70
     1
102
RTVSPost2010Prop37
 90
       50
102
RTVSPost2010PropOp37
 70
     1
102
RTVSPost2010Prop38
140
0.0
102
RTVSPost2010PropOp38
 70
     1
102
RTVSPost2010Prop39
140
1.0
102
RTVSPost2010PropOp39
 70
     1
102
RTVSPost2010Prop40
 90
        0
102
RTVSPost2010PropOp40
 70
     1
102
RTVSPost2010Prop41ColorIndex
 90
       18
102
RTVSPost2010Prop41ColorRGB
 90
        0
102
RTVSPost2010PropOp41
 70
     1
102
RTVSPost2010Prop42
 90
       50
102
RTVSPost2010PropOp42
 70
     1
102
RTVSPost2010Prop43
 90
        3
102
RTVSPost2010PropOp43
 70
     1
102
RTVSPost2010Prop44ColorIndex
 90
        5
102
RTVSPost2010Prop44ColorRGB
 90
      255
102
RTVSPost2010PropOp44
 70
     1
102
RTVSPost2010Prop45
280
     0
102
RTVSPost2010PropOp45
 70
     1
102
RTVSPost2010Prop46
 90
       50
102
RTVSPost2010PropOp46
 70
     1
102
RTVSPost2010Prop47
 90
       50
102
RTVSPost2010PropOp47
 70
     1
102
RTVSPost2010Prop48
 90
       50
102
RTVSPost2010PropOp48
 70
     1
102
RTVSPost2010Prop49
280
     0
102
RTVSPost2010PropOp49
 70
     1
102
RTVSPost2010Prop50
 90
       50
102
RTVSPost2010PropOp50
 70
     1
102
RTVSPost2010Prop51ColorIndex
 90
      256
102
RTVSPost2010Prop51ColorRGB
 90
-16777216
102
RTVSPost2010PropOp51
 70
     0
102
RTVSPost2010Prop52
140
1.0
102
RTVSPost2010PropOp52
 70
     0
102
RTVSPost2010Prop53
 90
        2
102
RTVSPost2010PropOp53
 70
     1
102
RTVSPost2010Prop54
  1
strokes_ogs.tif
102
RTVSPost2010PropOp54
 70
     1
102
RTVSPost2010Prop55
280
     0
102
RTVSPost2010PropOp55
 70
     1
102
RTVSPost2010Prop56
140
1.0
102
RTVSPost2010PropOp56
 70
     1
102
RTVSPost2010Prop57
140
1.0
102
RTVSPost2010PropOp57
 70
     1
102
RTVSPropertyOp0
 70
     1
102
RTVSPropertyOp1
 70
     1
102
RTVSPropertyOp2
 70
     1
102
RTVSPropertyOp3
 70
     1
102
RTVSPropertyOp4
 70
     1
102
RTVSPropertyOp5
 70
     1
102
RTVSPropertyOp6
 70
     1
102
RTVSPropertyOp7
 70
     1
102
RTVSPropertyOp8
 70
     1
102
RTVSPropertyOp9
 70
     1
102
RTVSPropertyOp10
 70
     1
102
RTVSPropertyOp11
 70
     1
102
RTVSPropertyOp12
 70
     1
102
RTVSPropertyOp13
 70
     1
102
RTVSPropertyOp14
 70
     1
102
RTVSPropertyOp15
 70
     1
102
RTVSPropertyOp16
 70
     1
102
RTVSPropertyOp17
 70
     1
102
RTVSPropertyOp18
 70
     1
102
RTVSPropertyOp19
 70
     1
102
RTVSPropertyOp20
 70
     1
102
RTVSPropertyOp21
 70
     1
102
RTVSPropertyOp22
 70
     1
102
RTVSPropertyOp23
 70
     1
102
RTVSPropertyOp24
 70
     1
102
RTVSPropertyOp25
 70
     1
102
RTVSPropertyOp26
 70
     1
102
RTVSPropertyOp27
 70
     1
102
RTVSPropertyOp28
 70
     1
102
RTVSPropertyOp29
 70
     1
102
RTVSPropertyOp30
 70
     1
102
RTVSPropertyOp31
 70
     1
102
RTVSPropertyOp32
 70
     1
102
RTVSPropertyOp33
 70
     1
102
RTVSPropertyOp34
 70
     1
102
RTVSPropertyOp35
 70
     1
102
RTVSPropertyOp36
 70
     1
102
RTVSPropertyOp37
 70
     1
102
RTVSPropertyOp38
 70
     1
102
RTVSPropertyOp39
 70
     1
102
RTVSPropertyOp40
 70
     1
102
RTVSPropertyOp41
 70
     1
102
RTVSPropertyOp42
 70
     1
102
RTVSPropertyOp43
 70
     1
102
RTVSPropertyOp44
 70
     1
102
RTVSPropertyOp45
 70
     1
102
RTVSPropertyOp46
 70
     1
102
RTVSPropertyOp47
 70
     1
102
RTVSPropertyOp48
 70
     1
102
RTVSPropertyOp49
 70
     1
102
RTVSPropertyOp50
 70
     1
102
RTVSPropertyOp51
 70
     0
102
RTVSPropertyOp52
 70
     0
102
RTVSPropertyOp53
 70
     1
102
RTVSPropertyOp54
 70
     1
102
RTVSPropertyOp55
 70
     1
102
RTVSPropertyOp56
 70
     1
102
RTVSPropertyOp57
 70
     1
102
RTVSPropertyOp58
 70
     1
102
RTVSPropertyOp59
 70
     1
102
RTVSPropertyOp60
 70
     1
102
RTVSPropertyOp61
 70
     1
102
RTVSPropertyOp62
 70
     1
  0
XRECORD
  5
2EFC
102
{ACAD_REACTORS
330
2EFB
102
}
330
2EFB
100
AcDbXrecord
280
     1
102
RTVSPost2010Prop28
280
     0
102
RTVSPost2010PropOp28
 70
     1
102
RTVSPost2010Prop29
280
     1
102
RTVSPost2010PropOp29
 70
     1
102
RTVSPost2010Prop30
280
     1
102
RTVSPost2010PropOp30
 70
     1
102
RTVSPost2010Prop31
280
     0
102
RTVSPost2010PropOp31
 70
     1
102
RTVSPost2010Prop32
280
     0
102
RTVSPost2010PropOp32
 70
     1
102
RTVSPost2010Prop33
280
     0
102
RTVSPost2010PropOp33
 70
     1
102
RTVSPost2010Prop34
280
     0
102
RTVSPost2010PropOp34
 70
     1
102
RTVSPost2010Prop35
280
     0
102
RTVSPost2010PropOp35
 70
     1
102
RTVSPost2010Prop36
280
     0
102
RTVSPost2010PropOp36
 70
     1
102
RTVSPost2010Prop37
 90
       50
102
RTVSPost2010PropOp37
 70
     1
102
RTVSPost2010Prop38
140
0.0
102
RTVSPost2010PropOp38
 70
     1
102
RTVSPost2010Prop39
140
1.0
102
RTVSPost2010PropOp39
 70
     1
102
RTVSPost2010Prop40
 90
        0
102
RTVSPost2010PropOp40
 70
     1
102
RTVSPost2010Prop41ColorIndex
 90
       18
102
RTVSPost2010Prop41ColorRGB
 90
        0
102
RTVSPost2010PropOp41
 70
     1
102
RTVSPost2010Prop42
 90
       50
102
RTVSPost2010PropOp42
 70
     1
102
RTVSPost2010Prop43
 90
        3
102
RTVSPost2010PropOp43
 70
     1
102
RTVSPost2010Prop44ColorIndex
 90
        5
102
RTVSPost2010Prop44ColorRGB
 90
      255
102
RTVSPost2010PropOp44
 70
     1
102
RTVSPost2010Prop45
280
     0
102
RTVSPost2010PropOp45
 70
     1
102
RTVSPost2010Prop46
 90
       50
102
RTVSPost2010PropOp46
 70
     1
102
RTVSPost2010Prop47
 90
       50
102
RTVSPost2010PropOp47
 70
     1
102
RTVSPost2010Prop48
 90
       50
102
RTVSPost2010PropOp48
 70
     1
102
RTVSPost2010Prop49
280
     0
102
RTVSPost2010PropOp49
 70
     1
102
RTVSPost2010Prop50
 90
       50
102
RTVSPost2010PropOp50
 70
     1
102
RTVSPost2010Prop51ColorIndex
 90
      256
102
RTVSPost2010Prop51ColorRGB
 90
-16777216
102
RTVSPost2010PropOp51
 70
     0
102
RTVSPost2010Prop52
140
1.0
102
RTVSPost2010PropOp52
 70
     0
102
RTVSPost2010Prop53
 90
        2
102
RTVSPost2010PropOp53
 70
     1
102
RTVSPost2010Prop54
  1
strokes_ogs.tif
102
RTVSPost2010PropOp54
 70
     1
102
RTVSPost2010Prop55
280
     0
102
RTVSPost2010PropOp55
 70
     1
102
RTVSPost2010Prop56
140
1.0
102
RTVSPost2010PropOp56
 70
     1
102
RTVSPost2010Prop57
140
1.0
102
RTVSPost2010PropOp57
 70
     1
102
RTVSPropertyOp0
 70
     1
102
RTVSPropertyOp1
 70
     1
102
RTVSPropertyOp2
 70
     1
102
RTVSPropertyOp3
 70
     1
102
RTVSPropertyOp4
 70
     1
102
RTVSPropertyOp5
 70
     1
102
RTVSPropertyOp6
 70
     1
102
RTVSPropertyOp7
 70
     1
102
RTVSPropertyOp8
 70
     1
102
RTVSPropertyOp9
 70
     1
102
RTVSPropertyOp10
 70
     1
102
RTVSPropertyOp11
 70
     1
102
RTVSPropertyOp12
 70
     1
102
RTVSPropertyOp13
 70
     1
102
RTVSPropertyOp14
 70
     1
102
RTVSPropertyOp15
 70
     1
102
RTVSPropertyOp16
 70
     1
102
RTVSPropertyOp17
 70
     1
102
RTVSPropertyOp18
 70
     1
102
RTVSPropertyOp19
 70
     1
102
RTVSPropertyOp20
 70
     1
102
RTVSPropertyOp21
 70
     1
102
RTVSPropertyOp22
 70
     1
102
RTVSPropertyOp23
 70
     1
102
RTVSPropertyOp24
 70
     1
102
RTVSPropertyOp25
 70
     1
102
RTVSPropertyOp26
 70
     1
102
RTVSPropertyOp27
 70
     1
102
RTVSPropertyOp28
 70
     1
102
RTVSPropertyOp29
 70
     1
102
RTVSPropertyOp30
 70
     1
102
RTVSPropertyOp31
 70
     1
102
RTVSPropertyOp32
 70
     1
102
RTVSPropertyOp33
 70
     1
102
RTVSPropertyOp34
 70
     1
102
RTVSPropertyOp35
 70
     1
102
RTVSPropertyOp36
 70
     1
102
RTVSPropertyOp37
 70
     1
102
RTVSPropertyOp38
 70
     1
102
RTVSPropertyOp39
 70
     1
102
RTVSPropertyOp40
 70
     1
102
RTVSPropertyOp41
 70
     1
102
RTVSPropertyOp42
 70
     1
102
RTVSPropertyOp43
 70
     1
102
RTVSPropertyOp44
 70
     1
102
RTVSPropertyOp45
 70
     1
102
RTVSPropertyOp46
 70
     1
102
RTVSPropertyOp47
 70
     1
102
RTVSPropertyOp48
 70
     1
102
RTVSPropertyOp49
 70
     1
102
RTVSPropertyOp50
 70
     1
102
RTVSPropertyOp51
 70
     0
102
RTVSPropertyOp52
 70
     0
102
RTVSPropertyOp53
 70
     1
102
RTVSPropertyOp54
 70
     1
102
RTVSPropertyOp55
 70
     1
102
RTVSPropertyOp56
 70
     1
102
RTVSPropertyOp57
 70
     1
102
RTVSPropertyOp58
 70
     1
102
RTVSPropertyOp59
 70
     1
102
RTVSPropertyOp60
 70
     1
102
RTVSPropertyOp61
 70
     1
102
RTVSPropertyOp62
 70
     1
  0
XRECORD
  5
2EEE
102
{ACAD_REACTORS
330
2EED
102
}
330
2EED
100
AcDbXrecord
280
     1
102
RTVSPost2010Prop28
280
     0
102
RTVSPost2010PropOp28
 70
     1
102
RTVSPost2010Prop29
280
     1
102
RTVSPost2010PropOp29
 70
     1
102
RTVSPost2010Prop30
280
     1
102
RTVSPost2010PropOp30
 70
     1
102
RTVSPost2010Prop31
280
     0
102
RTVSPost2010PropOp31
 70
     1
102
RTVSPost2010Prop32
280
     0
102
RTVSPost2010PropOp32
 70
     1
102
RTVSPost2010Prop33
280
     0
102
RTVSPost2010PropOp33
 70
     1
102
RTVSPost2010Prop34
280
     0
102
RTVSPost2010PropOp34
 70
     1
102
RTVSPost2010Prop35
280
     0
102
RTVSPost2010PropOp35
 70
     1
102
RTVSPost2010Prop36
280
     0
102
RTVSPost2010PropOp36
 70
     1
102
RTVSPost2010Prop37
 90
       50
102
RTVSPost2010PropOp37
 70
     1
102
RTVSPost2010Prop38
140
0.0
102
RTVSPost2010PropOp38
 70
     1
102
RTVSPost2010Prop39
140
1.0
102
RTVSPost2010PropOp39
 70
     1
102
RTVSPost2010Prop40
 90
        0
102
RTVSPost2010PropOp40
 70
     1
102
RTVSPost2010Prop41ColorIndex
 90
       18
102
RTVSPost2010Prop41ColorRGB
 90
        0
102
RTVSPost2010PropOp41
 70
     1
102
RTVSPost2010Prop42
 90
       50
102
RTVSPost2010PropOp42
 70
     1
102
RTVSPost2010Prop43
 90
        3
102
RTVSPost2010PropOp43
 70
     1
102
RTVSPost2010Prop44ColorIndex
 90
        5
102
RTVSPost2010Prop44ColorRGB
 90
      255
102
RTVSPost2010PropOp44
 70
     1
102
RTVSPost2010Prop45
280
     0
102
RTVSPost2010PropOp45
 70
     1
102
RTVSPost2010Prop46
 90
       50
102
RTVSPost2010PropOp46
 70
     1
102
RTVSPost2010Prop47
 90
       50
102
RTVSPost2010PropOp47
 70
     1
102
RTVSPost2010Prop48
 90
       50
102
RTVSPost2010PropOp48
 70
     1
102
RTVSPost2010Prop49
280
     0
102
RTVSPost2010PropOp49
 70
     1
102
RTVSPost2010Prop50
 90
       50
102
RTVSPost2010PropOp50
 70
     1
102
RTVSPost2010Prop51ColorIndex
 90
      256
102
RTVSPost2010Prop51ColorRGB
 90
-16777216
102
RTVSPost2010PropOp51
 70
     0
102
RTVSPost2010Prop52
140
1.0
102
RTVSPost2010PropOp52
 70
     0
102
RTVSPost2010Prop53
 90
        2
102
RTVSPost2010PropOp53
 70
     1
102
RTVSPost2010Prop54
  1
strokes_ogs.tif
102
RTVSPost2010PropOp54
 70
     1
102
RTVSPost2010Prop55
280
     0
102
RTVSPost2010PropOp55
 70
     1
102
RTVSPost2010Prop56
140
1.0
102
RTVSPost2010PropOp56
 70
     1
102
RTVSPost2010Prop57
140
1.0
102
RTVSPost2010PropOp57
 70
     1
102
RTVSPropertyOp0
 70
     1
102
RTVSPropertyOp1
 70
     1
102
RTVSPropertyOp2
 70
     1
102
RTVSPropertyOp3
 70
     1
102
RTVSPropertyOp4
 70
     1
102
RTVSPropertyOp5
 70
     1
102
RTVSPropertyOp6
 70
     1
102
RTVSPropertyOp7
 70
     1
102
RTVSPropertyOp8
 70
     1
102
RTVSPropertyOp9
 70
     1
102
RTVSPropertyOp10
 70
     1
102
RTVSPropertyOp11
 70
     1
102
RTVSPropertyOp12
 70
     1
102
RTVSPropertyOp13
 70
     1
102
RTVSPropertyOp14
 70
     1
102
RTVSPropertyOp15
 70
     1
102
RTVSPropertyOp16
 70
     1
102
RTVSPropertyOp17
 70
     1
102
RTVSPropertyOp18
 70
     1
102
RTVSPropertyOp19
 70
     1
102
RTVSPropertyOp20
 70
     1
102
RTVSPropertyOp21
 70
     1
102
RTVSPropertyOp22
 70
     1
102
RTVSPropertyOp23
 70
     1
102
RTVSPropertyOp24
 70
     1
102
RTVSPropertyOp25
 70
     1
102
RTVSPropertyOp26
 70
     1
102
RTVSPropertyOp27
 70
     1
102
RTVSPropertyOp28
 70
     1
102
RTVSPropertyOp29
 70
     1
102
RTVSPropertyOp30
 70
     1
102
RTVSPropertyOp31
 70
     1
102
RTVSPropertyOp32
 70
     1
102
RTVSPropertyOp33
 70
     1
102
RTVSPropertyOp34
 70
     1
102
RTVSPropertyOp35
 70
     1
102
RTVSPropertyOp36
 70
     1
102
RTVSPropertyOp37
 70
     1
102
RTVSPropertyOp38
 70
     1
102
RTVSPropertyOp39
 70
     1
102
RTVSPropertyOp40
 70
     1
102
RTVSPropertyOp41
 70
     1
102
RTVSPropertyOp42
 70
     1
102
RTVSPropertyOp43
 70
     1
102
RTVSPropertyOp44
 70
     1
102
RTVSPropertyOp45
 70
     1
102
RTVSPropertyOp46
 70
     1
102
RTVSPropertyOp47
 70
     1
102
RTVSPropertyOp48
 70
     1
102
RTVSPropertyOp49
 70
     1
102
RTVSPropertyOp50
 70
     1
102
RTVSPropertyOp51
 70
     0
102
RTVSPropertyOp52
 70
     0
102
RTVSPropertyOp53
 70
     1
102
RTVSPropertyOp54
 70
     1
102
RTVSPropertyOp55
 70
     1
102
RTVSPropertyOp56
 70
     1
102
RTVSPropertyOp57
 70
     1
102
RTVSPropertyOp58
 70
     1
102
RTVSPropertyOp59
 70
     1
102
RTVSPropertyOp60
 70
     1
102
RTVSPropertyOp61
 70
     1
102
RTVSPropertyOp62
 70
     1
  0
XRECORD
  5
2EF2
102
{ACAD_REACTORS
330
2EF1
102
}
330
2EF1
100
AcDbXrecord
280
     1
102
RTVSPost2010Prop28
280
     0
102
RTVSPost2010PropOp28
 70
     1
102
RTVSPost2010Prop29
280
     1
102
RTVSPost2010PropOp29
 70
     1
102
RTVSPost2010Prop30
280
     1
102
RTVSPost2010PropOp30
 70
     1
102
RTVSPost2010Prop31
280
     0
102
RTVSPost2010PropOp31
 70
     1
102
RTVSPost2010Prop32
280
     0
102
RTVSPost2010PropOp32
 70
     1
102
RTVSPost2010Prop33
280
     0
102
RTVSPost2010PropOp33
 70
     1
102
RTVSPost2010Prop34
280
     0
102
RTVSPost2010PropOp34
 70
     1
102
RTVSPost2010Prop35
280
     0
102
RTVSPost2010PropOp35
 70
     1
102
RTVSPost2010Prop36
280
     0
102
RTVSPost2010PropOp36
 70
     1
102
RTVSPost2010Prop37
 90
       50
102
RTVSPost2010PropOp37
 70
     1
102
RTVSPost2010Prop38
140
0.0
102
RTVSPost2010PropOp38
 70
     1
102
RTVSPost2010Prop39
140
1.0
102
RTVSPost2010PropOp39
 70
     1
102
RTVSPost2010Prop40
 90
        0
102
RTVSPost2010PropOp40
 70
     1
102
RTVSPost2010Prop41ColorIndex
 90
       18
102
RTVSPost2010Prop41ColorRGB
 90
        0
102
RTVSPost2010PropOp41
 70
     1
102
RTVSPost2010Prop42
 90
       50
102
RTVSPost2010PropOp42
 70
     1
102
RTVSPost2010Prop43
 90
        3
102
RTVSPost2010PropOp43
 70
     1
102
RTVSPost2010Prop44ColorIndex
 90
        5
102
RTVSPost2010Prop44ColorRGB
 90
      255
102
RTVSPost2010PropOp44
 70
     1
102
RTVSPost2010Prop45
280
     0
102
RTVSPost2010PropOp45
 70
     1
102
RTVSPost2010Prop46
 90
       50
102
RTVSPost2010PropOp46
 70
     1
102
RTVSPost2010Prop47
 90
       50
102
RTVSPost2010PropOp47
 70
     1
102
RTVSPost2010Prop48
 90
       50
102
RTVSPost2010PropOp48
 70
     1
102
RTVSPost2010Prop49
280
     0
102
RTVSPost2010PropOp49
 70
     1
102
RTVSPost2010Prop50
 90
       50
102
RTVSPost2010PropOp50
 70
     1
102
RTVSPost2010Prop51ColorIndex
 90
      256
102
RTVSPost2010Prop51ColorRGB
 90
-16777216
102
RTVSPost2010PropOp51
 70
     0
102
RTVSPost2010Prop52
140
1.0
102
RTVSPost2010PropOp52
 70
     0
102
RTVSPost2010Prop53
 90
        2
102
RTVSPost2010PropOp53
 70
     1
102
RTVSPost2010Prop54
  1
strokes_ogs.tif
102
RTVSPost2010PropOp54
 70
     1
102
RTVSPost2010Prop55
280
     0
102
RTVSPost2010PropOp55
 70
     1
102
RTVSPost2010Prop56
140
1.0
102
RTVSPost2010PropOp56
 70
     1
102
RTVSPost2010Prop57
140
1.0
102
RTVSPost2010PropOp57
 70
     1
102
RTVSPropertyOp0
 70
     1
102
RTVSPropertyOp1
 70
     1
102
RTVSPropertyOp2
 70
     1
102
RTVSPropertyOp3
 70
     1
102
RTVSPropertyOp4
 70
     1
102
RTVSPropertyOp5
 70
     1
102
RTVSPropertyOp6
 70
     1
102
RTVSPropertyOp7
 70
     1
102
RTVSPropertyOp8
 70
     1
102
RTVSPropertyOp9
 70
     1
102
RTVSPropertyOp10
 70
     1
102
RTVSPropertyOp11
 70
     1
102
RTVSPropertyOp12
 70
     1
102
RTVSPropertyOp13
 70
     1
102
RTVSPropertyOp14
 70
     1
102
RTVSPropertyOp15
 70
     1
102
RTVSPropertyOp16
 70
     1
102
RTVSPropertyOp17
 70
     1
102
RTVSPropertyOp18
 70
     1
102
RTVSPropertyOp19
 70
     1
102
RTVSPropertyOp20
 70
     1
102
RTVSPropertyOp21
 70
     1
102
RTVSPropertyOp22
 70
     1
102
RTVSPropertyOp23
 70
     1
102
RTVSPropertyOp24
 70
     1
102
RTVSPropertyOp25
 70
     1
102
RTVSPropertyOp26
 70
     1
102
RTVSPropertyOp27
 70
     1
102
RTVSPropertyOp28
 70
     1
102
RTVSPropertyOp29
 70
     1
102
RTVSPropertyOp30
 70
     1
102
RTVSPropertyOp31
 70
     1
102
RTVSPropertyOp32
 70
     1
102
RTVSPropertyOp33
 70
     1
102
RTVSPropertyOp34
 70
     1
102
RTVSPropertyOp35
 70
     1
102
RTVSPropertyOp36
 70
     1
102
RTVSPropertyOp37
 70
     1
102
RTVSPropertyOp38
 70
     1
102
RTVSPropertyOp39
 70
     1
102
RTVSPropertyOp40
 70
     1
102
RTVSPropertyOp41
 70
     1
102
RTVSPropertyOp42
 70
     1
102
RTVSPropertyOp43
 70
     1
102
RTVSPropertyOp44
 70
     1
102
RTVSPropertyOp45
 70
     1
102
RTVSPropertyOp46
 70
     1
102
RTVSPropertyOp47
 70
     1
102
RTVSPropertyOp48
 70
     1
102
RTVSPropertyOp49
 70
     1
102
RTVSPropertyOp50
 70
     1
102
RTVSPropertyOp51
 70
     0
102
RTVSPropertyOp52
 70
     0
102
RTVSPropertyOp53
 70
     1
102
RTVSPropertyOp54
 70
     1
102
RTVSPropertyOp55
 70
     1
102
RTVSPropertyOp56
 70
     1
102
RTVSPropertyOp57
 70
     1
102
RTVSPropertyOp58
 70
     1
102
RTVSPropertyOp59
 70
     1
102
RTVSPropertyOp60
 70
     1
102
RTVSPropertyOp61
 70
     1
102
RTVSPropertyOp62
 70
     1
  0
XRECORD
  5
2F0C
102
{ACAD_REACTORS
330
2F0B
102
}
330
2F0B
100
AcDbXrecord
280
     1
102
RTVSPost2010Prop28
280
     0
102
RTVSPost2010PropOp28
 70
     1
102
RTVSPost2010Prop29
280
     1
102
RTVSPost2010PropOp29
 70
     1
102
RTVSPost2010Prop30
280
     1
102
RTVSPost2010PropOp30
 70
     1
102
RTVSPost2010Prop31
280
     0
102
RTVSPost2010PropOp31
 70
     1
102
RTVSPost2010Prop32
280
     0
102
RTVSPost2010PropOp32
 70
     1
102
RTVSPost2010Prop33
280
     0
102
RTVSPost2010PropOp33
 70
     1
102
RTVSPost2010Prop34
280
     0
102
RTVSPost2010PropOp34
 70
     1
102
RTVSPost2010Prop35
280
     0
102
RTVSPost2010PropOp35
 70
     1
102
RTVSPost2010Prop36
280
     0
102
RTVSPost2010PropOp36
 70
     1
102
RTVSPost2010Prop37
 90
       50
102
RTVSPost2010PropOp37
 70
     0
102
RTVSPost2010Prop38
140
0.0
102
RTVSPost2010PropOp38
 70
     0
102
RTVSPost2010Prop39
140
1.0
102
RTVSPost2010PropOp39
 70
     0
102
RTVSPost2010Prop40
 90
        0
102
RTVSPost2010PropOp40
 70
     0
102
RTVSPost2010Prop41ColorIndex
 90
       18
102
RTVSPost2010Prop41ColorRGB
 90
        0
102
RTVSPost2010PropOp41
 70
     0
102
RTVSPost2010Prop42
 90
       50
102
RTVSPost2010PropOp42
 70
     0
102
RTVSPost2010Prop43
 90
        3
102
RTVSPost2010PropOp43
 70
     0
102
RTVSPost2010Prop44ColorIndex
 90
        5
102
RTVSPost2010Prop44ColorRGB
 90
      255
102
RTVSPost2010PropOp44
 70
     0
102
RTVSPost2010Prop45
280
     0
102
RTVSPost2010PropOp45
 70
     1
102
RTVSPost2010Prop46
 90
       50
102
RTVSPost2010PropOp46
 70
     0
102
RTVSPost2010Prop47
 90
       50
102
RTVSPost2010PropOp47
 70
     0
102
RTVSPost2010Prop48
 90
       50
102
RTVSPost2010PropOp48
 70
     0
102
RTVSPost2010Prop49
280
     0
102
RTVSPost2010PropOp49
 70
     1
102
RTVSPost2010Prop50
 90
       50
102
RTVSPost2010PropOp50
 70
     0
102
RTVSPost2010Prop51ColorIndex
 90
      256
102
RTVSPost2010Prop51ColorRGB
 90
-16777216
102
RTVSPost2010PropOp51
 70
     0
102
RTVSPost2010Prop52
140
1.0
102
RTVSPost2010PropOp52
 70
     0
102
RTVSPost2010Prop53
 90
        2
102
RTVSPost2010PropOp53
 70
     0
102
RTVSPost2010Prop54
  1
strokes_ogs.tif
102
RTVSPost2010PropOp54
 70
     0
102
RTVSPost2010Prop55
280
     0
102
RTVSPost2010PropOp55
 70
     1
102
RTVSPost2010Prop56
140
1.0
102
RTVSPost2010PropOp56
 70
     0
102
RTVSPost2010Prop57
140
1.0
102
RTVSPost2010PropOp57
 70
     0
102
RTVSPropertyOp0
 70
     0
102
RTVSPropertyOp1
 70
     0
102
RTVSPropertyOp2
 70
     0
102
RTVSPropertyOp3
 70
     0
102
RTVSPropertyOp4
 70
     0
102
RTVSPropertyOp5
 70
     0
102
RTVSPropertyOp6
 70
     0
102
RTVSPropertyOp7
 70
     0
102
RTVSPropertyOp8
 70
     0
102
RTVSPropertyOp9
 70
     0
102
RTVSPropertyOp10
 70
     0
102
RTVSPropertyOp11
 70
     0
102
RTVSPropertyOp12
 70
     0
102
RTVSPropertyOp13
 70
     0
102
RTVSPropertyOp14
 70
     2
102
RTVSPropertyOp15
 70
     0
102
RTVSPropertyOp16
 70
     0
102
RTVSPropertyOp17
 70
     0
102
RTVSPropertyOp18
 70
     0
102
RTVSPropertyOp19
 70
     0
102
RTVSPropertyOp20
 70
     0
102
RTVSPropertyOp21
 70
     0
102
RTVSPropertyOp22
 70
     0
102
RTVSPropertyOp23
 70
     0
102
RTVSPropertyOp24
 70
     0
102
RTVSPropertyOp25
 70
     0
102
RTVSPropertyOp26
 70
     0
102
RTVSPropertyOp27
 70
     0
102
RTVSPropertyOp28
 70
     1
102
RTVSPropertyOp29
 70
     1
102
RTVSPropertyOp30
 70
     1
102
RTVSPropertyOp31
 70
     1
102
RTVSPropertyOp32
 70
     1
102
RTVSPropertyOp33
 70
     1
102
RTVSPropertyOp34
 70
     1
102
RTVSPropertyOp35
 70
     1
102
RTVSPropertyOp36
 70
     1
102
RTVSPropertyOp37
 70
     0
102
RTVSPropertyOp38
 70
     0
102
RTVSPropertyOp39
 70
     0
102
RTVSPropertyOp40
 70
     0
102
RTVSPropertyOp41
 70
     0
102
RTVSPropertyOp42
 70
     0
102
RTVSPropertyOp43
 70
     0
102
RTVSPropertyOp44
 70
     0
102
RTVSPropertyOp45
 70
     1
102
RTVSPropertyOp46
 70
     0
102
RTVSPropertyOp47
 70
     0
102
RTVSPropertyOp48
 70
     0
102
RTVSPropertyOp49
 70
     1
102
RTVSPropertyOp50
 70
     0
102
RTVSPropertyOp51
 70
     0
102
RTVSPropertyOp52
 70
     0
102
RTVSPropertyOp53
 70
     0
102
RTVSPropertyOp54
 70
     0
102
RTVSPropertyOp55
 70
     1
102
RTVSPropertyOp56
 70
     0
102
RTVSPropertyOp57
 70
     0
102
RTVSPropertyOp58
 70
     1
102
RTVSPropertyOp59
 70
     1
102
RTVSPropertyOp60
 70
     1
102
RTVSPropertyOp61
 70
     1
102
RTVSPropertyOp62
 70
     1
  0
XRECORD
  5
2EFA
102
{ACAD_REACTORS
330
2EF9
102
}
330
2EF9
100
AcDbXrecord
280
     1
102
RTVSPost2010Prop28
280
     0
102
RTVSPost2010PropOp28
 70
     1
102
RTVSPost2010Prop29
280
     1
102
RTVSPost2010PropOp29
 70
     1
102
RTVSPost2010Prop30
280
     1
102
RTVSPost2010PropOp30
 70
     1
102
RTVSPost2010Prop31
280
     0
102
RTVSPost2010PropOp31
 70
     1
102
RTVSPost2010Prop32
280
     0
102
RTVSPost2010PropOp32
 70
     1
102
RTVSPost2010Prop33
280
     0
102
RTVSPost2010PropOp33
 70
     1
102
RTVSPost2010Prop34
280
     0
102
RTVSPost2010PropOp34
 70
     1
102
RTVSPost2010Prop35
280
     0
102
RTVSPost2010PropOp35
 70
     1
102
RTVSPost2010Prop36
280
     0
102
RTVSPost2010PropOp36
 70
     1
102
RTVSPost2010Prop37
 90
       50
102
RTVSPost2010PropOp37
 70
     1
102
RTVSPost2010Prop38
140
0.0
102
RTVSPost2010PropOp38
 70
     1
102
RTVSPost2010Prop39
140
1.0
102
RTVSPost2010PropOp39
 70
     1
102
RTVSPost2010Prop40
 90
        0
102
RTVSPost2010PropOp40
 70
     1
102
RTVSPost2010Prop41ColorIndex
 90
       18
102
RTVSPost2010Prop41ColorRGB
 90
        0
102
RTVSPost2010PropOp41
 70
     1
102
RTVSPost2010Prop42
 90
       50
102
RTVSPost2010PropOp42
 70
     1
102
RTVSPost2010Prop43
 90
        3
102
RTVSPost2010PropOp43
 70
     1
102
RTVSPost2010Prop44ColorIndex
 90
        5
102
RTVSPost2010Prop44ColorRGB
 90
      255
102
RTVSPost2010PropOp44
 70
     1
102
RTVSPost2010Prop45
280
     0
102
RTVSPost2010PropOp45
 70
     1
102
RTVSPost2010Prop46
 90
       50
102
RTVSPost2010PropOp46
 70
     1
102
RTVSPost2010Prop47
 90
       50
102
RTVSPost2010PropOp47
 70
     1
102
RTVSPost2010Prop48
 90
       50
102
RTVSPost2010PropOp48
 70
     1
102
RTVSPost2010Prop49
280
     0
102
RTVSPost2010PropOp49
 70
     1
102
RTVSPost2010Prop50
 90
       50
102
RTVSPost2010PropOp50
 70
     1
102
RTVSPost2010Prop51ColorIndex
 90
      256
102
RTVSPost2010Prop51ColorRGB
 90
-16777216
102
RTVSPost2010PropOp51
 70
     0
102
RTVSPost2010Prop52
140
1.0
102
RTVSPost2010PropOp52
 70
     0
102
RTVSPost2010Prop53
 90
        2
102
RTVSPost2010PropOp53
 70
     1
102
RTVSPost2010Prop54
  1
strokes_ogs.tif
102
RTVSPost2010PropOp54
 70
     1
102
RTVSPost2010Prop55
280
     0
102
RTVSPost2010PropOp55
 70
     1
102
RTVSPost2010Prop56
140
1.0
102
RTVSPost2010PropOp56
 70
     1
102
RTVSPost2010Prop57
140
1.0
102
RTVSPost2010PropOp57
 70
     1
102
RTVSPropertyOp0
 70
     1
102
RTVSPropertyOp1
 70
     1
102
RTVSPropertyOp2
 70
     1
102
RTVSPropertyOp3
 70
     1
102
RTVSPropertyOp4
 70
     1
102
RTVSPropertyOp5
 70
     1
102
RTVSPropertyOp6
 70
     1
102
RTVSPropertyOp7
 70
     1
102
RTVSPropertyOp8
 70
     1
102
RTVSPropertyOp9
 70
     1
102
RTVSPropertyOp10
 70
     1
102
RTVSPropertyOp11
 70
     1
102
RTVSPropertyOp12
 70
     1
102
RTVSPropertyOp13
 70
     1
102
RTVSPropertyOp14
 70
     1
102
RTVSPropertyOp15
 70
     1
102
RTVSPropertyOp16
 70
     1
102
RTVSPropertyOp17
 70
     1
102
RTVSPropertyOp18
 70
     1
102
RTVSPropertyOp19
 70
     1
102
RTVSPropertyOp20
 70
     1
102
RTVSPropertyOp21
 70
     1
102
RTVSPropertyOp22
 70
     1
102
RTVSPropertyOp23
 70
     1
102
RTVSPropertyOp24
 70
     1
102
RTVSPropertyOp25
 70
     1
102
RTVSPropertyOp26
 70
     1
102
RTVSPropertyOp27
 70
     1
102
RTVSPropertyOp28
 70
     1
102
RTVSPropertyOp29
 70
     1
102
RTVSPropertyOp30
 70
     1
102
RTVSPropertyOp31
 70
     1
102
RTVSPropertyOp32
 70
     1
102
RTVSPropertyOp33
 70
     1
102
RTVSPropertyOp34
 70
     1
102
RTVSPropertyOp35
 70
     1
102
RTVSPropertyOp36
 70
     1
102
RTVSPropertyOp37
 70
     1
102
RTVSPropertyOp38
 70
     1
102
RTVSPropertyOp39
 70
     1
102
RTVSPropertyOp40
 70
     1
102
RTVSPropertyOp41
 70
     1
102
RTVSPropertyOp42
 70
     1
102
RTVSPropertyOp43
 70
     1
102
RTVSPropertyOp44
 70
     1
102
RTVSPropertyOp45
 70
     1
102
RTVSPropertyOp46
 70
     1
102
RTVSPropertyOp47
 70
     1
102
RTVSPropertyOp48
 70
     1
102
RTVSPropertyOp49
 70
     1
102
RTVSPropertyOp50
 70
     1
102
RTVSPropertyOp51
 70
     0
102
RTVSPropertyOp52
 70
     0
102
RTVSPropertyOp53
 70
     1
102
RTVSPropertyOp54
 70
     1
102
RTVSPropertyOp55
 70
     1
102
RTVSPropertyOp56
 70
     1
102
RTVSPropertyOp57
 70
     1
102
RTVSPropertyOp58
 70
     1
102
RTVSPropertyOp59
 70
     1
102
RTVSPropertyOp60
 70
     1
102
RTVSPropertyOp61
 70
     1
102
RTVSPropertyOp62
 70
     1
  0
XRECORD
  5
2EDE
102
{ACAD_REACTORS
330
2EDD
102
}
330
2EDD
100
AcDbXrecord
280
     1
102
RTVSPost2010Prop28
280
     0
102
RTVSPost2010PropOp28
 70
     1
102
RTVSPost2010Prop29
280
     1
102
RTVSPost2010PropOp29
 70
     1
102
RTVSPost2010Prop30
280
     1
102
RTVSPost2010PropOp30
 70
     1
102
RTVSPost2010Prop31
280
     0
102
RTVSPost2010PropOp31
 70
     1
102
RTVSPost2010Prop32
280
     0
102
RTVSPost2010PropOp32
 70
     1
102
RTVSPost2010Prop33
280
     0
102
RTVSPost2010PropOp33
 70
     1
102
RTVSPost2010Prop34
280
     0
102
RTVSPost2010PropOp34
 70
     1
102
RTVSPost2010Prop35
280
     0
102
RTVSPost2010PropOp35
 70
     1
102
RTVSPost2010Prop36
280
     0
102
RTVSPost2010PropOp36
 70
     1
102
RTVSPost2010Prop37
 90
       50
102
RTVSPost2010PropOp37
 70
     1
102
RTVSPost2010Prop38
140
0.0
102
RTVSPost2010PropOp38
 70
     1
102
RTVSPost2010Prop39
140
1.0
102
RTVSPost2010PropOp39
 70
     1
102
RTVSPost2010Prop40
 90
        0
102
RTVSPost2010PropOp40
 70
     1
102
RTVSPost2010Prop41ColorIndex
 90
       18
102
RTVSPost2010Prop41ColorRGB
 90
        0
102
RTVSPost2010PropOp41
 70
     1
102
RTVSPost2010Prop42
 90
       50
102
RTVSPost2010PropOp42
 70
     1
102
RTVSPost2010Prop43
 90
        3
102
RTVSPost2010PropOp43
 70
     1
102
RTVSPost2010Prop44ColorIndex
 90
        5
102
RTVSPost2010Prop44ColorRGB
 90
      255
102
RTVSPost2010PropOp44
 70
     1
102
RTVSPost2010Prop45
280
     0
102
RTVSPost2010PropOp45
 70
     1
102
RTVSPost2010Prop46
 90
       50
102
RTVSPost2010PropOp46
 70
     1
102
RTVSPost2010Prop47
 90
       50
102
RTVSPost2010PropOp47
 70
     1
102
RTVSPost2010Prop48
 90
       50
102
RTVSPost2010PropOp48
 70
     1
102
RTVSPost2010Prop49
280
     0
102
RTVSPost2010PropOp49
 70
     1
102
RTVSPost2010Prop50
 90
       50
102
RTVSPost2010PropOp50
 70
     1
102
RTVSPost2010Prop51ColorIndex
 90
      256
102
RTVSPost2010Prop51ColorRGB
 90
-16777216
102
RTVSPost2010PropOp51
 70
     0
102
RTVSPost2010Prop52
140
1.0
102
RTVSPost2010PropOp52
 70
     0
102
RTVSPost2010Prop53
 90
        2
102
RTVSPost2010PropOp53
 70
     1
102
RTVSPost2010Prop54
  1
strokes_ogs.tif
102
RTVSPost2010PropOp54
 70
     1
102
RTVSPost2010Prop55
280
     0
102
RTVSPost2010PropOp55
 70
     1
102
RTVSPost2010Prop56
140
1.0
102
RTVSPost2010PropOp56
 70
     1
102
RTVSPost2010Prop57
140
1.0
102
RTVSPost2010PropOp57
 70
     1
102
RTVSPropertyOp0
 70
     1
102
RTVSPropertyOp1
 70
     1
102
RTVSPropertyOp2
 70
     1
102
RTVSPropertyOp3
 70
     1
102
RTVSPropertyOp4
 70
     1
102
RTVSPropertyOp5
 70
     1
102
RTVSPropertyOp6
 70
     1
102
RTVSPropertyOp7
 70
     1
102
RTVSPropertyOp8
 70
     1
102
RTVSPropertyOp9
 70
     1
102
RTVSPropertyOp10
 70
     1
102
RTVSPropertyOp11
 70
     1
102
RTVSPropertyOp12
 70
     1
102
RTVSPropertyOp13
 70
     1
102
RTVSPropertyOp14
 70
     1
102
RTVSPropertyOp15
 70
     1
102
RTVSPropertyOp16
 70
     1
102
RTVSPropertyOp17
 70
     1
102
RTVSPropertyOp18
 70
     1
102
RTVSPropertyOp19
 70
     1
102
RTVSPropertyOp20
 70
     1
102
RTVSPropertyOp21
 70
     1
102
RTVSPropertyOp22
 70
     1
102
RTVSPropertyOp23
 70
     1
102
RTVSPropertyOp24
 70
     1
102
RTVSPropertyOp25
 70
     1
102
RTVSPropertyOp26
 70
     1
102
RTVSPropertyOp27
 70
     1
102
RTVSPropertyOp28
 70
     1
102
RTVSPropertyOp29
 70
     1
102
RTVSPropertyOp30
 70
     1
102
RTVSPropertyOp31
 70
     1
102
RTVSPropertyOp32
 70
     1
102
RTVSPropertyOp33
 70
     1
102
RTVSPropertyOp34
 70
     1
102
RTVSPropertyOp35
 70
     1
102
RTVSPropertyOp36
 70
     1
102
RTVSPropertyOp37
 70
     1
102
RTVSPropertyOp38
 70
     1
102
RTVSPropertyOp39
 70
     1
102
RTVSPropertyOp40
 70
     1
102
RTVSPropertyOp41
 70
     1
102
RTVSPropertyOp42
 70
     1
102
RTVSPropertyOp43
 70
     1
102
RTVSPropertyOp44
 70
     1
102
RTVSPropertyOp45
 70
     1
102
RTVSPropertyOp46
 70
     1
102
RTVSPropertyOp47
 70
     1
102
RTVSPropertyOp48
 70
     1
102
RTVSPropertyOp49
 70
     1
102
RTVSPropertyOp50
 70
     1
102
RTVSPropertyOp51
 70
     0
102
RTVSPropertyOp52
 70
     0
102
RTVSPropertyOp53
 70
     1
102
RTVSPropertyOp54
 70
     1
102
RTVSPropertyOp55
 70
     1
102
RTVSPropertyOp56
 70
     1
102
RTVSPropertyOp57
 70
     1
102
RTVSPropertyOp58
 70
     1
102
RTVSPropertyOp59
 70
     1
102
RTVSPropertyOp60
 70
     1
102
RTVSPropertyOp61
 70
     1
102
RTVSPropertyOp62
 70
     1
  0
XRECORD
  5
2EE0
102
{ACAD_REACTORS
330
2EDF
102
}
330
2EDF
100
AcDbXrecord
280
     1
102
RTVSPost2010Prop28
280
     0
102
RTVSPost2010PropOp28
 70
     1
102
RTVSPost2010Prop29
280
     1
102
RTVSPost2010PropOp29
 70
     1
102
RTVSPost2010Prop30
280
     1
102
RTVSPost2010PropOp30
 70
     1
102
RTVSPost2010Prop31
280
     0
102
RTVSPost2010PropOp31
 70
     1
102
RTVSPost2010Prop32
280
     0
102
RTVSPost2010PropOp32
 70
     1
102
RTVSPost2010Prop33
280
     0
102
RTVSPost2010PropOp33
 70
     1
102
RTVSPost2010Prop34
280
     0
102
RTVSPost2010PropOp34
 70
     1
102
RTVSPost2010Prop35
280
     0
102
RTVSPost2010PropOp35
 70
     1
102
RTVSPost2010Prop36
280
     0
102
RTVSPost2010PropOp36
 70
     1
102
RTVSPost2010Prop37
 90
       50
102
RTVSPost2010PropOp37
 70
     1
102
RTVSPost2010Prop38
140
0.0
102
RTVSPost2010PropOp38
 70
     1
102
RTVSPost2010Prop39
140
1.0
102
RTVSPost2010PropOp39
 70
     1
102
RTVSPost2010Prop40
 90
        0
102
RTVSPost2010PropOp40
 70
     1
102
RTVSPost2010Prop41ColorIndex
 90
       18
102
RTVSPost2010Prop41ColorRGB
 90
        0
102
RTVSPost2010PropOp41
 70
     1
102
RTVSPost2010Prop42
 90
       50
102
RTVSPost2010PropOp42
 70
     1
102
RTVSPost2010Prop43
 90
        3
102
RTVSPost2010PropOp43
 70
     1
102
RTVSPost2010Prop44ColorIndex
 90
        5
102
RTVSPost2010Prop44ColorRGB
 90
      255
102
RTVSPost2010PropOp44
 70
     1
102
RTVSPost2010Prop45
280
     0
102
RTVSPost2010PropOp45
 70
     1
102
RTVSPost2010Prop46
 90
       50
102
RTVSPost2010PropOp46
 70
     1
102
RTVSPost2010Prop47
 90
       50
102
RTVSPost2010PropOp47
 70
     1
102
RTVSPost2010Prop48
 90
       50
102
RTVSPost2010PropOp48
 70
     1
102
RTVSPost2010Prop49
280
     0
102
RTVSPost2010PropOp49
 70
     1
102
RTVSPost2010Prop50
 90
       50
102
RTVSPost2010PropOp50
 70
     1
102
RTVSPost2010Prop51ColorIndex
 90
      256
102
RTVSPost2010Prop51ColorRGB
 90
-16777216
102
RTVSPost2010PropOp51
 70
     0
102
RTVSPost2010Prop52
140
1.0
102
RTVSPost2010PropOp52
 70
     0
102
RTVSPost2010Prop53
 90
        2
102
RTVSPost2010PropOp53
 70
     1
102
RTVSPost2010Prop54
  1
strokes_ogs.tif
102
RTVSPost2010PropOp54
 70
     1
102
RTVSPost2010Prop55
280
     0
102
RTVSPost2010PropOp55
 70
     1
102
RTVSPost2010Prop56
140
1.0
102
RTVSPost2010PropOp56
 70
     1
102
RTVSPost2010Prop57
140
1.0
102
RTVSPost2010PropOp57
 70
     1
102
RTVSPropertyOp0
 70
     1
102
RTVSPropertyOp1
 70
     1
102
RTVSPropertyOp2
 70
     1
102
RTVSPropertyOp3
 70
     1
102
RTVSPropertyOp4
 70
     1
102
RTVSPropertyOp5
 70
     1
102
RTVSPropertyOp6
 70
     1
102
RTVSPropertyOp7
 70
     1
102
RTVSPropertyOp8
 70
     1
102
RTVSPropertyOp9
 70
     1
102
RTVSPropertyOp10
 70
     1
102
RTVSPropertyOp11
 70
     1
102
RTVSPropertyOp12
 70
     1
102
RTVSPropertyOp13
 70
     1
102
RTVSPropertyOp14
 70
     1
102
RTVSPropertyOp15
 70
     1
102
RTVSPropertyOp16
 70
     1
102
RTVSPropertyOp17
 70
     1
102
RTVSPropertyOp18
 70
     1
102
RTVSPropertyOp19
 70
     1
102
RTVSPropertyOp20
 70
     1
102
RTVSPropertyOp21
 70
     1
102
RTVSPropertyOp22
 70
     1
102
RTVSPropertyOp23
 70
     1
102
RTVSPropertyOp24
 70
     1
102
RTVSPropertyOp25
 70
     1
102
RTVSPropertyOp26
 70
     1
102
RTVSPropertyOp27
 70
     1
102
RTVSPropertyOp28
 70
     1
102
RTVSPropertyOp29
 70
     1
102
RTVSPropertyOp30
 70
     1
102
RTVSPropertyOp31
 70
     1
102
RTVSPropertyOp32
 70
     1
102
RTVSPropertyOp33
 70
     1
102
RTVSPropertyOp34
 70
     1
102
RTVSPropertyOp35
 70
     1
102
RTVSPropertyOp36
 70
     1
102
RTVSPropertyOp37
 70
     1
102
RTVSPropertyOp38
 70
     1
102
RTVSPropertyOp39
 70
     1
102
RTVSPropertyOp40
 70
     1
102
RTVSPropertyOp41
 70
     1
102
RTVSPropertyOp42
 70
     1
102
RTVSPropertyOp43
 70
     1
102
RTVSPropertyOp44
 70
     1
102
RTVSPropertyOp45
 70
     1
102
RTVSPropertyOp46
 70
     1
102
RTVSPropertyOp47
 70
     1
102
RTVSPropertyOp48
 70
     1
102
RTVSPropertyOp49
 70
     1
102
RTVSPropertyOp50
 70
     1
102
RTVSPropertyOp51
 70
     0
102
RTVSPropertyOp52
 70
     0
102
RTVSPropertyOp53
 70
     1
102
RTVSPropertyOp54
 70
     1
102
RTVSPropertyOp55
 70
     1
102
RTVSPropertyOp56
 70
     1
102
RTVSPropertyOp57
 70
     1
102
RTVSPropertyOp58
 70
     1
102
RTVSPropertyOp59
 70
     1
102
RTVSPropertyOp60
 70
     1
102
RTVSPropertyOp61
 70
     1
102
RTVSPropertyOp62
 70
     1
  0
XRECORD
  5
2EE2
102
{ACAD_REACTORS
330
2EE1
102
}
330
2EE1
100
AcDbXrecord
280
     1
102
RTVSPost2010Prop28
280
     0
102
RTVSPost2010PropOp28
 70
     1
102
RTVSPost2010Prop29
280
     1
102
RTVSPost2010PropOp29
 70
     1
102
RTVSPost2010Prop30
280
     1
102
RTVSPost2010PropOp30
 70
     1
102
RTVSPost2010Prop31
280
     0
102
RTVSPost2010PropOp31
 70
     1
102
RTVSPost2010Prop32
280
     0
102
RTVSPost2010PropOp32
 70
     1
102
RTVSPost2010Prop33
280
     0
102
RTVSPost2010PropOp33
 70
     1
102
RTVSPost2010Prop34
280
     0
102
RTVSPost2010PropOp34
 70
     1
102
RTVSPost2010Prop35
280
     0
102
RTVSPost2010PropOp35
 70
     1
102
RTVSPost2010Prop36
280
     0
102
RTVSPost2010PropOp36
 70
     1
102
RTVSPost2010Prop37
 90
       50
102
RTVSPost2010PropOp37
 70
     1
102
RTVSPost2010Prop38
140
0.0
102
RTVSPost2010PropOp38
 70
     1
102
RTVSPost2010Prop39
140
1.0
102
RTVSPost2010PropOp39
 70
     1
102
RTVSPost2010Prop40
 90
        0
102
RTVSPost2010PropOp40
 70
     1
102
RTVSPost2010Prop41ColorIndex
 90
       18
102
RTVSPost2010Prop41ColorRGB
 90
        0
102
RTVSPost2010PropOp41
 70
     1
102
RTVSPost2010Prop42
 90
       50
102
RTVSPost2010PropOp42
 70
     1
102
RTVSPost2010Prop43
 90
        3
102
RTVSPost2010PropOp43
 70
     1
102
RTVSPost2010Prop44ColorIndex
 90
        5
102
RTVSPost2010Prop44ColorRGB
 90
      255
102
RTVSPost2010PropOp44
 70
     1
102
RTVSPost2010Prop45
280
     0
102
RTVSPost2010PropOp45
 70
     1
102
RTVSPost2010Prop46
 90
       50
102
RTVSPost2010PropOp46
 70
     1
102
RTVSPost2010Prop47
 90
       50
102
RTVSPost2010PropOp47
 70
     1
102
RTVSPost2010Prop48
 90
       50
102
RTVSPost2010PropOp48
 70
     1
102
RTVSPost2010Prop49
280
     0
102
RTVSPost2010PropOp49
 70
     1
102
RTVSPost2010Prop50
 90
       50
102
RTVSPost2010PropOp50
 70
     1
102
RTVSPost2010Prop51ColorIndex
 90
      256
102
RTVSPost2010Prop51ColorRGB
 90
-16777216
102
RTVSPost2010PropOp51
 70
     0
102
RTVSPost2010Prop52
140
1.0
102
RTVSPost2010PropOp52
 70
     0
102
RTVSPost2010Prop53
 90
        2
102
RTVSPost2010PropOp53
 70
     1
102
RTVSPost2010Prop54
  1
strokes_ogs.tif
102
RTVSPost2010PropOp54
 70
     1
102
RTVSPost2010Prop55
280
     0
102
RTVSPost2010PropOp55
 70
     1
102
RTVSPost2010Prop56
140
1.0
102
RTVSPost2010PropOp56
 70
     1
102
RTVSPost2010Prop57
140
1.0
102
RTVSPost2010PropOp57
 70
     1
102
RTVSPropertyOp0
 70
     1
102
RTVSPropertyOp1
 70
     1
102
RTVSPropertyOp2
 70
     1
102
RTVSPropertyOp3
 70
     1
102
RTVSPropertyOp4
 70
     1
102
RTVSPropertyOp5
 70
     1
102
RTVSPropertyOp6
 70
     1
102
RTVSPropertyOp7
 70
     1
102
RTVSPropertyOp8
 70
     1
102
RTVSPropertyOp9
 70
     1
102
RTVSPropertyOp10
 70
     1
102
RTVSPropertyOp11
 70
     1
102
RTVSPropertyOp12
 70
     1
102
RTVSPropertyOp13
 70
     1
102
RTVSPropertyOp14
 70
     1
102
RTVSPropertyOp15
 70
     1
102
RTVSPropertyOp16
 70
     1
102
RTVSPropertyOp17
 70
     1
102
RTVSPropertyOp18
 70
     1
102
RTVSPropertyOp19
 70
     1
102
RTVSPropertyOp20
 70
     1
102
RTVSPropertyOp21
 70
     1
102
RTVSPropertyOp22
 70
     1
102
RTVSPropertyOp23
 70
     1
102
RTVSPropertyOp24
 70
     1
102
RTVSPropertyOp25
 70
     1
102
RTVSPropertyOp26
 70
     1
102
RTVSPropertyOp27
 70
     1
102
RTVSPropertyOp28
 70
     1
102
RTVSPropertyOp29
 70
     1
102
RTVSPropertyOp30
 70
     1
102
RTVSPropertyOp31
 70
     1
102
RTVSPropertyOp32
 70
     1
102
RTVSPropertyOp33
 70
     1
102
RTVSPropertyOp34
 70
     1
102
RTVSPropertyOp35
 70
     1
102
RTVSPropertyOp36
 70
     1
102
RTVSPropertyOp37
 70
     1
102
RTVSPropertyOp38
 70
     1
102
RTVSPropertyOp39
 70
     1
102
RTVSPropertyOp40
 70
     1
102
RTVSPropertyOp41
 70
     1
102
RTVSPropertyOp42
 70
     1
102
RTVSPropertyOp43
 70
     1
102
RTVSPropertyOp44
 70
     1
102
RTVSPropertyOp45
 70
     1
102
RTVSPropertyOp46
 70
     1
102
RTVSPropertyOp47
 70
     1
102
RTVSPropertyOp48
 70
     1
102
RTVSPropertyOp49
 70
     1
102
RTVSPropertyOp50
 70
     1
102
RTVSPropertyOp51
 70
     0
102
RTVSPropertyOp52
 70
     0
102
RTVSPropertyOp53
 70
     1
102
RTVSPropertyOp54
 70
     1
102
RTVSPropertyOp55
 70
     1
102
RTVSPropertyOp56
 70
     1
102
RTVSPropertyOp57
 70
     1
102
RTVSPropertyOp58
 70
     1
102
RTVSPropertyOp59
 70
     1
102
RTVSPropertyOp60
 70
     1
102
RTVSPropertyOp61
 70
     1
102
RTVSPropertyOp62
 70
     1
  0
XRECORD
  5
2EE4
102
{ACAD_REACTORS
330
2EE3
102
}
330
2EE3
100
AcDbXrecord
280
     1
102
RTVSPost2010Prop28
280
     0
102
RTVSPost2010PropOp28
 70
     1
102
RTVSPost2010Prop29
280
     1
102
RTVSPost2010PropOp29
 70
     1
102
RTVSPost2010Prop30
280
     1
102
RTVSPost2010PropOp30
 70
     1
102
RTVSPost2010Prop31
280
     0
102
RTVSPost2010PropOp31
 70
     1
102
RTVSPost2010Prop32
280
     0
102
RTVSPost2010PropOp32
 70
     1
102
RTVSPost2010Prop33
280
     0
102
RTVSPost2010PropOp33
 70
     1
102
RTVSPost2010Prop34
280
     0
102
RTVSPost2010PropOp34
 70
     1
102
RTVSPost2010Prop35
280
     0
102
RTVSPost2010PropOp35
 70
     1
102
RTVSPost2010Prop36
280
     0
102
RTVSPost2010PropOp36
 70
     1
102
RTVSPost2010Prop37
 90
       50
102
RTVSPost2010PropOp37
 70
     1
102
RTVSPost2010Prop38
140
0.0
102
RTVSPost2010PropOp38
 70
     1
102
RTVSPost2010Prop39
140
1.0
102
RTVSPost2010PropOp39
 70
     1
102
RTVSPost2010Prop40
 90
        0
102
RTVSPost2010PropOp40
 70
     1
102
RTVSPost2010Prop41ColorIndex
 90
       18
102
RTVSPost2010Prop41ColorRGB
 90
        0
102
RTVSPost2010PropOp41
 70
     1
102
RTVSPost2010Prop42
 90
       50
102
RTVSPost2010PropOp42
 70
     1
102
RTVSPost2010Prop43
 90
        3
102
RTVSPost2010PropOp43
 70
     1
102
RTVSPost2010Prop44ColorIndex
 90
        5
102
RTVSPost2010Prop44ColorRGB
 90
      255
102
RTVSPost2010PropOp44
 70
     1
102
RTVSPost2010Prop45
280
     0
102
RTVSPost2010PropOp45
 70
     1
102
RTVSPost2010Prop46
 90
       50
102
RTVSPost2010PropOp46
 70
     1
102
RTVSPost2010Prop47
 90
       50
102
RTVSPost2010PropOp47
 70
     1
102
RTVSPost2010Prop48
 90
       50
102
RTVSPost2010PropOp48
 70
     1
102
RTVSPost2010Prop49
280
     0
102
RTVSPost2010PropOp49
 70
     1
102
RTVSPost2010Prop50
 90
       50
102
RTVSPost2010PropOp50
 70
     1
102
RTVSPost2010Prop51ColorIndex
 90
      256
102
RTVSPost2010Prop51ColorRGB
 90
-16777216
102
RTVSPost2010PropOp51
 70
     0
102
RTVSPost2010Prop52
140
1.0
102
RTVSPost2010PropOp52
 70
     0
102
RTVSPost2010Prop53
 90
        2
102
RTVSPost2010PropOp53
 70
     1
102
RTVSPost2010Prop54
  1
strokes_ogs.tif
102
RTVSPost2010PropOp54
 70
     1
102
RTVSPost2010Prop55
280
     0
102
RTVSPost2010PropOp55
 70
     1
102
RTVSPost2010Prop56
140
1.0
102
RTVSPost2010PropOp56
 70
     1
102
RTVSPost2010Prop57
140
1.0
102
RTVSPost2010PropOp57
 70
     1
102
RTVSPropertyOp0
 70
     1
102
RTVSPropertyOp1
 70
     1
102
RTVSPropertyOp2
 70
     1
102
RTVSPropertyOp3
 70
     1
102
RTVSPropertyOp4
 70
     1
102
RTVSPropertyOp5
 70
     1
102
RTVSPropertyOp6
 70
     1
102
RTVSPropertyOp7
 70
     1
102
RTVSPropertyOp8
 70
     1
102
RTVSPropertyOp9
 70
     1
102
RTVSPropertyOp10
 70
     1
102
RTVSPropertyOp11
 70
     1
102
RTVSPropertyOp12
 70
     1
102
RTVSPropertyOp13
 70
     1
102
RTVSPropertyOp14
 70
     1
102
RTVSPropertyOp15
 70
     1
102
RTVSPropertyOp16
 70
     1
102
RTVSPropertyOp17
 70
     1
102
RTVSPropertyOp18
 70
     1
102
RTVSPropertyOp19
 70
     1
102
RTVSPropertyOp20
 70
     1
102
RTVSPropertyOp21
 70
     1
102
RTVSPropertyOp22
 70
     1
102
RTVSPropertyOp23
 70
     1
102
RTVSPropertyOp24
 70
     1
102
RTVSPropertyOp25
 70
     1
102
RTVSPropertyOp26
 70
     1
102
RTVSPropertyOp27
 70
     1
102
RTVSPropertyOp28
 70
     1
102
RTVSPropertyOp29
 70
     1
102
RTVSPropertyOp30
 70
     1
102
RTVSPropertyOp31
 70
     1
102
RTVSPropertyOp32
 70
     1
102
RTVSPropertyOp33
 70
     1
102
RTVSPropertyOp34
 70
     1
102
RTVSPropertyOp35
 70
     1
102
RTVSPropertyOp36
 70
     1
102
RTVSPropertyOp37
 70
     1
102
RTVSPropertyOp38
 70
     1
102
RTVSPropertyOp39
 70
     1
102
RTVSPropertyOp40
 70
     1
102
RTVSPropertyOp41
 70
     1
102
RTVSPropertyOp42
 70
     1
102
RTVSPropertyOp43
 70
     1
102
RTVSPropertyOp44
 70
     1
102
RTVSPropertyOp45
 70
     1
102
RTVSPropertyOp46
 70
     1
102
RTVSPropertyOp47
 70
     1
102
RTVSPropertyOp48
 70
     1
102
RTVSPropertyOp49
 70
     1
102
RTVSPropertyOp50
 70
     1
102
RTVSPropertyOp51
 70
     0
102
RTVSPropertyOp52
 70
     0
102
RTVSPropertyOp53
 70
     1
102
RTVSPropertyOp54
 70
     1
102
RTVSPropertyOp55
 70
     1
102
RTVSPropertyOp56
 70
     1
102
RTVSPropertyOp57
 70
     1
102
RTVSPropertyOp58
 70
     1
102
RTVSPropertyOp59
 70
     1
102
RTVSPropertyOp60
 70
     1
102
RTVSPropertyOp61
 70
     1
102
RTVSPropertyOp62
 70
     1
  0
XRECORD
  5
2EEC
102
{ACAD_REACTORS
330
2EEB
102
}
330
2EEB
100
AcDbXrecord
280
     1
102
RTVSPost2010Prop28
280
     0
102
RTVSPost2010PropOp28
 70
     1
102
RTVSPost2010Prop29
280
     1
102
RTVSPost2010PropOp29
 70
     1
102
RTVSPost2010Prop30
280
     1
102
RTVSPost2010PropOp30
 70
     1
102
RTVSPost2010Prop31
280
     0
102
RTVSPost2010PropOp31
 70
     1
102
RTVSPost2010Prop32
280
     0
102
RTVSPost2010PropOp32
 70
     1
102
RTVSPost2010Prop33
280
     0
102
RTVSPost2010PropOp33
 70
     1
102
RTVSPost2010Prop34
280
     0
102
RTVSPost2010PropOp34
 70
     1
102
RTVSPost2010Prop35
280
     0
102
RTVSPost2010PropOp35
 70
     1
102
RTVSPost2010Prop36
280
     0
102
RTVSPost2010PropOp36
 70
     1
102
RTVSPost2010Prop37
 90
       50
102
RTVSPost2010PropOp37
 70
     1
102
RTVSPost2010Prop38
140
0.0
102
RTVSPost2010PropOp38
 70
     1
102
RTVSPost2010Prop39
140
1.0
102
RTVSPost2010PropOp39
 70
     1
102
RTVSPost2010Prop40
 90
        0
102
RTVSPost2010PropOp40
 70
     1
102
RTVSPost2010Prop41ColorIndex
 90
       18
102
RTVSPost2010Prop41ColorRGB
 90
        0
102
RTVSPost2010PropOp41
 70
     1
102
RTVSPost2010Prop42
 90
       50
102
RTVSPost2010PropOp42
 70
     1
102
RTVSPost2010Prop43
 90
        3
102
RTVSPost2010PropOp43
 70
     1
102
RTVSPost2010Prop44ColorIndex
 90
        5
102
RTVSPost2010Prop44ColorRGB
 90
      255
102
RTVSPost2010PropOp44
 70
     1
102
RTVSPost2010Prop45
280
     0
102
RTVSPost2010PropOp45
 70
     1
102
RTVSPost2010Prop46
 90
       50
102
RTVSPost2010PropOp46
 70
     1
102
RTVSPost2010Prop47
 90
       50
102
RTVSPost2010PropOp47
 70
     1
102
RTVSPost2010Prop48
 90
       50
102
RTVSPost2010PropOp48
 70
     1
102
RTVSPost2010Prop49
280
     0
102
RTVSPost2010PropOp49
 70
     1
102
RTVSPost2010Prop50
 90
       50
102
RTVSPost2010PropOp50
 70
     1
102
RTVSPost2010Prop51ColorIndex
 90
      256
102
RTVSPost2010Prop51ColorRGB
 90
-16777216
102
RTVSPost2010PropOp51
 70
     0
102
RTVSPost2010Prop52
140
1.0
102
RTVSPost2010PropOp52
 70
     0
102
RTVSPost2010Prop53
 90
        2
102
RTVSPost2010PropOp53
 70
     1
102
RTVSPost2010Prop54
  1
strokes_ogs.tif
102
RTVSPost2010PropOp54
 70
     1
102
RTVSPost2010Prop55
280
     0
102
RTVSPost2010PropOp55
 70
     1
102
RTVSPost2010Prop56
140
1.0
102
RTVSPost2010PropOp56
 70
     1
102
RTVSPost2010Prop57
140
1.0
102
RTVSPost2010PropOp57
 70
     1
102
RTVSPropertyOp0
 70
     1
102
RTVSPropertyOp1
 70
     1
102
RTVSPropertyOp2
 70
     1
102
RTVSPropertyOp3
 70
     1
102
RTVSPropertyOp4
 70
     1
102
RTVSPropertyOp5
 70
     1
102
RTVSPropertyOp6
 70
     1
102
RTVSPropertyOp7
 70
     1
102
RTVSPropertyOp8
 70
     1
102
RTVSPropertyOp9
 70
     1
102
RTVSPropertyOp10
 70
     1
102
RTVSPropertyOp11
 70
     1
102
RTVSPropertyOp12
 70
     1
102
RTVSPropertyOp13
 70
     1
102
RTVSPropertyOp14
 70
     1
102
RTVSPropertyOp15
 70
     1
102
RTVSPropertyOp16
 70
     1
102
RTVSPropertyOp17
 70
     1
102
RTVSPropertyOp18
 70
     1
102
RTVSPropertyOp19
 70
     1
102
RTVSPropertyOp20
 70
     1
102
RTVSPropertyOp21
 70
     1
102
RTVSPropertyOp22
 70
     1
102
RTVSPropertyOp23
 70
     1
102
RTVSPropertyOp24
 70
     1
102
RTVSPropertyOp25
 70
     1
102
RTVSPropertyOp26
 70
     1
102
RTVSPropertyOp27
 70
     1
102
RTVSPropertyOp28
 70
     1
102
RTVSPropertyOp29
 70
     1
102
RTVSPropertyOp30
 70
     1
102
RTVSPropertyOp31
 70
     1
102
RTVSPropertyOp32
 70
     1
102
RTVSPropertyOp33
 70
     1
102
RTVSPropertyOp34
 70
     1
102
RTVSPropertyOp35
 70
     1
102
RTVSPropertyOp36
 70
     1
102
RTVSPropertyOp37
 70
     1
102
RTVSPropertyOp38
 70
     1
102
RTVSPropertyOp39
 70
     1
102
RTVSPropertyOp40
 70
     1
102
RTVSPropertyOp41
 70
     1
102
RTVSPropertyOp42
 70
     1
102
RTVSPropertyOp43
 70
     1
102
RTVSPropertyOp44
 70
     1
102
RTVSPropertyOp45
 70
     1
102
RTVSPropertyOp46
 70
     1
102
RTVSPropertyOp47
 70
     1
102
RTVSPropertyOp48
 70
     1
102
RTVSPropertyOp49
 70
     1
102
RTVSPropertyOp50
 70
     1
102
RTVSPropertyOp51
 70
     0
102
RTVSPropertyOp52
 70
     0
102
RTVSPropertyOp53
 70
     1
102
RTVSPropertyOp54
 70
     1
102
RTVSPropertyOp55
 70
     1
102
RTVSPropertyOp56
 70
     1
102
RTVSPropertyOp57
 70
     1
102
RTVSPropertyOp58
 70
     1
102
RTVSPropertyOp59
 70
     1
102
RTVSPropertyOp60
 70
     1
102
RTVSPropertyOp61
 70
     1
102
RTVSPropertyOp62
 70
     1
  0
XRECORD
  5
2F08
102
{ACAD_REACTORS
330
2F07
102
}
330
2F07
100
AcDbXrecord
280
     1
102
RTVSPost2010Prop28
280
     0
102
RTVSPost2010PropOp28
 70
     1
102
RTVSPost2010Prop29
280
     1
102
RTVSPost2010PropOp29
 70
     1
102
RTVSPost2010Prop30
280
     1
102
RTVSPost2010PropOp30
 70
     1
102
RTVSPost2010Prop31
280
     0
102
RTVSPost2010PropOp31
 70
     1
102
RTVSPost2010Prop32
280
     0
102
RTVSPost2010PropOp32
 70
     1
102
RTVSPost2010Prop33
280
     0
102
RTVSPost2010PropOp33
 70
     1
102
RTVSPost2010Prop34
280
     0
102
RTVSPost2010PropOp34
 70
     1
102
RTVSPost2010Prop35
280
     0
102
RTVSPost2010PropOp35
 70
     1
102
RTVSPost2010Prop36
280
     0
102
RTVSPost2010PropOp36
 70
     1
102
RTVSPost2010Prop37
 90
       50
102
RTVSPost2010PropOp37
 70
     0
102
RTVSPost2010Prop38
140
0.0
102
RTVSPost2010PropOp38
 70
     0
102
RTVSPost2010Prop39
140
1.0
102
RTVSPost2010PropOp39
 70
     0
102
RTVSPost2010Prop40
 90
        0
102
RTVSPost2010PropOp40
 70
     0
102
RTVSPost2010Prop41ColorIndex
 90
       18
102
RTVSPost2010Prop41ColorRGB
 90
        0
102
RTVSPost2010PropOp41
 70
     0
102
RTVSPost2010Prop42
 90
       50
102
RTVSPost2010PropOp42
 70
     0
102
RTVSPost2010Prop43
 90
        3
102
RTVSPost2010PropOp43
 70
     0
102
RTVSPost2010Prop44ColorIndex
 90
        5
102
RTVSPost2010Prop44ColorRGB
 90
      255
102
RTVSPost2010PropOp44
 70
     0
102
RTVSPost2010Prop45
280
     0
102
RTVSPost2010PropOp45
 70
     1
102
RTVSPost2010Prop46
 90
       50
102
RTVSPost2010PropOp46
 70
     0
102
RTVSPost2010Prop47
 90
       50
102
RTVSPost2010PropOp47
 70
     0
102
RTVSPost2010Prop48
 90
       50
102
RTVSPost2010PropOp48
 70
     0
102
RTVSPost2010Prop49
280
     0
102
RTVSPost2010PropOp49
 70
     1
102
RTVSPost2010Prop50
 90
       50
102
RTVSPost2010PropOp50
 70
     0
102
RTVSPost2010Prop51ColorIndex
 90
      256
102
RTVSPost2010Prop51ColorRGB
 90
-16777216
102
RTVSPost2010PropOp51
 70
     0
102
RTVSPost2010Prop52
140
1.0
102
RTVSPost2010PropOp52
 70
     0
102
RTVSPost2010Prop53
 90
        2
102
RTVSPost2010PropOp53
 70
     0
102
RTVSPost2010Prop54
  1
strokes_ogs.tif
102
RTVSPost2010PropOp54
 70
     0
102
RTVSPost2010Prop55
280
     0
102
RTVSPost2010PropOp55
 70
     1
102
RTVSPost2010Prop56
140
1.0
102
RTVSPost2010PropOp56
 70
     0
102
RTVSPost2010Prop57
140
1.0
102
RTVSPost2010PropOp57
 70
     0
102
RTVSPropertyOp0
 70
     0
102
RTVSPropertyOp1
 70
     0
102
RTVSPropertyOp2
 70
     0
102
RTVSPropertyOp3
 70
     0
102
RTVSPropertyOp4
 70
     0
102
RTVSPropertyOp5
 70
     0
102
RTVSPropertyOp6
 70
     0
102
RTVSPropertyOp7
 70
     0
102
RTVSPropertyOp8
 70
     0
102
RTVSPropertyOp9
 70
     0
102
RTVSPropertyOp10
 70
     0
102
RTVSPropertyOp11
 70
     0
102
RTVSPropertyOp12
 70
     0
102
RTVSPropertyOp13
 70
     0
102
RTVSPropertyOp14
 70
     2
102
RTVSPropertyOp15
 70
     0
102
RTVSPropertyOp16
 70
     0
102
RTVSPropertyOp17
 70
     0
102
RTVSPropertyOp18
 70
     0
102
RTVSPropertyOp19
 70
     0
102
RTVSPropertyOp20
 70
     0
102
RTVSPropertyOp21
 70
     0
102
RTVSPropertyOp22
 70
     0
102
RTVSPropertyOp23
 70
     0
102
RTVSPropertyOp24
 70
     0
102
RTVSPropertyOp25
 70
     0
102
RTVSPropertyOp26
 70
     0
102
RTVSPropertyOp27
 70
     0
102
RTVSPropertyOp28
 70
     1
102
RTVSPropertyOp29
 70
     1
102
RTVSPropertyOp30
 70
     1
102
RTVSPropertyOp31
 70
     1
102
RTVSPropertyOp32
 70
     1
102
RTVSPropertyOp33
 70
     1
102
RTVSPropertyOp34
 70
     1
102
RTVSPropertyOp35
 70
     1
102
RTVSPropertyOp36
 70
     1
102
RTVSPropertyOp37
 70
     0
102
RTVSPropertyOp38
 70
     0
102
RTVSPropertyOp39
 70
     0
102
RTVSPropertyOp40
 70
     0
102
RTVSPropertyOp41
 70
     0
102
RTVSPropertyOp42
 70
     0
102
RTVSPropertyOp43
 70
     0
102
RTVSPropertyOp44
 70
     0
102
RTVSPropertyOp45
 70
     1
102
RTVSPropertyOp46
 70
     0
102
RTVSPropertyOp47
 70
     0
102
RTVSPropertyOp48
 70
     0
102
RTVSPropertyOp49
 70
     1
102
RTVSPropertyOp50
 70
     0
102
RTVSPropertyOp51
 70
     0
102
RTVSPropertyOp52
 70
     0
102
RTVSPropertyOp53
 70
     0
102
RTVSPropertyOp54
 70
     0
102
RTVSPropertyOp55
 70
     1
102
RTVSPropertyOp56
 70
     0
102
RTVSPropertyOp57
 70
     0
102
RTVSPropertyOp58
 70
     1
102
RTVSPropertyOp59
 70
     1
102
RTVSPropertyOp60
 70
     1
102
RTVSPropertyOp61
 70
     1
102
RTVSPropertyOp62
 70
     1
  0
XRECORD
  5
2EF8
102
{ACAD_REACTORS
330
2EF7
102
}
330
2EF7
100
AcDbXrecord
280
     1
102
RTVSPost2010Prop28
280
     0
102
RTVSPost2010PropOp28
 70
     1
102
RTVSPost2010Prop29
280
     1
102
RTVSPost2010PropOp29
 70
     1
102
RTVSPost2010Prop30
280
     1
102
RTVSPost2010PropOp30
 70
     1
102
RTVSPost2010Prop31
280
     0
102
RTVSPost2010PropOp31
 70
     1
102
RTVSPost2010Prop32
280
     0
102
RTVSPost2010PropOp32
 70
     1
102
RTVSPost2010Prop33
280
     0
102
RTVSPost2010PropOp33
 70
     1
102
RTVSPost2010Prop34
280
     0
102
RTVSPost2010PropOp34
 70
     1
102
RTVSPost2010Prop35
280
     0
102
RTVSPost2010PropOp35
 70
     1
102
RTVSPost2010Prop36
280
     0
102
RTVSPost2010PropOp36
 70
     1
102
RTVSPost2010Prop37
 90
       50
102
RTVSPost2010PropOp37
 70
     1
102
RTVSPost2010Prop38
140
0.0
102
RTVSPost2010PropOp38
 70
     1
102
RTVSPost2010Prop39
140
1.0
102
RTVSPost2010PropOp39
 70
     1
102
RTVSPost2010Prop40
 90
        0
102
RTVSPost2010PropOp40
 70
     1
102
RTVSPost2010Prop41ColorIndex
 90
       18
102
RTVSPost2010Prop41ColorRGB
 90
        0
102
RTVSPost2010PropOp41
 70
     1
102
RTVSPost2010Prop42
 90
       50
102
RTVSPost2010PropOp42
 70
     1
102
RTVSPost2010Prop43
 90
        3
102
RTVSPost2010PropOp43
 70
     1
102
RTVSPost2010Prop44ColorIndex
 90
        5
102
RTVSPost2010Prop44ColorRGB
 90
      255
102
RTVSPost2010PropOp44
 70
     1
102
RTVSPost2010Prop45
280
     0
102
RTVSPost2010PropOp45
 70
     1
102
RTVSPost2010Prop46
 90
       50
102
RTVSPost2010PropOp46
 70
     1
102
RTVSPost2010Prop47
 90
       50
102
RTVSPost2010PropOp47
 70
     1
102
RTVSPost2010Prop48
 90
       50
102
RTVSPost2010PropOp48
 70
     1
102
RTVSPost2010Prop49
280
     0
102
RTVSPost2010PropOp49
 70
     1
102
RTVSPost2010Prop50
 90
       50
102
RTVSPost2010PropOp50
 70
     1
102
RTVSPost2010Prop51ColorIndex
 90
      256
102
RTVSPost2010Prop51ColorRGB
 90
-16777216
102
RTVSPost2010PropOp51
 70
     0
102
RTVSPost2010Prop52
140
1.0
102
RTVSPost2010PropOp52
 70
     0
102
RTVSPost2010Prop53
 90
        2
102
RTVSPost2010PropOp53
 70
     1
102
RTVSPost2010Prop54
  1
strokes_ogs.tif
102
RTVSPost2010PropOp54
 70
     1
102
RTVSPost2010Prop55
280
     0
102
RTVSPost2010PropOp55
 70
     1
102
RTVSPost2010Prop56
140
1.0
102
RTVSPost2010PropOp56
 70
     1
102
RTVSPost2010Prop57
140
1.0
102
RTVSPost2010PropOp57
 70
     1
102
RTVSPropertyOp0
 70
     1
102
RTVSPropertyOp1
 70
     1
102
RTVSPropertyOp2
 70
     1
102
RTVSPropertyOp3
 70
     1
102
RTVSPropertyOp4
 70
     1
102
RTVSPropertyOp5
 70
     1
102
RTVSPropertyOp6
 70
     1
102
RTVSPropertyOp7
 70
     1
102
RTVSPropertyOp8
 70
     1
102
RTVSPropertyOp9
 70
     1
102
RTVSPropertyOp10
 70
     1
102
RTVSPropertyOp11
 70
     1
102
RTVSPropertyOp12
 70
     1
102
RTVSPropertyOp13
 70
     1
102
RTVSPropertyOp14
 70
     1
102
RTVSPropertyOp15
 70
     1
102
RTVSPropertyOp16
 70
     1
102
RTVSPropertyOp17
 70
     1
102
RTVSPropertyOp18
 70
     1
102
RTVSPropertyOp19
 70
     1
102
RTVSPropertyOp20
 70
     1
102
RTVSPropertyOp21
 70
     1
102
RTVSPropertyOp22
 70
     1
102
RTVSPropertyOp23
 70
     1
102
RTVSPropertyOp24
 70
     1
102
RTVSPropertyOp25
 70
     1
102
RTVSPropertyOp26
 70
     1
102
RTVSPropertyOp27
 70
     1
102
RTVSPropertyOp28
 70
     1
102
RTVSPropertyOp29
 70
     1
102
RTVSPropertyOp30
 70
     1
102
RTVSPropertyOp31
 70
     1
102
RTVSPropertyOp32
 70
     1
102
RTVSPropertyOp33
 70
     1
102
RTVSPropertyOp34
 70
     1
102
RTVSPropertyOp35
 70
     1
102
RTVSPropertyOp36
 70
     1
102
RTVSPropertyOp37
 70
     1
102
RTVSPropertyOp38
 70
     1
102
RTVSPropertyOp39
 70
     1
102
RTVSPropertyOp40
 70
     1
102
RTVSPropertyOp41
 70
     1
102
RTVSPropertyOp42
 70
     1
102
RTVSPropertyOp43
 70
     1
102
RTVSPropertyOp44
 70
     1
102
RTVSPropertyOp45
 70
     1
102
RTVSPropertyOp46
 70
     1
102
RTVSPropertyOp47
 70
     1
102
RTVSPropertyOp48
 70
     1
102
RTVSPropertyOp49
 70
     1
102
RTVSPropertyOp50
 70
     1
102
RTVSPropertyOp51
 70
     0
102
RTVSPropertyOp52
 70
     0
102
RTVSPropertyOp53
 70
     1
102
RTVSPropertyOp54
 70
     1
102
RTVSPropertyOp55
 70
     1
102
RTVSPropertyOp56
 70
     1
102
RTVSPropertyOp57
 70
     1
102
RTVSPropertyOp58
 70
     1
102
RTVSPropertyOp59
 70
     1
102
RTVSPropertyOp60
 70
     1
102
RTVSPropertyOp61
 70
     1
102
RTVSPropertyOp62
 70
     1
  0
XRECORD
  5
2F0A
102
{ACAD_REACTORS
330
2F09
102
}
330
2F09
100
AcDbXrecord
280
     1
102
RTVSPost2010Prop28
280
     0
102
RTVSPost2010PropOp28
 70
     1
102
RTVSPost2010Prop29
280
     1
102
RTVSPost2010PropOp29
 70
     1
102
RTVSPost2010Prop30
280
     1
102
RTVSPost2010PropOp30
 70
     1
102
RTVSPost2010Prop31
280
     0
102
RTVSPost2010PropOp31
 70
     1
102
RTVSPost2010Prop32
280
     0
102
RTVSPost2010PropOp32
 70
     1
102
RTVSPost2010Prop33
280
     0
102
RTVSPost2010PropOp33
 70
     1
102
RTVSPost2010Prop34
280
     0
102
RTVSPost2010PropOp34
 70
     1
102
RTVSPost2010Prop35
280
     0
102
RTVSPost2010PropOp35
 70
     1
102
RTVSPost2010Prop36
280
     0
102
RTVSPost2010PropOp36
 70
     1
102
RTVSPost2010Prop37
 90
       50
102
RTVSPost2010PropOp37
 70
     0
102
RTVSPost2010Prop38
140
0.0
102
RTVSPost2010PropOp38
 70
     0
102
RTVSPost2010Prop39
140
1.0
102
RTVSPost2010PropOp39
 70
     0
102
RTVSPost2010Prop40
 90
        0
102
RTVSPost2010PropOp40
 70
     0
102
RTVSPost2010Prop41ColorIndex
 90
       18
102
RTVSPost2010Prop41ColorRGB
 90
        0
102
RTVSPost2010PropOp41
 70
     0
102
RTVSPost2010Prop42
 90
       50
102
RTVSPost2010PropOp42
 70
     0
102
RTVSPost2010Prop43
 90
        3
102
RTVSPost2010PropOp43
 70
     0
102
RTVSPost2010Prop44ColorIndex
 90
        5
102
RTVSPost2010Prop44ColorRGB
 90
      255
102
RTVSPost2010PropOp44
 70
     0
102
RTVSPost2010Prop45
280
     0
102
RTVSPost2010PropOp45
 70
     1
102
RTVSPost2010Prop46
 90
       50
102
RTVSPost2010PropOp46
 70
     0
102
RTVSPost2010Prop47
 90
       50
102
RTVSPost2010PropOp47
 70
     0
102
RTVSPost2010Prop48
 90
       50
102
RTVSPost2010PropOp48
 70
     0
102
RTVSPost2010Prop49
280
     0
102
RTVSPost2010PropOp49
 70
     1
102
RTVSPost2010Prop50
 90
       50
102
RTVSPost2010PropOp50
 70
     0
102
RTVSPost2010Prop51ColorIndex
 90
      256
102
RTVSPost2010Prop51ColorRGB
 90
-16777216
102
RTVSPost2010PropOp51
 70
     0
102
RTVSPost2010Prop52
140
1.0
102
RTVSPost2010PropOp52
 70
     0
102
RTVSPost2010Prop53
 90
        2
102
RTVSPost2010PropOp53
 70
     0
102
RTVSPost2010Prop54
  1
strokes_ogs.tif
102
RTVSPost2010PropOp54
 70
     0
102
RTVSPost2010Prop55
280
     0
102
RTVSPost2010PropOp55
 70
     1
102
RTVSPost2010Prop56
140
1.0
102
RTVSPost2010PropOp56
 70
     0
102
RTVSPost2010Prop57
140
1.0
102
RTVSPost2010PropOp57
 70
     0
102
RTVSPropertyOp0
 70
     0
102
RTVSPropertyOp1
 70
     0
102
RTVSPropertyOp2
 70
     0
102
RTVSPropertyOp3
 70
     0
102
RTVSPropertyOp4
 70
     0
102
RTVSPropertyOp5
 70
     0
102
RTVSPropertyOp6
 70
     0
102
RTVSPropertyOp7
 70
     0
102
RTVSPropertyOp8
 70
     0
102
RTVSPropertyOp9
 70
     0
102
RTVSPropertyOp10
 70
     0
102
RTVSPropertyOp11
 70
     0
102
RTVSPropertyOp12
 70
     0
102
RTVSPropertyOp13
 70
     0
102
RTVSPropertyOp14
 70
     2
102
RTVSPropertyOp15
 70
     0
102
RTVSPropertyOp16
 70
     0
102
RTVSPropertyOp17
 70
     0
102
RTVSPropertyOp18
 70
     0
102
RTVSPropertyOp19
 70
     0
102
RTVSPropertyOp20
 70
     0
102
RTVSPropertyOp21
 70
     0
102
RTVSPropertyOp22
 70
     0
102
RTVSPropertyOp23
 70
     0
102
RTVSPropertyOp24
 70
     0
102
RTVSPropertyOp25
 70
     0
102
RTVSPropertyOp26
 70
     0
102
RTVSPropertyOp27
 70
     0
102
RTVSPropertyOp28
 70
     1
102
RTVSPropertyOp29
 70
     1
102
RTVSPropertyOp30
 70
     1
102
RTVSPropertyOp31
 70
     1
102
RTVSPropertyOp32
 70
     1
102
RTVSPropertyOp33
 70
     1
102
RTVSPropertyOp34
 70
     1
102
RTVSPropertyOp35
 70
     1
102
RTVSPropertyOp36
 70
     1
102
RTVSPropertyOp37
 70
     0
102
RTVSPropertyOp38
 70
     0
102
RTVSPropertyOp39
 70
     0
102
RTVSPropertyOp40
 70
     0
102
RTVSPropertyOp41
 70
     0
102
RTVSPropertyOp42
 70
     0
102
RTVSPropertyOp43
 70
     0
102
RTVSPropertyOp44
 70
     0
102
RTVSPropertyOp45
 70
     1
102
RTVSPropertyOp46
 70
     0
102
RTVSPropertyOp47
 70
     0
102
RTVSPropertyOp48
 70
     0
102
RTVSPropertyOp49
 70
     1
102
RTVSPropertyOp50
 70
     0
102
RTVSPropertyOp51
 70
     0
102
RTVSPropertyOp52
 70
     0
102
RTVSPropertyOp53
 70
     0
102
RTVSPropertyOp54
 70
     0
102
RTVSPropertyOp55
 70
     1
102
RTVSPropertyOp56
 70
     0
102
RTVSPropertyOp57
 70
     0
102
RTVSPropertyOp58
 70
     1
102
RTVSPropertyOp59
 70
     1
102
RTVSPropertyOp60
 70
     1
102
RTVSPropertyOp61
 70
     1
102
RTVSPropertyOp62
 70
     1
  0
XRECORD
  5
2EF0
102
{ACAD_REACTORS
330
2EEF
102
}
330
2EEF
100
AcDbXrecord
280
     1
102
RTVSPost2010Prop28
280
     0
102
RTVSPost2010PropOp28
 70
     1
102
RTVSPost2010Prop29
280
     1
102
RTVSPost2010PropOp29
 70
     1
102
RTVSPost2010Prop30
280
     1
102
RTVSPost2010PropOp30
 70
     1
102
RTVSPost2010Prop31
280
     0
102
RTVSPost2010PropOp31
 70
     1
102
RTVSPost2010Prop32
280
     0
102
RTVSPost2010PropOp32
 70
     1
102
RTVSPost2010Prop33
280
     0
102
RTVSPost2010PropOp33
 70
     1
102
RTVSPost2010Prop34
280
     0
102
RTVSPost2010PropOp34
 70
     1
102
RTVSPost2010Prop35
280
     0
102
RTVSPost2010PropOp35
 70
     1
102
RTVSPost2010Prop36
280
     0
102
RTVSPost2010PropOp36
 70
     1
102
RTVSPost2010Prop37
 90
       50
102
RTVSPost2010PropOp37
 70
     1
102
RTVSPost2010Prop38
140
0.0
102
RTVSPost2010PropOp38
 70
     1
102
RTVSPost2010Prop39
140
1.0
102
RTVSPost2010PropOp39
 70
     1
102
RTVSPost2010Prop40
 90
        0
102
RTVSPost2010PropOp40
 70
     1
102
RTVSPost2010Prop41ColorIndex
 90
       18
102
RTVSPost2010Prop41ColorRGB
 90
        0
102
RTVSPost2010PropOp41
 70
     1
102
RTVSPost2010Prop42
 90
       50
102
RTVSPost2010PropOp42
 70
     1
102
RTVSPost2010Prop43
 90
        3
102
RTVSPost2010PropOp43
 70
     1
102
RTVSPost2010Prop44ColorIndex
 90
        5
102
RTVSPost2010Prop44ColorRGB
 90
      255
102
RTVSPost2010PropOp44
 70
     1
102
RTVSPost2010Prop45
280
     0
102
RTVSPost2010PropOp45
 70
     1
102
RTVSPost2010Prop46
 90
       50
102
RTVSPost2010PropOp46
 70
     1
102
RTVSPost2010Prop47
 90
       50
102
RTVSPost2010PropOp47
 70
     1
102
RTVSPost2010Prop48
 90
       50
102
RTVSPost2010PropOp48
 70
     1
102
RTVSPost2010Prop49
280
     0
102
RTVSPost2010PropOp49
 70
     1
102
RTVSPost2010Prop50
 90
       50
102
RTVSPost2010PropOp50
 70
     1
102
RTVSPost2010Prop51ColorIndex
 90
      256
102
RTVSPost2010Prop51ColorRGB
 90
-16777216
102
RTVSPost2010PropOp51
 70
     0
102
RTVSPost2010Prop52
140
1.0
102
RTVSPost2010PropOp52
 70
     0
102
RTVSPost2010Prop53
 90
        2
102
RTVSPost2010PropOp53
 70
     1
102
RTVSPost2010Prop54
  1
strokes_ogs.tif
102
RTVSPost2010PropOp54
 70
     1
102
RTVSPost2010Prop55
280
     0
102
RTVSPost2010PropOp55
 70
     1
102
RTVSPost2010Prop56
140
1.0
102
RTVSPost2010PropOp56
 70
     1
102
RTVSPost2010Prop57
140
1.0
102
RTVSPost2010PropOp57
 70
     1
102
RTVSPropertyOp0
 70
     1
102
RTVSPropertyOp1
 70
     1
102
RTVSPropertyOp2
 70
     1
102
RTVSPropertyOp3
 70
     1
102
RTVSPropertyOp4
 70
     1
102
RTVSPropertyOp5
 70
     1
102
RTVSPropertyOp6
 70
     1
102
RTVSPropertyOp7
 70
     1
102
RTVSPropertyOp8
 70
     1
102
RTVSPropertyOp9
 70
     1
102
RTVSPropertyOp10
 70
     1
102
RTVSPropertyOp11
 70
     1
102
RTVSPropertyOp12
 70
     1
102
RTVSPropertyOp13
 70
     1
102
RTVSPropertyOp14
 70
     1
102
RTVSPropertyOp15
 70
     1
102
RTVSPropertyOp16
 70
     1
102
RTVSPropertyOp17
 70
     1
102
RTVSPropertyOp18
 70
     1
102
RTVSPropertyOp19
 70
     1
102
RTVSPropertyOp20
 70
     1
102
RTVSPropertyOp21
 70
     1
102
RTVSPropertyOp22
 70
     1
102
RTVSPropertyOp23
 70
     1
102
RTVSPropertyOp24
 70
     1
102
RTVSPropertyOp25
 70
     1
102
RTVSPropertyOp26
 70
     1
102
RTVSPropertyOp27
 70
     1
102
RTVSPropertyOp28
 70
     1
102
RTVSPropertyOp29
 70
     1
102
RTVSPropertyOp30
 70
     1
102
RTVSPropertyOp31
 70
     1
102
RTVSPropertyOp32
 70
     1
102
RTVSPropertyOp33
 70
     1
102
RTVSPropertyOp34
 70
     1
102
RTVSPropertyOp35
 70
     1
102
RTVSPropertyOp36
 70
     1
102
RTVSPropertyOp37
 70
     1
102
RTVSPropertyOp38
 70
     1
102
RTVSPropertyOp39
 70
     1
102
RTVSPropertyOp40
 70
     1
102
RTVSPropertyOp41
 70
     1
102
RTVSPropertyOp42
 70
     1
102
RTVSPropertyOp43
 70
     1
102
RTVSPropertyOp44
 70
     1
102
RTVSPropertyOp45
 70
     1
102
RTVSPropertyOp46
 70
     1
102
RTVSPropertyOp47
 70
     1
102
RTVSPropertyOp48
 70
     1
102
RTVSPropertyOp49
 70
     1
102
RTVSPropertyOp50
 70
     1
102
RTVSPropertyOp51
 70
     0
102
RTVSPropertyOp52
 70
     0
102
RTVSPropertyOp53
 70
     1
102
RTVSPropertyOp54
 70
     1
102
RTVSPropertyOp55
 70
     1
102
RTVSPropertyOp56
 70
     1
102
RTVSPropertyOp57
 70
     1
102
RTVSPropertyOp58
 70
     1
102
RTVSPropertyOp59
 70
     1
102
RTVSPropertyOp60
 70
     1
102
RTVSPropertyOp61
 70
     1
102
RTVSPropertyOp62
 70
     1
  0
XRECORD
  5
2F06
102
{ACAD_REACTORS
330
2F05
102
}
330
2F05
100
AcDbXrecord
280
     1
102
RTVSPost2010Prop28
280
     0
102
RTVSPost2010PropOp28
 70
     1
102
RTVSPost2010Prop29
280
     1
102
RTVSPost2010PropOp29
 70
     1
102
RTVSPost2010Prop30
280
     1
102
RTVSPost2010PropOp30
 70
     1
102
RTVSPost2010Prop31
280
     0
102
RTVSPost2010PropOp31
 70
     1
102
RTVSPost2010Prop32
280
     0
102
RTVSPost2010PropOp32
 70
     1
102
RTVSPost2010Prop33
280
     0
102
RTVSPost2010PropOp33
 70
     1
102
RTVSPost2010Prop34
280
     0
102
RTVSPost2010PropOp34
 70
     1
102
RTVSPost2010Prop35
280
     0
102
RTVSPost2010PropOp35
 70
     1
102
RTVSPost2010Prop36
280
     0
102
RTVSPost2010PropOp36
 70
     1
102
RTVSPost2010Prop37
 90
       50
102
RTVSPost2010PropOp37
 70
     1
102
RTVSPost2010Prop38
140
0.0
102
RTVSPost2010PropOp38
 70
     1
102
RTVSPost2010Prop39
140
1.0
102
RTVSPost2010PropOp39
 70
     1
102
RTVSPost2010Prop40
 90
        0
102
RTVSPost2010PropOp40
 70
     1
102
RTVSPost2010Prop41ColorIndex
 90
       18
102
RTVSPost2010Prop41ColorRGB
 90
        0
102
RTVSPost2010PropOp41
 70
     1
102
RTVSPost2010Prop42
 90
       50
102
RTVSPost2010PropOp42
 70
     1
102
RTVSPost2010Prop43
 90
        3
102
RTVSPost2010PropOp43
 70
     1
102
RTVSPost2010Prop44ColorIndex
 90
        5
102
RTVSPost2010Prop44ColorRGB
 90
      255
102
RTVSPost2010PropOp44
 70
     1
102
RTVSPost2010Prop45
280
     0
102
RTVSPost2010PropOp45
 70
     1
102
RTVSPost2010Prop46
 90
       50
102
RTVSPost2010PropOp46
 70
     1
102
RTVSPost2010Prop47
 90
       50
102
RTVSPost2010PropOp47
 70
     1
102
RTVSPost2010Prop48
 90
       50
102
RTVSPost2010PropOp48
 70
     1
102
RTVSPost2010Prop49
280
     0
102
RTVSPost2010PropOp49
 70
     1
102
RTVSPost2010Prop50
 90
       50
102
RTVSPost2010PropOp50
 70
     1
102
RTVSPost2010Prop51ColorIndex
 90
      256
102
RTVSPost2010Prop51ColorRGB
 90
-16777216
102
RTVSPost2010PropOp51
 70
     0
102
RTVSPost2010Prop52
140
1.0
102
RTVSPost2010PropOp52
 70
     0
102
RTVSPost2010Prop53
 90
        2
102
RTVSPost2010PropOp53
 70
     1
102
RTVSPost2010Prop54
  1
strokes_ogs.tif
102
RTVSPost2010PropOp54
 70
     1
102
RTVSPost2010Prop55
280
     0
102
RTVSPost2010PropOp55
 70
     1
102
RTVSPost2010Prop56
140
1.0
102
RTVSPost2010PropOp56
 70
     1
102
RTVSPost2010Prop57
140
1.0
102
RTVSPost2010PropOp57
 70
     1
102
RTVSPropertyOp0
 70
     1
102
RTVSPropertyOp1
 70
     1
102
RTVSPropertyOp2
 70
     1
102
RTVSPropertyOp3
 70
     1
102
RTVSPropertyOp4
 70
     1
102
RTVSPropertyOp5
 70
     1
102
RTVSPropertyOp6
 70
     1
102
RTVSPropertyOp7
 70
     1
102
RTVSPropertyOp8
 70
     1
102
RTVSPropertyOp9
 70
     1
102
RTVSPropertyOp10
 70
     1
102
RTVSPropertyOp11
 70
     1
102
RTVSPropertyOp12
 70
     1
102
RTVSPropertyOp13
 70
     1
102
RTVSPropertyOp14
 70
     1
102
RTVSPropertyOp15
 70
     1
102
RTVSPropertyOp16
 70
     1
102
RTVSPropertyOp17
 70
     1
102
RTVSPropertyOp18
 70
     1
102
RTVSPropertyOp19
 70
     1
102
RTVSPropertyOp20
 70
     1
102
RTVSPropertyOp21
 70
     1
102
RTVSPropertyOp22
 70
     1
102
RTVSPropertyOp23
 70
     1
102
RTVSPropertyOp24
 70
     1
102
RTVSPropertyOp25
 70
     1
102
RTVSPropertyOp26
 70
     1
102
RTVSPropertyOp27
 70
     1
102
RTVSPropertyOp28
 70
     1
102
RTVSPropertyOp29
 70
     1
102
RTVSPropertyOp30
 70
     1
102
RTVSPropertyOp31
 70
     1
102
RTVSPropertyOp32
 70
     1
102
RTVSPropertyOp33
 70
     1
102
RTVSPropertyOp34
 70
     1
102
RTVSPropertyOp35
 70
     1
102
RTVSPropertyOp36
 70
     1
102
RTVSPropertyOp37
 70
     1
102
RTVSPropertyOp38
 70
     1
102
RTVSPropertyOp39
 70
     1
102
RTVSPropertyOp40
 70
     1
102
RTVSPropertyOp41
 70
     1
102
RTVSPropertyOp42
 70
     1
102
RTVSPropertyOp43
 70
     1
102
RTVSPropertyOp44
 70
     1
102
RTVSPropertyOp45
 70
     1
102
RTVSPropertyOp46
 70
     1
102
RTVSPropertyOp47
 70
     1
102
RTVSPropertyOp48
 70
     1
102
RTVSPropertyOp49
 70
     1
102
RTVSPropertyOp50
 70
     1
102
RTVSPropertyOp51
 70
     0
102
RTVSPropertyOp52
 70
     0
102
RTVSPropertyOp53
 70
     1
102
RTVSPropertyOp54
 70
     1
102
RTVSPropertyOp55
 70
     1
102
RTVSPropertyOp56
 70
     1
102
RTVSPropertyOp57
 70
     1
102
RTVSPropertyOp58
 70
     1
102
RTVSPropertyOp59
 70
     1
102
RTVSPropertyOp60
 70
     1
102
RTVSPropertyOp61
 70
     1
102
RTVSPropertyOp62
 70
     1
  0
XRECORD
  5
2F04
102
{ACAD_REACTORS
330
2F03
102
}
330
2F03
100
AcDbXrecord
280
     1
102
RTVSPost2010Prop28
280
     0
102
RTVSPost2010PropOp28
 70
     1
102
RTVSPost2010Prop29
280
     1
102
RTVSPost2010PropOp29
 70
     1
102
RTVSPost2010Prop30
280
     1
102
RTVSPost2010PropOp30
 70
     1
102
RTVSPost2010Prop31
280
     0
102
RTVSPost2010PropOp31
 70
     1
102
RTVSPost2010Prop32
280
     0
102
RTVSPost2010PropOp32
 70
     1
102
RTVSPost2010Prop33
280
     0
102
RTVSPost2010PropOp33
 70
     1
102
RTVSPost2010Prop34
280
     0
102
RTVSPost2010PropOp34
 70
     1
102
RTVSPost2010Prop35
280
     0
102
RTVSPost2010PropOp35
 70
     1
102
RTVSPost2010Prop36
280
     0
102
RTVSPost2010PropOp36
 70
     1
102
RTVSPost2010Prop37
 90
       50
102
RTVSPost2010PropOp37
 70
     1
102
RTVSPost2010Prop38
140
0.0
102
RTVSPost2010PropOp38
 70
     1
102
RTVSPost2010Prop39
140
1.0
102
RTVSPost2010PropOp39
 70
     1
102
RTVSPost2010Prop40
 90
        0
102
RTVSPost2010PropOp40
 70
     1
102
RTVSPost2010Prop41ColorIndex
 90
       18
102
RTVSPost2010Prop41ColorRGB
 90
        0
102
RTVSPost2010PropOp41
 70
     1
102
RTVSPost2010Prop42
 90
       50
102
RTVSPost2010PropOp42
 70
     1
102
RTVSPost2010Prop43
 90
        3
102
RTVSPost2010PropOp43
 70
     1
102
RTVSPost2010Prop44ColorIndex
 90
        5
102
RTVSPost2010Prop44ColorRGB
 90
      255
102
RTVSPost2010PropOp44
 70
     1
102
RTVSPost2010Prop45
280
     0
102
RTVSPost2010PropOp45
 70
     1
102
RTVSPost2010Prop46
 90
       50
102
RTVSPost2010PropOp46
 70
     1
102
RTVSPost2010Prop47
 90
       50
102
RTVSPost2010PropOp47
 70
     1
102
RTVSPost2010Prop48
 90
       50
102
RTVSPost2010PropOp48
 70
     1
102
RTVSPost2010Prop49
280
     0
102
RTVSPost2010PropOp49
 70
     1
102
RTVSPost2010Prop50
 90
       50
102
RTVSPost2010PropOp50
 70
     1
102
RTVSPost2010Prop51ColorIndex
 90
      256
102
RTVSPost2010Prop51ColorRGB
 90
-16777216
102
RTVSPost2010PropOp51
 70
     0
102
RTVSPost2010Prop52
140
1.0
102
RTVSPost2010PropOp52
 70
     0
102
RTVSPost2010Prop53
 90
        2
102
RTVSPost2010PropOp53
 70
     1
102
RTVSPost2010Prop54
  1
strokes_ogs.tif
102
RTVSPost2010PropOp54
 70
     1
102
RTVSPost2010Prop55
280
     0
102
RTVSPost2010PropOp55
 70
     1
102
RTVSPost2010Prop56
140
1.0
102
RTVSPost2010PropOp56
 70
     1
102
RTVSPost2010Prop57
140
1.0
102
RTVSPost2010PropOp57
 70
     1
102
RTVSPropertyOp0
 70
     1
102
RTVSPropertyOp1
 70
     1
102
RTVSPropertyOp2
 70
     1
102
RTVSPropertyOp3
 70
     1
102
RTVSPropertyOp4
 70
     1
102
RTVSPropertyOp5
 70
     1
102
RTVSPropertyOp6
 70
     1
102
RTVSPropertyOp7
 70
     1
102
RTVSPropertyOp8
 70
     1
102
RTVSPropertyOp9
 70
     1
102
RTVSPropertyOp10
 70
     1
102
RTVSPropertyOp11
 70
     1
102
RTVSPropertyOp12
 70
     1
102
RTVSPropertyOp13
 70
     1
102
RTVSPropertyOp14
 70
     1
102
RTVSPropertyOp15
 70
     1
102
RTVSPropertyOp16
 70
     1
102
RTVSPropertyOp17
 70
     1
102
RTVSPropertyOp18
 70
     1
102
RTVSPropertyOp19
 70
     1
102
RTVSPropertyOp20
 70
     1
102
RTVSPropertyOp21
 70
     1
102
RTVSPropertyOp22
 70
     1
102
RTVSPropertyOp23
 70
     1
102
RTVSPropertyOp24
 70
     1
102
RTVSPropertyOp25
 70
     1
102
RTVSPropertyOp26
 70
     1
102
RTVSPropertyOp27
 70
     1
102
RTVSPropertyOp28
 70
     1
102
RTVSPropertyOp29
 70
     1
102
RTVSPropertyOp30
 70
     1
102
RTVSPropertyOp31
 70
     1
102
RTVSPropertyOp32
 70
     1
102
RTVSPropertyOp33
 70
     1
102
RTVSPropertyOp34
 70
     1
102
RTVSPropertyOp35
 70
     1
102
RTVSPropertyOp36
 70
     1
102
RTVSPropertyOp37
 70
     1
102
RTVSPropertyOp38
 70
     1
102
RTVSPropertyOp39
 70
     1
102
RTVSPropertyOp40
 70
     1
102
RTVSPropertyOp41
 70
     1
102
RTVSPropertyOp42
 70
     1
102
RTVSPropertyOp43
 70
     1
102
RTVSPropertyOp44
 70
     1
102
RTVSPropertyOp45
 70
     1
102
RTVSPropertyOp46
 70
     1
102
RTVSPropertyOp47
 70
     1
102
RTVSPropertyOp48
 70
     1
102
RTVSPropertyOp49
 70
     1
102
RTVSPropertyOp50
 70
     1
102
RTVSPropertyOp51
 70
     0
102
RTVSPropertyOp52
 70
     0
102
RTVSPropertyOp53
 70
     1
102
RTVSPropertyOp54
 70
     1
102
RTVSPropertyOp55
 70
     1
102
RTVSPropertyOp56
 70
     1
102
RTVSPropertyOp57
 70
     1
102
RTVSPropertyOp58
 70
     1
102
RTVSPropertyOp59
 70
     1
102
RTVSPropertyOp60
 70
     1
102
RTVSPropertyOp61
 70
     1
102
RTVSPropertyOp62
 70
     1
  0
XRECORD
  5
2EFE
102
{ACAD_REACTORS
330
2EFD
102
}
330
2EFD
100
AcDbXrecord
280
     1
102
RTVSPost2010Prop28
280
     0
102
RTVSPost2010PropOp28
 70
     1
102
RTVSPost2010Prop29
280
     1
102
RTVSPost2010PropOp29
 70
     1
102
RTVSPost2010Prop30
280
     1
102
RTVSPost2010PropOp30
 70
     1
102
RTVSPost2010Prop31
280
     0
102
RTVSPost2010PropOp31
 70
     1
102
RTVSPost2010Prop32
280
     0
102
RTVSPost2010PropOp32
 70
     1
102
RTVSPost2010Prop33
280
     0
102
RTVSPost2010PropOp33
 70
     1
102
RTVSPost2010Prop34
280
     0
102
RTVSPost2010PropOp34
 70
     1
102
RTVSPost2010Prop35
280
     0
102
RTVSPost2010PropOp35
 70
     1
102
RTVSPost2010Prop36
280
     0
102
RTVSPost2010PropOp36
 70
     1
102
RTVSPost2010Prop37
 90
       50
102
RTVSPost2010PropOp37
 70
     1
102
RTVSPost2010Prop38
140
0.0
102
RTVSPost2010PropOp38
 70
     1
102
RTVSPost2010Prop39
140
1.0
102
RTVSPost2010PropOp39
 70
     1
102
RTVSPost2010Prop40
 90
        0
102
RTVSPost2010PropOp40
 70
     1
102
RTVSPost2010Prop41ColorIndex
 90
       18
102
RTVSPost2010Prop41ColorRGB
 90
        0
102
RTVSPost2010PropOp41
 70
     1
102
RTVSPost2010Prop42
 90
       50
102
RTVSPost2010PropOp42
 70
     1
102
RTVSPost2010Prop43
 90
        3
102
RTVSPost2010PropOp43
 70
     1
102
RTVSPost2010Prop44ColorIndex
 90
        5
102
RTVSPost2010Prop44ColorRGB
 90
      255
102
RTVSPost2010PropOp44
 70
     1
102
RTVSPost2010Prop45
280
     0
102
RTVSPost2010PropOp45
 70
     1
102
RTVSPost2010Prop46
 90
       50
102
RTVSPost2010PropOp46
 70
     1
102
RTVSPost2010Prop47
 90
       50
102
RTVSPost2010PropOp47
 70
     1
102
RTVSPost2010Prop48
 90
       50
102
RTVSPost2010PropOp48
 70
     1
102
RTVSPost2010Prop49
280
     0
102
RTVSPost2010PropOp49
 70
     1
102
RTVSPost2010Prop50
 90
       50
102
RTVSPost2010PropOp50
 70
     1
102
RTVSPost2010Prop51ColorIndex
 90
      256
102
RTVSPost2010Prop51ColorRGB
 90
-16777216
102
RTVSPost2010PropOp51
 70
     0
102
RTVSPost2010Prop52
140
1.0
102
RTVSPost2010PropOp52
 70
     0
102
RTVSPost2010Prop53
 90
        2
102
RTVSPost2010PropOp53
 70
     1
102
RTVSPost2010Prop54
  1
strokes_ogs.tif
102
RTVSPost2010PropOp54
 70
     1
102
RTVSPost2010Prop55
280
     0
102
RTVSPost2010PropOp55
 70
     1
102
RTVSPost2010Prop56
140
1.0
102
RTVSPost2010PropOp56
 70
     1
102
RTVSPost2010Prop57
140
1.0
102
RTVSPost2010PropOp57
 70
     1
102
RTVSPropertyOp0
 70
     1
102
RTVSPropertyOp1
 70
     1
102
RTVSPropertyOp2
 70
     1
102
RTVSPropertyOp3
 70
     1
102
RTVSPropertyOp4
 70
     1
102
RTVSPropertyOp5
 70
     1
102
RTVSPropertyOp6
 70
     1
102
RTVSPropertyOp7
 70
     1
102
RTVSPropertyOp8
 70
     1
102
RTVSPropertyOp9
 70
     1
102
RTVSPropertyOp10
 70
     1
102
RTVSPropertyOp11
 70
     1
102
RTVSPropertyOp12
 70
     1
102
RTVSPropertyOp13
 70
     1
102
RTVSPropertyOp14
 70
     1
102
RTVSPropertyOp15
 70
     1
102
RTVSPropertyOp16
 70
     1
102
RTVSPropertyOp17
 70
     1
102
RTVSPropertyOp18
 70
     1
102
RTVSPropertyOp19
 70
     1
102
RTVSPropertyOp20
 70
     1
102
RTVSPropertyOp21
 70
     1
102
RTVSPropertyOp22
 70
     1
102
RTVSPropertyOp23
 70
     1
102
RTVSPropertyOp24
 70
     1
102
RTVSPropertyOp25
 70
     1
102
RTVSPropertyOp26
 70
     1
102
RTVSPropertyOp27
 70
     1
102
RTVSPropertyOp28
 70
     1
102
RTVSPropertyOp29
 70
     1
102
RTVSPropertyOp30
 70
     1
102
RTVSPropertyOp31
 70
     1
102
RTVSPropertyOp32
 70
     1
102
RTVSPropertyOp33
 70
     1
102
RTVSPropertyOp34
 70
     1
102
RTVSPropertyOp35
 70
     1
102
RTVSPropertyOp36
 70
     1
102
RTVSPropertyOp37
 70
     1
102
RTVSPropertyOp38
 70
     1
102
RTVSPropertyOp39
 70
     1
102
RTVSPropertyOp40
 70
     1
102
RTVSPropertyOp41
 70
     1
102
RTVSPropertyOp42
 70
     1
102
RTVSPropertyOp43
 70
     1
102
RTVSPropertyOp44
 70
     1
102
RTVSPropertyOp45
 70
     1
102
RTVSPropertyOp46
 70
     1
102
RTVSPropertyOp47
 70
     1
102
RTVSPropertyOp48
 70
     1
102
RTVSPropertyOp49
 70
     1
102
RTVSPropertyOp50
 70
     1
102
RTVSPropertyOp51
 70
     0
102
RTVSPropertyOp52
 70
     0
102
RTVSPropertyOp53
 70
     1
102
RTVSPropertyOp54
 70
     1
102
RTVSPropertyOp55
 70
     1
102
RTVSPropertyOp56
 70
     1
102
RTVSPropertyOp57
 70
     1
102
RTVSPropertyOp58
 70
     1
102
RTVSPropertyOp59
 70
     1
102
RTVSPropertyOp60
 70
     1
102
RTVSPropertyOp61
 70
     1
102
RTVSPropertyOp62
 70
     1
  0
XRECORD
  5
2F00
102
{ACAD_REACTORS
330
2EFF
102
}
330
2EFF
100
AcDbXrecord
280
     1
102
RTVSPost2010Prop28
280
     0
102
RTVSPost2010PropOp28
 70
     1
102
RTVSPost2010Prop29
280
     1
102
RTVSPost2010PropOp29
 70
     1
102
RTVSPost2010Prop30
280
     1
102
RTVSPost2010PropOp30
 70
     1
102
RTVSPost2010Prop31
280
     0
102
RTVSPost2010PropOp31
 70
     1
102
RTVSPost2010Prop32
280
     0
102
RTVSPost2010PropOp32
 70
     1
102
RTVSPost2010Prop33
280
     0
102
RTVSPost2010PropOp33
 70
     1
102
RTVSPost2010Prop34
280
     0
102
RTVSPost2010PropOp34
 70
     1
102
RTVSPost2010Prop35
280
     0
102
RTVSPost2010PropOp35
 70
     1
102
RTVSPost2010Prop36
280
     0
102
RTVSPost2010PropOp36
 70
     1
102
RTVSPost2010Prop37
 90
       50
102
RTVSPost2010PropOp37
 70
     1
102
RTVSPost2010Prop38
140
0.0
102
RTVSPost2010PropOp38
 70
     1
102
RTVSPost2010Prop39
140
1.0
102
RTVSPost2010PropOp39
 70
     1
102
RTVSPost2010Prop40
 90
        0
102
RTVSPost2010PropOp40
 70
     1
102
RTVSPost2010Prop41ColorIndex
 90
       18
102
RTVSPost2010Prop41ColorRGB
 90
        0
102
RTVSPost2010PropOp41
 70
     1
102
RTVSPost2010Prop42
 90
       50
102
RTVSPost2010PropOp42
 70
     1
102
RTVSPost2010Prop43
 90
        3
102
RTVSPost2010PropOp43
 70
     1
102
RTVSPost2010Prop44ColorIndex
 90
        5
102
RTVSPost2010Prop44ColorRGB
 90
      255
102
RTVSPost2010PropOp44
 70
     1
102
RTVSPost2010Prop45
280
     0
102
RTVSPost2010PropOp45
 70
     1
102
RTVSPost2010Prop46
 90
       50
102
RTVSPost2010PropOp46
 70
     1
102
RTVSPost2010Prop47
 90
       50
102
RTVSPost2010PropOp47
 70
     1
102
RTVSPost2010Prop48
 90
       50
102
RTVSPost2010PropOp48
 70
     1
102
RTVSPost2010Prop49
280
     0
102
RTVSPost2010PropOp49
 70
     1
102
RTVSPost2010Prop50
 90
       50
102
RTVSPost2010PropOp50
 70
     1
102
RTVSPost2010Prop51ColorIndex
 90
      256
102
RTVSPost2010Prop51ColorRGB
 90
-16777216
102
RTVSPost2010PropOp51
 70
     0
102
RTVSPost2010Prop52
140
1.0
102
RTVSPost2010PropOp52
 70
     0
102
RTVSPost2010Prop53
 90
        2
102
RTVSPost2010PropOp53
 70
     1
102
RTVSPost2010Prop54
  1
strokes_ogs.tif
102
RTVSPost2010PropOp54
 70
     1
102
RTVSPost2010Prop55
280
     0
102
RTVSPost2010PropOp55
 70
     1
102
RTVSPost2010Prop56
140
1.0
102
RTVSPost2010PropOp56
 70
     1
102
RTVSPost2010Prop57
140
1.0
102
RTVSPost2010PropOp57
 70
     1
102
RTVSPropertyOp0
 70
     1
102
RTVSPropertyOp1
 70
     1
102
RTVSPropertyOp2
 70
     1
102
RTVSPropertyOp3
 70
     1
102
RTVSPropertyOp4
 70
     1
102
RTVSPropertyOp5
 70
     1
102
RTVSPropertyOp6
 70
     1
102
RTVSPropertyOp7
 70
     1
102
RTVSPropertyOp8
 70
     1
102
RTVSPropertyOp9
 70
     1
102
RTVSPropertyOp10
 70
     1
102
RTVSPropertyOp11
 70
     1
102
RTVSPropertyOp12
 70
     1
102
RTVSPropertyOp13
 70
     1
102
RTVSPropertyOp14
 70
     1
102
RTVSPropertyOp15
 70
     1
102
RTVSPropertyOp16
 70
     1
102
RTVSPropertyOp17
 70
     1
102
RTVSPropertyOp18
 70
     1
102
RTVSPropertyOp19
 70
     1
102
RTVSPropertyOp20
 70
     1
102
RTVSPropertyOp21
 70
     1
102
RTVSPropertyOp22
 70
     1
102
RTVSPropertyOp23
 70
     1
102
RTVSPropertyOp24
 70
     1
102
RTVSPropertyOp25
 70
     1
102
RTVSPropertyOp26
 70
     1
102
RTVSPropertyOp27
 70
     1
102
RTVSPropertyOp28
 70
     1
102
RTVSPropertyOp29
 70
     1
102
RTVSPropertyOp30
 70
     1
102
RTVSPropertyOp31
 70
     1
102
RTVSPropertyOp32
 70
     1
102
RTVSPropertyOp33
 70
     1
102
RTVSPropertyOp34
 70
     1
102
RTVSPropertyOp35
 70
     1
102
RTVSPropertyOp36
 70
     1
102
RTVSPropertyOp37
 70
     1
102
RTVSPropertyOp38
 70
     1
102
RTVSPropertyOp39
 70
     1
102
RTVSPropertyOp40
 70
     1
102
RTVSPropertyOp41
 70
     1
102
RTVSPropertyOp42
 70
     1
102
RTVSPropertyOp43
 70
     1
102
RTVSPropertyOp44
 70
     1
102
RTVSPropertyOp45
 70
     1
102
RTVSPropertyOp46
 70
     1
102
RTVSPropertyOp47
 70
     1
102
RTVSPropertyOp48
 70
     1
102
RTVSPropertyOp49
 70
     1
102
RTVSPropertyOp50
 70
     1
102
RTVSPropertyOp51
 70
     0
102
RTVSPropertyOp52
 70
     0
102
RTVSPropertyOp53
 70
     1
102
RTVSPropertyOp54
 70
     1
102
RTVSPropertyOp55
 70
     1
102
RTVSPropertyOp56
 70
     1
102
RTVSPropertyOp57
 70
     1
102
RTVSPropertyOp58
 70
     1
102
RTVSPropertyOp59
 70
     1
102
RTVSPropertyOp60
 70
     1
102
RTVSPropertyOp61
 70
     1
102
RTVSPropertyOp62
 70
     1
  0
XRECORD
  5
2EF6
102
{ACAD_REACTORS
330
2EF5
102
}
330
2EF5
100
AcDbXrecord
280
     1
102
RTVSPost2010Prop28
280
     0
102
RTVSPost2010PropOp28
 70
     1
102
RTVSPost2010Prop29
280
     1
102
RTVSPost2010PropOp29
 70
     1
102
RTVSPost2010Prop30
280
     1
102
RTVSPost2010PropOp30
 70
     1
102
RTVSPost2010Prop31
280
     0
102
RTVSPost2010PropOp31
 70
     1
102
RTVSPost2010Prop32
280
     0
102
RTVSPost2010PropOp32
 70
     1
102
RTVSPost2010Prop33
280
     0
102
RTVSPost2010PropOp33
 70
     1
102
RTVSPost2010Prop34
280
     0
102
RTVSPost2010PropOp34
 70
     1
102
RTVSPost2010Prop35
280
     0
102
RTVSPost2010PropOp35
 70
     1
102
RTVSPost2010Prop36
280
     0
102
RTVSPost2010PropOp36
 70
     1
102
RTVSPost2010Prop37
 90
       50
102
RTVSPost2010PropOp37
 70
     1
102
RTVSPost2010Prop38
140
0.0
102
RTVSPost2010PropOp38
 70
     1
102
RTVSPost2010Prop39
140
1.0
102
RTVSPost2010PropOp39
 70
     1
102
RTVSPost2010Prop40
 90
        0
102
RTVSPost2010PropOp40
 70
     1
102
RTVSPost2010Prop41ColorIndex
 90
       18
102
RTVSPost2010Prop41ColorRGB
 90
        0
102
RTVSPost2010PropOp41
 70
     1
102
RTVSPost2010Prop42
 90
       50
102
RTVSPost2010PropOp42
 70
     1
102
RTVSPost2010Prop43
 90
        3
102
RTVSPost2010PropOp43
 70
     1
102
RTVSPost2010Prop44ColorIndex
 90
        5
102
RTVSPost2010Prop44ColorRGB
 90
      255
102
RTVSPost2010PropOp44
 70
     1
102
RTVSPost2010Prop45
280
     0
102
RTVSPost2010PropOp45
 70
     1
102
RTVSPost2010Prop46
 90
       50
102
RTVSPost2010PropOp46
 70
     1
102
RTVSPost2010Prop47
 90
       50
102
RTVSPost2010PropOp47
 70
     1
102
RTVSPost2010Prop48
 90
       50
102
RTVSPost2010PropOp48
 70
     1
102
RTVSPost2010Prop49
280
     0
102
RTVSPost2010PropOp49
 70
     1
102
RTVSPost2010Prop50
 90
       50
102
RTVSPost2010PropOp50
 70
     1
102
RTVSPost2010Prop51ColorIndex
 90
      256
102
RTVSPost2010Prop51ColorRGB
 90
-16777216
102
RTVSPost2010PropOp51
 70
     0
102
RTVSPost2010Prop52
140
1.0
102
RTVSPost2010PropOp52
 70
     0
102
RTVSPost2010Prop53
 90
        2
102
RTVSPost2010PropOp53
 70
     1
102
RTVSPost2010Prop54
  1
strokes_ogs.tif
102
RTVSPost2010PropOp54
 70
     1
102
RTVSPost2010Prop55
280
     0
102
RTVSPost2010PropOp55
 70
     1
102
RTVSPost2010Prop56
140
1.0
102
RTVSPost2010PropOp56
 70
     1
102
RTVSPost2010Prop57
140
1.0
102
RTVSPost2010PropOp57
 70
     1
102
RTVSPropertyOp0
 70
     1
102
RTVSPropertyOp1
 70
     1
102
RTVSPropertyOp2
 70
     1
102
RTVSPropertyOp3
 70
     1
102
RTVSPropertyOp4
 70
     1
102
RTVSPropertyOp5
 70
     1
102
RTVSPropertyOp6
 70
     1
102
RTVSPropertyOp7
 70
     1
102
RTVSPropertyOp8
 70
     1
102
RTVSPropertyOp9
 70
     1
102
RTVSPropertyOp10
 70
     1
102
RTVSPropertyOp11
 70
     1
102
RTVSPropertyOp12
 70
     1
102
RTVSPropertyOp13
 70
     1
102
RTVSPropertyOp14
 70
     1
102
RTVSPropertyOp15
 70
     1
102
RTVSPropertyOp16
 70
     1
102
RTVSPropertyOp17
 70
     1
102
RTVSPropertyOp18
 70
     1
102
RTVSPropertyOp19
 70
     1
102
RTVSPropertyOp20
 70
     1
102
RTVSPropertyOp21
 70
     1
102
RTVSPropertyOp22
 70
     1
102
RTVSPropertyOp23
 70
     1
102
RTVSPropertyOp24
 70
     1
102
RTVSPropertyOp25
 70
     1
102
RTVSPropertyOp26
 70
     1
102
RTVSPropertyOp27
 70
     1
102
RTVSPropertyOp28
 70
     1
102
RTVSPropertyOp29
 70
     1
102
RTVSPropertyOp30
 70
     1
102
RTVSPropertyOp31
 70
     1
102
RTVSPropertyOp32
 70
     1
102
RTVSPropertyOp33
 70
     1
102
RTVSPropertyOp34
 70
     1
102
RTVSPropertyOp35
 70
     1
102
RTVSPropertyOp36
 70
     1
102
RTVSPropertyOp37
 70
     1
102
RTVSPropertyOp38
 70
     1
102
RTVSPropertyOp39
 70
     1
102
RTVSPropertyOp40
 70
     1
102
RTVSPropertyOp41
 70
     1
102
RTVSPropertyOp42
 70
     1
102
RTVSPropertyOp43
 70
     1
102
RTVSPropertyOp44
 70
     1
102
RTVSPropertyOp45
 70
     1
102
RTVSPropertyOp46
 70
     1
102
RTVSPropertyOp47
 70
     1
102
RTVSPropertyOp48
 70
     1
102
RTVSPropertyOp49
 70
     1
102
RTVSPropertyOp50
 70
     1
102
RTVSPropertyOp51
 70
     0
102
RTVSPropertyOp52
 70
     0
102
RTVSPropertyOp53
 70
     1
102
RTVSPropertyOp54
 70
     1
102
RTVSPropertyOp55
 70
     1
102
RTVSPropertyOp56
 70
     1
102
RTVSPropertyOp57
 70
     1
102
RTVSPropertyOp58
 70
     1
102
RTVSPropertyOp59
 70
     1
102
RTVSPropertyOp60
 70
     1
102
RTVSPropertyOp61
 70
     1
102
RTVSPropertyOp62
 70
     1
  0
XRECORD
  5
2EEA
102
{ACAD_REACTORS
330
2EE9
102
}
330
2EE9
100
AcDbXrecord
280
     1
102
RTVSPost2010Prop28
280
     0
102
RTVSPost2010PropOp28
 70
     1
102
RTVSPost2010Prop29
280
     1
102
RTVSPost2010PropOp29
 70
     1
102
RTVSPost2010Prop30
280
     1
102
RTVSPost2010PropOp30
 70
     1
102
RTVSPost2010Prop31
280
     0
102
RTVSPost2010PropOp31
 70
     1
102
RTVSPost2010Prop32
280
     0
102
RTVSPost2010PropOp32
 70
     1
102
RTVSPost2010Prop33
280
     0
102
RTVSPost2010PropOp33
 70
     1
102
RTVSPost2010Prop34
280
     0
102
RTVSPost2010PropOp34
 70
     1
102
RTVSPost2010Prop35
280
     0
102
RTVSPost2010PropOp35
 70
     1
102
RTVSPost2010Prop36
280
     0
102
RTVSPost2010PropOp36
 70
     1
102
RTVSPost2010Prop37
 90
       50
102
RTVSPost2010PropOp37
 70
     1
102
RTVSPost2010Prop38
140
0.0
102
RTVSPost2010PropOp38
 70
     1
102
RTVSPost2010Prop39
140
1.0
102
RTVSPost2010PropOp39
 70
     1
102
RTVSPost2010Prop40
 90
        0
102
RTVSPost2010PropOp40
 70
     1
102
RTVSPost2010Prop41ColorIndex
 90
       18
102
RTVSPost2010Prop41ColorRGB
 90
        0
102
RTVSPost2010PropOp41
 70
     1
102
RTVSPost2010Prop42
 90
       50
102
RTVSPost2010PropOp42
 70
     1
102
RTVSPost2010Prop43
 90
        3
102
RTVSPost2010PropOp43
 70
     1
102
RTVSPost2010Prop44ColorIndex
 90
        5
102
RTVSPost2010Prop44ColorRGB
 90
      255
102
RTVSPost2010PropOp44
 70
     1
102
RTVSPost2010Prop45
280
     0
102
RTVSPost2010PropOp45
 70
     1
102
RTVSPost2010Prop46
 90
       50
102
RTVSPost2010PropOp46
 70
     1
102
RTVSPost2010Prop47
 90
       50
102
RTVSPost2010PropOp47
 70
     1
102
RTVSPost2010Prop48
 90
       50
102
RTVSPost2010PropOp48
 70
     1
102
RTVSPost2010Prop49
280
     0
102
RTVSPost2010PropOp49
 70
     1
102
RTVSPost2010Prop50
 90
       50
102
RTVSPost2010PropOp50
 70
     1
102
RTVSPost2010Prop51ColorIndex
 90
      256
102
RTVSPost2010Prop51ColorRGB
 90
-16777216
102
RTVSPost2010PropOp51
 70
     0
102
RTVSPost2010Prop52
140
1.0
102
RTVSPost2010PropOp52
 70
     0
102
RTVSPost2010Prop53
 90
        2
102
RTVSPost2010PropOp53
 70
     1
102
RTVSPost2010Prop54
  1
strokes_ogs.tif
102
RTVSPost2010PropOp54
 70
     1
102
RTVSPost2010Prop55
280
     0
102
RTVSPost2010PropOp55
 70
     1
102
RTVSPost2010Prop56
140
1.0
102
RTVSPost2010PropOp56
 70
     1
102
RTVSPost2010Prop57
140
1.0
102
RTVSPost2010PropOp57
 70
     1
102
RTVSPropertyOp0
 70
     1
102
RTVSPropertyOp1
 70
     1
102
RTVSPropertyOp2
 70
     1
102
RTVSPropertyOp3
 70
     1
102
RTVSPropertyOp4
 70
     1
102
RTVSPropertyOp5
 70
     1
102
RTVSPropertyOp6
 70
     1
102
RTVSPropertyOp7
 70
     1
102
RTVSPropertyOp8
 70
     1
102
RTVSPropertyOp9
 70
     1
102
RTVSPropertyOp10
 70
     1
102
RTVSPropertyOp11
 70
     1
102
RTVSPropertyOp12
 70
     1
102
RTVSPropertyOp13
 70
     1
102
RTVSPropertyOp14
 70
     1
102
RTVSPropertyOp15
 70
     1
102
RTVSPropertyOp16
 70
     1
102
RTVSPropertyOp17
 70
     1
102
RTVSPropertyOp18
 70
     1
102
RTVSPropertyOp19
 70
     1
102
RTVSPropertyOp20
 70
     1
102
RTVSPropertyOp21
 70
     1
102
RTVSPropertyOp22
 70
     1
102
RTVSPropertyOp23
 70
     1
102
RTVSPropertyOp24
 70
     1
102
RTVSPropertyOp25
 70
     1
102
RTVSPropertyOp26
 70
     1
102
RTVSPropertyOp27
 70
     1
102
RTVSPropertyOp28
 70
     1
102
RTVSPropertyOp29
 70
     1
102
RTVSPropertyOp30
 70
     1
102
RTVSPropertyOp31
 70
     1
102
RTVSPropertyOp32
 70
     1
102
RTVSPropertyOp33
 70
     1
102
RTVSPropertyOp34
 70
     1
102
RTVSPropertyOp35
 70
     1
102
RTVSPropertyOp36
 70
     1
102
RTVSPropertyOp37
 70
     1
102
RTVSPropertyOp38
 70
     1
102
RTVSPropertyOp39
 70
     1
102
RTVSPropertyOp40
 70
     1
102
RTVSPropertyOp41
 70
     1
102
RTVSPropertyOp42
 70
     1
102
RTVSPropertyOp43
 70
     1
102
RTVSPropertyOp44
 70
     1
102
RTVSPropertyOp45
 70
     1
102
RTVSPropertyOp46
 70
     1
102
RTVSPropertyOp47
 70
     1
102
RTVSPropertyOp48
 70
     1
102
RTVSPropertyOp49
 70
     1
102
RTVSPropertyOp50
 70
     1
102
RTVSPropertyOp51
 70
     0
102
RTVSPropertyOp52
 70
     0
102
RTVSPropertyOp53
 70
     1
102
RTVSPropertyOp54
 70
     1
102
RTVSPropertyOp55
 70
     1
102
RTVSPropertyOp56
 70
     1
102
RTVSPropertyOp57
 70
     1
102
RTVSPropertyOp58
 70
     1
102
RTVSPropertyOp59
 70
     1
102
RTVSPropertyOp60
 70
     1
102
RTVSPropertyOp61
 70
     1
102
RTVSPropertyOp62
 70
     1
  0
XRECORD
  5
2F02
102
{ACAD_REACTORS
330
2F01
102
}
330
2F01
100
AcDbXrecord
280
     1
102
RTVSPost2010Prop28
280
     0
102
RTVSPost2010PropOp28
 70
     1
102
RTVSPost2010Prop29
280
     1
102
RTVSPost2010PropOp29
 70
     1
102
RTVSPost2010Prop30
280
     1
102
RTVSPost2010PropOp30
 70
     1
102
RTVSPost2010Prop31
280
     0
102
RTVSPost2010PropOp31
 70
     1
102
RTVSPost2010Prop32
280
     0
102
RTVSPost2010PropOp32
 70
     1
102
RTVSPost2010Prop33
280
     0
102
RTVSPost2010PropOp33
 70
     1
102
RTVSPost2010Prop34
280
     0
102
RTVSPost2010PropOp34
 70
     1
102
RTVSPost2010Prop35
280
     0
102
RTVSPost2010PropOp35
 70
     1
102
RTVSPost2010Prop36
280
     0
102
RTVSPost2010PropOp36
 70
     1
102
RTVSPost2010Prop37
 90
       50
102
RTVSPost2010PropOp37
 70
     1
102
RTVSPost2010Prop38
140
0.0
102
RTVSPost2010PropOp38
 70
     1
102
RTVSPost2010Prop39
140
1.0
102
RTVSPost2010PropOp39
 70
     1
102
RTVSPost2010Prop40
 90
        0
102
RTVSPost2010PropOp40
 70
     1
102
RTVSPost2010Prop41ColorIndex
 90
       18
102
RTVSPost2010Prop41ColorRGB
 90
        0
102
RTVSPost2010PropOp41
 70
     1
102
RTVSPost2010Prop42
 90
       50
102
RTVSPost2010PropOp42
 70
     1
102
RTVSPost2010Prop43
 90
        3
102
RTVSPost2010PropOp43
 70
     1
102
RTVSPost2010Prop44ColorIndex
 90
        5
102
RTVSPost2010Prop44ColorRGB
 90
      255
102
RTVSPost2010PropOp44
 70
     1
102
RTVSPost2010Prop45
280
     0
102
RTVSPost2010PropOp45
 70
     1
102
RTVSPost2010Prop46
 90
       50
102
RTVSPost2010PropOp46
 70
     1
102
RTVSPost2010Prop47
 90
       50
102
RTVSPost2010PropOp47
 70
     1
102
RTVSPost2010Prop48
 90
       50
102
RTVSPost2010PropOp48
 70
     1
102
RTVSPost2010Prop49
280
     0
102
RTVSPost2010PropOp49
 70
     1
102
RTVSPost2010Prop50
 90
       50
102
RTVSPost2010PropOp50
 70
     1
102
RTVSPost2010Prop51ColorIndex
 90
      256
102
RTVSPost2010Prop51ColorRGB
 90
-16777216
102
RTVSPost2010PropOp51
 70
     0
102
RTVSPost2010Prop52
140
1.0
102
RTVSPost2010PropOp52
 70
     0
102
RTVSPost2010Prop53
 90
        2
102
RTVSPost2010PropOp53
 70
     1
102
RTVSPost2010Prop54
  1
strokes_ogs.tif
102
RTVSPost2010PropOp54
 70
     1
102
RTVSPost2010Prop55
280
     0
102
RTVSPost2010PropOp55
 70
     1
102
RTVSPost2010Prop56
140
1.0
102
RTVSPost2010PropOp56
 70
     1
102
RTVSPost2010Prop57
140
1.0
102
RTVSPost2010PropOp57
 70
     1
102
RTVSPropertyOp0
 70
     1
102
RTVSPropertyOp1
 70
     1
102
RTVSPropertyOp2
 70
     1
102
RTVSPropertyOp3
 70
     1
102
RTVSPropertyOp4
 70
     1
102
RTVSPropertyOp5
 70
     1
102
RTVSPropertyOp6
 70
     1
102
RTVSPropertyOp7
 70
     1
102
RTVSPropertyOp8
 70
     1
102
RTVSPropertyOp9
 70
     1
102
RTVSPropertyOp10
 70
     1
102
RTVSPropertyOp11
 70
     1
102
RTVSPropertyOp12
 70
     1
102
RTVSPropertyOp13
 70
     1
102
RTVSPropertyOp14
 70
     1
102
RTVSPropertyOp15
 70
     1
102
RTVSPropertyOp16
 70
     1
102
RTVSPropertyOp17
 70
     1
102
RTVSPropertyOp18
 70
     1
102
RTVSPropertyOp19
 70
     1
102
RTVSPropertyOp20
 70
     1
102
RTVSPropertyOp21
 70
     1
102
RTVSPropertyOp22
 70
     1
102
RTVSPropertyOp23
 70
     1
102
RTVSPropertyOp24
 70
     1
102
RTVSPropertyOp25
 70
     1
102
RTVSPropertyOp26
 70
     1
102
RTVSPropertyOp27
 70
     1
102
RTVSPropertyOp28
 70
     1
102
RTVSPropertyOp29
 70
     1
102
RTVSPropertyOp30
 70
     1
102
RTVSPropertyOp31
 70
     1
102
RTVSPropertyOp32
 70
     1
102
RTVSPropertyOp33
 70
     1
102
RTVSPropertyOp34
 70
     1
102
RTVSPropertyOp35
 70
     1
102
RTVSPropertyOp36
 70
     1
102
RTVSPropertyOp37
 70
     1
102
RTVSPropertyOp38
 70
     1
102
RTVSPropertyOp39
 70
     1
102
RTVSPropertyOp40
 70
     1
102
RTVSPropertyOp41
 70
     1
102
RTVSPropertyOp42
 70
     1
102
RTVSPropertyOp43
 70
     1
102
RTVSPropertyOp44
 70
     1
102
RTVSPropertyOp45
 70
     1
102
RTVSPropertyOp46
 70
     1
102
RTVSPropertyOp47
 70
     1
102
RTVSPropertyOp48
 70
     1
102
RTVSPropertyOp49
 70
     1
102
RTVSPropertyOp50
 70
     1
102
RTVSPropertyOp51
 70
     0
102
RTVSPropertyOp52
 70
     0
102
RTVSPropertyOp53
 70
     1
102
RTVSPropertyOp54
 70
     1
102
RTVSPropertyOp55
 70
     1
102
RTVSPropertyOp56
 70
     1
102
RTVSPropertyOp57
 70
     1
102
RTVSPropertyOp58
 70
     1
102
RTVSPropertyOp59
 70
     1
102
RTVSPropertyOp60
 70
     1
102
RTVSPropertyOp61
 70
     1
102
RTVSPropertyOp62
 70
     1
  0
ENDSEC
  0
EOF
