  0
SECTION
  2
HEADER
  9
$ACADVER
  1
AC1014
  9
$ACADMAINTVER
 70
     9
  9
$DWGCODEPAGE
  3
ANSI_1252
  9
$INSBASE
 10
153.1595395919859
 20
32.40420974051119
 30
0.0
  9
$EXTMIN
 10
140.2210147679409
 20
16.40147360734988
 30
-0.0015258207003583
  9
$EXTMAX
 10
204.7650274212738
 20
46.51096520915766
 30
0.0000000349246037
  9
$LIMMIN
 10
0.0
 20
0.0
  9
$LIMMAX
 10
17.0
 20
11.0
  9
$ORTHOMODE
 70
     1
  9
$REGENMODE
 70
     1
  9
$FILLMODE
 70
     1
  9
$QTEXTMODE
 70
     0
  9
$MIRRTEXT
 70
     1
  9
$DRAGMODE
 70
     2
  9
$LTSCALE
 40
8.0
  9
$OSMODE
 70
    55
  9
$ATTMODE
 70
     1
  9
$TEXTSIZE
 40
0.2
  9
$TRACEWID
 40
0.05
  9
$TEXTSTYLE
  7
STANDARD
  9
$CLAYER
  8
0
  9
$CELTYPE
  6
BYLAYER
  9
$CECOLOR
 62
   256
  9
$CELTSCALE
 40
1.0
  9
$DELOBJ
 70
     1
  9
$DISPSILH
 70
     0
  9
$DIMSCALE
 40
12.0
  9
$DIMASZ
 40
0.1875
  9
$DIMEXO
 40
0.10625
  9
$DIMDLI
 40
0.6459999999999999
  9
$DIMRND
 40
0.0
  9
$DIMDLE
 40
0.0
  9
$DIMEXE
 40
0.306
  9
$DIMTP
 40
0.0
  9
$DIMTM
 40
0.0
  9
$DIMTXT
 40
0.125
  9
$DIMCEN
 40
0.153
  9
$DIMTSZ
 40
0.0
  9
$DIMTOL
 70
     0
  9
$DIMLIM
 70
     0
  9
$DIMTIH
 70
     1
  9
$DIMTOH
 70
     1
  9
$DIMSE1
 70
     0
  9
$DIMSE2
 70
     0
  9
$DIMTAD
 70
     0
  9
$DIMZIN
 70
     0
  9
$DIMBLK
  1
_FILLED
  9
$DIMASO
 70
     1
  9
$DIMSHO
 70
     1
  9
$DIMPOST
  1

  9
$DIMAPOST
  1

  9
$DIMALT
 70
     0
  9
$DIMALTD
 70
     2
  9
$DIMALTF
 40
25.4
  9
$DIMLFAC
 40
1.0
  9
$DIMTOFL
 70
     0
  9
$DIMTVP
 40
0.0
  9
$DIMTIX
 70
     0
  9
$DIMSOXD
 70
     0
  9
$DIMSAH
 70
     0
  9
$DIMBLK1
  1

  9
$DIMBLK2
  1

  9
$DIMSTYLE
  2
STANDARD
  9
$DIMCLRD
 70
     0
  9
$DIMCLRE
 70
     0
  9
$DIMCLRT
 70
     0
  9
$DIMTFAC
 40
1.0
  9
$DIMGAP
 40
0.09
  9
$DIMJUST
 70
     0
  9
$DIMSD1
 70
     0
  9
$DIMSD2
 70
     0
  9
$DIMTOLJ
 70
     1
  9
$DIMTZIN
 70
     0
  9
$DIMALTZ
 70
     0
  9
$DIMALTTZ
 70
     0
  9
$DIMFIT
 70
     3
  9
$DIMUPT
 70
     0
  9
$DIMUNIT
 70
     2
  9
$DIMDEC
 70
     4
  9
$DIMTDEC
 70
     4
  9
$DIMALTU
 70
     2
  9
$DIMALTTD
 70
     2
  9
$DIMTXSTY
  7
STANDARD
  9
$DIMAUNIT
 70
     0
  9
$LUNITS
 70
     2
  9
$LUPREC
 70
     4
  9
$SKETCHINC
 40
0.1
  9
$FILLETRAD
 40
0.0
  9
$AUNITS
 70
     0
  9
$AUPREC
 70
     0
  9
$MENU
  1
acad
  9
$ELEVATION
 40
0.0
  9
$PELEVATION
 40
0.0
  9
$THICKNESS
 40
0.0
  9
$LIMCHECK
 70
     0
  9
$BLIPMODE
 70
     0
  9
$CHAMFERA
 40
0.0
  9
$CHAMFERB
 40
0.0
  9
$CHAMFERC
 40
0.0
  9
$CHAMFERD
 40
0.0
  9
$SKPOLY
 70
     0
  9
$TDCREATE
 40
2453679.188597361
  9
$TDUPDATE
 40
2453685.634345277
  9
$TDINDWG
 40
0.0335465046
  9
$TDUSRTIMER
 40
0.0335465046
  9
$USRTIMER
 70
     1
  9
$ANGBASE
 50
0.0
  9
$ANGDIR
 70
     0
  9
$PDMODE
 70
     3
  9
$PDSIZE
 40
0.3125
  9
$PLINEWID
 40
0.0
  9
$COORDS
 70
     1
  9
$SPLFRAME
 70
     0
  9
$SPLINETYPE
 70
     6
  9
$SPLINESEGS
 70
     8
  9
$ATTDIA
 70
     0
  9
$ATTREQ
 70
     1
  9
$HANDLING
 70
 22529
  9
$HANDSEED
  5
DBC
  9
$SURFTAB1
 70
     6
  9
$SURFTAB2
 70
     6
  9
$SURFTYPE
 70
     6
  9
$SURFU
 70
     6
  9
$SURFV
 70
     6
  9
$UCSNAME
  2

  9
$UCSORG
 10
0.0
 20
0.0
 30
0.0
  9
$UCSXDIR
 10
1.0
 20
0.0
 30
0.0
  9
$UCSYDIR
 10
0.0
 20
1.0
 30
0.0
  9
$PUCSNAME
  2

  9
$PUCSORG
 10
0.0
 20
0.0
 30
0.0
  9
$PUCSXDIR
 10
1.0
 20
0.0
 30
0.0
  9
$PUCSYDIR
 10
0.0
 20
1.0
 30
0.0
  9
$USERI1
 70
     0
  9
$USERI2
 70
     0
  9
$USERI3
 70
     0
  9
$USERI4
 70
     0
  9
$USERI5
 70
     0
  9
$USERR1
 40
0.0
  9
$USERR2
 40
0.0
  9
$USERR3
 40
0.0
  9
$USERR4
 40
0.0
  9
$USERR5
 40
0.0
  9
$WORLDVIEW
 70
     1
  9
$SHADEDGE
 70
     3
  9
$SHADEDIF
 70
    70
  9
$TILEMODE
 70
     1
  9
$MAXACTVP
 70
    16
  9
$PINSBASE
 10
0.0
 20
0.0
 30
0.0
  9
$PLIMCHECK
 70
     0
  9
$PEXTMIN
 10
1.000000000000000E+20
 20
1.000000000000000E+20
 30
1.000000000000000E+20
  9
$PEXTMAX
 10
-1.000000000000000E+20
 20
-1.000000000000000E+20
 30
-1.000000000000000E+20
  9
$PLIMMIN
 10
0.0
 20
0.0
  9
$PLIMMAX
 10
12.0
 20
9.0
  9
$UNITMODE
 70
     0
  9
$VISRETAIN
 70
     0
  9
$PLINEGEN
 70
     1
  9
$PSLTSCALE
 70
     0
  9
$TREEDEPTH
 70
  3020
  9
$PICKSTYLE
 70
     1
  9
$CMLSTYLE
  2
STANDARD
  9
$CMLJUST
 70
     0
  9
$CMLSCALE
 40
1.0
  9
$PROXYGRAPHICS
 70
     1
  9
$MEASUREMENT
 70
     0
  0
ENDSEC
  0
SECTION
  2
CLASSES
  0
CLASS
  1
HATCH
  2
AcDbHatch
  3
AutoCAD 2000
 90
        0
280
     0
281
     1
  0
CLASS
  1
LWPOLYLINE
  2
AcDbPolyline
  3
AutoCAD 2000
 90
        0
280
     0
281
     1
  0
CLASS
  1
ACDBDICTIONARYWDFLT
  2
AcDbDictionaryWithDefault
  3
AutoCAD 2000
 90
        0
280
     0
281
     0
  0
CLASS
  1
ACDBPLACEHOLDER
  2
AcDbPlaceHolder
  3
AutoCAD 2000
 90
        0
280
     0
281
     0
  0
CLASS
  1
LAYOUT
  2
AcDbLayout
  3
AutoCAD 2000
 90
        0
280
     0
281
     0
  0
CLASS
  1
LONG_TRANSACTION
  2
AcDbLongTransaction
  3
AutoCAD 2000
 90
        0
280
     0
281
     0
  0
CLASS
  1
LWPOLYLINE
  2
AcDbPolyline
  3
AutoCAD 2000
 90
        0
280
     0
281
     1
  0
CLASS
  1
HATCH
  2
AcDbHatch
  3
AutoCAD 2000
 90
        0
280
     0
281
     1
  0
CLASS
  1
XRECORD
  2
AcDbXrecord
  3
AutoCAD 2000
 90
        0
280
     0
281
     0
  0
CLASS
  1
DICTIONARYVAR
  2
AcDbDictionaryVar
  3
AutoCAD 2000
 90
        0
280
     0
281
     0
  0
CLASS
  1
LONG_TRANSACTION
  2
AcDbLongTransaction
  3
AutoCAD 2000
 90
        0
280
     0
281
     0
  0
CLASS
  1
LWPOLYLINE
  2
AcDbPolyline
  3
AutoCAD 2000
 90
        0
280
     0
281
     1
  0
CLASS
  1
HATCH
  2
AcDbHatch
  3
AutoCAD 2000
 90
        0
280
     0
281
     1
  0
CLASS
  1
XRECORD
  2
AcDbXrecord
  3
AutoCAD 2000
 90
        0
280
     0
281
     0
  0
ENDSEC
  0
SECTION
  2
TABLES
  0
TABLE
  2
VPORT
  5
12
330
0
100
AcDbSymbolTable
 70
     3
  0
VPORT
  5
D98
330
12
100
AcDbSymbolTableRecord
100
AcDbViewportTableRecord
  2
*ACTIVE
 70
     0
 10
0.0
 20
0.0
 11
1.0
 21
1.0
 12
172.4930208645344
 22
31.45621935267895
 13
0.0
 23
0.0
 14
1.0
 24
1.0
 15
0.0
 25
0.0
 16
0.0
 26
0.0
 36
1.0
 17
0.0
 27
0.0
 37
0.0
 40
41.4404512424027
 41
1.786792452830188
 42
50.0
 43
0.0
 44
0.0
 50
0.0
 51
0.0
 71
     0
 72
   100
 73
     1
 74
     1
 75
     0
 76
     0
 77
     0
 78
     0
  0
ENDTAB
  0
TABLE
  2
LTYPE
  5
D
330
0
100
AcDbSymbolTable
 70
     4
  0
LTYPE
  5
E
330
D
100
AcDbSymbolTableRecord
100
AcDbLinetypeTableRecord
  2
BYBLOCK
 70
     0
  3

 72
    65
 73
     0
 40
0.0
  0
LTYPE
  5
F
330
D
100
AcDbSymbolTableRecord
100
AcDbLinetypeTableRecord
  2
BYLAYER
 70
     0
  3

 72
    65
 73
     0
 40
0.0
  0
LTYPE
  5
5
330
D
100
AcDbSymbolTableRecord
100
AcDbLinetypeTableRecord
  2
CONTINUOUS
 70
     0
  3
Solid line
 72
    65
 73
     0
 40
0.0
  0
LTYPE
  5
5E0
330
D
100
AcDbSymbolTableRecord
100
AcDbLinetypeTableRecord
  2
CENTER
 70
     0
  3
____ _ ____ _ ____ _ ____ _ ____ _ ____ _ ____
 72
    65
 73
     4
 40
0.6
 49
0.375
 74
     0
 49
-0.075
 74
     0
 49
0.075
 74
     0
 49
-0.075
 74
     0
  0
LTYPE
  5
7C
330
D
100
AcDbSymbolTableRecord
100
AcDbLinetypeTableRecord
  2
HIDDEN
 70
     0
  3
- - - - - - - - - - - - - - - - - - - -
 72
    65
 73
     2
 40
0.2
 49
0.1
 74
     0
 49
-0.1
 74
     0
  0
LTYPE
  5
17D
330
D
100
AcDbSymbolTableRecord
100
AcDbLinetypeTableRecord
  2
DASHED
 70
     0
  3
- - - - - - - - - - - - - - - - - - - -
 72
    65
 73
     2
 40
0.2
 49
0.1
 74
     0
 49
-0.1
 74
     0
  0
ENDTAB
  0
TABLE
  2
LAYER
  5
A
330
0
100
AcDbSymbolTable
 70
     2
  0
LAYER
  5
4
330
A
100
AcDbSymbolTableRecord
100
AcDbLayerTableRecord
  2
0
 70
     0
 62
     7
  6
CONTINUOUS
  0
LAYER
  5
D56
330
A
100
AcDbSymbolTableRecord
100
AcDbLayerTableRecord
  2
DEFPOINTS
 70
     0
 62
     7
  6
CONTINUOUS
  0
ENDTAB
  0
TABLE
  2
STYLE
  5
B
330
0
100
AcDbSymbolTable
 70
     1
  0
STYLE
  5
C
330
B
100
AcDbSymbolTableRecord
100
AcDbTextStyleTableRecord
  2
STANDARD
 70
     0
 40
0.0
 41
0.8
 50
0.0
 71
     0
 42
0.2
  3
txt
  4

  0
ENDTAB
  0
TABLE
  2
VIEW
  5
10
330
0
100
AcDbSymbolTable
 70
     0
  0
ENDTAB
  0
TABLE
  2
UCS
  5
11
330
0
100
AcDbSymbolTable
 70
     0
  0
ENDTAB
  0
TABLE
  2
APPID
  5
14
330
0
100
AcDbSymbolTable
 70
     1
  0
APPID
  5
15
330
14
100
AcDbSymbolTableRecord
100
AcDbRegAppTableRecord
  2
ACAD
 70
     0
  0
ENDTAB
  0
TABLE
  2
DIMSTYLE
  5
16
330
0
100
AcDbSymbolTable
 70
     1
  0
DIMSTYLE
105
1C
330
16
100
AcDbSymbolTableRecord
100
AcDbDimStyleTableRecord
  2
STANDARD
 70
     0
  3

  4

  5
_FILLED
  6
_FILLED
  7
_FILLED
 40
1.0
 41
0.1875
 42
0.0625
 43
0.38
 44
0.18
 45
0.0
 46
0.0
 47
0.00001
 48
0.00001
140
0.125
141
0.09
142
0.0
143
25.4
144
1.0
145
0.0
146
1.0
147
0.09
 71
     0
 72
     0
 73
     1
 74
     1
 75
     0
 76
     0
 77
     0
 78
     4
170
     0
171
     2
172
     0
173
     0
174
     0
175
     0
176
     0
177
     0
178
     0
270
     2
271
     4
272
     4
273
     2
274
     2
340
C
275
     0
280
     0
281
     0
282
     0
283
     1
284
     0
285
     0
286
     0
287
     3
288
     0
  0
ENDTAB
  0
TABLE
  2
BLOCK_RECORD
  5
1
330
0
100
AcDbSymbolTable
 70
     2
  0
BLOCK_RECORD
  5
2
102
{ACAD_XDICTIONARY
360
D44
102
}
330
1
100
AcDbSymbolTableRecord
100
AcDbBlockTableRecord
  2
*MODEL_SPACE
  0
BLOCK_RECORD
  5
7
102
{ACAD_XDICTIONARY
360
D46
102
}
330
1
100
AcDbSymbolTableRecord
100
AcDbBlockTableRecord
  2
*PAPER_SPACE
  0
BLOCK_RECORD
  5
1D
330
1
100
AcDbSymbolTableRecord
100
AcDbBlockTableRecord
  2
_FILLED
  0
ENDTAB
  0
ENDSEC
  0
SECTION
  2
BLOCKS
  0
BLOCK
  5
3
330
2
100
AcDbEntity
  8
0
100
AcDbBlockBegin
  2
*MODEL_SPACE
 70
     0
 10
0.0
 20
0.0
 30
0.0
  3
*MODEL_SPACE
  1

  0
ENDBLK
  5
6
330
2
100
AcDbEntity
  8
0
100
AcDbBlockEnd
  0
BLOCK
  5
8
330
7
100
AcDbEntity
 67
     1
  8
0
100
AcDbBlockBegin
  2
*PAPER_SPACE
 70
     0
 10
0.0
 20
0.0
 30
0.0
  3
*PAPER_SPACE
  1

  0
ENDBLK
  5
9
330
7
100
AcDbEntity
 67
     1
  8
0
100
AcDbBlockEnd
  0
BLOCK
  5
1F
330
1D
100
AcDbEntity
  8
0
100
AcDbBlockBegin
  2
_FILLED
 70
     0
 10
0.0
 20
0.0
 30
0.0
  3
_FILLED
  1

  0
SOLID
  5
1E
330
1D
100
AcDbEntity
  8
0
  6
BYBLOCK
 62
     0
100
AcDbTrace
 10
0.0
 20
0.0
 30
0.0
 11
-1.0
 21
0.1666666667
 31
0.0
 12
-1.0
 22
-0.1666666667
 32
0.0
 13
-1.0
 23
-0.1666666667
 33
0.0
  0
ENDBLK
  5
20
330
1D
100
AcDbEntity
  8
0
  6
BYBLOCK
 62
     0
100
AcDbBlockEnd
  0
ENDSEC
  0
SECTION
  2
ENTITIES
  0
LWPOLYLINE
  5
21
330
2
100
AcDbEntity
  8
0
  6
CONTINUOUS
100
AcDbPolyline
 90
        9
 70
     0
 43
0.0
 10
176.1481967919859
 20
25.5462233197112
 10
176.3366784399859
 20
26.30902684291118
 10
176.5055910255859
 20
27.1059512237112
 10
176.6531416399859
 20
27.93613270851119
 10
176.7771594399859
 20
28.79557381891117
 10
176.8755466111859
 20
29.67804643011115
 10
176.9467909711859
 20
30.57844185411116
 10
176.9898405759859
 20
31.49139041251117
 10
177.0040761807859
 20
32.4042046925112
  0
LWPOLYLINE
  5
2C
330
2
100
AcDbEntity
  8
0
  6
CONTINUOUS
100
AcDbPolyline
 90
        9
 70
     0
 43
0.0
 10
177.4993873631859
 20
32.40420974051119
 10
177.4797845247859
 20
31.32847517571116
 10
177.4214910591859
 20
30.26371855171118
 10
177.3266882559859
 20
29.22652910531116
 10
177.2057624863859
 20
28.27653515651116
 10
177.0709753007858
 20
27.43965120131119
 10
176.9271230847859
 20
26.69279654851115
 10
176.7753549087859
 20
26.01132377411116
 10
176.6151546143859
 20
25.37626317571116
  0
LINE
  5
37
330
2
100
AcDbEntity
  8
0
  6
CONTINUOUS
100
AcDbLine
 10
204.4095395919859
 20
16.53544273571118
 30
0.0
 11
204.4095395919859
 21
45.90420974051119
 31
0.0
  0
LINE
  5
38
330
2
100
AcDbEntity
  8
0
  6
CONTINUOUS
100
AcDbLine
 10
204.6595395919859
 20
16.40420974051119
 30
0.0
 11
204.6595395919859
 21
45.90420974051119
 31
0.0
  0
LWPOLYLINE
  5
39
330
2
100
AcDbEntity
  8
0
  6
CONTINUOUS
100
AcDbPolyline
 90
       63
 70
     0
 43
0.0
 10
202.7594376767859
 20
32.40420974051119
 10
202.7549071503859
 20
32.14923172451119
 10
202.7411808175859
 20
31.85867192931115
 10
202.7173744607859
 20
31.52884672771119
 10
202.6817291167859
 20
31.15487894531119
 10
202.6313191983859
 20
30.72990395171117
 10
202.5614649647859
 20
30.24486734531118
 10
202.4714959887859
 20
29.72364873251118
 10
202.3716288191859
 20
29.23293507331115
 10
202.2637240479859
 20
28.77466690051119
 10
202.1507749615859
 20
28.35406234531117
 10
202.0322170207859
 20
27.9626527325112
 10
201.9089127119859
 20
27.5983735261112
 10
201.7816624495859
 20
27.2596860829112
 10
201.6480114095859
 20
26.93718372611115
 10
201.5085097871859
 20
26.6302992061112
 10
201.3628304719859
 20
26.33691719331119
 10
201.2072494191859
 20
26.04883921731115
 10
201.0414133231859
 20
25.76541186691119
 10
200.8642386815858
 20
25.4850664493112
 10
200.6715193823859
 20
25.20189645571119
 10
200.4590843167859
 20
24.91120334371117
 10
200.2293133023859
 20
24.61765946051116
 10
199.9777798143859
 20
24.31726186531119
 10
199.7045219407859
 20
24.01159562851118
 10
199.4095903951859
 20
23.70227809571119
 10
199.0988346735859
 20
23.39634643651119
 10
198.7752942463859
 20
23.09732021411119
 10
198.4475384431859
 20
22.81304502051119
 10
198.1192339215859
 20
22.54606627331119
 10
197.7958496815859
 20
22.29994732291119
 10
197.4755685423859
 20
22.07228566211119
 10
197.1570727407859
 20
21.86132720131119
 10
196.8383838383859
 20
21.6651485597112
 10
196.5161830239859
 20
21.48136201731119
 10
196.1849481599859
 20
21.30680982851116
 10
195.8426545487859
 20
21.14071090851119
 10
195.4915295055859
 20
20.98427819491119
 10
195.1341880799859
 20
20.83822148611119
 10
194.7749888207859
 20
20.70358223171119
 10
194.4101463519859
 20
20.57871271651116
 10
194.0301941439859
 20
20.46148639971116
 10
193.6447944527859
 20
20.35599321251119
 10
193.2551858479859
 20
20.26286395811119
 10
192.8591339599859
 20
20.18174687491119
 10
192.4518018351859
 20
20.11193928771119
 10
192.0453902719859
 20
20.05559336931119
 10
191.6818223999859
 20
20.01606080611119
 10
191.3623501855859
 20
19.98915908291118
 10
191.0794470703859
 20
19.97121417091119
 10
190.8274364895859
 20
19.9597024157112
 10
190.6017196927859
 20
19.95273125091117
 10
190.3984573263859
 20
19.94900269251118
 10
190.2148228959859
 20
19.94760923331119
 10
190.0483094287858
 20
19.94787872611117
 10
189.8968012239859
 20
19.94929844771118
 10
189.7587210575859
 20
19.95150046851117
 10
189.6326099983859
 20
19.95423412611119
 10
189.5171775471859
 20
19.95731340131119
 10
189.4113689231859
 20
19.96057947171117
 10
189.3144371199859
 20
19.96392060291118
 10
189.2255546239859
 20
19.96724784771119
 10
189.0008635775858
 20
19.97638731011119
  0
LWPOLYLINE
  5
7A
330
2
100
AcDbEntity
  8
0
  6
HIDDEN
100
AcDbPolyline
 90
       56
 70
     0
 43
0.0
 10
202.7627462207859
 20
32.40420974051119
 10
202.7568519455859
 20
32.1106119085112
 10
202.7388769087859
 20
31.77017733411119
 10
202.7072467295858
 20
31.37713673571116
 10
202.6588045359859
 20
30.9232867661112
 10
202.5876162399859
 20
30.3941207693112
 10
202.4897330927859
 20
29.80455551971116
 10
202.3766152527858
 20
29.24122734211119
 10
202.2531996239859
 20
28.72101169731115
 10
202.1230956079859
 20
28.24821799971116
 10
201.9859193215859
 20
27.81236605251118
 10
201.8431869487859
 20
27.4115013965112
 10
201.6936130623859
 20
27.03711879811118
 10
201.5360678559859
 20
26.68289324451118
 10
201.3706335151859
 20
26.34683849731115
 10
201.1926925823859
 20
26.0184684781112
 10
201.0013306799859
 20
25.69603453571119
 10
200.7940478943859
 20
25.37590076931115
 10
200.5640507839859
 20
25.04903850691118
 10
200.3100349663859
 20
24.71560157411116
 10
200.0297645855859
 20
24.37508644451119
 10
199.7210741391859
 20
24.02714491011116
 10
199.3844650719859
 20
23.67459890051117
 10
199.0273808159859
 20
23.32660106371119
 10
198.6561064959859
 20
22.98990263171118
 10
198.2813880607859
 20
22.67390053571119
 10
197.9099676719859
 20
22.38312745891117
 10
197.5438169663859
 20
22.11772890851119
 10
197.1803547615859
 20
21.87450972611117
 10
196.8167649615859
 20
21.65064412611119
 10
196.4480313359859
 20
21.44255508931117
 10
196.0667551503859
 20
21.24611153571119
 10
195.6717995919859
 20
21.06111320611118
 10
195.2668709935858
 20
20.88914283651119
 10
194.8578902991859
 20
20.73170703971119
 10
194.4432212655859
 20
20.58755864611116
 10
194.0104970719859
 20
20.45370689411119
 10
193.5703585487859
 20
20.33500769411119
 10
193.1243855791859
 20
20.23234192131118
 10
192.6671571583859
 20
20.14479897891119
 10
192.1993579999859
 20
20.07291849731119
 10
191.7672332191859
 20
20.02187318531119
 10
191.3943315967859
 20
19.98882636611119
 10
191.0701327711859
 20
19.96790914691119
 10
190.7859845887859
 20
19.95529190371117
 10
190.5351642351859
 20
19.9482586381112
 10
190.3123234831859
 20
19.94503906691119
 10
190.1134704127859
 20
19.94443651811117
 10
189.9351706175859
 20
19.94558650211119
 10
189.7748332623859
 20
19.94787420291119
 10
189.6302799359859
 20
19.95089663811119
 10
189.4996246671859
 20
19.95436817411119
 10
189.3813595599859
 20
19.95806444771119
 10
189.2743321647859
 20
19.96183068291119
 10
189.1773961359859
 20
19.96554110531117
 10
189.0100720271859
 20
19.97235871331119
  0
LWPOLYLINE
  5
B5
330
2
100
AcDbEntity
  8
0
  6
CONTINUOUS
100
AcDbPolyline
 90
       40
 70
     0
 43
0.0
 10
193.9556732799859
 20
27.84245544771119
 10
193.9376137567859
 20
27.79200868611118
 10
193.9186290511859
 20
27.73976527171118
 10
193.8986626463859
 20
27.68566124291115
 10
193.8776765183859
 20
27.62969094371115
 10
193.8556372639859
 20
27.57186328931115
 10
193.8325096271859
 20
27.5121857517112
 10
193.8082509215859
 20
27.45066004931115
 10
193.7828166063859
 20
27.3872864525112
 10
193.7561534991859
 20
27.32205061091116
 10
193.7281738511859
 20
27.25487967491119
 10
193.6987812719859
 20
27.18568617091119
 10
193.6678763407859
 20
27.11438662371119
 10
193.6353475135859
 20
27.04091355491115
 10
193.6010802223859
 20
26.96520349091119
 10
193.5741611087859
 20
26.9069022061112
 10
193.5460982047859
 20
26.84720498531118
 10
193.5167900495859
 20
26.7860099069112
 10
193.4861351839859
 20
26.72321505251119
 10
193.4540263759858
 20
26.6587194045112
 10
193.4203332911859
 20
26.59242555651118
 10
193.3849198239859
 20
26.52423700611118
 10
193.3476498687859
 20
26.4540572493112
 10
193.3084077087859
 20
26.38183781571118
 10
193.2671591983859
 20
26.30772235491119
 10
193.2238905855859
 20
26.23190255331115
 10
193.1785881151859
 20
26.15457009411119
 10
193.1312781327859
 20
26.07596709571117
 10
193.0821473887859
 20
25.9965374189112
 10
193.0314227279859
 20
25.91677535811115
 10
192.9793310031859
 20
25.8371752077112
 10
192.9081273503859
 20
25.7320521517112
 10
192.8353530479859
 20
25.62869302531117
 10
192.7614645007859
 20
25.52769516771116
 10
192.6867584751859
 20
25.42944401891119
 10
192.6108931903859
 20
25.33347740291119
 10
192.5333672239859
 20
25.23912124291115
 10
192.4537906015859
 20
25.14585124131119
 10
192.3722191151859
 20
25.05374222051119
 10
192.2888199999859
 20
24.96301878371119
  0
LINE
  5
DF
330
2
100
AcDbEntity
  8
0
  6
CONTINUOUS
100
AcDbLine
 10
144.6595395919859
 20
16.40420974051119
 30
0.0
 11
144.6595395919859
 21
45.90420974051119
 31
0.0
  0
LINE
  5
E0
330
2
100
AcDbEntity
  8
0
  6
CONTINUOUS
100
AcDbLine
 10
144.9095395919859
 20
16.53544273571118
 30
0.0
 11
144.9095395919859
 21
45.90420974051119
 31
0.0
  0
LWPOLYLINE
  5
E1
330
2
100
AcDbEntity
  8
0
  6
CONTINUOUS
100
AcDbPolyline
 90
       70
 70
     0
 43
0.0
 10
146.0638875391859
 20
31.1235095117112
 10
146.0638402719859
 20
30.78753309571115
 10
146.0651673327859
 20
30.4867034957112
 10
146.0681590815859
 20
30.21787726211115
 10
146.0730439183859
 20
29.97788348771115
 10
146.0798429855859
 20
29.76520403491119
 10
146.0883010447859
 20
29.5787340125112
 10
146.0981987999859
 20
29.41308862371119
 10
146.1095918127859
 20
29.26055566051116
 10
146.1226831151859
 20
29.11508723171115
 10
146.1376247775859
 20
28.97349120931116
 10
146.1547126767859
 20
28.83241693571119
 10
146.1743608863859
 20
28.68869961731116
 10
146.1965161583859
 20
28.54323716451119
 10
146.2210534815859
 20
28.3971357053112
 10
146.2479348719859
 20
28.25073447811115
 10
146.2771437535859
 20
28.10421015331115
 10
146.3086142783859
 20
27.95794920611115
 10
146.3422437423859
 20
27.81243178851116
 10
146.3779438575859
 20
27.66799009571119
 10
146.4156690383859
 20
27.52474038691116
 10
146.4553467695859
 20
27.38288673571119
 10
146.4968659807859
 20
27.24273325251115
 10
146.5401733647859
 20
27.1043556909112
 10
146.5851675215859
 20
26.96796875171119
 10
146.6317939951859
 20
26.83362382531118
 10
146.6800202847859
 20
26.70131182531119
 10
146.7296687935859
 20
26.57140317571119
 10
146.7805560831858
 20
26.4442223165112
 10
146.8330978959859
 20
26.31864125091115
 10
146.8876877039859
 20
26.1937342333112
 10
146.9448131407859
 20
26.06839498531115
 10
147.0050188047859
 20
25.94154562531119
 10
147.0682606719859
 20
25.8134476269112
 10
147.1344297055859
 20
25.68445827171117
 10
147.2035104543859
 20
25.55472111651118
 10
147.2754808655859
 20
25.42438208451119
 10
147.3503185567859
 20
25.29357891331119
 10
147.4279818895859
 20
25.16247477571118
 10
147.5083212671859
 20
25.0313973213112
 10
147.5912481391859
 20
24.90055032611115
 10
147.6766390271859
 20
24.77017763971119
 10
147.7642738927859
 20
24.64064704451115
 10
147.8540202079859
 20
24.51217176931115
 10
147.9456899023859
 20
24.38502912291119
 10
148.0389937823859
 20
24.25961119331118
 10
148.1336801999859
 20
24.13622907011117
 10
148.2295732207859
 20
24.01507618211118
 10
148.3262018783859
 20
23.89669208931118
 10
148.4233551567859
 20
23.78126037411119
 10
148.5208808975859
 20
23.66888674371119
 10
148.6181539055859
 20
23.56019497571119
 10
148.7146575823859
 20
23.45562780291119
 10
148.8099499791859
 20
23.35552711811119
 10
148.9038909919859
 20
23.25989050211117
 10
148.9969478239859
 20
23.16810016451118
 10
149.0894738799859
 20
23.07969538051119
 10
149.1816527599859
 20
22.99440521411119
 10
149.2738203647859
 20
22.9118420765112
 10
149.3662058031859
 20
22.83174386531119
 10
149.4589120895859
 20
22.75397085731118
 10
149.5524159567859
 20
22.67808862851116
 10
149.6471094623859
 20
22.60377138691116
 10
149.7430313231859
 20
22.53098899171119
 10
149.8405936895859
 20
22.45943666851118
 10
149.9403464991859
 20
22.38874479971117
 10
150.0424932639859
 20
22.31881874211117
 10
150.1472395919859
 20
22.24956903011116
 10
150.2552734415859
 20
22.18060913571119
 10
150.3670621327859
 20
22.11173227971116
  0
LWPOLYLINE
  5
129
330
2
100
AcDbEntity
  8
0
  6
CONTINUOUS
100
AcDbPolyline
 90
       80
 70
     0
 43
0.0
 10
160.1723211327859
 20
23.51726531331117
 10
159.7037653631859
 20
23.51908374371119
 10
159.2332756959859
 20
23.52240064291119
 10
158.7623597231859
 20
23.52766410051118
 10
158.2931760079859
 20
23.53537046211119
 10
158.0594590063859
 20
23.54031603491117
 10
157.8242255503859
 20
23.54616718691116
 10
157.6652639951859
 20
23.55066555971116
 10
157.5034150975858
 20
23.55576086851118
 10
157.3375789519858
 20
23.56157305571119
 10
157.2100477023859
 20
23.56647307811118
 10
157.0799358159859
 20
23.57188405891119
 10
156.9472612095859
 20
23.57786465411119
 10
156.8109899359859
 20
23.58454712451117
 10
156.6703394447859
 20
23.59205761571119
 10
156.5265846511859
 20
23.60042417251119
 10
156.3812113295859
 20
23.60966894211117
 10
156.2344912319859
 20
23.61988858211118
 10
156.0865782767859
 20
23.63117517731119
 10
155.9383690559859
 20
23.64352802371119
 10
155.7909458351859
 20
23.65692322211118
 10
155.6453908751859
 20
23.67133687011116
 10
155.5025524415859
 20
23.68675605251117
 10
155.3623427967859
 20
23.70321179651119
 10
155.2246019311859
 20
23.72072593731118
 10
155.0898167455859
 20
23.73923959811119
 10
154.9584947391859
 20
23.75868890211119
 10
154.8305788959859
 20
23.77907068931119
 10
154.7058710639859
 20
23.80039698051119
 10
154.5841731007859
 20
23.82267979011119
 10
154.4263053679859
 20
23.85389001731118
 10
154.2733066303859
 20
23.88679729091119
 10
154.1250472751859
 20
23.92137680611119
 10
153.9813740303859
 20
23.95759965411117
 10
153.8420390223859
 20
23.99542048771118
 10
153.7067707199859
 20
24.03478985571119
 10
153.5752962479859
 20
24.07566735171119
 10
153.4473373535859
 20
24.11804877251118
 10
153.3226144319859
 20
24.16193896611119
 10
153.2008664623859
 20
24.20734197411118
 10
153.0819067439859
 20
24.25425862851119
 10
152.9655671567859
 20
24.30268895491117
 10
152.8516838335859
 20
24.35263627971116
 10
152.7401099103859
 20
24.40411711171118
 10
152.6307027743859
 20
24.45715126371115
 10
152.5233521375858
 20
24.5117409261112
 10
152.4180769951859
 20
24.56781781251118
 10
152.3149286655859
 20
24.6252960237112
 10
152.2139649391859
 20
24.68408623811118
 10
152.1152694911859
 20
24.7440854685112
 10
152.0189324735859
 20
24.80518731171119
 10
151.9249831151859
 20
24.86733413251119
 10
151.8332069759859
 20
24.93066337571116
 10
151.7433286975859
 20
24.9953612509112
 10
151.6115133343859
 20
25.09535843651116
 10
151.4826947359859
 20
25.19934356451119
 10
151.3981413535859
 20
25.27115141411119
 10
151.3143377711859
 20
25.3452572685112
 10
151.2309924991859
 20
25.42196914051115
 10
151.1479730287859
 20
25.50142540291119
 10
151.0657827999859
 20
25.5830858797112
 10
150.9850842319859
 20
25.6662407517112
 10
150.9065355311859
 20
25.75012305411116
 10
150.8307780287859
 20
25.83373722371115
 10
150.7584488447859
 20
25.9160305517112
 10
150.6900402335859
 20
25.99611409411119
 10
150.6254650031859
 20
26.07375399331115
 10
150.5644910975859
 20
26.14888016131115
 10
150.5068939311859
 20
26.2214694589112
 10
150.4524788047859
 20
26.29168656131119
 10
150.4010584799859
 20
26.35974308931119
 10
150.3524788975859
 20
26.42581041251119
 10
150.3067186703859
 20
26.4898988781112
 10
150.2637895823859
 20
26.55197858371119
 10
150.2235699807859
 20
26.6122978621112
 10
150.1854044671859
 20
26.67221801891119
 10
150.1485041999859
 20
26.73337860611118
 10
150.1122220319859
 20
26.7970278237112
 10
150.0764775519859
 20
26.8628484813112
 10
150.0413320431859
 20
26.93013203971119
  0
LINE
  5
17B
330
2
100
AcDbEntity
  8
0
  6
CONTINUOUS
100
AcDbLine
 10
174.2055033279859
 20
23.39232969411119
 30
0.0
 11
174.0504113439859
 21
23.39878421251119
 31
0.0
  0
LINE
  5
17C
330
2
100
AcDbEntity
  8
0
  6
DASHED
100
AcDbLine
 10
173.8283195615859
 20
21.04306804451118
 30
0.0
 11
175.4824706415859
 21
21.01505957091116
 31
0.0
  0
LWPOLYLINE
  5
17E
330
2
100
AcDbEntity
  8
0
  6
DASHED
100
AcDbPolyline
 90
       50
 70
     0
 43
0.0
 10
171.0257497039859
 20
23.51674753091118
 10
171.1690518319859
 20
23.52302865891118
 10
171.3124858079859
 20
23.52581854211119
 10
171.4559415919859
 20
23.52512727811117
 10
171.5764457551859
 20
23.52186177251118
 10
171.6968487807859
 20
23.51615213571119
 10
171.8171953359858
 20
23.50799850851119
 10
171.9373616239859
 20
23.49740730851117
 10
172.0971151967859
 20
23.47951318051116
 10
172.2563375327859
 20
23.45730824771119
 10
172.4148886431859
 20
23.43080480131119
 10
172.5330667327859
 20
23.40815643491116
 10
172.6507521823859
 20
23.38310760611119
 10
172.7676294351859
 20
23.35572739011119
 10
172.8839238031859
 20
23.32596117891117
 10
172.9992245359859
 20
23.29391371491119
 10
173.1138405775858
 20
23.25949941411117
 10
173.2272874767859
 20
23.22286558531119
 10
173.3399500383859
 20
23.18388613891116
 10
173.4512706799859
 20
23.14275367171119
 10
173.5617058255859
 20
23.09929986851119
 10
173.6706344431859
 20
23.05377089091119
 10
173.7785755679859
 20
23.00594794531119
 10
173.8848504703859
 20
22.95613135811119
 10
173.9900347359859
 20
22.90405178051119
 10
174.0934026319859
 20
22.85007033411119
 10
174.1955761871859
 20
22.79386023651119
 10
174.2957899727859
 20
22.73584207331118
 10
174.3947022703859
 20
22.67563549251116
 10
174.4915194415859
 20
22.61372537891119
 10
174.5869359519859
 20
22.54966553571116
 10
174.6797318143859
 20
22.48429479331119
 10
174.7710363119859
 20
22.41683808131119
 10
174.8607781055859
 20
22.34730760611118
 10
174.9488858559859
 20
22.27571557091118
 10
175.0337931375859
 20
22.20337906531119
 10
175.1169844111859
 20
22.12907912451119
 10
175.1983899743859
 20
22.05283067011116
 10
175.2779401215859
 20
21.97464863011116
 10
175.3541511407859
 20
21.89604302691118
 10
175.4284347935859
 20
21.81561178371116
 10
175.5007185263859
 20
21.73337784291119
 10
175.5709297759859
 20
21.64936415011119
 10
175.6377401567859
 20
21.56521869731119
 10
175.7024105519859
 20
21.47941784771117
 10
175.7648664079859
 20
21.39199781251119
 10
175.8250331711859
 20
21.30299480131118
 10
175.8748010527859
 20
21.22535584451117
 10
175.9227797247859
 20
21.14660914691119
 10
175.9689218655859
 20
21.06678685251117
  0
LINE
  5
1B4
330
2
100
AcDbEntity
  8
0
  6
CONTINUOUS
100
AcDbLine
 10
144.9095395919859
 20
16.53544273571118
 30
0.0
 11
204.4095395919859
 21
16.53544273571118
 31
0.0
  0
LINE
  5
1B5
330
2
100
AcDbEntity
  8
0
  6
CONTINUOUS
100
AcDbLine
 10
144.6595395919859
 20
16.40420974051119
 30
0.0
 11
204.6595395919859
 21
16.40420974051119
 31
0.0
  0
LWPOLYLINE
  5
1B7
330
2
100
AcDbEntity
  8
0
  6
CONTINUOUS
100
AcDbPolyline
 90
        3
 70
     0
 43
0.0
 10
167.9422000303859
 20
20.51893003811119
 10
184.3792556319859
 20
20.09094196451119
 10
188.6595395919859
 20
19.97858387491119
  0
LINE
  5
1BE
330
2
100
AcDbEntity
  8
0
  6
CONTINUOUS
100
AcDbLine
 10
156.2783290799859
 20
20.82369690851119
 30
0.0
 11
161.3624423231859
 21
20.69056378371119
 31
0.0
  0
LWPOLYLINE
  5
1BF
330
2
100
AcDbEntity
  8
0
  6
CONTINUOUS
100
AcDbPolyline
 90
       20
 70
     0
 43
0.0
 10
153.6047717039859
 20
22.50762378371119
 10
153.9461833567859
 20
22.48231612131118
 10
154.2770924383859
 20
22.46670700611119
 10
154.6075959295859
 20
22.45731966531117
 10
154.9433618159859
 20
22.45218211811119
 10
155.2877463839859
 20
22.45002465251118
 10
155.6436607663859
 20
22.44995958531116
 10
156.0115747951859
 20
22.45132719811118
 10
156.3986716799859
 20
22.45366253091118
 10
156.8182009487859
 20
22.45693987651117
 10
157.2771307151859
 20
22.46140891811117
 10
157.7745674079859
 20
22.46729937571119
 10
158.3089351743859
 20
22.47485548131119
 10
158.8787364703859
 20
22.48433801571118
 10
159.5009710079859
 20
22.49637427651117
 10
160.1951756719859
 20
22.51160236931116
 10
160.9814143423859
 20
22.53069256131119
 10
161.8409336751859
 20
22.55335105891117
 10
162.6740557391859
 20
22.57666849571117
 10
164.3158043087859
 20
22.62394025251118
  0
LWPOLYLINE
  5
1D5
330
2
100
AcDbEntity
  8
0
  6
CONTINUOUS
100
AcDbPolyline
 90
        4
 70
     0
 43
0.0
 10
164.9007186533343
 20
21.57071077231803
 10
161.9884051071859
 20
21.62760991171118
 10
158.7356088239858
 20
21.6944677197112
 10
155.1048961983859
 20
21.77297287971117
  0
LINE
  5
1E1
330
2
100
AcDbEntity
  8
0
  6
CONTINUOUS
100
AcDbLine
 10
144.9095395919859
 20
16.53581727171119
 30
0.0
 11
144.6595395919859
 21
16.53581727171119
 31
0.0
  0
LINE
  5
1E2
330
2
100
AcDbEntity
  8
0
  6
CONTINUOUS
100
AcDbLine
 10
144.9095395919859
 20
17.75886748291117
 30
0.0
 11
144.6595395919859
 21
17.75886748291117
 31
0.0
  0
LWPOLYLINE
  5
1E4
330
2
100
AcDbEntity
  8
0
  6
CONTINUOUS
100
AcDbPolyline
 90
       10
 70
     0
 43
0.0
 10
151.0311587983859
 20
23.06915464771118
 10
151.3062909503859
 20
22.89442318531119
 10
151.5602056719859
 20
22.74828037411118
 10
151.8036818847859
 20
22.61980798371119
 10
152.0494777583859
 20
22.50028594851116
 10
152.3036847455859
 20
22.38720690211118
 10
152.5709870431859
 20
22.27972274691117
 10
152.8560176511859
 20
22.17748009891117
 10
153.1642789455859
 20
22.08050964131119
 10
153.5050257007859
 20
21.98910533891119
  0
LWPOLYLINE
  5
1F0
330
2
100
AcDbEntity
  8
0
  6
CONTINUOUS
100
AcDbPolyline
 90
       35
 70
     0
 43
0.0
 10
150.3673111503859
 20
22.11198129891117
 10
150.4811788543859
 20
22.04455784611117
 10
150.6000403567859
 20
21.97660991491119
 10
150.7238619727859
 20
21.90828381251118
 10
150.8519227071859
 20
21.84005939971119
 10
150.9826484287859
 20
21.77277536611117
 10
151.1131182879859
 20
21.70793941571119
 10
151.2409559935859
 20
21.64672581731119
 10
151.3659095711859
 20
21.58916448451118
 10
151.4886386095859
 20
21.53485021091118
 10
151.6096435359859
 20
21.48347911011116
 10
151.7292987215859
 20
21.43482226211119
 10
151.8479521519859
 20
21.38867806691119
 10
151.9658994783859
 20
21.34488264451118
 10
152.0833993967859
 20
21.30330212291116
 10
152.2006758623859
 20
21.26382885891119
 10
152.3178787935859
 20
21.22639100131117
 10
152.4351073631859
 20
21.19093952291119
 10
152.5524497663859
 20
21.15743314531119
 10
152.6699749679859
 20
21.12583978211117
 10
152.7878025087859
 20
21.09611810531116
 10
152.9061237231859
 20
21.06821692611116
 10
153.0249996575859
 20
21.04212374691118
 10
153.1444328687859
 20
21.01784013251119
 10
153.2645617023859
 20
20.99534226051119
 10
153.3855088175859
 20
20.97461653891119
 10
153.5073059567858
 20
20.95566939651119
 10
153.6300177567859
 20
20.93850375971119
 10
153.7537486095859
 20
20.92312081731118
 10
153.8785393119859
 20
20.90953350211119
 10
154.0044965599859
 20
20.89775048131119
 10
154.1318272671859
 20
20.88777854851119
 10
154.2606822255859
 20
20.87963949411118
 10
154.3908077775859
 20
20.87337741091118
 10
154.5216441631859
 20
20.86903993731118
  0
LWPOLYLINE
  5
215
330
2
100
AcDbEntity
  8
0
  6
CONTINUOUS
100
AcDbPolyline
 90
       15
 70
     0
 43
0.0
 10
153.6047717039859
 20
22.50762378371119
 10
153.2779107103859
 20
22.54351458851118
 10
152.9313069247859
 20
22.59776359971118
 10
152.5959821455859
 20
22.66909193571119
 10
152.2660284287859
 20
22.75869545091119
 10
151.9333922063859
 20
22.86871244611117
 10
151.6030047679859
 20
22.99818005571118
 10
151.2838488287859
 20
23.14367396291119
 10
150.9845097823859
 20
23.30034047811119
 10
150.7132441295859
 20
23.46185981891119
 10
150.4729406063859
 20
23.62395111491119
 10
150.2569474255859
 20
23.78912313411119
 10
150.0521300575859
 20
23.96634587331119
 10
149.8438196559859
 20
24.16976845731119
 10
149.6212008495859
 20
24.41252098691117
  0
LWPOLYLINE
  5
226
330
2
100
AcDbEntity
  8
0
  6
CONTINUOUS
100
AcDbPolyline
 90
       31
 70
     0
 43
0.0
 10
148.9095395919859
 20
23.25423559651119
 10
148.9530832735859
 20
23.2110050653112
 10
148.9969478239859
 20
23.16810016451118
 10
149.0430343231859
 20
23.12371300451118
 10
149.0894738799859
 20
23.07969538051119
 10
149.1353920847859
 20
23.03686522371119
 10
149.1816527599859
 20
22.99440521411119
 10
149.2275697919859
 20
22.95293746851119
 10
149.2738203647859
 20
22.9118420765112
 10
149.3198505135858
 20
22.87160545731117
 10
149.3662058031859
 20
22.83174386531119
 10
149.4124008591859
 20
22.79266891651117
 10
149.4589120895859
 20
22.75397085731118
 10
149.5055094207859
 20
22.71583923651118
 10
149.5524159567859
 20
22.67808862851116
 10
149.5996109647859
 20
22.64073665731119
 10
149.6471094623859
 20
22.60377138691116
 10
149.6949220479859
 20
22.56718468131117
 10
149.7430313231859
 20
22.53098899171119
 10
149.7916669519859
 20
22.49501437091119
 10
149.8405936895859
 20
22.45943666851118
 10
149.8903264447859
 20
22.42388803811118
 10
149.9403464991859
 20
22.38874479971117
 10
149.9912783535859
 20
22.35357504451119
 10
150.0424932639859
 20
22.31881874211117
 10
150.0947272831859
 20
22.28398340291117
 10
150.1472395919859
 20
22.24956903011116
 10
150.2011187455859
 20
22.21487336611119
 10
150.2552734415859
 20
22.18060913571119
 10
150.3110673007859
 20
22.14592707491117
 10
150.3671340639859
 20
22.11168873891119
  0
LWPOLYLINE
  5
247
330
2
100
AcDbEntity
  8
0
  6
CONTINUOUS
100
AcDbPolyline
 90
        8
 70
     0
 43
0.0
 10
149.6246723151859
 20
24.31570285891119
 10
149.7820094415859
 20
24.14279364451118
 10
149.9444008767859
 20
23.9738466461112
 10
150.1149738495859
 20
23.80644942051117
 10
150.2981998127859
 20
23.63764652451119
 10
150.5046561295859
 20
23.46072739971118
 10
150.7512880175859
 20
23.26715064771117
 10
151.0311587983859
 20
23.06915464771118
  0
LINE
  5
251
330
2
100
AcDbEntity
  8
0
  6
CONTINUOUS
100
AcDbLine
 10
149.6171003887859
 20
24.38579088771119
 30
0.0
 11
149.6246723151859
 21
24.31570285891119
 31
0.0
  0
LINE
  5
252
330
2
100
AcDbEntity
  8
0
  6
CONTINUOUS
100
AcDbLine
 10
149.6211953967859
 20
24.41252655171119
 30
0.0
 11
149.6171032991859
 21
24.38579334371117
 31
0.0
  0
LWPOLYLINE
  5
253
330
2
100
AcDbEntity
  8
0
  6
CONTINUOUS
100
AcDbPolyline
 90
        5
 70
     0
 43
0.0
 10
155.1048961983859
 20
21.77297287971117
 10
154.7156349247859
 20
21.79266054691119
 10
154.3177406239859
 20
21.83484077251117
 10
153.9131944079859
 20
21.90021870211117
 10
153.5050257007859
 20
21.98910533891119
  0
LINE
  5
25A
330
2
100
AcDbEntity
  8
0
  6
CONTINUOUS
100
AcDbLine
 10
154.5216441631859
 20
20.86903993731118
 30
0.0
 11
155.4559577231859
 21
20.84503532131118
 31
0.0
  0
LINE
  5
25B
330
2
100
AcDbEntity
  8
0
  6
CONTINUOUS
100
AcDbLine
 10
155.4559577231859
 20
20.84503532131118
 30
0.0
 11
156.2783290799859
 21
20.82369690851119
 31
0.0
  0
LINE
  5
25C
330
2
100
AcDbEntity
  8
0
  6
CONTINUOUS
100
AcDbLine
 10
165.6963425823859
 20
23.51235200931118
 30
0.0
 11
165.1797174399859
 21
23.51433707011119
 31
0.0
  0
LINE
  5
25D
330
2
100
AcDbEntity
  8
0
  6
DASHED
100
AcDbLine
 10
165.3192311055859
 20
21.18714591971117
 30
0.0
 11
166.3393468495859
 21
21.16987308131119
 31
0.0
  0
LWPOLYLINE
  5
25E
330
2
100
AcDbEntity
  8
0
  6
CONTINUOUS
100
AcDbPolyline
 90
        3
 70
     0
 43
0.0
 10
164.3158043087859
 20
22.62394025251118
 10
165.2418455391859
 20
22.64872441091117
 10
166.121000045926
 20
22.66821056054013
  0
LWPOLYLINE
  5
263
330
2
100
AcDbEntity
  8
0
  6
DASHED
100
AcDbPolyline
 90
       51
 70
     0
 43
0.0
 10
164.6904541327859
 20
21.25775686051119
 10
164.7311487343859
 20
21.32351296131119
 10
164.7731011039859
 20
21.38847743171119
 10
164.8163421439859
 20
21.45269753891119
 10
164.8608061439859
 20
21.51607607011119
 10
164.9065351151859
 20
21.57867270371116
 10
164.9534529391859
 20
21.64038355971119
 10
165.0016096575859
 20
21.7012740957112
 10
165.0509187359859
 20
21.76123519811119
 10
165.1014392879859
 20
21.82033848771119
 10
165.1530742815859
 20
21.87847071651118
 10
165.2058917231859
 20
21.93570818691117
 10
165.2597841375859
 20
21.99193467971119
 10
165.3148284079859
 20
22.04723017731119
 10
165.3709068063859
 20
22.10147663811119
 10
165.4281049055859
 20
22.15475662851119
 10
165.4862949999859
 20
22.20695139811118
 10
165.5455710159858
 20
22.25814500451119
 10
165.6057957295859
 20
22.30821911651119
 10
165.6670709791859
 20
22.35725823971117
 10
165.7292505615858
 20
22.4051455309112
 10
165.7924436847859
 20
22.45196494371117
 10
165.8564958207859
 20
22.49760213891117
 10
165.9215228927858
 20
22.54213957251118
 10
165.9873628047859
 20
22.58546635971116
 10
166.0541374559859
 20
22.62766259331118
 10
166.1216780239859
 20
22.66862171171119
 10
166.1901115439859
 20
22.70842064451119
 10
166.2592634031859
 20
22.74695794851119
 10
166.3292648671859
 20
22.78430667971119
 10
166.3999365295859
 20
22.82037120931116
 10
166.4714129247859
 20
22.85522011011116
 10
166.5435109039859
 20
22.88876416771118
 10
166.6163672431859
 20
22.92106694531119
 10
166.6897961631859
 20
22.95204614371118
 10
166.7639356543859
 20
22.98175991651119
 10
166.8385984127859
 20
23.01013325571119
 10
166.9139225215858
 20
23.03721858531119
 10
166.9897203455859
 20
23.06294848291119
 10
167.0661289743859
 20
23.08736944451119
 10
167.1429616031859
 20
23.11042180291117
 10
167.2203532031859
 20
23.13214602211118
 10
167.2981189567859
 20
23.15249025891118
 10
167.3763907215859
 20
23.17148898371117
 10
167.4549868303859
 20
23.18909811491117
 10
167.5340348927859
 20
23.20534622211118
 10
167.6133571983859
 20
23.22019681731116
 10
167.6930759119859
 20
23.2336727725112
 10
167.7730199391859
 20
23.24574511651118
 10
167.8533057215859
 20
23.25643141251119
 10
167.9337638095859
 20
23.26570920131119
  0
LINE
  5
298
330
2
100
AcDbEntity
  8
0
  6
CONTINUOUS
100
AcDbLine
 10
161.3624423231859
 20
20.69056378371119
 30
0.0
 11
167.9422000303859
 21
20.51893003811119
 31
0.0
  0
LINE
  5
29E
330
2
100
AcDbEntity
  8
0
  6
CONTINUOUS
100
AcDbLine
 10
162.4581903743859
 20
23.51719214531116
 30
0.0
 11
160.6458035535859
 21
23.51653533251119
 31
0.0
  0
LINE
  5
29F
330
2
100
AcDbEntity
  8
0
  6
CONTINUOUS
100
AcDbLine
 10
160.6458035535859
 20
23.51653533251119
 30
0.0
 11
160.1723211327859
 21
23.51726531331117
 31
0.0
  0
LWPOLYLINE
  5
2A0
330
2
100
AcDbEntity
  8
0
  6
DASHED
100
AcDbPolyline
 90
       42
 70
     0
 43
0.0
 10
164.6904541327859
 20
21.25775686051119
 10
164.6889550047859
 20
21.25675131011119
 10
164.6875488671859
 20
21.25561783331116
 10
164.6862949871859
 20
21.25429369091119
 10
164.6855512639859
 20
21.25322833731117
 10
164.6850009679859
 20
21.25206809091119
 10
164.6847339039859
 20
21.25084219171118
 10
164.6847980863859
 20
21.24966361891117
 10
164.6851288063859
 20
21.24850404771119
 10
164.6856646543858
 20
21.24741448291119
 10
164.6866078879859
 20
21.24612737571119
 10
164.6877379295859
 20
21.24501037091119
 10
164.6889845391859
 20
21.24401712771118
 10
164.6917152911859
 20
21.24221632291117
 10
164.6945858751859
 20
21.24066383971117
 10
164.6984357871859
 20
21.23890579331118
 10
164.7023782735859
 20
21.23735731971119
 10
164.7072918239859
 20
21.23565061891119
 10
164.7122581247859
 20
21.23410887331118
 10
164.7181847887859
 20
21.23244518051119
 10
164.7241493487859
 20
21.23092072291119
 10
164.7310463871859
 20
21.22930077891119
 10
164.7379700095859
 20
21.22779926531116
 10
164.7536362303859
 20
21.22475148291119
 10
164.7711101791859
 20
21.22177672291118
 10
164.7903071439858
 20
21.21888394051117
 10
164.8112130351859
 20
21.21607190531119
 10
164.8337762655859
 20
21.21334642691118
 10
164.8579578703859
 20
21.21071211331118
 10
164.8837722767859
 20
21.20816910051117
 10
164.9111594223859
 20
21.20572610531117
 10
164.9401595343859
 20
21.20338347811119
 10
164.9707466351859
 20
21.2011486349112
 10
165.0029278447859
 20
21.19902714851119
 10
165.0367386783859
 20
21.19702411651118
 10
165.0721398975859
 20
21.19515010051117
 10
165.1092003359859
 20
21.19341076931117
 10
165.1478860079859
 20
21.19181817891116
 10
165.1882477631859
 20
21.19038170691119
 10
165.2302535839859
 20
21.18911509571118
 10
165.2739122319859
 20
21.18803159011119
 10
165.3192311055859
 20
21.18714591971117
  0
LWPOLYLINE
  5
2CC
330
2
100
AcDbEntity
  8
0
  6
CONTINUOUS
100
AcDbPolyline
 90
        3
 70
     0
 43
0.0
 10
163.5102557471859
 20
23.51716573731118
 10
162.6606385631859
 20
23.51724977571119
 10
162.4581903743859
 20
23.51719214531116
  0
LINE
  5
2D1
330
2
100
AcDbEntity
  8
0
  6
CONTINUOUS
100
AcDbLine
 10
164.6796226447859
 20
23.51568521411118
 30
0.0
 11
164.1972593375859
 21
23.51654140291118
 31
0.0
  0
LINE
  5
2D2
330
2
100
AcDbEntity
  8
0
  6
CONTINUOUS
100
AcDbLine
 10
165.1797174399859
 20
23.51433707011119
 30
0.0
 11
164.6796226447859
 21
23.51568521411118
 31
0.0
  0
LINE
  5
2D3
330
2
100
AcDbEntity
  8
0
  6
CONTINUOUS
100
AcDbLine
 10
164.1972593375859
 20
23.51654140291118
 30
0.0
 11
163.5102557471859
 21
23.51716573731118
 31
0.0
  0
LWPOLYLINE
  5
2D6
330
2
100
AcDbEntity
  8
0
  6
CONTINUOUS
100
AcDbPolyline
 90
        2
 70
     0
 43
0.0
 10
170.2155333934987
 20
23.46581770120465
 10
169.2642148815859
 20
23.47852963811119
  0
LWPOLYLINE
  5
2DA
330
2
100
AcDbEntity
  8
0
  6
DASHED
100
AcDbPolyline
 90
       11
 70
     0
 43
0.0
 10
168.0656156463859
 20
22.09359193571118
 10
168.3504255727859
 20
22.12478089731119
 10
168.6354055679859
 20
22.15438469251118
 10
168.9207232271859
 20
22.1824204797112
 10
169.2061920991859
 20
22.20886969731118
 10
169.4919594191859
 20
22.23374591171119
 10
169.7778604863859
 20
22.25703470851116
 10
170.0640199359859
 20
22.27874631651118
 10
170.3502956639859
 20
22.29887003011119
 10
170.6367902367859
 20
22.31741330051116
 10
170.9233822463859
 20
22.33436851971116
  0
LWPOLYLINE
  5
2E7
330
2
100
AcDbEntity
  8
0
  6
DASHED
100
AcDbPolyline
 90
       11
 70
     0
 43
0.0
 10
167.9337638095859
 20
23.26570920131119
 10
168.2420671087859
 20
23.29774901251119
 10
168.5505279599859
 20
23.32824305091119
 10
168.8592815247859
 20
23.35720467011118
 10
169.1681760575859
 20
23.38461963491117
 10
169.4773456255859
 20
23.41049985091119
 10
169.7866408175859
 20
23.43483281091118
 10
170.0961926735859
 20
23.45762882371117
 10
170.4058548239859
 20
23.47887710691117
 10
170.7157553855859
 20
23.49858645251116
 10
171.0257497103859
 20
23.51674767171118
  0
LWPOLYLINE
  5
2F4
330
2
100
AcDbEntity
  8
0
  6
CONTINUOUS
100
AcDbPolyline
 90
        5
 70
     0
 43
0.0
 10
172.9935546477635
 20
21.42843108053148
 10
172.7695028223859
 20
21.43190308131116
 10
170.3265734623859
 20
21.47249034851118
 10
167.7344739871859
 20
21.51807236451119
 10
166.9742818081794
 20
21.53217553290887
  0
LWPOLYLINE
  5
2FB
330
2
100
AcDbEntity
  8
0
  6
DASHED
100
AcDbPolyline
 90
       43
 70
     0
 43
0.0
 10
166.7697882751859
 20
21.23454195811119
 10
166.7877602943859
 20
21.26758356291119
 10
166.8065255823859
 20
21.30018386691119
 10
166.8261275535859
 20
21.33241313891119
 10
166.8465007327859
 20
21.36415980131118
 10
166.8676818159859
 20
21.39547863011117
 10
166.8896105663859
 20
21.42627879491119
 10
166.9123130847859
 20
21.45659636611117
 10
166.9357363103859
 20
21.48636058691117
 10
166.9598994143859
 20
21.51559659011118
 10
166.9847539935859
 20
21.5442470813112
 10
167.0103316431859
 20
21.57234868611119
 10
167.0365704095859
 20
21.59983402691119
 10
167.0635188111859
 20
21.62675338211117
 10
167.0910971391859
 20
21.65302703011116
 10
167.1193597919859
 20
21.67870634211119
 10
167.1482198943859
 20
21.70371233571118
 10
167.1777330879859
 20
21.72809310691119
 10
167.2078099583859
 20
21.75177502691117
 10
167.2385109487859
 20
21.77480564291117
 10
167.2697408559859
 20
21.7971137965112
 10
167.3015666639859
 20
21.81874722851117
 10
167.3338858559859
 20
21.83963641411119
 10
167.3667713935859
 20
21.85982834531118
 10
167.4001141183859
 20
21.87925606371119
 10
167.4339920255859
 20
21.89796480611117
 10
167.4682903535859
 20
21.91589118371119
 10
167.5030874975859
 20
21.93307608131117
 10
167.5382677487859
 20
21.94946243331119
 10
167.5739047919859
 20
21.96508474691118
 10
167.6098871279859
 20
21.97989446851116
 10
167.6462917055859
 20
21.99392336131117
 10
167.6830035519859
 20
22.00712731651119
 10
167.7201156511859
 20
22.01953926051119
 10
167.7574970303859
 20
22.03111496451117
 10
167.7952428863859
 20
22.04188329251118
 10
167.8332199439859
 20
22.05180566051119
 10
167.8714949839859
 20
22.06089984771119
 10
167.9099625343859
 20
22.06914118691119
 10
167.9486554511859
 20
22.07653810531118
 10
167.9875028847859
 20
22.08307839491119
 10
168.0265025439859
 20
22.08876406211119
 10
168.0656156463859
 20
22.09359193571118
  0
LWPOLYLINE
  5
328
330
2
100
AcDbEntity
  8
0
  6
DASHED
100
AcDbPolyline
 90
       34
 70
     0
 43
0.0
 10
166.3393468495859
 20
21.16987308131119
 10
166.3651507999859
 20
21.16951821571119
 10
166.3911303919859
 20
21.16932783971118
 10
166.4171488127859
 20
21.16930836291119
 10
166.4431521631859
 20
21.16946579171119
 10
166.4689999647859
 20
21.16980593091119
 10
166.4946196703859
 20
21.17033522691119
 10
166.5198493423859
 20
21.17105849411119
 10
166.5445656767859
 20
21.17198084611119
 10
166.5685669679859
 20
21.17310359971119
 10
166.5917059999859
 20
21.17442884611119
 10
166.6137874047859
 20
21.17595478851116
 10
166.6241823503859
 20
21.17677616451119
 10
166.6345710495859
 20
21.17767305891119
 10
166.6442082783859
 20
21.17858101891119
 10
166.6538373663859
 20
21.17957146531119
 10
166.6626568479859
 20
21.18056182051118
 10
166.6714655695859
 20
21.18164380131119
 10
166.6793774607859
 20
21.18270784291117
 10
166.6872747439859
 20
21.18387477891117
 10
166.6941747455859
 20
21.18499720931116
 10
166.7010549391859
 20
21.18623640611119
 10
166.7068710863859
 20
21.18740007651119
 10
166.7126583455859
 20
21.18869660931119
 10
166.7173771023859
 20
21.18988700771119
 10
166.7220549695859
 20
21.19123614851119
 10
166.7256815599859
 20
21.19244308131119
 10
166.7292347599859
 20
21.19383716771119
 10
166.7309346639859
 20
21.19461103331119
 10
166.7325911599859
 20
21.19547846211119
 10
166.7341879071859
 20
21.19647375331119
 10
166.7352232527859
 20
21.19724479171117
 10
166.7361623247859
 20
21.19811777731119
 10
166.7369441231859
 20
21.19911947651117
  0
LINE
  5
34C
330
2
100
AcDbEntity
  8
0
  6
CONTINUOUS
100
AcDbLine
 10
167.7042623231859
 20
23.49736727811119
 30
0.0
 11
167.3559019695859
 21
23.50085744611119
 31
0.0
  0
LINE
  5
34D
330
2
100
AcDbEntity
  8
0
  6
CONTINUOUS
100
AcDbLine
 10
166.9265665935859
 20
23.50464643651119
 30
0.0
 11
166.5044334575859
 21
23.50780223491119
 31
0.0
  0
LINE
  5
34E
330
2
100
AcDbEntity
  8
0
  6
CONTINUOUS
100
AcDbLine
 10
167.3559019695859
 20
23.50085744611119
 30
0.0
 11
166.9265665935859
 21
23.50464643651119
 31
0.0
  0
LINE
  5
34F
330
2
100
AcDbEntity
  8
0
  6
CONTINUOUS
100
AcDbLine
 10
166.5044334575859
 20
23.50780223491119
 30
0.0
 11
166.0947646095859
 21
23.51034466051119
 31
0.0
  0
LINE
  5
350
330
2
100
AcDbEntity
  8
0
  6
CONTINUOUS
100
AcDbLine
 10
166.0947646095859
 20
23.51034466051119
 30
0.0
 11
165.6963425823859
 21
23.51235200931118
 31
0.0
  0
LINE
  5
351
330
2
100
AcDbEntity
  8
0
  6
CONTINUOUS
100
AcDbLine
 10
169.2642148815859
 20
23.47852963811119
 30
0.0
 11
168.6332066543859
 21
23.48664852451119
 31
0.0
  0
LINE
  5
352
330
2
100
AcDbEntity
  8
0
  6
CONTINUOUS
100
AcDbLine
 10
168.6332066543859
 20
23.48664852451119
 30
0.0
 11
168.2213348351859
 21
23.49162568611119
 31
0.0
  0
LINE
  5
353
330
2
100
AcDbEntity
  8
0
  6
CONTINUOUS
100
AcDbLine
 10
168.2213348351859
 20
23.49162568611119
 30
0.0
 11
167.7042623231859
 21
23.49736727811119
 31
0.0
  0
LWPOLYLINE
  5
354
330
2
100
AcDbEntity
  8
0
  6
DASHED
100
AcDbPolyline
 90
       55
 70
     0
 43
0.0
 10
170.9233822463859
 20
22.33436851971116
 10
170.9734705887859
 20
22.33668172931119
 10
171.0235977791859
 20
22.33797731011117
 10
171.0739030351859
 20
22.33825626051118
 10
171.1242030239858
 20
22.33751503331117
 10
171.1745982159859
 20
22.33575074211118
 10
171.2249475391859
 20
22.33296681571118
 10
171.2753071775859
 20
22.3291597069112
 10
171.3255796175858
 20
22.32433631651119
 10
171.3757801551859
 20
22.31849574051119
 10
171.4258528495859
 20
22.31164497891117
 10
171.4758024463859
 20
22.30378395811119
 10
171.5255839007859
 20
22.29492028131119
 10
171.5752116031859
 20
22.28505135491117
 10
171.6246311359859
 20
22.27418790371119
 10
171.6738534879859
 20
22.26232726531117
 10
171.7228279407859
 20
22.24948134051119
 10
171.7715475967859
 20
22.23565194051117
 10
171.8199800831859
 20
22.22084817571119
 10
171.8681039743859
 20
22.20507674691118
 10
171.9159019071859
 20
22.18834341411118
 10
171.9633449503859
 20
22.17065838371117
 10
172.0104236703859
 20
22.15202516611118
 10
172.0571018319859
 20
22.13245810211118
 10
172.1033777375859
 20
22.11195783011119
 10
172.1492056159859
 20
22.09054464611119
 10
172.1945938031859
 20
22.06821459811119
 10
172.2394873039859
 20
22.04499479491117
 10
172.2839042175859
 20
22.02087585731119
 10
172.3277821775859
 20
21.99589168451119
 10
172.3711471935859
 20
21.97002743811118
 10
172.4139305311859
 20
21.94332412931119
 10
172.4561651359859
 20
21.91576114051119
 10
172.4977757695859
 20
21.88738760611117
 10
172.5388025119859
 20
21.85817616611119
 10
172.5791640287859
 20
21.82818480131119
 10
172.6189071823859
 20
21.79737871171119
 10
172.6579472079859
 20
21.76582362851117
 10
172.6963350799859
 20
21.73347834371119
 10
172.7339848799859
 20
21.70041516131119
 10
172.7709494159859
 20
21.66658759971119
 10
172.8071400271859
 20
21.63207672131119
 10
172.8426130783859
 20
21.59682870371119
 10
172.8772745791859
 20
21.5609371213112
 10
172.9111872735859
 20
21.52433720291119
 10
172.9442564063859
 20
21.48713144611119
 10
172.9765464607859
 20
21.44924759491117
 10
173.0079709151859
 20
21.41078684611119
 10
173.0385866975859
 20
21.37167926051118
 10
173.0683132687859
 20
21.33202700771117
 10
173.0972022463859
 20
21.29176065091118
 10
173.1251645007858
 20
21.25100472611116
 10
173.1522625631859
 20
21.20966843171119
 10
173.1783964847859
 20
21.16790615971119
 10
173.2036400175859
 20
21.12560247651117
  0
LWPOLYLINE
  5
38D
330
2
100
AcDbEntity
  8
0
  6
DASHED
100
AcDbPolyline
 90
       26
 70
     0
 43
0.0
 10
173.3274106015859
 20
21.08752815811119
 10
173.3321407167859
 20
21.08606739331119
 10
173.3369111743859
 20
21.08474111331119
 10
173.3427813167859
 20
21.08325260131118
 10
173.3486794095859
 20
21.08188027331117
 10
173.3557000511859
 20
21.08036970531117
 10
173.3627423119859
 20
21.07896269091119
 10
173.3708913407859
 20
21.07744228771119
 10
173.3790572223859
 20
21.07601530051118
 10
173.3975004623859
 20
21.07307182051119
 10
173.4179875231859
 20
21.07015326211116
 10
173.4403469663859
 20
21.06728922211117
 10
173.4643674927859
 20
21.06450864611119
 10
173.4898600111859
 20
21.06183327011119
 10
173.5166499247859
 20
21.05928064931116
 10
173.5444088367859
 20
21.05687920771116
 10
173.5728660863859
 20
21.05464669571117
 10
173.6017766815859
 20
21.05259532451118
 10
173.6309386255859
 20
21.05073185891119
 10
173.6601374895859
 20
21.04906205251118
 10
173.6892370031859
 20
21.04758579171117
 10
173.7180450207859
 20
21.04630492451117
 10
173.7464739807859
 20
21.04521563491118
 10
173.7743767103859
 20
21.04431620931116
 10
173.8017006799859
 20
21.04360141731119
 10
173.8283195615859
 20
21.04306804451118
  0
LWPOLYLINE
  5
3A9
330
2
100
AcDbEntity
  8
0
  6
DASHED
100
AcDbPolyline
 90
        9
 70
     0
 43
0.0
 10
173.3274106015859
 20
21.08752815811119
 10
173.3122689215859
 20
21.09244733251117
 10
173.2971042655859
 20
21.09729564291119
 10
173.2819176863859
 20
21.10207515491117
 10
173.2667102319859
 20
21.10678792931119
 10
173.2509722815859
 20
21.11159062371119
 10
173.2352140191859
 20
21.11632606211117
 10
173.2194363103858
 20
21.12099607171118
 10
173.2036400175859
 20
21.12560247651117
  0
LINE
  5
3B4
330
2
100
AcDbEntity
  8
0
  6
CONTINUOUS
100
AcDbLine
 10
173.2766073343859
 20
23.42174269571118
 30
0.0
 11
173.1595395919859
 21
23.42395403011116
 31
0.0
  0
LINE
  5
3B5
330
2
100
AcDbEntity
  8
0
  6
CONTINUOUS
100
AcDbLine
 10
173.3921338015859
 20
23.41924659971118
 30
0.0
 11
173.2766073343859
 21
23.42174269571118
 31
0.0
  0
LINE
  5
3B6
330
2
100
AcDbEntity
  8
0
  6
CONTINUOUS
100
AcDbLine
 10
173.5060196735859
 20
23.41647486531118
 30
0.0
 11
173.3921338015859
 21
23.41924659971118
 31
0.0
  0
LINE
  5
3B7
330
2
100
AcDbEntity
  8
0
  6
CONTINUOUS
100
AcDbLine
 10
173.6182445391859
 20
23.41343580931119
 30
0.0
 11
173.5060196735859
 21
23.41647486531118
 31
0.0
  0
LINE
  5
3B8
330
2
100
AcDbEntity
  8
0
  6
CONTINUOUS
100
AcDbLine
 10
173.7288060159859
 20
23.41013799651119
 30
0.0
 11
173.6182445391859
 21
23.41343580931119
 31
0.0
  0
LINE
  5
3B9
330
2
100
AcDbEntity
  8
0
  6
CONTINUOUS
100
AcDbLine
 10
173.8915088831859
 20
23.40472864291119
 30
0.0
 11
173.7288060159859
 21
23.41013799651119
 31
0.0
  0
LINE
  5
3BA
330
2
100
AcDbEntity
  8
0
  6
CONTINUOUS
100
AcDbLine
 10
174.0504113439859
 20
23.39878421251119
 30
0.0
 11
173.8915088831859
 21
23.40472864291119
 31
0.0
  0
LWPOLYLINE
  5
3BB
330
2
100
AcDbEntity
  8
0
  6
CONTINUOUS
100
AcDbPolyline
 90
        3
 70
     0
 43
0.0
 10
173.1595395919859
 20
23.42395403011116
 10
172.8770952687859
 20
23.42873249731118
 10
172.5932398815859
 20
23.43322304931119
  0
LINE
  5
3C0
330
2
100
AcDbEntity
  8
0
  6
CONTINUOUS
100
AcDbLine
 10
172.5932398815859
 20
23.43322304931119
 30
0.0
 11
172.0217185855859
 21
23.44156440771119
 31
0.0
  0
LWPOLYLINE
  5
3C1
330
2
100
AcDbEntity
  8
0
  6
CONTINUOUS
100
AcDbPolyline
 90
       18
 70
     0
 43
0.0
 10
192.9076229487858
 20
24.34744518851118
 10
192.6861218943859
 20
24.09055312291119
 10
192.4322452943859
 20
23.82054042531119
 10
192.1558523983859
 20
23.55409979011119
 10
191.8756776015859
 20
23.31128298851119
 10
191.5903160319859
 20
23.09010101411119
 10
191.2898205855859
 20
22.88239743011119
 10
190.9701077583859
 20
22.68621789891119
 10
190.6282168863859
 20
22.50109502051118
 10
190.2594956399859
 20
22.32623912291117
 10
189.8592844575859
 20
22.16157992291118
 10
189.4175357919859
 20
22.00579688291119
 10
188.9182633407859
 20
21.8573645309112
 10
188.3467581695859
 20
21.71531226531119
 10
187.6918584543859
 20
21.57942079331118
 10
186.9666907327859
 20
21.45915942371117
 10
186.2468060991859
 20
21.37038817891117
 10
185.5957922575859
 20
21.31709069731118
  0
LWPOLYLINE
  5
3D5
330
2
100
AcDbEntity
  8
0
  6
CONTINUOUS
100
AcDbPolyline
 90
       18
 70
     0
 43
0.0
 10
192.7480738831859
 20
24.46422020611118
 10
192.6011626623859
 20
24.29506819971119
 10
192.4291375087859
 20
24.1213992781112
 10
192.2282931791859
 20
23.94302194531118
 10
191.9943372799859
 20
23.75994295011119
 10
191.7226076031859
 20
23.57260629571119
 10
191.4081364335859
 20
23.38192903331119
 10
191.0457382143859
 20
23.18934043971118
 10
190.6308932447859
 20
22.99715516771116
 10
190.1606575551859
 20
22.80873259331116
 10
189.6345328511859
 20
22.62843287331119
 10
189.0550240959859
 20
22.46133618211119
 10
188.4299615311859
 20
22.31326222211116
 10
187.7777748463859
 20
22.19088728611116
 10
187.1183807983859
 20
22.09883063651119
 10
186.4911776399859
 20
22.04056560931118
 10
185.9284138751859
 20
22.01123497411117
 10
185.4399127103859
 20
22.00117661731118
  0
LWPOLYLINE
  5
3E9
330
2
100
AcDbEntity
  8
0
  6
CONTINUOUS
100
AcDbPolyline
 90
       70
 70
     0
 43
0.0
 10
192.2888199999859
 20
24.96301878371119
 10
192.2210459039859
 20
24.89206610371116
 10
192.1507106815859
 20
24.82137860131115
 10
192.0777617343859
 20
24.75098483331118
 10
192.0021545567859
 20
24.68091913091118
 10
191.9238770015859
 20
24.61123894371116
 10
191.8429250159859
 20
24.5420075021112
 10
191.7592944367859
 20
24.47328992131119
 10
191.6729806623859
 20
24.40515885891119
 10
191.5839789839859
 20
24.33768885731119
 10
191.4922798591859
 20
24.27094974531117
 10
191.3978544191859
 20
24.20499247011119
 10
191.3006689663859
 20
24.13986326531119
 10
191.2006812335859
 20
24.07560391971117
 10
191.0978146895859
 20
24.0122384541112
 10
190.9919842319859
 20
23.94978644771117
 10
190.8830989119859
 20
23.88826749571117
 10
190.7710443599859
 20
23.8277012749112
 10
190.6557003583859
 20
23.76810748131117
 10
190.5369511103859
 20
23.70951064931119
 10
190.4146985023859
 20
23.65195466851119
 10
190.2888488479859
 20
23.59548826691117
 10
190.1592989807859
 20
23.54015897091119
 10
190.0259078239859
 20
23.48600950211118
 10
189.8885248255859
 20
23.43308137891119
 10
189.7470095471859
 20
23.38142228451118
 10
189.6012620367859
 20
23.33110455011119
 10
189.4511924559859
 20
23.28220667331119
 10
189.2966862079859
 20
23.23480194531117
 10
189.1375296527859
 20
23.18894284131118
 10
188.9734843903859
 20
23.14467663171118
 10
188.8470883535859
 20
23.11255223331117
 10
188.7176449679859
 20
23.08137926851117
 10
188.5849908863859
 20
23.05118657571117
 10
188.4489627583858
 20
23.02200299651117
 10
188.3094450223859
 20
22.99386662051119
 10
188.1665132607859
 20
22.96685253411119
 10
188.0202908431859
 20
22.94104507331118
 10
187.8709011407859
 20
22.91652857571119
 10
187.7184881695859
 20
22.89338252291119
 10
187.5632785247859
 20
22.87166697411119
 10
187.4055194511859
 20
22.85143713411119
 10
187.2454581887859
 20
22.83274820451116
 10
187.0289607375859
 20
22.81030689891119
 10
186.8098245839859
 20
22.79074324131117
 10
186.5890642591859
 20
22.77409734691116
 10
186.3677393375859
 20
22.76038157891119
 10
186.1470895567859
 20
22.74949732771119
 10
185.9283996911859
 20
22.74131824291116
 10
185.7126640479859
 20
22.73570366211116
 10
185.4997150447859
 20
22.73245570691119
 10
185.2890946303859
 20
22.73136218691119
 10
185.0803394655859
 20
22.73222712451119
 10
184.8729650719858
 20
22.7349193533112
 10
184.6664816815859
 20
22.73932391651119
 10
184.4602293951859
 20
22.74533719171118
 10
184.2528677615859
 20
22.75290088931119
 10
184.0428861999859
 20
22.76196805091119
 10
183.8829093839859
 20
22.76972284451119
 10
183.7207962463859
 20
22.77825322371117
 10
183.5564976367859
 20
22.78753020611117
 10
183.3890194287858
 20
22.79758366691119
 10
183.2175439935859
 20
22.80843195331117
 10
183.0429046511859
 20
22.81998843011119
 10
182.8661453535859
 20
22.83215062851118
 10
182.6875016415859
 20
22.84485772291118
 10
182.4466301935859
 20
22.86254435331119
 10
182.2037095167859
 20
22.88089067971118
 10
181.9599810159859
 20
22.89967730851118
 10
180.8961673039859
 20
22.98318465251119
  0
LWPOLYLINE
  5
433
330
2
100
AcDbEntity
  8
0
  6
CONTINUOUS
100
AcDbPolyline
 90
       18
 70
     0
 43
0.0
 10
174.7749584319859
 20
22.56846539011117
 10
175.9149590271859
 20
22.53758814851116
 10
176.9077416655859
 20
22.50155357731117
 10
177.7860911407859
 20
22.45968797091119
 10
178.5841056783859
 20
22.41269467331119
 10
179.3157303727859
 20
22.36349496931116
 10
179.9849739727859
 20
22.31466715491116
 10
180.5972678607859
 20
22.26782025571118
 10
181.1604670159859
 20
22.22387154851119
 10
181.6789603759859
 20
22.18364185251118
 10
182.1655907327859
 20
22.14704977891119
 10
182.6376486735859
 20
22.11344926531117
 10
183.1049620991859
 20
22.08262371331119
 10
183.5669568223859
 20
22.05529568451119
 10
184.0256487615859
 20
22.03224029251118
 10
184.4853688863859
 20
22.01443354211119
 10
184.9527055439859
 20
22.00331444931116
 10
185.4399127103859
 20
22.00117661731118
  0
LWPOLYLINE
  5
447
330
2
100
AcDbEntity
  8
0
  6
CONTINUOUS
100
AcDbPolyline
 90
        6
 70
     0
 43
0.0
 10
184.6141492575859
 20
21.28799133091119
 10
182.9203901871859
 20
21.30164822531119
 10
181.1321750127859
 20
21.31886841571119
 10
179.2363346655859
 20
21.34009773251119
 10
177.2188857567859
 20
21.3657817661112
 10
175.7686849460475
 20
21.38634915588102
  0
LWPOLYLINE
  5
454
330
2
100
AcDbEntity
  8
0
  6
CONTINUOUS
100
AcDbPolyline
 90
       10
 70
     0
 43
0.0
 10
179.4526639167859
 20
23.08888948611117
 10
179.1204374207859
 20
23.11098518691119
 10
178.9562725855859
 20
23.12159896611119
 10
178.7096132703859
 20
23.13716927171118
 10
178.4616032447859
 20
23.15236018531119
 10
178.2118794399859
 20
23.16717731971118
 10
177.9610773711859
 20
23.18156947651117
 10
177.7100701215859
 20
23.19547464611119
 10
177.4596824671859
 20
23.20884440291119
 10
177.2105465343859
 20
23.22164432131118
  0
LWPOLYLINE
  5
460
330
2
100
AcDbEntity
  8
0
  6
DASHED
100
AcDbPolyline
 90
       47
 70
     0
 43
0.0
 10
175.4824706415859
 20
21.01505957091116
 10
175.5249527103859
 20
21.01445242851116
 10
175.5656229503859
 20
21.01409182211119
 10
175.6044351823859
 20
21.0139656957112
 10
175.6414507439858
 20
21.01406229571119
 10
175.6766638431859
 20
21.01437121891119
 10
175.7101198991859
 20
21.01488350851117
 10
175.7417814255859
 20
21.01558994371116
 10
175.7717038831859
 20
21.01648396931119
 10
175.7998617055859
 20
21.01755806691119
 10
175.8262611711859
 20
21.01880628611118
 10
175.8509194159859
 20
21.02022452291119
 10
175.8737943343859
 20
21.02180621731119
 10
175.8949116143859
 20
21.02355024291117
 10
175.9142168527859
 20
21.02545052931118
 10
175.9229631247859
 20
21.02643229891119
 10
175.9316986719859
 20
21.02750539171118
 10
175.9395182607859
 20
21.02855770691118
 10
175.9473233151859
 20
21.02971240611118
 10
175.9541877375859
 20
21.03083114691119
 10
175.9610323359859
 20
21.03206619651119
 10
175.9669311967859
 20
21.03324884131119
 10
175.9728005055859
 20
21.03456808131119
 10
175.9776984111859
 20
21.03580918371119
 10
175.9825539823859
 20
21.03721129091118
 10
175.9864383887859
 20
21.03850116931117
 10
175.9902454431859
 20
21.03999612931116
 10
175.9930847583859
 20
21.04133581891119
 10
175.9958038367859
 20
21.04291790531117
 10
175.9970457919859
 20
21.04379620771119
 10
175.9981849967859
 20
21.04479773251117
 10
175.9991583695859
 20
21.04597117411118
 10
175.9997293855859
 20
21.04697005731117
 10
176.0001110383859
 20
21.04804606051119
 10
176.0002397551859
 20
21.04915507171119
 10
176.0000581599859
 20
21.05031283971119
 10
175.9996081519859
 20
21.05142547811119
 10
175.9989720879859
 20
21.05246015971118
 10
175.9978778623858
 20
21.05375777731117
 10
175.9966284431859
 20
21.05488228291119
 10
175.9952785951859
 20
21.05588486691117
 10
175.9922540575859
 20
21.05777282371117
 10
175.9890894575859
 20
21.05941801251118
 10
175.9847526031859
 20
21.06134574051118
 10
175.9803253919859
 20
21.06305592931116
 10
175.9746527215859
 20
21.06501006851117
 10
175.9689227391859
 20
21.06678719331117
  0
LWPOLYLINE
  5
491
330
2
100
AcDbEntity
  8
0
  6
CONTINUOUS
100
AcDbPolyline
 90
        2
 70
     0
 43
0.0
 10
174.5513055161049
 20
22.5735867640826
 10
174.7749584319859
 20
22.56846539011117
  0
LINE
  5
495
330
2
100
AcDbEntity
  8
0
  6
CONTINUOUS
100
AcDbLine
 10
176.2251239327859
 20
23.27254087971118
 30
0.0
 11
176.0465188623859
 21
23.28332129091119
 31
0.0
  0
LINE
  5
496
330
2
100
AcDbEntity
  8
0
  6
CONTINUOUS
100
AcDbLine
 10
174.3568657103859
 20
23.3854530813112
 30
0.0
 11
174.2055033279859
 21
23.39232969411119
 31
0.0
  0
LINE
  5
497
330
2
100
AcDbEntity
  8
0
  6
CONTINUOUS
100
AcDbLine
 10
174.5376978959859
 20
23.37739481091119
 30
0.0
 11
174.4961732223859
 21
23.37882112611116
 31
0.0
  0
LWPOLYLINE
  5
498
330
2
100
AcDbEntity
  8
0
  6
CONTINUOUS
100
AcDbPolyline
 90
        3
 70
     0
 43
0.0
 10
174.4961732223859
 20
23.37882112611116
 10
174.4757807551859
 20
23.37965903171117
 10
174.3568657103859
 20
23.3854530813112
  0
LINE
  5
49D
330
2
100
AcDbEntity
  8
0
  6
CONTINUOUS
100
AcDbLine
 10
174.8039367359859
 20
23.3696132237112
 30
0.0
 11
174.7427527983859
 21
23.37171505731119
 31
0.0
  0
LINE
  5
49E
330
2
100
AcDbEntity
  8
0
  6
CONTINUOUS
100
AcDbLine
 10
174.8658803743859
 20
23.36702621411117
 30
0.0
 11
174.8039367359859
 21
23.3696132237112
 31
0.0
  0
LWPOLYLINE
  5
49F
330
2
100
AcDbEntity
  8
0
  6
CONTINUOUS
100
AcDbPolyline
 90
        8
 70
     0
 43
0.0
 10
175.0859747967859
 20
23.35326937571119
 10
175.0544138495859
 20
23.35569484771116
 10
175.0228796479859
 20
23.35796951971117
 10
174.9913653119859
 20
23.36009071811119
 10
174.9598720159859
 20
23.36205635651117
 10
174.9284331615859
 20
23.36386667811119
 10
174.8970902095859
 20
23.36552250371117
 10
174.8658803743859
 20
23.36702621411117
  0
LINE
  5
4A9
330
2
100
AcDbEntity
  8
0
  6
CONTINUOUS
100
AcDbLine
 10
176.0465188623859
 20
23.28332129091119
 30
0.0
 11
175.8700886415859
 21
23.29470666851119
 31
0.0
  0
LINE
  5
4AA
330
2
100
AcDbEntity
  8
0
  6
CONTINUOUS
100
AcDbLine
 10
175.8700886415859
 20
23.29470666851119
 30
0.0
 11
175.6962145119859
 21
23.30666759331119
 31
0.0
  0
LINE
  5
4AB
330
2
100
AcDbEntity
  8
0
  6
CONTINUOUS
100
AcDbLine
 10
175.6962145119859
 20
23.30666759331119
 30
0.0
 11
175.4689004831859
 21
23.32334945571119
 31
0.0
  0
LINE
  5
4AC
330
2
100
AcDbEntity
  8
0
  6
CONTINUOUS
100
AcDbLine
 10
175.4689004831859
 20
23.32334945571119
 30
0.0
 11
175.0859747967859
 21
23.35326937571119
 31
0.0
  0
LWPOLYLINE
  5
4AD
330
2
100
AcDbEntity
  8
0
  6
CONTINUOUS
100
AcDbPolyline
 90
       30
 70
     0
 43
0.0
 10
176.1481967471859
 20
25.5462233357112
 10
176.1207040975859
 20
25.45088023011115
 10
176.0838710847859
 20
25.34569606051116
 10
176.0370613087859
 20
25.23022488131116
 10
175.9789030799859
 20
25.10346479971116
 10
175.9075973567859
 20
24.96475546371115
 10
175.8199510239859
 20
24.81230531331116
 10
175.7124854863858
 20
24.6459729901112
 10
175.5882997727859
 20
24.47622689731119
 10
175.4559995471859
 20
24.31741482851117
 10
175.3222494223859
 20
24.17672564931119
 10
175.1942855951859
 20
24.05720174691117
 10
175.0763678159859
 20
23.95738545251119
 10
174.9683021711859
 20
23.87333160131119
 10
174.8691922543859
 20
23.80189747651118
 10
174.7784577711859
 20
23.74099586531116
 10
174.6954741759859
 20
23.68899426691119
 10
174.6196695103859
 20
23.64461766211118
 10
174.5504975503859
 20
23.60682945411119
 10
174.4874768207859
 20
23.57478853731119
 10
174.4301579103859
 20
23.54778660771118
 10
174.3781013055859
 20
23.52521010371118
 10
174.3309212031859
 20
23.50653994851117
 10
174.2882677151859
 20
23.49132557731118
 10
174.2498151663859
 20
23.47916799811119
 10
174.2152462447859
 20
23.46970666371119
 10
174.1842655887859
 20
23.46261807971116
 10
174.1566125903859
 20
23.45761165891117
 10
174.1320194223859
 20
23.45441639011116
 10
174.1102539919859
 20
23.45278503811119
  0
LWPOLYLINE
  5
4CD
330
2
100
AcDbEntity
  8
0
  6
CONTINUOUS
100
AcDbPolyline
 90
        3
 70
     0
 43
0.0
 10
174.7427527983859
 20
23.37171505731119
 10
174.6235361119859
 20
23.37499745731119
 10
174.5376978959859
 20
23.37739481091119
  0
LWPOLYLINE
  5
4D2
330
2
100
AcDbEntity
  8
0
  6
CONTINUOUS
100
AcDbPolyline
 90
       21
 70
     0
 43
0.0
 10
176.4653632671859
 20
23.25821648771119
 10
176.4705903967859
 20
23.27491521411118
 10
176.4763161487859
 20
23.30356511811119
 10
176.4824876223859
 20
23.34396745091119
 10
176.4890691007859
 20
23.39588581091119
 10
176.4959952287859
 20
23.45874620291118
 10
176.5032485711859
 20
23.53232669251116
 10
176.5108246911859
 20
23.61661995331118
 10
176.5186572415859
 20
23.71094339331119
 10
176.5266959471859
 20
23.81470343651119
 10
176.5348681791859
 20
23.92693412611119
 10
176.5431435423859
 20
24.04717848931119
 10
176.5515120655859
 20
24.17531333411119
 10
176.5599097263859
 20
24.31040134851119
 10
176.5682790719859
 20
24.45152990851116
 10
176.5765432767859
 20
24.5973687933112
 10
176.5846817183859
 20
24.74751416451116
 10
176.5926809567859
 20
24.9017486397112
 10
176.6004701631859
 20
25.05874799011115
 10
176.6080003055859
 20
25.21752781891118
 10
176.6151546223859
 20
25.37626317571116
  0
LINE
  5
4E9
330
2
100
AcDbEntity
  8
0
  6
CONTINUOUS
100
AcDbLine
 10
176.4657371407859
 20
23.25907853091119
 30
0.0
 11
176.2251239327859
 21
23.27254087971118
 31
0.0
  0
LWPOLYLINE
  5
4EA
330
2
100
AcDbEntity
  8
0
  6
CONTINUOUS
100
AcDbPolyline
 90
        3
 70
     0
 43
0.0
 10
177.2105465343859
 20
23.22164432131118
 10
176.9300625295859
 20
23.23545883011117
 10
176.4657371407859
 20
23.25907853091119
  0
LINE
  5
4EF
330
2
100
AcDbEntity
  8
0
  6
CONTINUOUS
100
AcDbLine
 10
179.7101464255859
 20
23.07120244451118
 30
0.0
 11
179.4526639167859
 21
23.08888948611117
 31
0.0
  0
LINE
  5
4F0
330
2
100
AcDbEntity
  8
0
  6
CONTINUOUS
100
AcDbLine
 10
180.5691540271858
 20
23.00840488291119
 30
0.0
 11
180.2654884239859
 21
23.03126179171119
 31
0.0
  0
LINE
  5
4F1
330
2
100
AcDbEntity
  8
0
  6
CONTINUOUS
100
AcDbLine
 10
179.9798356671859
 20
23.05211585411119
 30
0.0
 11
179.7101464255859
 21
23.07120244451118
 31
0.0
  0
LINE
  5
4F2
330
2
100
AcDbEntity
  8
0
  6
CONTINUOUS
100
AcDbLine
 10
180.2654884239859
 20
23.03126179171119
 30
0.0
 11
179.9798356671859
 21
23.05211585411119
 31
0.0
  0
LINE
  5
4F3
330
2
100
AcDbEntity
  8
0
  6
CONTINUOUS
100
AcDbLine
 10
180.8961673039859
 20
22.98318465251119
 30
0.0
 11
180.5691540271858
 21
23.00840488291119
 31
0.0
  0
LINE
  5
4FC
330
2
100
AcDbEntity
  8
0
  6
CONTINUOUS
100
AcDbLine
 10
188.5788689359859
 20
19.98074864291119
 30
0.0
 11
188.5956500703859
 21
19.98044651651119
 31
0.0
  0
LINE
  5
4FD
330
2
100
AcDbEntity
  8
0
  6
HIDDEN
100
AcDbLine
 10
188.5701208255859
 20
19.97726284291118
 30
0.0
 11
188.5837034415859
 21
19.97695826211119
 31
0.0
  0
LINE
  5
4FE
330
2
100
AcDbEntity
  8
0
  6
CONTINUOUS
100
AcDbLine
 10
188.5699893407859
 20
19.98095672931119
 30
0.0
 11
188.5788689359859
 21
19.98074864291119
 31
0.0
  0
LINE
  5
4FF
330
2
100
AcDbEntity
  8
0
  6
CONTINUOUS
100
AcDbLine
 10
188.7319698415859
 20
19.97913677571119
 30
0.0
 11
188.9095395919859
 21
19.97843291171119
 31
0.0
  0
LINE
  5
500
330
2
100
AcDbEntity
  8
0
  6
HIDDEN
100
AcDbLine
 10
188.7925611807859
 20
19.97517028931119
 30
0.0
 11
188.9095827743859
 21
19.97476077251119
 31
0.0
  0
LINE
  5
501
330
2
100
AcDbEntity
  8
0
  6
HIDDEN
100
AcDbLine
 10
188.6728353583859
 20
19.97587062051118
 30
0.0
 11
188.7925610815859
 21
19.97517028931119
 31
0.0
  0
LINE
  5
502
330
2
100
AcDbEntity
  8
0
  6
CONTINUOUS
100
AcDbLine
 10
188.6389330543859
 20
19.97988865731119
 30
0.0
 11
188.7319698415859
 21
19.97913677571119
 31
0.0
  0
LINE
  5
503
330
2
100
AcDbEntity
  8
0
  6
HIDDEN
100
AcDbLine
 10
188.6117241119859
 20
19.97652029731119
 30
0.0
 11
188.6728353583859
 21
19.97587062051118
 31
0.0
  0
LINE
  5
504
330
2
100
AcDbEntity
  8
0
  6
HIDDEN
100
AcDbLine
 10
189.0100720271859
 20
19.97235871331119
 30
0.0
 11
188.9385463359858
 21
19.97553135011119
 31
0.0
  0
LINE
  5
505
330
2
100
AcDbEntity
  8
0
  6
CONTINUOUS
100
AcDbLine
 10
189.0008635775858
 20
19.97638731011119
 30
0.0
 11
188.9385247791859
 21
19.97919810051119
 31
0.0
  0
LWPOLYLINE
  5
506
330
2
100
AcDbEntity
  8
0
  6
HIDDEN
100
AcDbPolyline
 90
        4
 70
     0
 43
0.0
 10
188.9385463359858
 20
19.97553135011119
 10
188.9287279551859
 20
19.97509832131119
 10
188.9190723663859
 20
19.97483019011116
 10
188.9095827743859
 20
19.97476077251119
  0
LWPOLYLINE
  5
50C
330
2
100
AcDbEntity
  8
0
  6
CONTINUOUS
100
AcDbPolyline
 90
        4
 70
     0
 43
0.0
 10
188.9385247791859
 20
19.97919810051119
 10
188.9287015119859
 20
19.97876798851119
 10
188.9190390431859
 20
19.97850152291118
 10
188.9095395919859
 20
19.97843291171119
  0
LINE
  5
512
330
2
100
AcDbEntity
  8
0
  6
CONTINUOUS
100
AcDbLine
 10
188.5956500703859
 20
19.98044651651119
 30
0.0
 11
188.6389330543859
 21
19.97988865731119
 31
0.0
  0
LINE
  5
513
330
2
100
AcDbEntity
  8
0
  6
HIDDEN
100
AcDbLine
 10
188.5837034415859
 20
19.97695826211119
 30
0.0
 11
188.6117241119859
 21
19.97652029731119
 31
0.0
  0
LINE
  5
514
330
2
100
AcDbEntity
  8
0
  6
CONTINUOUS
100
AcDbLine
 10
184.8552010463859
 20
21.28991180451119
 30
0.0
 11
184.7572049375859
 21
21.28871228451119
 31
0.0
  0
LINE
  5
515
330
2
100
AcDbEntity
  8
0
  6
CONTINUOUS
100
AcDbLine
 10
184.7572049375859
 20
21.28871228451119
 30
0.0
 11
184.6776050751859
 21
21.28810719811116
 31
0.0
  0
LINE
  5
516
330
2
100
AcDbEntity
  8
0
  6
CONTINUOUS
100
AcDbLine
 10
184.6776050751859
 20
21.28810719811116
 30
0.0
 11
184.6141492575859
 21
21.28799133091119
 31
0.0
  0
LWPOLYLINE
  5
517
330
2
100
AcDbEntity
  8
0
  6
CONTINUOUS
100
AcDbPolyline
 90
        9
 70
     0
 43
0.0
 10
185.5957922575859
 20
21.31709069731118
 10
185.4835022847859
 20
21.31071251971119
 10
185.3802503279859
 20
21.30556045251118
 10
185.2852419375859
 20
21.30142721571118
 10
185.1977637695859
 20
21.29813971171118
 10
185.1171722175859
 20
21.29555319651119
 10
185.0428837951858
 20
21.29354647651119
 10
184.9745070527859
 20
21.29200411811119
 10
184.8552010463859
 20
21.28991180451119
  0
LWPOLYLINE
  5
522
330
2
100
AcDbEntity
  8
0
  6
CONTINUOUS
100
AcDbPolyline
 90
        4
 70
     0
 43
0.0
 10
192.8071283167859
 20
24.40421884291119
 10
192.8408909951859
 20
24.38487331971117
 10
192.8744077743859
 20
24.36593923491119
 10
192.9076229487858
 20
24.34744518851118
  0
LINE
  5
528
330
2
100
AcDbEntity
  8
0
  6
CONTINUOUS
100
AcDbLine
 10
192.8071390527859
 20
24.40420933731118
 30
0.0
 11
192.7480729279859
 21
24.46422106051119
 31
0.0
  0
LINE
  5
529
330
2
100
AcDbEntity
  8
0
  6
CONTINUOUS
100
AcDbLine
 10
204.6595395919859
 20
16.53581727171119
 30
0.0
 11
204.4095395919859
 21
16.53581727171119
 31
0.0
  0
LINE
  5
52A
330
2
100
AcDbEntity
  8
0
  6
CONTINUOUS
100
AcDbLine
 10
204.6595395919859
 20
17.75886748291117
 30
0.0
 11
204.4095395919859
 21
17.75886748291117
 31
0.0
  0
LINE
  5
52B
330
2
100
AcDbEntity
  8
0
  6
DASHED
100
AcDbLine
 10
173.8283195615859
 20
43.76535143651119
 30
0.0
 11
175.4824706415859
 21
43.79335991011117
 31
0.0
  0
LINE
  5
52C
330
2
100
AcDbEntity
  8
0
  6
CONTINUOUS
100
AcDbLine
 10
173.9978632655859
 20
41.40759455011118
 30
0.0
 11
174.1542202047859
 21
41.4138867469112
 31
0.0
  0
LWPOLYLINE
  5
52D
330
2
100
AcDbEntity
  8
0
  6
DASHED
100
AcDbPolyline
 90
       50
 70
     0
 43
0.0
 10
171.0257497039859
 20
41.29167195171118
 10
171.1690518319859
 20
41.28539082211119
 10
171.3124858079859
 20
41.2826009405112
 10
171.4559415919859
 20
41.28329220291118
 10
171.5764457551859
 20
41.2865577101112
 10
171.6968487807859
 20
41.29226734531118
 10
171.8171953359858
 20
41.3004209725112
 10
171.9373616239859
 20
41.3110121741112
 10
172.0971151967859
 20
41.32890630051119
 10
172.2563375327859
 20
41.3511112333112
 10
172.4148886431859
 20
41.37761467971119
 10
172.5330667327859
 20
41.40026304611118
 10
172.6507521823859
 20
41.42531187491118
 10
172.7676294351859
 20
41.4526920909112
 10
172.8839238031859
 20
41.48245830371118
 10
172.9992245359859
 20
41.5145057661112
 10
173.1138405775858
 20
41.54892006691119
 10
173.2272874767859
 20
41.5855538957112
 10
173.3399500383859
 20
41.62453334211119
 10
173.4512706799859
 20
41.66566580931117
 10
173.5617058255859
 20
41.70911961251118
 10
173.6706344431859
 20
41.7546485901112
 10
173.7785755679859
 20
41.80247153731118
 10
173.8848504703859
 20
41.8522881229112
 10
173.9900347359859
 20
41.90436770211118
 10
174.0934026319859
 20
41.95834914691118
 10
174.1955761871859
 20
42.01455924451116
 10
174.2957899727859
 20
42.07257740771118
 10
174.3947022703859
 20
42.13278398851119
 10
174.4915194415859
 20
42.19469410211118
 10
174.5869359519859
 20
42.25875394531118
 10
174.6797318143859
 20
42.32412468931116
 10
174.7710363119859
 20
42.39158139971118
 10
174.8607781055859
 20
42.46111187491118
 10
174.9488858559859
 20
42.5327039101112
 10
175.0337931375859
 20
42.60504041571119
 10
175.1169844111859
 20
42.6793403581112
 10
175.1983899743859
 20
42.75558881091117
 10
175.2779401215859
 20
42.83377085251117
 10
175.3541511407859
 20
42.91237645411118
 10
175.4284347935859
 20
42.99280769731118
 10
175.5007185263859
 20
43.0750416397112
 10
175.5709297759859
 20
43.1590553309112
 10
175.6377401567859
 20
43.24320078371118
 10
175.7024105519859
 20
43.32900163331117
 10
175.7648664079859
 20
43.41642166851116
 10
175.8250331711859
 20
43.50542467971118
 10
175.8748010527859
 20
43.58306363651118
 10
175.9227797247859
 20
43.66181033411118
 10
175.9689218655859
 20
43.74163262851118
  0
LWPOLYLINE
  5
561
330
2
100
AcDbEntity
  8
0
  6
CONTINUOUS
100
AcDbPolyline
 90
        3
 70
     0
 43
0.0
 10
157.3592638175859
 20
44.01295678691122
 10
158.7592219295859
 20
44.04965842531118
 10
183.4374709599859
 20
44.6929135725112
  0
LINE
  5
566
330
2
100
AcDbEntity
  8
0
  6
CONTINUOUS
100
AcDbLine
 10
145.1595395919859
 20
46.40420974051119
 30
0.0
 11
204.1595395919859
 21
46.40420974051119
 31
0.0
  0
LINE
  5
567
330
2
100
AcDbEntity
  8
0
  6
CONTINUOUS
100
AcDbLine
 10
145.1595395919859
 20
46.15420974051119
 30
0.0
 11
204.1595395919859
 21
46.15420974051119
 31
0.0
  0
LINE
  5
568
330
2
100
AcDbEntity
  8
0
  6
HIDDEN
100
AcDbLine
 10
157.2826493839859
 20
44.01419262051118
 30
0.0
 11
185.9361173215859
 21
44.7619071645112
 31
0.0
  0
LINE
  5
569
330
2
100
AcDbEntity
  8
0
  6
HIDDEN
100
AcDbLine
 10
155.8911880543859
 20
43.97786676291116
 30
0.0
 11
157.2826493839859
 21
44.01419262051118
 31
0.0
  0
LWPOLYLINE
  5
56A
330
2
100
AcDbEntity
  8
0
  6
CONTINUOUS
100
AcDbPolyline
 90
        3
 70
     0
 43
0.0
 10
155.8395052111859
 20
43.97331603331119
 10
156.7812137279859
 20
43.99783869731118
 10
157.3592638175859
 20
44.01295678691122
  0
LWPOLYLINE
  5
56F
330
2
100
AcDbEntity
  8
0
  6
CONTINUOUS
100
AcDbPolyline
 90
        4
 70
     0
 43
0.0
 10
164.9007186544867
 20
43.23770870872685
 10
161.9884051071859
 20
43.18080956931118
 10
158.7356088239858
 20
43.1139517613112
 10
155.1048961983859
 20
43.03544660131118
  0
LWPOLYLINE
  5
575
330
2
100
AcDbEntity
  8
0
  6
CONTINUOUS
100
AcDbPolyline
 90
       83
 70
     0
 43
0.0
 10
150.0413317439859
 20
37.87828686051119
 10
150.0768355855859
 20
37.94623679331115
 10
150.1129265759859
 20
38.01264492291119
 10
150.1495260207859
 20
38.0767780445112
 10
150.1867068271859
 20
38.13831148611118
 10
150.2251482911859
 20
38.19855470531115
 10
150.2656813023859
 20
38.25922568611119
 10
150.3089926927859
 20
38.32174484451115
 10
150.3551930367859
 20
38.38634231011118
 10
150.4042488495859
 20
38.45295064451116
 10
150.4561677535859
 20
38.5215538461112
 10
150.5111218175859
 20
38.59234167171115
 10
150.5693242175859
 20
38.66555531651119
 10
150.6309884463859
 20
38.74137784451116
 10
150.6963292447859
 20
38.81975980131119
 10
150.7655616687859
 20
38.90059359651115
 10
150.8387534863859
 20
38.98360883651119
 10
150.9153833007859
 20
39.06788388611116
 10
150.9947824271859
 20
39.1523343005112
 10
151.0762867263859
 20
39.2359430717112
 10
151.1592502495859
 20
39.31796294531119
 10
151.2430315983859
 20
39.39771410371119
 10
151.3271484719859
 20
39.47468420611119
 10
151.4117549839859
 20
39.54903083171117
 10
151.4971643519859
 20
39.62107903811116
 10
151.6274061071859
 20
39.72545212771118
 10
151.7608392799859
 20
39.8258777453112
 10
151.8519148415859
 20
39.8908839213112
 10
151.9449797695859
 20
39.95453383171119
 10
152.0403026831859
 20
40.01700671171119
 10
152.1380875263859
 20
40.07843017251116
 10
152.2382795135859
 20
40.13872531971119
 10
152.3407591775859
 20
40.19776163651118
 10
152.4454222943859
 20
40.25541851811115
 10
152.5522256015859
 20
40.31161502371119
 10
152.6611410735859
 20
40.36628012291117
 10
152.7721686591859
 20
40.41935731011119
 10
152.8854201855859
 20
40.47084817571115
 10
153.0010354511859
 20
40.52076883811119
 10
153.1191639151859
 20
40.5691340221112
 10
153.2399936847859
 20
40.61595291651116
 10
153.3637225295859
 20
40.66123332291119
 10
153.4905623279859
 20
40.7049812301112
 10
153.6207813999858
 20
40.74719538051119
 10
153.7546621679859
 20
40.7878727069112
 10
153.8924892335859
 20
40.82700291651116
 10
154.0345558927859
 20
40.86454681091118
 10
154.1811576127859
 20
40.90045796611116
 10
154.2942499743859
 20
40.9262934685112
 10
154.4101073231859
 20
40.95117413731119
 10
154.5287774719859
 20
40.9750896669112
 10
154.6503082351859
 20
40.99802975171118
 10
154.7747806159859
 20
41.0199884941112
 10
154.9024083711859
 20
41.0409776301112
 10
155.0334384511859
 20
41.06101330211117
 10
155.1681178063859
 20
41.08011165251119
 10
155.3065023583859
 20
41.0982687757112
 10
155.4478839327859
 20
41.11540056451116
 10
155.5915468127859
 20
41.1314272637112
 10
155.7375092271859
 20
41.14636670211118
 10
155.9354860799859
 20
41.16464539331116
 10
156.1349953839859
 20
41.18103286531118
 10
156.3331229311859
 20
41.1954957357112
 10
156.4793147999859
 20
41.20508557251119
 10
156.6233971375859
 20
41.21371466531118
 10
156.7653452287859
 20
41.22150208451119
 10
156.9038076943859
 20
41.22848071491119
 10
157.0376114735859
 20
41.2346837741112
 10
157.1676234191859
 20
41.24023200291119
 10
157.2949783167859
 20
41.24525147971119
 10
157.4198427407859
 20
41.2498021165112
 10
157.5825339167859
 20
41.25521593731119
 10
157.7417432831859
 20
41.25998006371119
 10
157.8985507151859
 20
41.26420119811117
 10
158.1313516319859
 20
41.26971134531117
 10
158.3632095039859
 20
41.27437887491118
 10
158.8290780975859
 20
41.28163830691116
 10
159.2968560751859
 20
41.28656986531118
 10
159.5307299695859
 20
41.28831082691118
 10
159.7634336559859
 20
41.28964111011121
 10
159.9942271743859
 20
41.2906131421112
 10
160.2242310847859
 20
41.29128152131116
 10
160.5331413071859
 20
41.29179049251118
  0
LWPOLYLINE
  5
5CA
330
2
100
AcDbEntity
  8
0
  6
CONTINUOUS
100
AcDbPolyline
 90
       19
 70
     0
 43
0.0
 10
153.6047717039859
 20
42.30079569891119
 10
153.9461833567859
 20
42.32610335971119
 10
154.2770924383859
 20
42.34171247491116
 10
154.6075959295859
 20
42.35109981571119
 10
154.9433618159859
 20
42.35623736291119
 10
155.2877463839859
 20
42.35839483011119
 10
155.6436607663859
 20
42.35845989571117
 10
156.0115747951859
 20
42.3570922829112
 10
156.3986716799859
 20
42.35475695011118
 10
156.8182009487859
 20
42.35147960611118
 10
157.2771307151859
 20
42.34701056291117
 10
157.7745674079859
 20
42.3411201053112
 10
158.3089351743859
 20
42.3335639997112
 10
158.8787364703859
 20
42.3240814669112
 10
159.5009710079859
 20
42.31204520451117
 10
160.1951756719859
 20
42.29681711171119
 10
160.9814143423859
 20
42.2777269197112
 10
161.8409336751859
 20
42.25506842211117
 10
162.6740557391859
 20
42.23175098691117
  0
LINE
  5
5DF
330
2
100
AcDbEntity
  8
0
  6
CENTER
 62
     1
100
AcDbLine
 10
161.2333279616678
 20
32.40420974051119
 30
0.0
 11
140.224601380414
 21
32.40420974051119
 31
0.0
  0
LWPOLYLINE
  5
5E1
330
2
100
AcDbEntity
  8
0
  6
CONTINUOUS
100
AcDbPolyline
 90
       71
 70
     0
 43
0.0
 10
146.0662957007859
 20
32.8851841341112
 10
146.0638875391859
 20
33.68490996931118
 10
146.0638402719859
 20
34.0208863853112
 10
146.0651673327859
 20
34.32171598531116
 10
146.0681590815859
 20
34.59054221891119
 10
146.0730439183859
 20
34.8305359933112
 10
146.0798429855859
 20
35.04321544611116
 10
146.0883010447859
 20
35.22968546851117
 10
146.0981987999859
 20
35.39533085731119
 10
146.1095918127859
 20
35.54786382051119
 10
146.1226831151859
 20
35.69333224931119
 10
146.1376247775859
 20
35.83492827171119
 10
146.1547126767859
 20
35.97600254531119
 10
146.1743608863859
 20
36.11971986531119
 10
146.1965161583859
 20
36.26518231811115
 10
146.2210534815859
 20
36.41128377571115
 10
146.2479348719859
 20
36.5576850029112
 10
146.2771437535859
 20
36.70420932771119
 10
146.3086142783859
 20
36.8504702749112
 10
146.3422437423859
 20
36.99598769411119
 10
146.3779438575859
 20
37.14042938531119
 10
146.4156690383859
 20
37.28367909411119
 10
146.4553467695859
 20
37.42553274531116
 10
146.4968659807859
 20
37.56568622851119
 10
146.5401733647859
 20
37.70406379011117
 10
146.5851675215859
 20
37.84045072931116
 10
146.6317939951859
 20
37.9747956573112
 10
146.6800202847859
 20
38.10710765571119
 10
146.7296687935859
 20
38.23701630531116
 10
146.7805560831858
 20
38.36419716451115
 10
146.8330978959859
 20
38.4897782301112
 10
146.8876877039859
 20
38.61468524771117
 10
146.9448131407859
 20
38.74002449571119
 10
147.0050188047859
 20
38.86687385571116
 10
147.0682606719859
 20
38.99497185411116
 10
147.1344297055859
 20
39.1239612093112
 10
147.2035104543859
 20
39.25369836451119
 10
147.2754808655859
 20
39.38403739651119
 10
147.3503185567859
 20
39.51484056771119
 10
147.4279818895859
 20
39.64594470531119
 10
147.5083212671859
 20
39.77702215971118
 10
147.5912481391859
 20
39.90786915491119
 10
147.6766390271859
 20
40.03824184131116
 10
147.7642738927859
 20
40.16777243651119
 10
147.8540202079859
 20
40.2962477117112
 10
147.9456899023859
 20
40.42339035811119
 10
148.0389937823859
 20
40.54880828931118
 10
148.1336801999859
 20
40.67219041091118
 10
148.2295732207859
 20
40.7933433005112
 10
148.3262018783859
 20
40.9117273917112
 10
148.4233551567859
 20
41.02715910691119
 10
148.5208808975859
 20
41.13953273731119
 10
148.6181539055859
 20
41.24822450691119
 10
148.7146575823859
 20
41.3527916781112
 10
148.8099499791859
 20
41.4528923629112
 10
148.9038909919859
 20
41.54852897891117
 10
148.9969478239859
 20
41.64031931651118
 10
149.0894738799859
 20
41.72872410051119
 10
149.1816527599859
 20
41.81401426691119
 10
149.2738203647859
 20
41.89657740611116
 10
149.3662058031859
 20
41.9766756157112
 10
149.4589120895859
 20
42.05444862371118
 10
149.5524159567859
 20
42.13033085251118
 10
149.6471094623859
 20
42.20464809571118
 10
149.7430313231859
 20
42.27743048931119
 10
149.8405936895859
 20
42.34898281251119
 10
149.9403464991859
 20
42.41967468131119
 10
150.0424932639859
 20
42.48960073891118
 10
150.1472395919859
 20
42.55885045091119
 10
150.2552734415859
 20
42.62781034531122
 10
150.3670621327859
 20
42.69668720131119
  0
LWPOLYLINE
  5
62A
330
2
100
AcDbEntity
  8
0
  6
CONTINUOUS
100
AcDbPolyline
 90
        5
 70
     0
 43
0.0
 10
149.9131395583859
 20
37.61543520931116
 10
149.9410287391859
 20
37.6746380669112
 10
149.9679649503859
 20
37.73066289411116
 10
149.9937610511859
 20
37.7833333229112
 10
150.0299307839859
 20
37.85587993571116
  0
LWPOLYLINE
  5
631
330
2
100
AcDbEntity
  8
0
  6
CONTINUOUS
100
AcDbPolyline
 90
       20
 70
     0
 43
0.0
 10
146.9687399935859
 20
32.40420974051119
 10
146.9692017391859
 20
32.30879036291119
 10
146.9706636351859
 20
32.20995678371119
 10
146.9732251343859
 20
32.10886887971119
 10
146.9769748687859
 20
32.00648268131115
 10
146.9819659663859
 20
31.90425468131115
 10
146.9882060015859
 20
31.80382993731118
 10
146.9955912847859
 20
31.7075987645112
 10
147.0040447663859
 20
31.61660757891116
 10
147.0135197231859
 20
31.53132249251118
 10
147.0239915119859
 20
31.4520342525112
 10
147.0353664879859
 20
31.37952164771116
 10
147.0475795151859
 20
31.31422113571119
 10
147.0605300751859
 20
31.2566742045112
 10
147.0741458991859
 20
31.2072010013112
 10
147.0883135647859
 20
31.1662126349112
 10
147.1029430255859
 20
31.13396218531116
 10
147.1179179679859
 20
31.1107018957112
 10
147.1331371135859
 20
31.09658364771116
 10
147.1488696703859
 20
31.09170974051119
  0
LWPOLYLINE
  5
647
330
2
100
AcDbEntity
  8
0
  6
CONTINUOUS
100
AcDbPolyline
 90
       20
 70
     0
 43
0.0
 10
147.1488696703859
 20
31.09170974051119
 10
147.1638585983859
 20
31.0961218365112
 10
147.1791462639858
 20
31.10978328931119
 10
147.1942347679858
 20
31.1325910573112
 10
147.2090306815859
 20
31.1644029869112
 10
147.2234166287859
 20
31.2049609981112
 10
147.2373095855859
 20
31.25402716131119
 10
147.2505939871859
 20
31.31118787331115
 10
147.2631955327859
 20
31.3761232429112
 10
147.2750034927859
 20
31.44826580131118
 10
147.2859529055859
 20
31.52723379651115
 10
147.2959440703859
 20
31.61233876771118
 10
147.3049172031859
 20
31.70311830691119
 10
147.3127821071859
 20
31.79870871011115
 10
147.3194663087859
 20
31.89816645251116
 10
147.3248801103859
 20
31.99969334211115
 10
147.3290163055859
 20
32.10206116771115
 10
147.3318984687859
 20
32.20411102531119
 10
147.3335808367859
 20
32.30512569891115
 10
147.3341250335859
 20
32.40420974051119
  0
LWPOLYLINE
  5
65D
330
2
100
AcDbEntity
  8
0
  6
CONTINUOUS
100
AcDbPolyline
 90
        3
 70
     0
 43
0.0
 10
146.0668709743859
 20
32.40420974051119
 10
146.0662957007859
 20
31.92323534691115
 10
146.0638875391859
 20
31.1235095117112
  0
LINE
  5
662
330
2
100
AcDbEntity
  8
0
  6
CONTINUOUS
100
AcDbLine
 10
146.0668709743859
 20
32.40420974051119
 30
0.0
 11
146.0662957007859
 21
32.8851841341112
 31
0.0
  0
LWPOLYLINE
  5
663
330
2
100
AcDbEntity
  8
0
  6
CONTINUOUS
100
AcDbPolyline
 90
       20
 70
     0
 43
0.0
 10
147.3341250335859
 20
32.40420974051119
 10
147.3335813055859
 20
32.50325113091119
 10
147.3318993471859
 20
32.60426915971118
 10
147.3290170015859
 20
32.70633798691119
 10
147.3248799151859
 20
32.8087303069112
 10
147.3194651967859
 20
32.91027150851116
 10
147.3127792383859
 20
33.00974922211119
 10
147.3049131119859
 20
33.10534645571115
 10
147.2959395519859
 20
33.1961226141112
 10
147.2859485647859
 20
33.2812196909112
 10
147.2749983215859
 20
33.3601880029112
 10
147.2631898047859
 20
33.43232841251119
 10
147.2505875519859
 20
33.49726196291115
 10
147.2373028751859
 20
33.55441855171119
 10
147.2234092767858
 20
33.6034817805112
 10
147.2090230223859
 20
33.64403549091119
 10
147.1942265615859
 20
33.6758434173112
 10
147.1791378543859
 20
33.6986462877112
 10
147.1638497535859
 20
33.71230285571115
 10
147.1488696719859
 20
33.71670974051119
  0
LWPOLYLINE
  5
679
330
2
100
AcDbEntity
  8
0
  6
CONTINUOUS
100
AcDbPolyline
 90
       20
 70
     0
 43
0.0
 10
147.1488696719859
 20
33.71670974051119
 10
147.1331278479859
 20
33.7118300781112
 10
147.1179087423859
 20
33.6977061613112
 10
147.1029335919858
 20
33.67443960451117
 10
147.0883043423859
 20
33.6421833869112
 10
147.0741366495859
 20
33.60118836291118
 10
147.0605211695859
 20
33.5517093997112
 10
147.0475706111859
 20
33.4941548765112
 10
147.0353582511859
 20
33.42884969731119
 10
147.0239838383859
 20
33.35633190851118
 10
147.0135125567859
 20
33.2770378413112
 10
147.0040370111859
 20
33.19173565091119
 10
146.9955848751859
 20
33.10074495651119
 10
146.9882029935859
 20
33.00454610531119
 10
146.9819664559859
 20
32.90417364451119
 10
146.9769769343858
 20
32.80198531491118
 10
146.9732280287859
 20
32.69964446531119
 10
146.9706660255859
 20
32.59858251011115
 10
146.9692027391858
 20
32.49973221891116
 10
146.9687399935859
 20
32.40420974051119
  0
LINE
  5
68F
330
2
100
AcDbEntity
  8
0
  6
CONTINUOUS
100
AcDbLine
 10
149.1793460799859
 20
31.60719671011119
 30
0.0
 11
149.1805031519859
 21
31.98278370851119
 31
0.0
  0
LINE
  5
690
330
2
100
AcDbEntity
  8
0
  6
CENTER
 62
     1
100
AcDbLine
 10
153.1595395919859
 20
36.0889424194149
 30
0.0
 11
153.1595395919859
 21
28.71947706160748
 31
0.0
  0
CIRCLE
  5
691
330
2
100
AcDbEntity
  8
0
  6
CONTINUOUS
100
AcDbCircle
 10
153.1595395919859
 20
32.40420974051119
 30
0.0
 40
1.271446609599999
  0
LWPOLYLINE
  5
692
330
2
100
AcDbEntity
  8
0
  6
CONTINUOUS
100
AcDbPolyline
 90
       22
 70
     0
 43
0.0
 10
153.1607073263859
 20
30.6021283693112
 10
153.2945134719859
 20
30.60650333251115
 10
153.4278798543859
 20
30.62097721251118
 10
153.5599291663859
 20
30.64549569731116
 10
153.6898042623858
 20
30.6799133261112
 10
153.8168001423859
 20
30.72404694051115
 10
153.9401970623859
 20
30.7776534701112
 10
154.0592134975859
 20
30.8403886941112
 10
154.1732144511859
 20
30.9119050941112
 10
154.2816052047859
 20
30.99182812771116
 10
154.3838272511859
 20
31.0797631277112
 10
154.4793980879859
 20
31.17534873251119
 10
154.5675427631859
 20
31.2778447661112
 10
154.6477769935859
 20
31.38667618051119
 10
154.7196607199859
 20
31.5012402829112
 10
154.7827569583859
 20
31.62082455811119
 10
154.8367513983859
 20
31.74481814211119
 10
154.8813939311859
 20
31.8727070461112
 10
154.9163784799859
 20
32.00374216771115
 10
154.9414112399859
 20
32.13679943171115
 10
154.9563680543859
 20
32.27068906211119
 10
154.9613092799859
 20
32.40420974051119
  0
LWPOLYLINE
  5
6AA
330
2
100
AcDbEntity
  8
0
  6
CONTINUOUS
100
AcDbPolyline
 90
       39
 70
     0
 43
0.0
 10
151.3566205023859
 20
32.40420974051119
 10
151.3567794223859
 20
32.3823131885112
 10
151.3572970111859
 20
32.35905014851116
 10
151.3582963663859
 20
32.33314738531118
 10
151.3599876735859
 20
32.3033197597112
 10
151.3625846111859
 20
32.26932403331119
 10
151.3662545983859
 20
32.23141884291115
 10
151.3711792095859
 20
32.18967730691119
 10
151.3776698047859
 20
32.14385670691118
 10
151.3861652527859
 20
32.09348899011115
 10
151.3972652143859
 20
32.03783914211115
 10
151.4119123807859
 20
31.97546780131119
 10
151.4312923711859
 20
31.90513475331119
 10
151.4566625503859
 20
31.8264558349112
 10
151.4863426559859
 20
31.74711509251119
 10
151.5152290511859
 20
31.67907904291115
 10
151.5430869471859
 20
31.61986886211119
 10
151.5697099887859
 20
31.5679369277112
 10
151.5949664031859
 20
31.5221446493112
 10
151.6188029327859
 20
31.4815753437112
 10
151.6412147551859
 20
31.44548456771116
 10
151.6622278799859
 20
31.41326071651119
 10
151.6818873535859
 20
31.38439627651115
 10
151.7002502687859
 20
31.35846541411118
 10
151.7173802735859
 20
31.33510854691115
 10
151.7333442175859
 20
31.31401983651119
 10
151.7482097631859
 20
31.2949376125112
 10
151.7620436351859
 20
31.2776369757112
 10
151.7749112111859
 20
31.26192294211119
 10
151.7868753023859
 20
31.24762622051119
 10
151.7979958575859
 20
31.23459908131119
 10
151.8083297551859
 20
31.22271208771115
 10
151.8179306751859
 20
31.21185144771115
 10
151.8268491279859
 20
31.20191674371119
 10
151.8351325327859
 20
31.19281905571119
 10
151.8428252015859
 20
31.1844794973112
 10
151.8499683359859
 20
31.17682805251115
 10
151.8566004799859
 20
31.16980212931119
 10
151.8627576511859
 20
31.16334562211119
  0
LWPOLYLINE
  5
6D3
330
2
100
AcDbEntity
  8
0
  6
CONTINUOUS
100
AcDbPolyline
 90
       34
 70
     0
 43
0.0
 10
151.9293317119859
 20
31.0972316669112
 10
151.9406872127859
 20
31.08657559331115
 10
151.9471076127859
 20
31.08063070211119
 10
151.9540899199859
 20
31.07423005891115
 10
151.9616867503859
 20
31.06734138851115
 10
151.9699590479859
 20
31.0599281309112
 10
151.9789746047859
 20
31.05195151651119
 10
151.9888091183859
 20
31.04337041411119
 10
151.9995475087859
 20
31.03414114211119
 10
152.0112852751859
 20
31.02421747171115
 10
152.0241300575859
 20
31.01355069411118
 10
152.0382035935859
 20
31.00208971011119
 10
152.0536439599859
 20
30.98978128131119
 10
152.0706082655859
 20
30.97657040771119
 10
152.0892758799859
 20
30.9624009197112
 10
152.1098523231859
 20
30.9472162813112
 10
152.1325738623859
 20
30.9309609597112
 10
152.1577132879859
 20
30.91358221411116
 10
152.1855873631858
 20
30.89503236611119
 10
152.2165639647859
 20
30.87527341731117
 10
152.2510742015859
 20
30.85428115971117
 10
152.2896250127859
 20
30.83205284611119
 10
152.3328157199859
 20
30.80861749891119
 10
152.3813589375859
 20
30.78405065091115
 10
152.4361076207859
 20
30.75849530851115
 10
152.4980892399859
 20
30.73219246851115
 10
152.5685469119859
 20
30.70552730371119
 10
152.6490626415859
 20
30.67907746051119
 10
152.7384828319859
 20
30.65452081411118
 10
152.8252440959859
 20
30.63536803651115
 10
152.9177074079859
 20
30.61984755651119
 10
153.0004647695859
 20
30.61010675971115
 10
153.0764847983859
 20
30.6045373997112
 10
153.1607073263859
 20
30.6021283693112
  0
LWPOLYLINE
  5
6F7
330
2
100
AcDbEntity
  8
0
  6
CONTINUOUS
100
AcDbPolyline
 90
       51
 70
     0
 43
0.0
 10
149.8369186719859
 20
27.36107513571119
 10
149.8206479967859
 20
27.3981992397112
 10
149.8037536751859
 20
27.43724113891116
 10
149.7862221855859
 20
27.47827750691115
 10
149.7680562255859
 20
27.52135675651115
 10
149.7492805071859
 20
27.56652883651119
 10
149.7299243023859
 20
27.6138497453112
 10
149.7100130895859
 20
27.66339814371116
 10
149.6895631407859
 20
27.7152805661112
 10
149.6685576959859
 20
27.7696923709112
 10
149.6469805839859
 20
27.8268433565112
 10
149.6248510399859
 20
27.88691222371119
 10
149.6021929855859
 20
27.9500763565112
 10
149.5790136943859
 20
28.01653895331119
 10
149.5553229759859
 20
28.08651033091115
 10
149.5311574623859
 20
28.16020348931115
 10
149.5148046719859
 20
28.2115102397112
 10
149.4982725087859
 20
28.26465824131119
 10
149.4815733631859
 20
28.3197396589112
 10
149.4647219631859
 20
28.37684718851119
 10
149.4477423967859
 20
28.43607566371119
 10
149.4306610879859
 20
28.49752045251119
 10
149.4135057183859
 20
28.5612873741112
 10
149.3963089695859
 20
28.6275240525112
 10
149.3791047775859
 20
28.69638856451115
 10
149.3619334639859
 20
28.76802370051118
 10
149.3448609023858
 20
28.84251111971116
 10
149.3279593519859
 20
28.91991719331119
 10
149.3154371695859
 20
28.9799577821112
 10
149.3030720399859
 20
29.04188988451119
 10
149.2908841743859
 20
29.10592593411115
 10
149.2788937839859
 20
29.17227836931115
 10
149.2671400335859
 20
29.24105432131119
 10
149.2557378863859
 20
29.3119397197112
 10
149.2448010095858
 20
29.38471411971116
 10
149.2343620943859
 20
29.4599527853112
 10
149.2244624351859
 20
29.53808302531115
 10
149.2152587551859
 20
29.6181446061112
 10
149.2069366287859
 20
29.6988304093112
 10
149.1996816335859
 20
29.77883331491119
 10
149.1936245055859
 20
29.85713135971119
 10
149.1886766175859
 20
29.93384317411118
 10
149.1847011807859
 20
30.00916183491119
 10
149.1815881151859
 20
30.08243759171119
 10
149.1792311823859
 20
30.15300352931117
 10
149.1775127823859
 20
30.2209669293112
 10
149.1763124815859
 20
30.28662862531115
 10
149.1755098431859
 20
30.35028944291116
 10
149.1748789215859
 20
30.43244710051115
 10
149.1746284143859
 20
30.5115100637112
 10
149.1748292735859
 20
30.6601061421112
  0
LWPOLYLINE
  5
72C
330
2
100
AcDbEntity
  8
0
  6
CONTINUOUS
100
AcDbPolyline
 90
        3
 70
     0
 43
0.0
 10
150.0413320431859
 20
26.93013203971119
 10
150.0299674287859
 20
26.95246772291119
 10
149.9930905823859
 20
27.0264439901112
  0
LWPOLYLINE
  5
731
330
2
100
AcDbEntity
  8
0
  6
CONTINUOUS
100
AcDbPolyline
 90
        6
 70
     0
 43
0.0
 10
149.9930905823859
 20
27.0264439901112
 10
149.9665549055859
 20
27.08066225891119
 10
149.9391041103859
 20
27.13782755971115
 10
149.9112044767859
 20
27.19713748771118
 10
149.8970316287859
 20
27.22773559171119
 10
149.8678262575859
 20
27.29179011171118
  0
LINE
  5
739
330
2
100
AcDbEntity
  8
0
  6
CONTINUOUS
100
AcDbLine
 10
149.8678262575859
 20
27.29179011171118
 30
0.0
 11
149.8369186719859
 21
27.36107513571119
 31
0.0
  0
LINE
  5
73A
330
2
100
AcDbEntity
  8
0
  6
CONTINUOUS
100
AcDbLine
 10
149.1777203871859
 20
31.22150742051116
 30
0.0
 11
149.1793460799859
 21
31.60719671011119
 31
0.0
  0
LINE
  5
73B
330
2
100
AcDbEntity
  8
0
  6
CONTINUOUS
100
AcDbLine
 10
149.1748292735859
 20
30.6601061421112
 30
0.0
 11
149.1777203871859
 21
31.22150742051116
 31
0.0
  0
LINE
  5
73C
330
2
100
AcDbEntity
  8
0
  6
CONTINUOUS
100
AcDbLine
 10
151.9196998591859
 20
31.1064149293112
 30
0.0
 11
151.9293317119859
 21
31.0972316669112
 31
0.0
  0
LINE
  5
73D
330
2
100
AcDbEntity
  8
0
  6
CONTINUOUS
100
AcDbLine
 10
151.9115194911859
 20
31.1143211101112
 30
0.0
 11
151.9196998591859
 21
31.1064149293112
 31
0.0
  0
LINE
  5
73E
330
2
100
AcDbEntity
  8
0
  6
CONTINUOUS
100
AcDbLine
 10
151.8984873711859
 20
31.1270898125112
 30
0.0
 11
151.9115194911859
 21
31.1143211101112
 31
0.0
  0
LINE
  5
73F
330
2
100
AcDbEntity
  8
0
  6
CONTINUOUS
100
AcDbLine
 10
151.8914543743859
 20
31.13406821091115
 30
0.0
 11
151.8984873711859
 21
31.1270898125112
 31
0.0
  0
LINE
  5
740
330
2
100
AcDbEntity
  8
0
  6
CONTINUOUS
100
AcDbLine
 10
151.8832732799859
 20
31.14228071971115
 30
0.0
 11
151.8914543743859
 21
31.13406821091115
 31
0.0
  0
LINE
  5
741
330
2
100
AcDbEntity
  8
0
  6
CONTINUOUS
100
AcDbLine
 10
151.8737792383859
 20
31.15194437251119
 30
0.0
 11
151.8832732799859
 21
31.14228071971115
 31
0.0
  0
LINE
  5
742
330
2
100
AcDbEntity
  8
0
  6
CONTINUOUS
100
AcDbLine
 10
151.8627576511859
 20
31.16334562211119
 30
0.0
 11
151.8737792383859
 21
31.15194437251119
 31
0.0
  0
LWPOLYLINE
  5
743
330
2
100
AcDbEntity
  8
0
  6
CONTINUOUS
100
AcDbPolyline
 90
       33
 70
     0
 43
0.0
 10
151.9406890047859
 20
33.7218455565112
 10
151.9471095007859
 20
33.72779051811119
 10
151.9540919071859
 20
33.73419123491117
 10
151.9616888415859
 20
33.74107997891119
 10
151.9699612479859
 20
33.7484933101112
 10
151.9789769167859
 20
33.75646999811115
 10
151.9888115487859
 20
33.76505117251119
 10
151.9995500623859
 20
33.77428051491119
 10
152.0112879551859
 20
33.78420425571118
 10
152.0241328703859
 20
33.79487110051115
 10
152.0382065439859
 20
33.80633214851119
 10
152.0536470511859
 20
33.81864063811116
 10
152.0706115023859
 20
33.83185156291119
 10
152.0892792671859
 20
33.84602109731119
 10
152.1098558623859
 20
33.86120577411119
 10
152.1325775583859
 20
33.8774611229112
 10
152.1577171407859
 20
33.89483988291115
 10
152.1855913727859
 20
33.9133897293112
 10
152.2165681279859
 20
33.93314866051119
 10
152.2510785151859
 20
33.95414087971118
 10
152.2896294671859
 20
33.97636913091119
 10
152.3328203023859
 20
33.99980438851119
 10
152.3813636271859
 20
34.02437111651116
 10
152.4361123919859
 20
34.0499263021112
 10
152.4980940511859
 20
34.07622894851115
 10
152.5685517119859
 20
34.10289387971118
 10
152.6490672735858
 20
34.12934342371116
 10
152.7384868367859
 20
34.1538996557112
 10
152.8252473535859
 20
34.1730520797112
 10
152.9177097983859
 20
34.18857226211119
 10
153.0004662143859
 20
34.19831285891118
 10
153.0764855279859
 20
34.20388211971115
 10
153.1607073263859
 20
34.20629111171115
  0
LWPOLYLINE
  5
766
330
2
100
AcDbEntity
  8
0
  6
CONTINUOUS
100
AcDbPolyline
 90
       51
 70
     0
 43
0.0
 10
149.1746163519859
 20
34.27710261731116
 10
149.1747973071859
 20
34.3593333933112
 10
149.1751650015859
 20
34.42316395491118
 10
149.1758344639859
 20
34.48908773411119
 10
149.1769147983859
 20
34.55739468771119
 10
149.1785151055859
 20
34.62837476931119
 10
149.1807452767859
 20
34.70213783491115
 10
149.1837183519859
 20
34.77807335011116
 10
149.1875709711859
 20
34.8556513421112
 10
149.1925310159859
 20
34.93538451331119
 10
149.1987791103859
 20
35.01766164291117
 10
149.2062156079859
 20
35.1013331805112
 10
149.2146707919859
 20
35.18486499491118
 10
149.2239749455859
 20
35.26672295011116
 10
149.2339803551859
 20
35.34576145571119
 10
149.2446273135859
 20
35.42238909411119
 10
149.2558568607859
 20
35.4971698045112
 10
149.2675250335859
 20
35.56973479171119
 10
149.2794898911859
 20
35.63962453891119
 10
149.2917025871859
 20
35.70694937571116
 10
149.3041375471859
 20
35.77196209891118
 10
149.3167691951859
 20
35.83491549891116
 10
149.3338696703859
 20
35.91599920931119
 10
149.3511928351859
 20
35.99394435651118
 10
149.3686571775859
 20
36.06882398371115
 10
149.3861880687859
 20
36.14072772611118
 10
149.4037384159859
 20
36.2098115837112
 10
149.4212680127859
 20
36.2762481501112
 10
149.4387383983859
 20
36.34019906211119
 10
149.4561181135859
 20
36.40178213731116
 10
149.4733774415859
 20
36.4611042349112
 10
149.4904890575859
 20
36.51827075491115
 10
149.5074351967859
 20
36.57338126051115
 10
149.5242004783859
 20
36.62653385571116
 10
149.5489770639859
 20
36.70279189091115
 10
149.5732686687859
 20
36.77511023491115
 10
149.5970378431859
 20
36.84372994531119
 10
149.6202711663859
 20
36.90887679011118
 10
149.6429576031859
 20
36.9707656349112
 10
149.6650716719859
 20
37.02958303811115
 10
149.6865918975859
 20
37.08551450531115
 10
149.7075273199859
 20
37.1387696573112
 10
149.7278892079859
 20
37.18954712291119
 10
149.7476672559859
 20
37.23797745571118
 10
149.7668444655858
 20
37.28416795171119
 10
149.7853986111859
 20
37.32820093411118
 10
149.8033127343859
 20
37.37015280451117
 10
149.8205961551859
 20
37.41010122051119
 10
149.8372700015859
 20
37.4481407085112
 10
149.8533763711859
 20
37.48443201731118
 10
149.8840813487859
 20
37.55244750851119
  0
LINE
  5
79B
330
2
100
AcDbEntity
  8
0
  6
CONTINUOUS
100
AcDbLine
 10
149.1805778847859
 20
32.79409862051119
 30
0.0
 11
149.1784709359859
 21
33.4208729581112
 31
0.0
  0
LINE
  5
79C
330
2
100
AcDbEntity
  8
0
  6
CONTINUOUS
100
AcDbLine
 10
149.1810560927859
 20
32.4821452477112
 30
0.0
 11
149.1805778847859
 21
32.79409862051119
 31
0.0
  0
LINE
  5
79D
330
2
100
AcDbEntity
  8
0
  6
CONTINUOUS
100
AcDbLine
 10
149.1809898143859
 20
32.25105150531115
 30
0.0
 11
149.1810560927859
 21
32.4821452477112
 31
0.0
  0
LINE
  5
79E
330
2
100
AcDbEntity
  8
0
  6
CONTINUOUS
100
AcDbLine
 10
149.1805031519859
 20
31.98278370851119
 30
0.0
 11
149.1809898143859
 21
32.25105150531115
 31
0.0
  0
LINE
  5
79F
330
2
100
AcDbEntity
  8
0
  6
CONTINUOUS
100
AcDbLine
 10
149.1749305503859
 20
34.1224294957112
 30
0.0
 11
149.1746163519859
 21
34.27710261731116
 31
0.0
  0
LINE
  5
7A0
330
2
100
AcDbEntity
  8
0
  6
CONTINUOUS
100
AcDbLine
 10
149.1784709359859
 20
33.4208729581112
 30
0.0
 11
149.1749305503859
 21
34.1224294957112
 31
0.0
  0
LWPOLYLINE
  5
7A1
330
2
100
AcDbEntity
  8
0
  6
CONTINUOUS
100
AcDbPolyline
 90
       40
 70
     0
 43
0.0
 10
151.3566207007859
 20
32.40420974051119
 10
151.3567796815859
 20
32.42612414691118
 10
151.3572975887859
 20
32.44938855011119
 10
151.3582973807859
 20
32.47529362531119
 10
151.3599892863859
 20
32.50512408931115
 10
151.3625869535859
 20
32.53912257251119
 10
151.3662577743859
 20
32.57703032451115
 10
151.3711833727859
 20
32.61877441411115
 10
151.3776752047859
 20
32.66459775491119
 10
151.3861722271859
 20
32.71496856931119
 10
151.3972742559859
 20
32.77062219971119
 10
151.4119241775859
 20
32.83299815811119
 10
151.4313076975859
 20
32.90333625251119
 10
151.4566812927859
 20
32.98201753571118
 10
151.4863625023859
 20
33.06135390051119
 10
151.5152479775859
 20
33.12938261251119
 10
151.5431048463859
 20
33.18858695331115
 10
151.5697267823859
 20
33.2405140573112
 10
151.5949820607859
 20
33.28630228451118
 10
151.6188174655859
 20
33.32686815811115
 10
151.6412281983859
 20
33.3629560093112
 10
151.6622402815859
 20
33.39517735171119
 10
151.6818987727859
 20
33.42403963011119
 10
151.7002607631859
 20
33.44996861731115
 10
151.7173899071859
 20
33.47332385411116
 10
151.7333530511859
 20
33.4944111405112
 10
151.7482178559859
 20
33.5134921149112
 10
151.7620510415859
 20
33.5307916541112
 10
151.7749179855859
 20
33.54650471811118
 10
151.7868814959859
 20
33.56080058371119
 10
151.7980015151859
 20
33.5738269645112
 10
151.8083349215859
 20
33.5857132845112
 10
151.8179353903859
 20
33.59657332451115
 10
151.8268534287859
 20
33.60650749251115
 10
151.8351364543859
 20
33.6156047021112
 10
151.8428287759859
 20
33.62394383491118
 10
151.8499715919858
 20
33.6315948973112
 10
151.8566034431859
 20
33.63862047651119
 10
151.8627603503859
 20
33.64507667491119
 10
151.8737814703859
 20
33.65647739811118
  0
LINE
  5
7CB
330
2
100
AcDbEntity
  8
0
  6
CONTINUOUS
100
AcDbLine
 10
151.8737814703859
 20
33.65647739811118
 30
0.0
 11
151.8832751215859
 21
33.66614062211116
 31
0.0
  0
LINE
  5
7CC
330
2
100
AcDbEntity
  8
0
  6
CONTINUOUS
100
AcDbLine
 10
151.8832751215859
 20
33.66614062211116
 30
0.0
 11
151.8914558927859
 21
33.67435278531115
 31
0.0
  0
LINE
  5
7CD
330
2
100
AcDbEntity
  8
0
  6
CONTINUOUS
100
AcDbLine
 10
151.8914558927859
 20
33.67435278531115
 30
0.0
 11
151.8984886015859
 21
33.6813308845112
 31
0.0
  0
LINE
  5
7CE
330
2
100
AcDbEntity
  8
0
  6
CONTINUOUS
100
AcDbLine
 10
151.8984886015859
 20
33.6813308845112
 30
0.0
 11
151.9115207871859
 21
33.69409963171119
 31
0.0
  0
LINE
  5
7CF
330
2
100
AcDbEntity
  8
0
  6
CONTINUOUS
100
AcDbLine
 10
151.9115207871859
 20
33.69409963171119
 30
0.0
 11
151.9197013103859
 21
33.70200594691115
 31
0.0
  0
LINE
  5
7D0
330
2
100
AcDbEntity
  8
0
  6
CONTINUOUS
100
AcDbLine
 10
151.9197013103859
 20
33.70200594691115
 30
0.0
 11
151.9293333263859
 21
33.7111893421112
 31
0.0
  0
LINE
  5
7D1
330
2
100
AcDbEntity
  8
0
  6
CONTINUOUS
100
AcDbLine
 10
151.9293333263859
 20
33.7111893421112
 30
0.0
 11
151.9406890047859
 21
33.7218455565112
 31
0.0
  0
LINE
  5
7D2
330
2
100
AcDbEntity
  8
0
  6
CONTINUOUS
100
AcDbLine
 10
149.8840813487859
 20
37.55244750851119
 30
0.0
 11
149.9131395583859
 21
37.61543520931116
 31
0.0
  0
LWPOLYLINE
  5
7D3
330
2
100
AcDbEntity
  8
0
  6
CONTINUOUS
100
AcDbPolyline
 90
       23
 70
     0
 43
0.0
 10
153.1607073263859
 20
34.20629111171115
 10
153.2884351519859
 20
34.20233407331119
 10
153.4157982799859
 20
34.1891744621112
 10
153.5420331247859
 20
34.1668539421112
 10
153.6663839615859
 20
34.1354926477112
 10
153.7882281727859
 20
34.0952441901112
 10
153.9069472223859
 20
34.0463063949112
 10
154.0218589567859
 20
33.9889617613112
 10
154.1323779503859
 20
33.92351330691119
 10
154.2379780527859
 20
33.85027832931115
 10
154.3381584767859
 20
33.7695968829112
 10
154.4324956319859
 20
33.68177531971119
 10
154.5204152351859
 20
33.58730355651118
 10
154.6013486415859
 20
33.48678384771119
 10
154.6749073391859
 20
33.38070984291116
 10
154.7407066271859
 20
33.26964330851117
 10
154.7983975791859
 20
33.1541902813112
 10
154.8477308527859
 20
33.0348505309112
 10
154.8884826463859
 20
32.91209405091118
 10
154.9203817583859
 20
32.7866302717112
 10
154.9431873071859
 20
32.65946766531115
 10
154.9568086511859
 20
32.5316456429112
 10
154.9613093119859
 20
32.40420974051119
  0
ARC
  5
7EC
330
2
100
AcDbEntity
  8
0
  6
CONTINUOUS
100
AcDbCircle
 10
145.1595395919859
 20
45.90420974051119
 30
0.0
 40
0.25
100
AcDbArc
 50
90.0
 51
180.0
  0
ARC
  5
7ED
330
2
100
AcDbEntity
  8
0
  6
CONTINUOUS
100
AcDbCircle
 10
145.1595395919859
 20
45.90420974051119
 30
0.0
 40
0.5
100
AcDbArc
 50
90.0
 51
180.0
  0
LWPOLYLINE
  5
7EE
330
2
100
AcDbEntity
  8
0
  6
CONTINUOUS
100
AcDbPolyline
 90
       35
 70
     0
 43
0.0
 10
150.3673111503859
 20
42.69643818211119
 10
150.4811788543859
 20
42.76386163491119
 10
150.6000403567859
 20
42.83180956611121
 10
150.7238619727859
 20
42.90013566851118
 10
150.8519227071859
 20
42.9683600813112
 10
150.9826484287859
 20
43.03564411491118
 10
151.1131182879859
 20
43.10048006531118
 10
151.2409559935859
 20
43.16169366371116
 10
151.3659095711859
 20
43.21925499651118
 10
151.4886386095859
 20
43.27356927011118
 10
151.6096435359859
 20
43.32494037091118
 10
151.7292987215859
 20
43.37359721891118
 10
151.8479521519859
 20
43.4197414157112
 10
151.9658994783859
 20
43.46353683811119
 10
152.0833993967859
 20
43.50511735811119
 10
152.2006758623859
 20
43.5445906221112
 10
152.3178787935859
 20
43.5820284813112
 10
152.4351073631859
 20
43.6174799581112
 10
152.5524497663859
 20
43.65098633731119
 10
152.6699749679859
 20
43.68257969891118
 10
152.7878025087859
 20
43.71230137571117
 10
152.9061237231859
 20
43.74020255491117
 10
153.0249996575859
 20
43.76629573411119
 10
153.1444328687859
 20
43.79057934851118
 10
153.2645617023859
 20
43.81307722051121
 10
153.3855088175859
 20
43.83380294211116
 10
153.5073059567858
 20
43.85275008451119
 10
153.6300177567859
 20
43.8699157213112
 10
153.7537486095859
 20
43.88529866371118
 10
153.8785393119859
 20
43.89888597891117
 10
154.0044965599859
 20
43.91066899971116
 10
154.1318272671859
 20
43.92064093411116
 10
154.2606822255859
 20
43.92877998851119
 10
154.3908077775859
 20
43.93504207011119
 10
154.5216441631859
 20
43.9393795437112
  0
LWPOLYLINE
  5
813
330
2
100
AcDbEntity
  8
0
  6
HIDDEN
100
AcDbPolyline
 90
       27
 70
     0
 43
0.0
 10
150.3664176255859
 20
42.69812405891116
 10
150.5162849999859
 20
42.78655099491118
 10
150.6747925311859
 20
42.8757285085112
 10
150.8411026399859
 20
42.96514227491118
 10
151.0119980783859
 20
43.05299396291118
 10
151.1814538431859
 20
43.1360714541112
 10
151.3459753647859
 20
43.21280107331119
 10
151.5065422143859
 20
43.28389403011118
 10
151.6642584559859
 20
43.35004272771118
 10
151.8199383839859
 20
43.41172592931118
 10
151.9742972655859
 20
43.4693167309112
 10
152.1279022223859
 20
43.52311313091118
 10
152.2812198575859
 20
43.57333975811118
 10
152.4345402639859
 20
43.62012257251118
 10
152.5880570399859
 20
43.66356001571119
 10
152.7419402255859
 20
43.70375155811117
 10
152.8965429887859
 20
43.74081787331118
 10
153.0520811919859
 20
43.77481427651119
 10
153.2086226479859
 20
43.80574403331118
 10
153.3664710063859
 20
43.83363800131118
 10
153.5257725119859
 20
43.85847487331119
 10
153.6866657295859
 20
43.88024340451116
 10
153.8493335327859
 20
43.89894382691119
 10
154.0139625631859
 20
43.91455950691119
 10
154.1809675583859
 20
43.92707084771117
 10
154.3504538847859
 20
43.93640851651119
 10
154.5214516991859
 20
43.9424710765112
  0
LWPOLYLINE
  5
830
330
2
100
AcDbEntity
  8
0
  6
CONTINUOUS
100
AcDbPolyline
 90
       10
 70
     0
 43
0.0
 10
151.0311587983859
 20
41.73926483331118
 10
151.3062909503859
 20
41.9139962957112
 10
151.5602056719859
 20
42.06013910691118
 10
151.8036818847859
 20
42.1886114973112
 10
152.0494777583859
 20
42.30813353251119
 10
152.3036847455859
 20
42.4212125789112
 10
152.5709870431859
 20
42.52869673411118
 10
152.8560176511859
 20
42.63093938211119
 10
153.1642789455859
 20
42.7279098397112
 10
153.5050257007859
 20
42.81931414211118
  0
LWPOLYLINE
  5
83C
330
2
100
AcDbEntity
  8
0
  6
CONTINUOUS
100
AcDbPolyline
 90
       15
 70
     0
 43
0.0
 10
153.6047717039859
 20
42.30079569891119
 10
153.2779107103859
 20
42.26490489251119
 10
152.9313069247859
 20
42.2106558813112
 10
152.5959821455859
 20
42.1393275469112
 10
152.2660284287859
 20
42.04972403011118
 10
151.9333922063859
 20
41.93970703491118
 10
151.6030047679859
 20
41.81023942531118
 10
151.2838488287859
 20
41.6647455181112
 10
150.9845097823859
 20
41.50807900291119
 10
150.7132441295859
 20
41.34655966211115
 10
150.4729406063859
 20
41.18446836611115
 10
150.2569474255859
 20
41.0192963485112
 10
150.0521300575859
 20
40.84207360771119
 10
149.8438196559859
 20
40.63865102371116
 10
149.6212008495859
 20
40.39589849411117
  0
LWPOLYLINE
  5
84D
330
2
100
AcDbEntity
  8
0
  6
CONTINUOUS
100
AcDbPolyline
 90
        8
 70
     0
 43
0.0
 10
149.6246723151859
 20
40.4927166221112
 10
149.7820094415859
 20
40.66562583651119
 10
149.9444008767859
 20
40.8345728349112
 10
150.1149738495859
 20
41.00197006051118
 10
150.2981998127859
 20
41.1707729565112
 10
150.5046561295859
 20
41.34769208131118
 10
150.7512880175859
 20
41.54126883331119
 10
151.0311587983859
 20
41.73926483331118
  0
LINE
  5
857
330
2
100
AcDbEntity
  8
0
  6
CONTINUOUS
100
AcDbLine
 10
150.0299307839859
 20
37.85587993571116
 30
0.0
 11
150.0413317439859
 21
37.87828686051119
 31
0.0
  0
LINE
  5
858
330
2
100
AcDbEntity
  8
0
  6
CONTINUOUS
100
AcDbLine
 10
149.6171003887859
 20
40.4226285933112
 30
0.0
 11
149.6246723151859
 21
40.4927166221112
 31
0.0
  0
LINE
  5
859
330
2
100
AcDbEntity
  8
0
  6
CONTINUOUS
100
AcDbLine
 10
149.6211953967859
 20
40.3958929293112
 30
0.0
 11
149.6171032991859
 21
40.4226261373112
 31
0.0
  0
LWPOLYLINE
  5
85A
330
2
100
AcDbEntity
  8
0
  6
CONTINUOUS
100
AcDbPolyline
 90
        5
 70
     0
 43
0.0
 10
155.1048961983859
 20
43.03544660131118
 10
154.7156349247859
 20
43.0157589341112
 10
154.3177406239859
 20
42.97357870851118
 10
153.9131944079859
 20
42.90820077891118
 10
153.5050257007859
 20
42.81931414211118
  0
LINE
  5
861
330
2
100
AcDbEntity
  8
0
  6
CONTINUOUS
100
AcDbLine
 10
154.5216441631859
 20
43.9393795437112
 30
0.0
 11
154.8070782287859
 21
43.94668126371118
 31
0.0
  0
LINE
  5
862
330
2
100
AcDbEntity
  8
0
  6
HIDDEN
100
AcDbLine
 10
154.5214516991859
 20
43.9424710765112
 30
0.0
 11
155.8911880543859
 21
43.97786676291116
 31
0.0
  0
LINE
  5
863
330
2
100
AcDbEntity
  8
0
  6
CONTINUOUS
100
AcDbLine
 10
154.8070782287859
 20
43.94668126371118
 30
0.0
 11
155.8395052111859
 21
43.97331603331119
 31
0.0
  0
LINE
  5
864
330
2
100
AcDbEntity
  8
0
  6
CONTINUOUS
100
AcDbLine
 10
165.1370973759859
 20
41.29394709251118
 30
0.0
 11
165.6399241311859
 21
41.29581839491118
 31
0.0
  0
LWPOLYLINE
  5
865
330
2
100
AcDbEntity
  8
0
  6
DASHED
100
AcDbPolyline
 90
       51
 70
     0
 43
0.0
 10
164.6904541327859
 20
43.55066262051116
 10
164.7311487343859
 20
43.48490651971118
 10
164.7731011039859
 20
43.4199420493112
 10
164.8163421439859
 20
43.35572194211119
 10
164.8608061439859
 20
43.2923434125112
 10
164.9065351151859
 20
43.22974677891119
 10
164.9534529391859
 20
43.1680359213112
 10
165.0016096575859
 20
43.10714538531118
 10
165.0509187359859
 20
43.04718428291119
 10
165.1014392879859
 20
42.9880809933112
 10
165.1530742815859
 20
42.92994876451118
 10
165.2058917231859
 20
42.87271129411118
 10
165.2597841375859
 20
42.81648480131116
 10
165.3148284079859
 20
42.7611893053112
 10
165.3709068063859
 20
42.70694284291121
 10
165.4281049055859
 20
42.65366285251121
 10
165.4862949999859
 20
42.6014680829112
 10
165.5455710159858
 20
42.55027447651116
 10
165.6057957295859
 20
42.50020036451118
 10
165.6670709791859
 20
42.45116124131118
 10
165.7292505599859
 20
42.40327395011118
 10
165.7924436847859
 20
42.35645453731118
 10
165.8564958207859
 20
42.31081734211119
 10
165.9215228927858
 20
42.26627991011119
 10
165.9873628047859
 20
42.22295312131118
 10
166.0541374559859
 20
42.18075688771119
 10
166.1216780239859
 20
42.1397977693112
 10
166.1901115439859
 20
42.09999883651116
 10
166.2592634031859
 20
42.0614615341112
 10
166.3292648671859
 20
42.02411280291116
 10
166.3999365295859
 20
41.98804827171119
 10
166.4714129247859
 20
41.95319937091119
 10
166.5435109039859
 20
41.91965531331118
 10
166.6163672431859
 20
41.88735253571119
 10
166.6897961631859
 20
41.85637333891119
 10
166.7639356543859
 20
41.8266595645112
 10
166.8385984127859
 20
41.79828622531118
 10
166.9139225215858
 20
41.77120089571118
 10
166.9897203455859
 20
41.74547099811118
 10
167.0661289743859
 20
41.7210500365112
 10
167.1429616031859
 20
41.69799767811119
 10
167.2203532031859
 20
41.67627345891119
 10
167.2981189567859
 20
41.65592922211118
 10
167.3763907215859
 20
41.63693049731119
 10
167.4549868303859
 20
41.61932136771119
 10
167.5340348927859
 20
41.60307326051119
 10
167.6133571983859
 20
41.58822266371117
 10
167.6930759119859
 20
41.57474670851118
 10
167.7730199391859
 20
41.56267436451119
 10
167.8533057215859
 20
41.55198806851117
 10
167.9337638095859
 20
41.5427102797112
  0
LINE
  5
89A
330
2
100
AcDbEntity
  8
0
  6
DASHED
100
AcDbLine
 10
165.3192311055859
 20
43.6212735613112
 30
0.0
 11
166.3393468495859
 21
43.6385463997112
 31
0.0
  0
LWPOLYLINE
  5
89B
330
2
100
AcDbEntity
  8
0
  6
CONTINUOUS
100
AcDbPolyline
 90
        4
 70
     0
 43
0.0
 10
162.6740557391859
 20
42.23175098691117
 10
164.3158043087859
 20
42.18447922851118
 10
165.2418455391859
 20
42.15969507011118
 10
166.121000045926
 20
42.14020892048225
  0
LINE
  5
8A1
330
2
100
AcDbEntity
  8
0
  6
CONTINUOUS
100
AcDbLine
 10
160.5331413071859
 20
41.29179049251118
 30
0.0
 11
161.1856247103859
 21
41.29188888771119
 31
0.0
  0
LINE
  5
8A2
330
2
100
AcDbEntity
  8
0
  6
CONTINUOUS
100
AcDbLine
 10
162.6817897183859
 20
41.29116508131119
 30
0.0
 11
163.5113346879859
 21
41.29125427331118
 31
0.0
  0
LINE
  5
8A3
330
2
100
AcDbEntity
  8
0
  6
CONTINUOUS
100
AcDbLine
 10
162.2888194047859
 20
41.2912912925112
 30
0.0
 11
162.6817897183859
 21
41.29116508131119
 31
0.0
  0
LINE
  5
8A4
330
2
100
AcDbEntity
  8
0
  6
CONTINUOUS
100
AcDbLine
 10
161.1856247103859
 20
41.29188888771119
 30
0.0
 11
162.2888194047859
 21
41.2912912925112
 31
0.0
  0
LINE
  5
8A5
330
2
100
AcDbEntity
  8
0
  6
CONTINUOUS
100
AcDbLine
 10
164.6506115423859
 20
41.2926711613112
 30
0.0
 11
165.1370973759859
 21
41.29394709251118
 31
0.0
  0
LINE
  5
8A6
330
2
100
AcDbEntity
  8
0
  6
CONTINUOUS
100
AcDbLine
 10
164.1811662463859
 20
41.29185608291118
 30
0.0
 11
164.6506115423859
 21
41.2926711613112
 31
0.0
  0
LWPOLYLINE
  5
8A7
330
2
100
AcDbEntity
  8
0
  6
DASHED
100
AcDbPolyline
 90
       42
 70
     0
 43
0.0
 10
164.6904541327859
 20
43.55066262051116
 10
164.6889550047859
 20
43.55166817091119
 10
164.6875488671859
 20
43.55280164771119
 10
164.6862949871859
 20
43.55412579171118
 10
164.6855512639859
 20
43.55519114371119
 10
164.6850009679859
 20
43.55635139171119
 10
164.6847339039859
 20
43.55757728931118
 10
164.6847980863859
 20
43.55875586211118
 10
164.6851288063859
 20
43.5599154333112
 10
164.6856646543858
 20
43.5610049997112
 10
164.6866078879859
 20
43.5622921069112
 10
164.6877379295859
 20
43.56340911171119
 10
164.6889845391859
 20
43.56440235331118
 10
164.6917152911859
 20
43.56620315811119
 10
164.6945858751859
 20
43.56775564131118
 10
164.6984357871859
 20
43.56951368931118
 10
164.7023782735859
 20
43.5710621613112
 10
164.7072918239859
 20
43.57276886211121
 10
164.7122581247859
 20
43.57431060771119
 10
164.7181847887859
 20
43.57597430051121
 10
164.7241493487859
 20
43.5774987581112
 10
164.7310463871859
 20
43.5791187037112
 10
164.7379700095859
 20
43.58062021571117
 10
164.7536362303859
 20
43.58366799811119
 10
164.7711101791859
 20
43.58664275811119
 10
164.7903071439858
 20
43.58953554051118
 10
164.8112130351859
 20
43.59234757571118
 10
164.8337762639859
 20
43.5950730541112
 10
164.8579578703859
 20
43.59770736771119
 10
164.8837722767859
 20
43.60025038211119
 10
164.9111594223859
 20
43.6026933757112
 10
164.9401595343859
 20
43.60503600291116
 10
164.9707466351859
 20
43.60727084611116
 10
165.0029278447859
 20
43.60939233411118
 10
165.0367386783859
 20
43.61139536451119
 10
165.0721398975859
 20
43.61326938051118
 10
165.1092003359859
 20
43.61500871171119
 10
165.1478860079859
 20
43.61660130211117
 10
165.1882477631859
 20
43.6180377741112
 10
165.2302535839859
 20
43.61930438691118
 10
165.2739122319859
 20
43.62038789091122
 10
165.3192311055859
 20
43.6212735613112
  0
LINE
  5
8D3
330
2
100
AcDbEntity
  8
0
  6
CONTINUOUS
100
AcDbLine
 10
163.5113346879859
 20
41.29125427331118
 30
0.0
 11
164.1811662463859
 21
41.29185608291118
 31
0.0
  0
LWPOLYLINE
  5
8D4
330
2
100
AcDbEntity
  8
0
  6
DASHED
100
AcDbPolyline
 90
       26
 70
     0
 43
0.0
 10
173.3274106015859
 20
43.7208913229112
 10
173.3321407167859
 20
43.72235208771118
 10
173.3369111743859
 20
43.72367836771118
 10
173.3427813167859
 20
43.7251668797112
 10
173.3486794095859
 20
43.7265392077112
 10
173.3557000511859
 20
43.72804977731118
 10
173.3627423119859
 20
43.72945679011118
 10
173.3708913407859
 20
43.73097719491116
 10
173.3790572223859
 20
43.73240418051119
 10
173.3975004623859
 20
43.73534766051119
 10
173.4179875231859
 20
43.73826621891118
 10
173.4403469663859
 20
43.74113025891119
 10
173.4643674927859
 20
43.74391083491116
 10
173.4898600111859
 20
43.7465862109112
 10
173.5166499247859
 20
43.74913883331117
 10
173.5444088367859
 20
43.75154027331118
 10
173.5728660863859
 20
43.75377278531118
 10
173.6017766815859
 20
43.75582415651118
 10
173.6309386255859
 20
43.75768762211118
 10
173.6601374895859
 20
43.75935742851118
 10
173.6892370031859
 20
43.76083368931119
 10
173.7180450207859
 20
43.76211455651119
 10
173.7464739807859
 20
43.76320384611119
 10
173.7743767103859
 20
43.76410327171117
 10
173.8017006799859
 20
43.7648180653112
 10
173.8283195615859
 20
43.76535143651119
  0
LINE
  5
8F0
330
2
100
AcDbEntity
  8
0
  6
CONTINUOUS
100
AcDbLine
 10
169.2698674559859
 20
41.3299647421112
 30
0.0
 11
170.2156879268074
 21
41.34259117672553
 31
0.0
  0
LWPOLYLINE
  5
8F1
330
2
100
AcDbEntity
  8
0
  6
DASHED
100
AcDbPolyline
 90
       11
 70
     0
 43
0.0
 10
167.9337638095859
 20
41.5427102797112
 10
168.2420671087859
 20
41.51067046851119
 10
168.5505279599859
 20
41.48017643011118
 10
168.8592815247859
 20
41.45121481251118
 10
169.1681760575859
 20
41.42379984611119
 10
169.4773456255859
 20
41.3979196317112
 10
169.7866408175859
 20
41.37358667011119
 10
170.0961926735859
 20
41.35079065731119
 10
170.4058548239859
 20
41.32954237571119
 10
170.7157553855859
 20
41.30983302851118
 10
171.0257497103859
 20
41.29167180931119
  0
LWPOLYLINE
  5
8FE
330
2
100
AcDbEntity
  8
0
  6
CONTINUOUS
100
AcDbPolyline
 90
        5
 70
     0
 43
0.0
 10
172.9935546470469
 20
43.37998840047977
 10
172.7695028223859
 20
43.37651639971119
 10
170.3265734623859
 20
43.33592913251118
 10
167.7344739871859
 20
43.29034711651118
 10
166.9742818081794
 20
43.2762439481135
  0
LWPOLYLINE
  5
905
330
2
100
AcDbEntity
  8
0
  6
DASHED
100
AcDbPolyline
 90
       11
 70
     0
 43
0.0
 10
168.0656156463859
 20
42.71482754531118
 10
168.3504255727859
 20
42.68363858371119
 10
168.6354055679859
 20
42.65403478851118
 10
168.9207232271859
 20
42.62599900131118
 10
169.2061920991859
 20
42.59954978371118
 10
169.4919594191859
 20
42.57467356931118
 10
169.7778604863859
 20
42.5513847741112
 10
170.0640199359859
 20
42.52967316451119
 10
170.3502956639859
 20
42.50954945091118
 10
170.6367902351859
 20
42.49100618051119
 10
170.9233822463859
 20
42.47405096131117
  0
LINE
  5
912
330
2
100
AcDbEntity
  8
0
  6
CONTINUOUS
100
AcDbLine
 10
167.2595617087859
 20
41.30666087651118
 30
0.0
 11
167.6864492735859
 21
41.31086459171117
 31
0.0
  0
LWPOLYLINE
  5
913
330
2
100
AcDbEntity
  8
0
  6
DASHED
100
AcDbPolyline
 90
       43
 70
     0
 43
0.0
 10
166.7697882751859
 20
43.5738775229112
 10
166.7877602943859
 20
43.54083591971118
 10
166.8065255823859
 20
43.50823561411118
 10
166.8261275535859
 20
43.47600634211116
 10
166.8465007327859
 20
43.44425967971119
 10
166.8676818159859
 20
43.41294085251118
 10
166.8896105663859
 20
43.3821406861112
 10
166.9123130847859
 20
43.35182311651118
 10
166.9357363103859
 20
43.32205889411119
 10
166.9598994143859
 20
43.2928228909112
 10
166.9847539935859
 20
43.26417239971118
 10
167.0103316431859
 20
43.2360707949112
 10
167.0365704095859
 20
43.20858545411119
 10
167.0635188111859
 20
43.18166610051119
 10
167.0910971391859
 20
43.15539245091119
 10
167.1193597919859
 20
43.1297131389112
 10
167.1482198943859
 20
43.10470714531118
 10
167.1777330879859
 20
43.08032637411119
 10
167.2078099583859
 20
43.05664445411119
 10
167.2385109487859
 20
43.03361383811119
 10
167.2697408559859
 20
43.0113056845112
 10
167.3015666639859
 20
42.98967225251118
 10
167.3338858559859
 20
42.96878306851119
 10
167.3667713935859
 20
42.94859113571118
 10
167.4001141183859
 20
42.9291634173112
 10
167.4339920255859
 20
42.91045467491119
 10
167.4682903535859
 20
42.8925282973112
 10
167.5030874975859
 20
42.87534339971119
 10
167.5382677487859
 20
42.85895704931118
 10
167.5739047919859
 20
42.84333473411118
 10
167.6098871263858
 20
42.82852501251119
 10
167.6462917055859
 20
42.81449611971118
 10
167.6830035519859
 20
42.80129216451117
 10
167.7201156511859
 20
42.7888802205112
 10
167.7574970303859
 20
42.77730451651118
 10
167.7952428863859
 20
42.7665361885112
 10
167.8332199439859
 20
42.7566138205112
 10
167.8714949839859
 20
42.74751963331119
 10
167.9099625343859
 20
42.73927829411118
 10
167.9486554511859
 20
42.7318813757112
 10
167.9875028847859
 20
42.7253410861112
 10
168.0265025439859
 20
42.7196554189112
 10
168.0656156463859
 20
42.71482754531118
  0
LINE
  5
940
330
2
100
AcDbEntity
  8
0
  6
CONTINUOUS
100
AcDbLine
 10
165.6399241311859
 20
41.29581839491118
 30
0.0
 11
166.0280723663859
 21
41.29770721571119
 31
0.0
  0
LINE
  5
941
330
2
100
AcDbEntity
  8
0
  6
CONTINUOUS
100
AcDbLine
 10
166.8398597887859
 20
41.30307937251117
 30
0.0
 11
167.2595617087859
 21
41.30666087651118
 31
0.0
  0
LINE
  5
942
330
2
100
AcDbEntity
  8
0
  6
CONTINUOUS
100
AcDbLine
 10
166.4278345791859
 20
41.30010348451119
 30
0.0
 11
166.8398597887859
 21
41.30307937251117
 31
0.0
  0
LWPOLYLINE
  5
943
330
2
100
AcDbEntity
  8
0
  6
DASHED
100
AcDbPolyline
 90
       34
 70
     0
 43
0.0
 10
166.3393468495859
 20
43.6385463997112
 10
166.3651507999859
 20
43.6389012653112
 10
166.3911303919859
 20
43.63909164291118
 10
166.4171488127859
 20
43.6391111181112
 10
166.4431521631859
 20
43.63895368931119
 10
166.4689999647859
 20
43.63861355011119
 10
166.4946196703859
 20
43.63808425571119
 10
166.5198493423859
 20
43.6373609869112
 10
166.5445656767859
 20
43.6364386365112
 10
166.5685669663859
 20
43.63531588131118
 10
166.5917059999859
 20
43.63399063491118
 10
166.6137874047859
 20
43.63246469251118
 10
166.6241823503859
 20
43.6316433165112
 10
166.6345710495859
 20
43.63074642211119
 10
166.6442082783859
 20
43.62983846211119
 10
166.6538373647859
 20
43.62884801571119
 10
166.6626568463859
 20
43.62785766051118
 10
166.6714655695859
 20
43.62677567971118
 10
166.6793774607859
 20
43.6257116397112
 10
166.6872747439859
 20
43.62454470211119
 10
166.6941747455859
 20
43.62342227331118
 10
166.7010549391859
 20
43.62218307491116
 10
166.7068710863859
 20
43.6210194061112
 10
166.7126583455859
 20
43.61972287171122
 10
166.7173771023859
 20
43.6185324749112
 10
166.7220549695859
 20
43.61718333251118
 10
166.7256815599859
 20
43.6159763997112
 10
166.7292347599859
 20
43.61458231331119
 10
166.7309346639859
 20
43.61380844771119
 10
166.7325911599859
 20
43.61294101891118
 10
166.7341879071859
 20
43.6119457277112
 10
166.7352232527859
 20
43.61117468931118
 10
166.7361623247859
 20
43.6103017053112
 10
166.7369441231859
 20
43.60930000451119
  0
LINE
  5
967
330
2
100
AcDbEntity
  8
0
  6
CONTINUOUS
100
AcDbLine
 10
166.0280723663859
 20
41.29770721571119
 30
0.0
 11
166.4278345791859
 21
41.30010348451119
 31
0.0
  0
LINE
  5
968
330
2
100
AcDbEntity
  8
0
  6
CONTINUOUS
100
AcDbLine
 10
167.6864492735859
 20
41.31086459171117
 30
0.0
 11
168.1086840511859
 21
41.31548970691119
 31
0.0
  0
LINE
  5
969
330
2
100
AcDbEntity
  8
0
  6
CONTINUOUS
100
AcDbLine
 10
168.6503997087859
 20
41.3219850957112
 30
0.0
 11
169.2698674559859
 21
41.3299647421112
 31
0.0
  0
LINE
  5
96A
330
2
100
AcDbEntity
  8
0
  6
CONTINUOUS
100
AcDbLine
 10
168.1086840511859
 20
41.31548970691119
 30
0.0
 11
168.6503997087859
 21
41.3219850957112
 31
0.0
  0
LWPOLYLINE
  5
96B
330
2
100
AcDbEntity
  8
0
  6
DASHED
100
AcDbPolyline
 90
       55
 70
     0
 43
0.0
 10
170.9233822463859
 20
42.47405096131117
 10
170.9734705887859
 20
42.4717377517112
 10
171.0235977791859
 20
42.47044217091118
 10
171.0739030351859
 20
42.47016322051118
 10
171.1242030239858
 20
42.4709044477112
 10
171.1745982159859
 20
42.47266873891118
 10
171.2249475391859
 20
42.47545266531119
 10
171.2753071775859
 20
42.4792597741112
 10
171.3255796175858
 20
42.48408316451116
 10
171.3757801551859
 20
42.48992374051119
 10
171.4258528495859
 20
42.49677450211118
 10
171.4758024463859
 20
42.5046355229112
 10
171.5255839007859
 20
42.51349920131116
 10
171.5752116031859
 20
42.52336812611119
 10
171.6246311359859
 20
42.5342315773112
 10
171.6738534879859
 20
42.54609221571118
 10
171.7228279407859
 20
42.5589381405112
 10
171.7715475967859
 20
42.57276754211119
 10
171.8199800831859
 20
42.5875713053112
 10
171.8681039743859
 20
42.60334273411118
 10
171.9159019071859
 20
42.6200760669112
 10
171.9633449503859
 20
42.6377610973112
 10
172.0104236703859
 20
42.65639431651118
 10
172.0571018319859
 20
42.67596137891118
 10
172.1033777375859
 20
42.6964616509112
 10
172.1492056159859
 20
42.71787483491118
 10
172.1945938031859
 20
42.7402048829112
 10
172.2394873039859
 20
42.76342468611119
 10
172.2839042175859
 20
42.78754362531119
 10
172.3277821775859
 20
42.8125277965112
 10
172.3711471935859
 20
42.83839204291118
 10
172.4139305311859
 20
42.8650953517112
 10
172.4561651359859
 20
42.89265834051121
 10
172.4977757695859
 20
42.92103187491119
 10
172.5388025119859
 20
42.9502433149112
 10
172.5791640287859
 20
42.9802346797112
 10
172.6189071823859
 20
43.01104076931119
 10
172.6579472079859
 20
43.04259585251119
 10
172.6963350799859
 20
43.07494113731118
 10
172.7339848799859
 20
43.10800431971119
 10
172.7709494159859
 20
43.14183188131116
 10
172.8071400271859
 20
43.17634275971116
 10
172.8426130783859
 20
43.21159077731119
 10
172.8772745791859
 20
43.2474823597112
 10
172.9111872735859
 20
43.28408227811118
 10
172.9442564063859
 20
43.32128803491116
 10
172.9765464607859
 20
43.35917188611119
 10
173.0079709151859
 20
43.39763263651116
 10
173.0385866975859
 20
43.43674022051118
 10
173.0683132687859
 20
43.47639247331119
 10
173.0972022463859
 20
43.51665883011119
 10
173.1251645007858
 20
43.55741475491117
 10
173.1522625631859
 20
43.5987510493112
 10
173.1783964847859
 20
43.6405133229112
 10
173.2036400175859
 20
43.68281700451118
  0
LINE
  5
9A4
330
2
100
AcDbEntity
  8
0
  6
CONTINUOUS
100
AcDbLine
 10
173.8376896367859
 20
41.40182754211119
 30
0.0
 11
173.9978632655859
 21
41.40759455011118
 31
0.0
  0
LINE
  5
9A5
330
2
100
AcDbEntity
  8
0
  6
CONTINUOUS
100
AcDbLine
 10
173.6737288623859
 20
41.39660070851118
 30
0.0
 11
173.8376896367859
 21
41.40182754211119
 31
0.0
  0
LINE
  5
9A6
330
2
100
AcDbEntity
  8
0
  6
CONTINUOUS
100
AcDbLine
 10
173.5623356655859
 20
41.39343112611117
 30
0.0
 11
173.6737288623859
 21
41.39660070851118
 31
0.0
  0
LINE
  5
9A7
330
2
100
AcDbEntity
  8
0
  6
CONTINUOUS
100
AcDbLine
 10
173.4492811423859
 20
41.39052474851118
 30
0.0
 11
173.5623356655859
 21
41.39343112611117
 31
0.0
  0
LINE
  5
9A8
330
2
100
AcDbEntity
  8
0
  6
CONTINUOUS
100
AcDbLine
 10
173.3345686207859
 20
41.38788977571119
 30
0.0
 11
173.4492811423859
 21
41.39052474851118
 31
0.0
  0
LINE
  5
9A9
330
2
100
AcDbEntity
  8
0
  6
CONTINUOUS
100
AcDbLine
 10
173.2182579535859
 20
41.3855349261112
 30
0.0
 11
173.3345686207859
 21
41.38788977571119
 31
0.0
  0
LINE
  5
9AA
330
2
100
AcDbEntity
  8
0
  6
CONTINUOUS
100
AcDbLine
 10
172.5774337407859
 20
41.37495430211117
 30
0.0
 11
173.2182579535859
 21
41.3855349261112
 31
0.0
  0
LWPOLYLINE
  5
9AB
330
2
100
AcDbEntity
  8
0
  6
DASHED
100
AcDbPolyline
 90
        9
 70
     0
 43
0.0
 10
173.3274106015859
 20
43.7208913229112
 10
173.3122689215859
 20
43.71597215011118
 10
173.2971042655859
 20
43.71112383811118
 10
173.2819176863859
 20
43.70634432611118
 10
173.2667102319859
 20
43.70163155171119
 10
173.2509722815859
 20
43.6968288573112
 10
173.2352140191859
 20
43.69209341891118
 10
173.2194363103858
 20
43.68742340931118
 10
173.2036400175859
 20
43.68281700451118
  0
LWPOLYLINE
  5
9B6
330
2
100
AcDbEntity
  8
0
  6
CONTINUOUS
100
AcDbPolyline
 90
        2
 70
     0
 43
0.0
 10
172.381965690475
 20
41.37211127005167
 10
172.5774337407859
 20
41.37495430211117
  0
LWPOLYLINE
  5
9BA
330
2
100
AcDbEntity
  8
0
  6
CONTINUOUS
100
AcDbPolyline
 90
       18
 70
     0
 43
0.0
 10
192.7480738831859
 20
40.3441992749112
 10
192.6011626623859
 20
40.5133512813112
 10
192.4291375087859
 20
40.68702020291119
 10
192.2282931791859
 20
40.86539753571119
 10
191.9943372799859
 20
41.04847653091119
 10
191.7226076031859
 20
41.2358131853112
 10
191.4081364335859
 20
41.42649044931118
 10
191.0457382143859
 20
41.61907904131118
 10
190.6308932447859
 20
41.8112643133112
 10
190.1606575551859
 20
41.99968688771119
 10
189.6345328511859
 20
42.17998660771118
 10
189.0550240959859
 20
42.3470832989112
 10
188.4299615311859
 20
42.49515725891117
 10
187.7777748463859
 20
42.61753219491118
 10
187.1183807983859
 20
42.70958884451118
 10
186.4911776399859
 20
42.76785387171119
 10
185.9284138751859
 20
42.79718450691118
 10
185.4399127103859
 20
42.80724286371119
  0
LWPOLYLINE
  5
9CE
330
2
100
AcDbEntity
  8
0
  6
CONTINUOUS
100
AcDbPolyline
 90
       18
 70
     0
 43
0.0
 10
192.9076229487858
 20
40.46097429251119
 10
192.6861218943859
 20
40.71786635811119
 10
192.4322452943859
 20
40.9878790557112
 10
192.1558523983859
 20
41.25431969091119
 10
191.8756776015859
 20
41.4971364925112
 10
191.5903160319859
 20
41.71831846691119
 10
191.2898205855859
 20
41.9260220509112
 10
190.9701077583859
 20
42.12220158211119
 10
190.6282168863859
 20
42.30732446211118
 10
190.2594956399859
 20
42.48218035811118
 10
189.8592844575859
 20
42.64683955971119
 10
189.4175357919859
 20
42.80262259811118
 10
188.9182633407859
 20
42.9510549501112
 10
188.3467581695859
 20
43.0931072157112
 10
187.6918584543859
 20
43.22899868771119
 10
186.9666907327859
 20
43.34926005731119
 10
186.2468060991859
 20
43.4380313037112
 10
185.5957922575859
 20
43.49132878531119
  0
LWPOLYLINE
  5
9E2
330
2
100
AcDbEntity
  8
0
  6
CONTINUOUS
100
AcDbPolyline
 90
       68
 70
     0
 43
0.0
 10
182.2037057599859
 20
41.92752851491118
 10
182.4466265103859
 20
41.94587485251119
 10
182.6874980543859
 20
41.96356150051116
 10
182.8661418527859
 20
41.9762686077112
 10
183.0429012431859
 20
41.98843082051118
 10
183.2175406847859
 20
41.99998731331118
 10
183.3890162191859
 20
42.01083561571119
 10
183.5564945279859
 20
42.02088909411119
 10
183.7207932351859
 20
42.03016609251119
 10
183.8829064671859
 20
42.03869648931117
 10
184.0428833663859
 20
42.04645129891119
 10
184.2528650191859
 20
42.05551848291119
 10
184.4602267215859
 20
42.0630822013112
 10
184.6664790655859
 20
42.06909549731119
 10
184.8729625007859
 20
42.07350008451117
 10
185.0803369343859
 20
42.07619233571119
 10
185.2890921295859
 20
42.07705729571119
 10
185.4997125679859
 20
42.07596379971121
 10
185.7126615919859
 20
42.07271586851118
 10
185.9283972575859
 20
42.06710131491118
 10
186.1470871535859
 20
42.05892225731119
 10
186.3677369743859
 20
42.04803803491119
 10
186.5890619487859
 20
42.03432229411117
 10
186.8098223391859
 20
42.01767642371118
 10
187.0289585711859
 20
41.99811279171117
 10
187.2454561071859
 20
41.9756715069112
 10
187.4055174351859
 20
41.95698259491118
 10
187.5632765775859
 20
41.93675276771119
 10
187.7184862927859
 20
41.91503723171118
 10
187.8708993375859
 20
41.89189119011118
 10
188.0202891135859
 20
41.86737470211119
 10
188.1665116063859
 20
41.8415672493112
 10
188.3094434431859
 20
41.81455316931118
 10
188.4489612527859
 20
41.78641679811116
 10
188.5849894511859
 20
41.75723322211118
 10
188.7176435999859
 20
41.72704053411118
 10
188.8470870479859
 20
41.69586757091116
 10
188.9734831471859
 20
41.6637431725112
 10
189.1375284879859
 20
41.61947696611119
 10
189.2966851151859
 20
41.57361786211118
 10
189.4511914335859
 20
41.5262131325112
 10
189.6012610799859
 20
41.4773152525112
 10
189.7470086543859
 20
41.42699751331119
 10
189.8885239935859
 20
41.37533841411118
 10
190.0259070495859
 20
41.32241028611119
 10
190.1592982623859
 20
41.26826081091119
 10
190.2888481807859
 20
41.21293150691122
 10
190.4146978847859
 20
41.15646509571118
 10
190.5369505407859
 20
41.09890910531118
 10
190.6556998351859
 20
41.0403122637112
 10
190.7710438799859
 20
40.98071846051118
 10
190.8830984719859
 20
40.92015222851119
 10
190.9919838319859
 20
40.8586332653112
 10
191.0978143247859
 20
40.79618124611118
 10
191.2006809055859
 20
40.7328157677112
 10
191.3006686719859
 20
40.66855640931118
 10
191.3978541567859
 20
40.6034271901112
 10
191.4922796271859
 20
40.53746990211116
 10
191.5839787807859
 20
40.47073077411119
 10
191.6729804879859
 20
40.4032607581112
 10
191.7592942879858
 20
40.3351296797112
 10
191.8429248927859
 20
40.26641208131119
 10
191.9238769023859
 20
40.1971806221112
 10
192.0021544799858
 20
40.12750041891115
 10
192.0777616799859
 20
40.05743470051115
 10
192.1507106431859
 20
39.9870409165112
 10
192.2210458815859
 20
39.9163534013112
 10
192.2888199935859
 20
39.84540070371119
  0
LWPOLYLINE
  5
A28
330
2
100
AcDbEntity
  8
0
  6
HIDDEN
100
AcDbPolyline
 90
       54
 70
     0
 43
0.0
 10
189.2695622351858
 20
44.8464123981112
 10
189.3751266319859
 20
44.8501463069112
 10
189.4917802031859
 20
44.85382197411118
 10
189.6207521919859
 20
44.85729255811119
 10
189.7633232367859
 20
44.86033755491118
 10
189.9213392959859
 20
44.86268104611116
 10
190.0969103263859
 20
44.86394124931118
 10
190.2926415023859
 20
44.86353322531118
 10
190.5118952575859
 20
44.86062733251119
 10
190.7585579663859
 20
44.85407895491118
 10
191.0377860367859
 20
44.84220753891119
 10
191.3561281103859
 20
44.8224319965112
 10
191.7218439119859
 20
44.79109539971119
 10
192.1465628143859
 20
44.74250925411118
 10
192.6132421503859
 20
44.6728054237112
 10
193.0733851839859
 20
44.58671520131119
 10
193.5210328687859
 20
44.4856270349112
 10
193.9627251807859
 20
44.36844751331119
 10
194.3979686687859
 20
44.2356520749112
 10
194.8150484543859
 20
44.09232246211118
 10
195.2250909359859
 20
43.93607871811116
 10
195.6315920319859
 20
43.76515168451118
 10
196.0286470431859
 20
43.58095230051119
 10
196.4120935231859
 20
43.38516995011116
 10
196.7825743503859
 20
43.17785657411119
 10
197.1471438463859
 20
42.9551529885112
 10
197.5112711647859
 20
42.71328087811119
 10
197.8778925487859
 20
42.4493759741112
 10
198.2495800767859
 20
42.16028351171118
 10
198.6250915103859
 20
41.84555968451118
 10
198.9978843999859
 20
41.50946821091119
 10
199.3570337743859
 20
41.16145825891118
 10
199.6964302127859
 20
40.80797611971118
 10
200.0077289551859
 20
40.4590500685112
 10
200.2908575055859
 20
40.1169705149112
 10
200.5470875519859
 20
39.78248498371115
 10
200.7792829551859
 20
39.45432639651119
 10
200.9883106031859
 20
39.13332146851115
 10
201.1809828575858
 20
38.81052945571116
 10
201.3601422319859
 20
38.4818189437112
 10
201.5265742799859
 20
38.14573786051118
 10
201.6848695967859
 20
37.79195531171117
 10
201.8352157711859
 20
37.41795545251119
 10
201.9785620255859
 20
37.01792383651115
 10
202.1163742175859
 20
36.58291113891115
 10
202.2470748815859
 20
36.11122482051115
 10
202.3711425503859
 20
35.59208107651119
 10
202.4850446703859
 20
35.02934771331115
 10
202.5841512367859
 20
34.43741416131115
 10
202.6568827983859
 20
33.9011183309112
 10
202.7062502495859
 20
33.44192725411119
 10
202.7384518319859
 20
33.04458382211118
 10
202.7567459679859
 20
32.70063751651119
 10
202.7627462207859
 20
32.40420974051119
  0
LWPOLYLINE
  5
A60
330
2
100
AcDbEntity
  8
0
  6
CONTINUOUS
100
AcDbPolyline
 90
       61
 70
     0
 43
0.0
 10
189.3091158207859
 20
44.8443064061112
 10
189.4047298127859
 20
44.8476215469112
 10
189.5091018895859
 20
44.85087131491119
 10
189.6230548671859
 20
44.85395071171118
 10
189.7474416847859
 20
44.85670233091116
 10
189.8835460479859
 20
44.85894634851118
 10
190.0327612351859
 20
44.86044507491118
 10
190.1966846671859
 20
44.86084973731118
 10
190.3774059503859
 20
44.85966987651116
 10
190.5773630719859
 20
44.85625982691118
 10
190.7993097487859
 20
44.84975362691119
 10
191.0469388063859
 20
44.83892045091119
 10
191.3247389519859
 20
44.8219617373112
 10
191.6382237679859
 20
44.7964517373112
 10
191.9945139743859
 20
44.75895559011118
 10
192.3973119743859
 20
44.70480097411118
 10
192.8064272671859
 20
44.6364692221112
 10
193.2049378719859
 20
44.55659392771116
 10
193.5956965951859
 20
44.46490187811119
 10
193.9825228399859
 20
44.36071535331118
 10
194.3646952687859
 20
44.24441811011118
 10
194.7318438335859
 20
44.12022894371119
 10
195.0920270367859
 20
43.98661439171118
 10
195.4505167343859
 20
43.84155293091118
 10
195.8033257103859
 20
43.6859102381112
 10
196.1475169039859
 20
43.52046139971119
 10
196.4806165759859
 20
43.34648168771116
 10
196.8042820255859
 20
43.16340351331118
 10
197.1238157151859
 20
42.9682522445112
 10
197.4429202767859
 20
42.75845887651118
 10
197.7636604543859
 20
42.5320695565112
 10
198.0873540783859
 20
42.2873536653112
 10
198.4159148127859
 20
42.02185137411118
 10
198.7447447183859
 20
41.73837176611118
 10
199.0697145647859
 20
41.4397697565112
 10
199.3823584047859
 20
41.13373639651118
 10
199.6797649775859
 20
40.8235639117112
 10
199.9552538047859
 20
40.51712300131121
 10
200.2094526383859
 20
40.2152248509112
 10
200.4411583871859
 20
39.9208527085112
 10
200.6556261599859
 20
39.6289938685112
 10
200.8501341071859
 20
39.34479440611116
 10
201.0287174015859
 20
39.06382018051115
 10
201.1956608431859
 20
38.78012779331115
 10
201.3523117231859
 20
38.49174387811117
 10
201.4988938015859
 20
38.19828731011119
 10
201.6390530047859
 20
37.89179650851116
 10
201.7734032191859
 20
37.5695778397112
 10
201.9012689071859
 20
37.23138726051115
 10
202.0250644527859
 20
36.86799937091118
 10
202.1442082143859
 20
36.4772606125112
 10
202.2576685935859
 20
36.05769312771119
 10
202.3661481855859
 20
35.6003579773112
 10
202.4666848383859
 20
35.11025255811119
 10
202.5575716383859
 20
34.58814956131115
 10
202.6289124223859
 20
34.0968837341112
 10
202.6803156095859
 20
33.66676022531118
 10
202.7166240783858
 20
33.2885136381112
 10
202.7408552335859
 20
32.95516036451116
 10
202.7548255279859
 20
32.66163245411116
 10
202.7594376767859
 20
32.40420974051119
  0
LWPOLYLINE
  5
A9F
330
2
100
AcDbEntity
  8
0
  6
CONTINUOUS
100
AcDbPolyline
 90
        9
 70
     0
 43
0.0
 10
176.1481967919859
 20
39.26219616131115
 10
176.3366779647859
 20
38.4993947133112
 10
176.5055901823858
 20
37.70247258691119
 10
176.6531405535858
 20
36.87229351651117
 10
176.7771582543859
 20
36.0128549341112
 10
176.8755454815859
 20
35.13038491171119
 10
176.9467900559859
 20
34.2299921117112
 10
176.9898400447859
 20
33.31704605091116
 10
177.0040761807859
 20
32.4042046925112
  0
LWPOLYLINE
  5
AAA
330
2
100
AcDbEntity
  8
0
  6
CONTINUOUS
100
AcDbPolyline
 90
        9
 70
     0
 43
0.0
 10
177.4993873631859
 20
32.40420974051119
 10
177.4797845247859
 20
33.47994430531119
 10
177.4214910591859
 20
34.5447009293112
 10
177.3266882559859
 20
35.5818903757112
 10
177.2057624863859
 20
36.53188432451119
 10
177.0709753007858
 20
37.36876827971116
 10
176.9271230847859
 20
38.1156229341112
 10
176.7753549087859
 20
38.79709570691119
 10
176.6151546143859
 20
39.43215630531119
  0
LWPOLYLINE
  5
AB5
330
2
100
AcDbEntity
  8
0
  6
CONTINUOUS
100
AcDbPolyline
 90
       18
 70
     0
 43
0.0
 10
174.7749584319859
 20
42.23995409091119
 10
175.9149590271859
 20
42.27083133251119
 10
176.9077416655859
 20
42.30686590371118
 10
177.7860911407859
 20
42.34873151011117
 10
178.5841056783859
 20
42.39572480771116
 10
179.3157303727859
 20
42.44492451171118
 10
179.9849739727859
 20
42.49375232611117
 10
180.5972678607859
 20
42.54059922531118
 10
181.1604670159859
 20
42.58454793251118
 10
181.6789603759859
 20
42.62477762851119
 10
182.1655907327859
 20
42.66136970211118
 10
182.6376486735859
 20
42.69497021571118
 10
183.1049620991859
 20
42.72579576771116
 10
183.5669568223859
 20
42.7531237965112
 10
184.0256487615859
 20
42.77617919011118
 10
184.4853688863859
 20
42.79398593891116
 10
184.9527055439859
 20
42.80510503331117
 10
185.4399127103859
 20
42.80724286371119
  0
LWPOLYLINE
  5
AC9
330
2
100
AcDbEntity
  8
0
  6
CONTINUOUS
100
AcDbPolyline
 90
        6
 70
     0
 43
0.0
 10
184.6141492575859
 20
43.52042815011119
 10
182.9203901871859
 20
43.50677125571118
 10
181.1321750127859
 20
43.48955106531121
 10
179.2363346655859
 20
43.46832174851118
 10
177.2188857567859
 20
43.4426377149112
 10
175.7686849460475
 20
43.42207032514136
  0
LWPOLYLINE
  5
AD1
330
2
100
AcDbEntity
  8
0
  6
CONTINUOUS
100
AcDbPolyline
 90
        8
 70
     0
 43
0.0
 10
177.2105461983859
 20
41.58677514371118
 10
177.4596817135859
 20
41.5995750381112
 10
177.7100688655859
 20
41.61294476611118
 10
177.9610755727859
 20
41.62684990371121
 10
178.2118771183859
 20
41.64124202531119
 10
178.4616004719859
 20
41.65605912931119
 10
178.7096101599859
 20
41.67125001571119
 10
178.9562692575859
 20
41.68682030211118
  0
LWPOLYLINE
  5
ADB
330
2
100
AcDbEntity
  8
0
  6
CONTINUOUS
100
AcDbPolyline
 90
       30
 70
     0
 43
0.0
 10
176.1481967471859
 20
39.26219614531118
 10
176.1207040975859
 20
39.3575392509112
 10
176.0838710847859
 20
39.46272342051119
 10
176.0370613087859
 20
39.57819459971119
 10
175.9789030799859
 20
39.70495468131119
 10
175.9075973567859
 20
39.84366401731119
 10
175.8199510239859
 20
39.9961141677112
 10
175.7124854863858
 20
40.16244649091118
 10
175.5882997727859
 20
40.33219258371116
 10
175.4559995471859
 20
40.49100465251117
 10
175.3222494223859
 20
40.6316938333112
 10
175.1942855951859
 20
40.75121773411118
 10
175.0763678159859
 20
40.85103402851117
 10
174.9683021711859
 20
40.9350878797112
 10
174.8691922543859
 20
41.00652200611119
 10
174.7784577711859
 20
41.06742361571119
 10
174.6954741759859
 20
41.1194252141112
 10
174.6196695103859
 20
41.16380181891119
 10
174.5504975503859
 20
41.20159002691116
 10
174.4874768207859
 20
41.23363094371121
 10
174.4301579103859
 20
41.26063287331118
 10
174.3781013055859
 20
41.28320937731118
 10
174.3309212031859
 20
41.30187953251118
 10
174.2882677151859
 20
41.3170939037112
 10
174.2498151663859
 20
41.32925148451121
 10
174.2152462447859
 20
41.3387128173112
 10
174.1842655887859
 20
41.34580140291117
 10
174.1566125903859
 20
41.35080782211119
 10
174.1320194223859
 20
41.35400309251119
 10
174.1102539919859
 20
41.35563444291119
  0
LWPOLYLINE
  5
AFB
330
2
100
AcDbEntity
  8
0
  6
CONTINUOUS
100
AcDbPolyline
 90
       21
 70
     0
 43
0.0
 10
176.4653632671859
 20
41.55020299331119
 10
176.4705903967859
 20
41.53350426691119
 10
176.4763161487859
 20
41.5048543629112
 10
176.4824876223859
 20
41.4644520317112
 10
176.4890691007859
 20
41.4125336701112
 10
176.4959952287859
 20
41.3496732781112
 10
176.5032485711859
 20
41.27609278851119
 10
176.5108246911859
 20
41.19179952931119
 10
176.5186572415859
 20
41.09747608771118
 10
176.5266959471859
 20
40.99371604451119
 10
176.5348681791859
 20
40.88148535491121
 10
176.5431435423859
 20
40.76124099171116
 10
176.5515120655859
 20
40.63310614851118
 10
176.5599097263859
 20
40.49801813251116
 10
176.5682790719859
 20
40.35688957251119
 10
176.5765432767859
 20
40.21105068771118
 10
176.5846817183859
 20
40.06090531651119
 10
176.5926809567859
 20
39.90667084131115
 10
176.6004701631859
 20
39.74967149091119
 10
176.6080003055859
 20
39.5908916621112
 10
176.6151546223859
 20
39.43215630531119
  0
LINE
  5
B12
330
2
100
AcDbEntity
  8
0
  6
CONTINUOUS
100
AcDbLine
 10
176.1653825375859
 20
41.53235238531118
 30
0.0
 11
176.3451272767859
 21
41.5427333421112
 31
0.0
  0
LINE
  5
B13
330
2
100
AcDbEntity
  8
0
  6
CONTINUOUS
100
AcDbLine
 10
174.3068246735859
 20
41.4206286893112
 30
0.0
 11
174.4758546639858
 21
41.42876378531116
 31
0.0
  0
LWPOLYLINE
  5
B14
330
2
100
AcDbEntity
  8
0
  6
CONTINUOUS
100
AcDbPolyline
 90
        3
 70
     0
 43
0.0
 10
174.4758546639858
 20
41.42876378531116
 10
174.4963144159859
 20
41.42960398211118
 10
174.5379514911859
 20
41.4310327437112
  0
LINE
  5
B19
330
2
100
AcDbEntity
  8
0
  6
CONTINUOUS
100
AcDbLine
 10
174.1542202047859
 20
41.4138867469112
 30
0.0
 11
174.3068246735859
 21
41.4206286893112
 31
0.0
  0
LWPOLYLINE
  5
B1A
330
2
100
AcDbEntity
  8
0
  6
CONTINUOUS
100
AcDbPolyline
 90
        9
 70
     0
 43
0.0
 10
174.7736575567859
 20
41.43771610371118
 10
174.8351983439859
 20
41.44004869891119
 10
174.8662225119859
 20
41.44140899811119
 10
174.8973945503859
 20
41.44291234371118
 10
174.9286948463859
 20
41.4445672381112
 10
174.9600869919859
 20
41.44637601731119
 10
174.9915303823859
 20
41.44833947491119
 10
175.0229922975859
 20
41.45045781891122
 10
175.0544715391859
 20
41.45272893091117
  0
LINE
  5
B25
330
2
100
AcDbEntity
  8
0
  6
CONTINUOUS
100
AcDbLine
 10
174.7129499391859
 20
41.43581110211118
 30
0.0
 11
174.7736575567859
 21
41.43771610371118
 31
0.0
  0
LINE
  5
B26
330
2
100
AcDbEntity
  8
0
  6
CONTINUOUS
100
AcDbLine
 10
175.4129731855859
 20
41.48080819651116
 30
0.0
 11
175.6388735407859
 21
41.49764946051118
 31
0.0
  0
LINE
  5
B27
330
2
100
AcDbEntity
  8
0
  6
CONTINUOUS
100
AcDbLine
 10
175.6388735407859
 20
41.49764946051118
 30
0.0
 11
175.8118339887859
 21
41.50978727811116
 31
0.0
  0
LINE
  5
B28
330
2
100
AcDbEntity
  8
0
  6
CONTINUOUS
100
AcDbLine
 10
175.8118339887859
 20
41.50978727811116
 30
0.0
 11
175.9874412847859
 21
41.52136990691121
 31
0.0
  0
LINE
  5
B29
330
2
100
AcDbEntity
  8
0
  6
CONTINUOUS
100
AcDbLine
 10
175.9874412847859
 20
41.52136990691121
 30
0.0
 11
176.1653825375859
 21
41.53235238531118
 31
0.0
  0
LINE
  5
B2A
330
2
100
AcDbEntity
  8
0
  6
CONTINUOUS
100
AcDbLine
 10
175.0544715391859
 20
41.45272893091117
 30
0.0
 11
175.4129731855859
 21
41.48080819651116
 31
0.0
  0
LINE
  5
B2B
330
2
100
AcDbEntity
  8
0
  6
CONTINUOUS
100
AcDbLine
 10
174.5379514911859
 20
41.4310327437112
 30
0.0
 11
174.7129499391859
 21
41.43581110211118
 31
0.0
  0
LWPOLYLINE
  5
B2C
330
2
100
AcDbEntity
  8
0
  6
CONTINUOUS
100
AcDbPolyline
 90
        2
 70
     0
 43
0.0
 10
174.5513055161049
 20
42.23483271693978
 10
174.7749584319859
 20
42.23995409091119
  0
LINE
  5
B30
330
2
100
AcDbEntity
  8
0
  6
CONTINUOUS
100
AcDbLine
 10
176.3451272767859
 20
41.5427333421112
 30
0.0
 11
176.5787578911859
 21
41.55529637571118
 31
0.0
  0
LINE
  5
B31
330
2
100
AcDbEntity
  8
0
  6
CONTINUOUS
100
AcDbLine
 10
176.5787575055859
 20
41.55530392771118
 30
0.0
 11
177.2105461983859
 21
41.58677514371118
 31
0.0
  0
LINE
  5
B32
330
2
100
AcDbEntity
  8
0
  6
CONTINUOUS
100
AcDbLine
 10
180.3643660687859
 20
41.78452781251118
 30
0.0
 11
180.6757582223859
 21
41.80817898371119
 31
0.0
  0
LINE
  5
B33
330
2
100
AcDbEntity
  8
0
  6
CONTINUOUS
100
AcDbLine
 10
179.2854910015859
 20
41.70830923491118
 30
0.0
 11
179.5801701167859
 21
41.72822543171119
 31
0.0
  0
LINE
  5
B34
330
2
100
AcDbEntity
  8
0
  6
CONTINUOUS
100
AcDbLine
 10
178.9562692575859
 20
41.68682030211118
 30
0.0
 11
179.2854910015859
 21
41.70830923491118
 31
0.0
  0
LINE
  5
B35
330
2
100
AcDbEntity
  8
0
  6
CONTINUOUS
100
AcDbLine
 10
180.1206067103859
 20
41.7664987805112
 30
0.0
 11
180.3643660687859
 21
41.78452781251118
 31
0.0
  0
LINE
  5
B36
330
2
100
AcDbEntity
  8
0
  6
CONTINUOUS
100
AcDbLine
 10
179.8431674463859
 20
41.7465580445112
 30
0.0
 11
180.1206067103859
 21
41.7664987805112
 31
0.0
  0
LINE
  5
B37
330
2
100
AcDbEntity
  8
0
  6
CONTINUOUS
100
AcDbLine
 10
179.5801701167859
 20
41.72822543171119
 30
0.0
 11
179.8431674463859
 21
41.7465580445112
 31
0.0
  0
LINE
  5
B38
330
2
100
AcDbEntity
  8
0
  6
CONTINUOUS
100
AcDbLine
 10
180.6757582223859
 20
41.80817898371119
 30
0.0
 11
181.0660889087859
 21
41.83851214691119
 31
0.0
  0
LINE
  5
B39
330
2
100
AcDbEntity
  8
0
  6
CONTINUOUS
100
AcDbLine
 10
181.7774473343859
 20
41.89449821411119
 30
0.0
 11
182.2037057599859
 21
41.92752851491118
 31
0.0
  0
LINE
  5
B3A
330
2
100
AcDbEntity
  8
0
  6
CONTINUOUS
100
AcDbLine
 10
181.0660889087859
 20
41.83851214691119
 30
0.0
 11
181.7774473343859
 21
41.89449821411119
 31
0.0
  0
LWPOLYLINE
  5
B3B
330
2
100
AcDbEntity
  8
0
  6
DASHED
100
AcDbPolyline
 90
       47
 70
     0
 43
0.0
 10
175.4824706415859
 20
43.79335991011117
 10
175.5249527103859
 20
43.79396705251119
 10
175.5656229503859
 20
43.79432765891118
 10
175.6044351807859
 20
43.79445378531116
 10
175.6414507439858
 20
43.79435718531119
 10
175.6766638431859
 20
43.7940482637112
 10
175.7101198991859
 20
43.79353597411119
 10
175.7417814255859
 20
43.79282953891117
 10
175.7717038831859
 20
43.79193551171119
 10
175.7998617055859
 20
43.79086141411116
 10
175.8262611711859
 20
43.7896131965112
 10
175.8509194159859
 20
43.78819495811121
 10
175.8737943343859
 20
43.78661326531118
 10
175.8949116143859
 20
43.78486923811118
 10
175.9142168527859
 20
43.78296895331118
 10
175.9229631247859
 20
43.78198718211118
 10
175.9316986719859
 20
43.78091408931118
 10
175.9395182607859
 20
43.77986177411119
 10
175.9473233151859
 20
43.77870707491118
 10
175.9541877375859
 20
43.77758833411118
 10
175.9610323359859
 20
43.7763532845112
 10
175.9669311967859
 20
43.77517064131118
 10
175.9728005055859
 20
43.77385139971116
 10
175.9776984111859
 20
43.77261029731118
 10
175.9825539823859
 20
43.77120819171119
 10
175.9864383887859
 20
43.76991831171119
 10
175.9902454431859
 20
43.76842335331119
 10
175.9930847583859
 20
43.76708366371116
 10
175.9958038367859
 20
43.76550157571119
 10
175.9970457919859
 20
43.7646232733112
 10
175.9981849967859
 20
43.76362174851118
 10
175.9991583695859
 20
43.76244830851118
 10
175.9997293855859
 20
43.76144942371118
 10
176.0001110383859
 20
43.7603734205112
 10
176.0002397551859
 20
43.75926441091118
 10
176.0000581599859
 20
43.7581066413112
 10
175.9996081519859
 20
43.7569940045112
 10
175.9989720879859
 20
43.75595932131119
 10
175.9978778623858
 20
43.75466170371118
 10
175.9966284431859
 20
43.75353719811122
 10
175.9952785951859
 20
43.75253461571119
 10
175.9922540575859
 20
43.75064665891119
 10
175.9890894575859
 20
43.74900146851118
 10
175.9847526031859
 20
43.74707374051118
 10
175.9803253919859
 20
43.74536355331119
 10
175.9746527215859
 20
43.74340941251119
 10
175.9689227391859
 20
43.74163228771118
  0
LINE
  5
B6C
330
2
100
AcDbEntity
  8
0
  6
CONTINUOUS
100
AcDbLine
 10
184.8552010463859
 20
43.51850767651121
 30
0.0
 11
184.7572049375859
 21
43.51970719651117
 31
0.0
  0
LINE
  5
B6D
330
2
100
AcDbEntity
  8
0
  6
CONTINUOUS
100
AcDbLine
 10
184.6776050751859
 20
43.52031228451119
 30
0.0
 11
184.6141492575859
 21
43.52042815011119
 31
0.0
  0
LINE
  5
B6E
330
2
100
AcDbEntity
  8
0
  6
CONTINUOUS
100
AcDbLine
 10
184.7572049375859
 20
43.51970719651117
 30
0.0
 11
184.6776050751859
 21
43.52031228451119
 31
0.0
  0
LINE
  5
B6F
330
2
100
AcDbEntity
  8
0
  6
CONTINUOUS
100
AcDbLine
 10
184.9745070527859
 20
43.5164153645112
 30
0.0
 11
184.8552010463859
 21
43.51850767651121
 31
0.0
  0
LWPOLYLINE
  5
B70
330
2
100
AcDbEntity
  8
0
  6
CONTINUOUS
100
AcDbPolyline
 90
        8
 70
     0
 43
0.0
 10
185.5957922575859
 20
43.49132878531119
 10
185.4835022847859
 20
43.49770696131119
 10
185.3802503279859
 20
43.50285903011118
 10
185.2852419375859
 20
43.50699226691119
 10
185.1977637695859
 20
43.51027976931118
 10
185.1171722175859
 20
43.5128662845112
 10
185.0428837951858
 20
43.5148730045112
 10
184.9745070527859
 20
43.5164153645112
  0
LWPOLYLINE
  5
B7A
330
2
100
AcDbEntity
  8
0
  6
HIDDEN
100
AcDbPolyline
 90
        3
 70
     0
 43
0.0
 10
185.9361173215859
 20
44.7619071645112
 10
187.7958631359859
 20
44.81073041571116
 10
188.5764968783859
 20
44.8313140493112
  0
LINE
  5
B7F
330
2
100
AcDbEntity
  8
0
  6
CONTINUOUS
100
AcDbLine
 10
183.4374709599859
 20
44.6929135725112
 30
0.0
 11
187.4174941551859
 21
44.7970408397112
 31
0.0
  0
LWPOLYLINE
  5
B80
330
2
100
AcDbEntity
  8
0
  6
CONTINUOUS
100
AcDbPolyline
 90
        3
 70
     0
 43
0.0
 10
188.9385144799859
 20
44.82922090691118
 10
188.9998277567859
 20
44.83198979171118
 10
189.1410793967859
 20
44.83781528931118
  0
LWPOLYLINE
  5
B85
330
2
100
AcDbEntity
  8
0
  6
HIDDEN
100
AcDbPolyline
 90
        3
 70
     0
 43
0.0
 10
188.9385360447858
 20
44.8328876589112
 10
189.0089054207859
 20
44.8360131229112
 10
189.2695622351858
 20
44.8464123981112
  0
LINE
  5
B8A
330
2
100
AcDbEntity
  8
0
  6
HIDDEN
100
AcDbLine
 10
188.5764968783859
 20
44.8313140493112
 30
0.0
 11
188.5920380415859
 21
44.83160858531118
 31
0.0
  0
LWPOLYLINE
  5
B8B
330
2
100
AcDbEntity
  8
0
  6
HIDDEN
100
AcDbPolyline
 90
        4
 70
     0
 43
0.0
 10
188.9385360447858
 20
44.8328876589112
 10
188.9287230303859
 20
44.83332133891116
 10
188.9190650511859
 20
44.8335894221112
 10
188.9095827743859
 20
44.83365870851119
  0
LINE
  5
B91
330
2
100
AcDbEntity
  8
0
  6
HIDDEN
100
AcDbLine
 10
188.6223796639859
 20
44.83203449891118
 30
0.0
 11
188.6899624079859
 21
44.83268822051118
 31
0.0
  0
LINE
  5
B92
330
2
100
AcDbEntity
  8
0
  6
HIDDEN
100
AcDbLine
 10
188.6899624079859
 20
44.83268822051118
 30
0.0
 11
188.9095827743859
 21
44.83365870851119
 31
0.0
  0
LINE
  5
B93
330
2
100
AcDbEntity
  8
0
  6
CONTINUOUS
100
AcDbLine
 10
188.7924184511859
 20
44.8295634957112
 30
0.0
 11
188.9095395919859
 21
44.82998656931118
 31
0.0
  0
LWPOLYLINE
  5
B94
330
2
100
AcDbEntity
  8
0
  6
CONTINUOUS
100
AcDbPolyline
 90
        3
 70
     0
 43
0.0
 10
188.9385144799859
 20
44.82922090691118
 10
188.9238438399859
 20
44.8298070685112
 10
188.9095395919859
 20
44.82998656931118
  0
LINE
  5
B99
330
2
100
AcDbEntity
  8
0
  6
HIDDEN
100
AcDbLine
 10
188.5920380415859
 20
44.83160858531118
 30
0.0
 11
188.6223796639859
 21
44.83203449891118
 31
0.0
  0
LINE
  5
B9A
330
2
100
AcDbEntity
  8
0
  6
CONTINUOUS
100
AcDbLine
 10
187.4174941551859
 20
44.7970408397112
 30
0.0
 11
188.5699893407859
 21
44.82746275171118
 31
0.0
  0
LINE
  5
B9B
330
2
100
AcDbEntity
  8
0
  6
CONTINUOUS
100
AcDbLine
 10
189.1410793967859
 20
44.83781528931118
 30
0.0
 11
189.3091158207859
 21
44.8443064061112
 31
0.0
  0
LWPOLYLINE
  5
B9C
330
2
100
AcDbEntity
  8
0
  6
CONTINUOUS
100
AcDbPolyline
 90
       41
 70
     0
 43
0.0
 10
192.2888199935859
 20
39.84540070371119
 10
192.3724531183859
 20
39.75441679971117
 10
192.4542421823859
 20
39.6620465405112
 10
192.5340113279859
 20
39.56852835971119
 10
192.6117023679859
 20
39.47394173251117
 10
192.6877277743859
 20
39.37773028611118
 10
192.7626176847859
 20
39.27917869411115
 10
192.8367304975859
 20
39.17780091651119
 10
192.9097376543859
 20
39.07402808771115
 10
192.9811388607859
 20
38.96852063171115
 10
193.0333332687859
 20
38.88868435171116
 10
193.0841220511859
 20
38.80873467331119
 10
193.1332843487859
 20
38.72916243651118
 10
193.1805993023859
 20
38.6504584829112
 10
193.2258858671859
 20
38.5730627405112
 10
193.2691222671859
 20
38.49721149091115
 10
193.3103265487859
 20
38.42309010531119
 10
193.3495167535859
 20
38.35088395811115
 10
193.3867308191859
 20
38.28073099331115
 10
193.4220862703859
 20
38.21257946851119
 10
193.4557205279859
 20
38.1463302093112
 10
193.4877710111859
 20
38.08188405091115
 10
193.5183692063859
 20
38.01914115971115
 10
193.5476228527859
 20
37.95799906691115
 10
193.5756337551859
 20
37.89835464451115
 10
193.6025037151859
 20
37.84010475971115
 10
193.6367102159859
 20
37.76445964131116
 10
193.6691830335859
 20
37.69104805571117
 10
193.7000358383859
 20
37.61980769571119
 10
193.7293793967859
 20
37.5506720157112
 10
193.7573128575859
 20
37.48355753411115
 10
193.7839324671859
 20
37.41837652931119
 10
193.8093259167859
 20
37.3550557053112
 10
193.8335466703859
 20
37.29357946691115
 10
193.8566396447859
 20
37.23394664611118
 10
193.8786477295859
 20
37.17615795811116
 10
193.8996057215859
 20
37.12022167651119
 10
193.9195463983859
 20
37.0661479613112
 10
193.9385069823859
 20
37.01393301891119
 10
193.9565424911859
 20
36.96351723651119
 10
193.9900819823859
 20
36.8677667437112
  0
LWPOLYLINE
  5
BC7
330
2
100
AcDbEntity
  8
0
  6
CONTINUOUS
100
AcDbPolyline
 90
       33
 70
     0
 43
0.0
 10
197.8134594415859
 20
32.40420974051119
 10
197.8114356159859
 20
32.29555973891118
 10
197.8053691679859
 20
32.18782471011115
 10
197.7952879727859
 20
32.0815225469112
 10
197.7812480207859
 20
31.97717178691116
 10
197.7633317519859
 20
31.87527621571115
 10
197.7416337967859
 20
31.77627208451116
 10
197.7162147183859
 20
31.68041190211118
 10
197.6871182191859
 20
31.58794425891119
 10
197.6543176719859
 20
31.4989903597112
 10
197.6176613663858
 20
31.41352267651118
 10
197.5770070031859
 20
31.33174935651115
 10
197.5320900271859
 20
31.25380842531118
 10
197.4831074015859
 20
31.18066032291119
 10
197.4292490623859
 20
31.11180392451117
 10
197.3688166351859
 20
31.04629961571117
 10
197.3004982415859
 20
30.98429998051119
 10
197.2238464239859
 20
30.92635123171115
 10
197.1408133775859
 20
30.8729381805112
 10
197.0514726495859
 20
30.8212191181112
 10
196.9538077759859
 20
30.77009931331119
 10
196.8465781391859
 20
30.72041027971119
 10
196.7304010703859
 20
30.67350992931119
 10
196.6047822959859
 20
30.6297014541112
 10
196.4698017695859
 20
30.58878585251119
 10
196.3264075743859
 20
30.54976638531115
 10
196.1746749551859
 20
30.51000848931119
 10
196.0141264815859
 20
30.46481432931119
 10
195.8421642767859
 20
30.4055124733112
 10
195.6670128127859
 20
30.32289966371115
 10
195.4853814543859
 20
30.20788887011116
 10
195.2909056623859
 20
30.05467222691118
 10
195.1099935487859
 20
29.88485534211119
  0
LWPOLYLINE
  5
BEA
330
2
100
AcDbEntity
  8
0
  6
CONTINUOUS
100
AcDbPolyline
 90
       29
 70
     0
 43
0.0
 10
195.4651738831859
 20
32.40420974051119
 10
195.4647291359859
 20
32.33865325891119
 10
195.4633988367859
 20
32.27333281731119
 10
195.4611888991859
 20
32.20826588771117
 10
195.4581052383859
 20
32.14346994051115
 10
195.4541527407859
 20
32.07895079651118
 10
195.4493321983859
 20
32.01466769251115
 10
195.4436433743859
 20
31.9505682125112
 10
195.4370860319859
 20
31.88659994531119
 10
195.4296581935859
 20
31.8227109901112
 10
195.4213509087859
 20
31.75885150531115
 10
195.4121534815859
 20
31.69497215971119
 10
195.4020552191859
 20
31.6310236269112
 10
195.3910447647859
 20
31.56695957731119
 10
195.3791081023859
 20
31.50274570211115
 10
195.3662305535859
 20
31.43835068771119
 10
195.3523974399859
 20
31.37374322531115
 10
195.3375926527859
 20
31.3088900797112
 10
195.3217943583859
 20
31.24375031331115
 10
195.3049792927859
 20
31.17828106051115
 10
195.2871241951859
 20
31.11243945891115
 10
195.2682039839859
 20
31.04618185731115
 10
195.2481863231859
 20
30.9794614653112
 10
195.2270370591859
 20
30.9122306989112
 10
195.2047220367859
 20
30.84444198211119
 10
195.1812110911859
 20
30.77605972931115
 10
195.1564900079859
 20
30.70709633891115
 10
195.1305485599859
 20
30.63757620291116
 10
195.1033765183859
 20
30.5675237181112
  0
LWPOLYLINE
  5
C09
330
2
100
AcDbEntity
  8
0
  6
CONTINUOUS
100
AcDbPolyline
 90
        6
 70
     0
 43
0.0
 10
194.6450122079859
 20
29.34202920291119
 10
194.5521411423859
 20
29.22501641571119
 10
194.4593509775859
 20
29.1039585981112
 10
194.3766499967859
 20
28.9874088109112
 10
194.3054422367859
 20
28.8771551149112
 10
194.2453507007859
 20
28.7733461949112
  0
LWPOLYLINE
  5
C11
330
2
100
AcDbEntity
  8
0
  6
CONTINUOUS
100
AcDbPolyline
 90
       13
 70
     0
 43
0.0
 10
194.3278199407859
 20
29.01903470851115
 10
194.3204627615859
 20
28.99950027971115
 10
194.3132648335859
 20
28.97992387011118
 10
194.3062257343859
 20
28.9603048285112
 10
194.2993450383859
 20
28.94064250051119
 10
194.2926224895859
 20
28.92093671331119
 10
194.2860584831859
 20
28.90118921571115
 10
194.2796535871859
 20
28.88140223651117
 10
194.2734083631859
 20
28.86157800291115
 10
194.2673232207859
 20
28.84171825571115
 10
194.2613979631859
 20
28.82182278371115
 10
194.2556322367859
 20
28.80189089411115
 10
194.2147452207859
 20
28.65633129731119
  0
LWPOLYLINE
  5
C20
330
2
100
AcDbEntity
  8
0
  6
CONTINUOUS
100
AcDbPolyline
 90
        9
 70
     0
 43
0.0
 10
194.2147452207859
 20
28.65633129731119
 10
194.1781750895859
 20
28.53020047331119
 10
194.1405208815859
 20
28.40448205251115
 10
194.1020318415859
 20
28.2801414685112
 10
194.0824448063859
 20
28.21842028771115
 10
194.0624106607859
 20
28.15635082371119
 10
194.0416863727859
 20
28.09322800451118
 10
194.0200317951859
 20
28.0284198253112
 10
193.9892668847859
 20
27.93829435971119
  0
LINE
  5
C2B
330
2
100
AcDbEntity
  8
0
  6
CONTINUOUS
100
AcDbLine
 10
193.9892668847859
 20
27.93829435971119
 30
0.0
 11
193.9556732799859
 21
27.84245544771119
 31
0.0
  0
LWPOLYLINE
  5
C2C
330
2
100
AcDbEntity
  8
0
  6
CONTINUOUS
100
AcDbPolyline
 90
       20
 70
     0
 43
0.0
 10
195.1033764543859
 20
30.5675237421112
 10
195.0845139103859
 20
30.52039549251119
 10
195.0652483183859
 20
30.47342467011119
 10
195.0455834191858
 20
30.42660459011119
 10
195.0255242623859
 20
30.37993152451119
 10
195.0050811231859
 20
30.3334135389112
 10
194.9842655823859
 20
30.2870616541112
 10
194.9630890927859
 20
30.24088594051116
 10
194.9415625871859
 20
30.19489268771119
 10
194.9196968671859
 20
30.14908724131117
 10
194.8975027423859
 20
30.10347506851116
 10
194.8749910271859
 20
30.05806213891119
 10
194.8521725455859
 20
30.0128545437112
 10
194.8290569215859
 20
29.9678557325112
 10
194.8056490079859
 20
29.9230585901112
 10
194.7819524559859
 20
29.87845335971115
 10
194.7458740047859
 20
29.8118850013112
 10
194.7091641087859
 20
29.74569956451119
 10
194.6855096879859
 20
29.70382287491119
 10
194.6616037823859
 20
29.66207947491119
  0
LWPOLYLINE
  5
C42
330
2
100
AcDbEntity
  8
0
  6
CONTINUOUS
100
AcDbPolyline
 90
       19
 70
     0
 43
0.0
 10
194.5561188991859
 20
29.48415980931119
 10
194.5409763007859
 20
29.45900931971115
 10
194.5261274175859
 20
29.43377296771117
 10
194.5115708223859
 20
29.40845064451116
 10
194.4973050879859
 20
29.38304223651115
 10
194.4833287887859
 20
29.35754763171115
 10
194.4696404959859
 20
29.3319667181112
 10
194.4562391039859
 20
29.30629993571119
 10
194.4431247871859
 20
29.2805499213112
 10
194.4302980383859
 20
29.25471987011118
 10
194.4177593551859
 20
29.22881297091118
 10
194.4055092303859
 20
29.20283241571116
 10
194.3935481583859
 20
29.17678139651119
 10
194.3818763567859
 20
29.1506624557112
 10
194.3704929439859
 20
29.12447555811116
 10
194.3593967583859
 20
29.09822001731118
 10
194.3485866383859
 20
29.0718951517112
 10
194.3380614239859
 20
29.0455002749112
 10
194.3278199551859
 20
29.01903470371115
  0
LWPOLYLINE
  5
C57
330
2
100
AcDbEntity
  8
0
  6
CONTINUOUS
100
AcDbPolyline
 90
        8
 70
     0
 43
0.0
 10
195.1099793519859
 20
29.88478132131115
 10
195.0409076543859
 20
29.81277319491116
 10
194.9798223999859
 20
29.74560708451119
 10
194.9237843535859
 20
29.68119788451119
 10
194.8653276591859
 20
29.61178574691115
 10
194.8009679903859
 20
29.5340862701112
 10
194.7280875903859
 20
29.4448708733112
 10
194.6450122079859
 20
29.34202920291119
  0
LINE
  5
C61
330
2
100
AcDbEntity
  8
0
  6
CONTINUOUS
100
AcDbLine
 10
194.4931664575859
 20
29.3730069485112
 30
0.0
 11
194.5208959343859
 21
29.42281917891119
 31
0.0
  0
LINE
  5
C62
330
2
100
AcDbEntity
  8
0
  6
CONTINUOUS
100
AcDbLine
 10
194.5208959343859
 20
29.42281917891119
 30
0.0
 11
194.6220123151859
 21
29.5968510861112
 31
0.0
  0
LWPOLYLINE
  5
C63
330
2
100
AcDbEntity
  8
0
  6
CONTINUOUS
100
AcDbPolyline
 90
        3
 70
     0
 43
0.0
 10
194.6854580831859
 20
29.7015997693112
 10
194.6913679727859
 20
29.71171331811118
 10
194.6978986607859
 20
29.72316628451119
  0
LINE
  5
C68
330
2
100
AcDbEntity
  8
0
  6
CONTINUOUS
100
AcDbLine
 10
194.6220123151859
 20
29.5968510861112
 30
0.0
 11
194.6854622303859
 21
29.7015973453112
 31
0.0
  0
LWPOLYLINE
  5
C69
330
2
100
AcDbEntity
  8
0
  6
CONTINUOUS
100
AcDbPolyline
 90
       33
 70
     0
 43
0.0
 10
197.8134594415859
 20
32.40420974051119
 10
197.8114356159859
 20
32.5128597437112
 10
197.8053691679859
 20
32.62059477091119
 10
197.7952879727859
 20
32.72689693411115
 10
197.7812480207859
 20
32.8312476957112
 10
197.7633317519859
 20
32.9331432653112
 10
197.7416337967859
 20
33.03214739651119
 10
197.7162147183859
 20
33.12800757891119
 10
197.6871182191859
 20
33.22047522211116
 10
197.6543176719859
 20
33.30942912131115
 10
197.6176613663858
 20
33.3948968045112
 10
197.5770070031859
 20
33.4766701261112
 10
197.5320900271859
 20
33.5546110557112
 10
197.4831074015859
 20
33.62775915811119
 10
197.4292490623859
 20
33.6966155565112
 10
197.3688166351859
 20
33.76211986531117
 10
197.3004982415859
 20
33.82411950051116
 10
197.2238464239859
 20
33.8820682493112
 10
197.1408133775859
 20
33.93548130051115
 10
197.0514726495859
 20
33.98720036291115
 10
196.9538077759859
 20
34.03832016771116
 10
196.8465781391859
 20
34.08800920131119
 10
196.7304010703859
 20
34.13490955171119
 10
196.6047822959859
 20
34.17871802691115
 10
196.4698017695859
 20
34.21963362851119
 10
196.3264075743859
 20
34.25865309571119
 10
196.1746749551859
 20
34.29841099171119
 10
196.0141264815859
 20
34.34360515171118
 10
195.8421642767859
 20
34.40290700771118
 10
195.6670128127859
 20
34.4855198189112
 10
195.4853814543859
 20
34.60053061091119
 10
195.2909056623859
 20
34.7537472541112
 10
195.1099935487859
 20
34.92356414051119
  0
LWPOLYLINE
  5
C8C
330
2
100
AcDbEntity
  8
0
  6
CONTINUOUS
100
AcDbPolyline
 90
       20
 70
     0
 43
0.0
 10
194.6615347007859
 20
35.14645976771118
 10
194.6855047455859
 20
35.10460525251119
 10
194.7092227903859
 20
35.06261529571119
 10
194.7459530399859
 20
34.99639035331119
 10
194.7820482543859
 20
34.9297872477112
 10
194.8057528447859
 20
34.88516376291116
 10
194.8291655087859
 20
34.84035410531117
 10
194.8522819263859
 20
34.7953501357112
 10
194.8750968495859
 20
34.75014585411119
 10
194.8976013087859
 20
34.70474377571119
 10
194.9197854015859
 20
34.65914854851115
 10
194.9416391983859
 20
34.6133647101112
 10
194.9631526399859
 20
34.56739637091115
 10
194.9843156399859
 20
34.52124753411115
 10
195.0051180031859
 20
34.4749230077112
 10
195.0255491263859
 20
34.42843083491115
 10
195.0455983039859
 20
34.38177986211115
 10
195.0652559151859
 20
34.3349764605112
 10
195.0845166927859
 20
34.28801709251115
 10
195.1033764543859
 20
34.24089573891118
  0
LWPOLYLINE
  5
CA2
330
2
100
AcDbEntity
  8
0
  6
CONTINUOUS
100
AcDbPolyline
 90
       29
 70
     0
 43
0.0
 10
195.1033765183859
 20
34.24089576451118
 10
195.1305487199859
 20
34.17084285571116
 10
195.1564903007859
 20
34.10132234531118
 10
195.1812114895859
 20
34.03235862371118
 10
195.2047225151859
 20
33.96397607811115
 10
195.2270375967859
 20
33.89618710851115
 10
195.2481868991859
 20
33.82895613891119
 10
195.2682045743859
 20
33.7622356061112
 10
195.2871247743859
 20
33.6959779405112
 10
195.3049798399859
 20
33.6301363581112
 10
195.3217948527859
 20
33.56466719331115
 10
195.3375930863859
 20
33.4995275645112
 10
195.3523978095859
 20
33.4346745837112
 10
195.3662308639859
 20
33.37006729571115
 10
195.3791083567859
 20
33.3056724621112
 10
195.3910449679859
 20
33.24145876451118
 10
195.4020553791859
 20
33.17739489411119
 10
195.4121535999859
 20
33.1134465309112
 10
195.4213509935859
 20
33.0495673533112
 10
195.4296582511859
 20
32.9857080285112
 10
195.4370860655859
 20
32.92181922851119
 10
195.4436433903859
 20
32.8578511117112
 10
195.4493322015859
 20
32.7937517661112
 10
195.4541527359859
 20
32.72946876931115
 10
195.4581052287858
 20
32.66494969571116
 10
195.4611888911859
 20
32.60015377251116
 10
195.4633988319859
 20
32.53508682371119
 10
195.4647291343859
 20
32.46976632131119
 10
195.4651738831859
 20
32.40420974051119
  0
LWPOLYLINE
  5
CC1
330
2
100
AcDbEntity
  8
0
  6
CONTINUOUS
100
AcDbPolyline
 90
        9
 70
     0
 43
0.0
 10
194.0207809439859
 20
36.77777662051116
 10
194.0423791103859
 20
36.7130989309112
 10
194.0630418239859
 20
36.65012908771117
 10
194.0830101007859
 20
36.58823242851116
 10
194.1025284671859
 20
36.52669967811116
 10
194.1408793823859
 20
36.40275979811116
 10
194.1784058639859
 20
36.2774356781112
 10
194.2148571903859
 20
36.1516957677112
 10
194.2556322367859
 20
36.0065285885112
  0
LWPOLYLINE
  5
CCC
330
2
100
AcDbEntity
  8
0
  6
CONTINUOUS
100
AcDbPolyline
 90
        6
 70
     0
 43
0.0
 10
194.6450122079859
 20
35.46639027811116
 10
194.5521411423859
 20
35.58340306531118
 10
194.4593509775859
 20
35.70446088291117
 10
194.3766499967859
 20
35.82101067011118
 10
194.3054422367859
 20
35.93126436611118
 10
194.2453507007859
 20
36.03507328611115
  0
LWPOLYLINE
  5
CD4
330
2
100
AcDbEntity
  8
0
  6
CONTINUOUS
100
AcDbPolyline
 90
       12
 70
     0
 43
0.0
 10
194.2556322367859
 20
36.0065285885112
 10
194.2613979631859
 20
35.98659669731119
 10
194.2673232207859
 20
35.96670122691119
 10
194.2734083631859
 20
35.94684147811119
 10
194.2796535871859
 20
35.9270172445112
 10
194.2860584831859
 20
35.9072302653112
 10
194.2926224895859
 20
35.88748276771116
 10
194.2993450383859
 20
35.86777698051119
 10
194.3062257343859
 20
35.84811465251116
 10
194.3132648335859
 20
35.8284956109112
 10
194.3204627615859
 20
35.8089192013112
 10
194.3278199407859
 20
35.78938477251119
  0
LWPOLYLINE
  5
CE2
330
2
100
AcDbEntity
  8
0
  6
CONTINUOUS
100
AcDbPolyline
 90
        8
 70
     0
 43
0.0
 10
195.1099793519859
 20
34.9236381597112
 10
195.0409076543859
 20
34.99564628611119
 10
194.9798223999859
 20
35.06281239651116
 10
194.9237843535859
 20
35.12722159651116
 10
194.8653276591859
 20
35.1966337341112
 10
194.8009679903859
 20
35.27433321091115
 10
194.7280875903859
 20
35.36354860771115
 10
194.6450122079859
 20
35.46639027811116
  0
LINE
  5
CEC
330
2
100
AcDbEntity
  8
0
  6
CONTINUOUS
100
AcDbLine
 10
194.6854234015859
 20
35.10688541891116
 30
0.0
 11
194.6214035903859
 21
35.21258737091119
 31
0.0
  0
LINE
  5
CED
330
2
100
AcDbEntity
  8
0
  6
CONTINUOUS
100
AcDbLine
 10
194.6874573359859
 20
35.1034380845112
 30
0.0
 11
194.6853673119859
 21
35.10697504771119
 31
0.0
  0
LWPOLYLINE
  5
CEE
330
2
100
AcDbEntity
  8
0
  6
CONTINUOUS
100
AcDbPolyline
 90
        3
 70
     0
 43
0.0
 10
194.6214035903859
 20
35.21258737091119
 10
194.5206244239859
 20
35.38608286531115
 10
194.4931708191859
 20
35.43540460931117
  0
LWPOLYLINE
  5
CF3
330
2
100
AcDbEntity
  8
0
  6
CONTINUOUS
100
AcDbPolyline
 90
        3
 70
     0
 43
0.0
 10
194.6978986591859
 20
35.08525319811119
 10
194.6913675455859
 20
35.09670690371118
 10
194.6874573359859
 20
35.1034380845112
  0
LWPOLYLINE
  5
CF8
330
2
100
AcDbEntity
  8
0
  6
CONTINUOUS
100
AcDbPolyline
 90
       19
 70
     0
 43
0.0
 10
194.3278199551859
 20
35.78938477891119
 10
194.3380614207859
 20
35.76291921571117
 10
194.3485866319859
 20
35.73652434691115
 10
194.3593967487858
 20
35.71019948771118
 10
194.3704929311859
 20
35.6839439565112
 10
194.3818763391859
 20
35.65775706851118
 10
194.3935481327859
 20
35.6316381405112
 10
194.4055091983859
 20
35.6055871325112
 10
194.4177593151859
 20
35.57960659011115
 10
194.4302979919859
 20
35.5536997037112
 10
194.4431247343859
 20
35.52786966211115
 10
194.4562390463859
 20
35.50211965571119
 10
194.4696404367859
 20
35.47645287331119
 10
194.4833287327859
 20
35.45087195491118
 10
194.4973050367859
 20
35.4253773421112
 10
194.5115707743859
 20
35.3999689245112
 10
194.5261273727859
 20
35.37464659331115
 10
194.5409762559859
 20
35.3494102381112
 10
194.5561188495859
 20
35.32425975171119
  0
LINE
  5
D0D
330
2
100
AcDbEntity
  8
0
  6
CONTINUOUS
100
AcDbLine
 10
193.9900819823859
 20
36.8677667437112
 30
0.0
 11
194.0207809439859
 21
36.77777662051116
 31
0.0
  0
LWPOLYLINE
  5
D0E
330
2
100
AcDbEntity
  8
0
  6
CONTINUOUS
100
AcDbPolyline
 90
        4
 70
     0
 43
0.0
 10
192.8071283167859
 20
40.40420063811118
 10
192.8408909951859
 20
40.42354616131118
 10
192.8744077743859
 20
40.44248024611118
 10
192.9076229487858
 20
40.46097429251119
  0
LINE
  5
D14
330
2
100
AcDbEntity
  8
0
  6
CONTINUOUS
100
AcDbLine
 10
192.8071390527859
 20
40.40421014371119
 30
0.0
 11
192.7480729279859
 21
40.34419842211116
 31
0.0
  0
ARC
  5
D15
330
2
100
AcDbEntity
  8
0
  6
CONTINUOUS
100
AcDbCircle
 10
204.1595395919859
 20
45.90420974051119
 30
0.0
 40
0.25
100
AcDbArc
 50
0.000000000000007
 51
90.0
  0
ARC
  5
D16
330
2
100
AcDbEntity
  8
0
  6
CONTINUOUS
100
AcDbCircle
 10
204.1595395919859
 20
45.90420974051119
 30
0.0
 40
0.5
100
AcDbArc
 50
0.000000000000007
 51
90.0
  0
ENDSEC
  0
SECTION
  2
OBJECTS
  0
DICTIONARY
  5
1A
330
0
100
AcDbDictionary
  3
ACAD_GROUP
350
18
  3
ACAD_LAYOUT
350
D1A
  3
ACAD_MLINESTYLE
350
19
  3
ACAD_PLOTSETTINGS
350
D1B
  3
ACAD_PLOTSTYLENAME
350
D18
  3
ACDBHEADERROUNDTRIPXREC
350
D99
  3
ACDBVARIABLEDICTIONARY
350
D96
  0
DICTIONARY
  5
D44
330
2
100
AcDbDictionary
280
     1
  3
ACAD_LAYOUTSELFREF
360
DBA
  0
DICTIONARY
  5
D46
330
7
100
AcDbDictionary
280
     1
  3
ACAD_LAYOUTSELFREF
360
DBB
  0
DICTIONARY
  5
18
102
{ACAD_REACTORS
330
1A
102
}
330
1A
100
AcDbDictionary
  0
DICTIONARY
  5
D1A
102
{ACAD_REACTORS
330
1A
102
}
330
1A
100
AcDbDictionary
  0
DICTIONARY
  5
19
102
{ACAD_REACTORS
330
1A
102
}
330
1A
100
AcDbDictionary
  3
STANDARD
350
1B
  0
DICTIONARY
  5
D1B
102
{ACAD_REACTORS
330
1A
102
}
330
1A
100
AcDbDictionary
  0
ACDBDICTIONARYWDFLT
  5
D18
102
{ACAD_REACTORS
330
1A
102
}
330
1A
100
AcDbDictionary
281
     1
  3
Normal
350
D19
100
AcDbDictionaryWithDefault
340
D19
  0
DICTIONARY
  5
D99
102
{ACAD_REACTORS
330
1A
102
}
330
1A
100
AcDbDictionary
  3
CEPSNTYPE
350
DA3
  3
DIMSTYLEDATA
350
DA7
  3
FINGERPRINTGUID
350
DA4
  3
HYPERLINKBASE
350
D9C
  3
INSUNITS
350
DA2
  3
LAYOUTDICT
350
D9E
  3
LWETCUNION
350
DA1
  3
PLOTSETDICT
350
D9F
  3
PLOTSTYLNAMDICT
350
DA0
  3
PSVPSCALE
350
DA6
  3
PUCSBASE
350
DAA
  3
PUCSORGBACK
350
DB0
  3
PUCSORGBOTTOM
350
DAC
  3
PUCSORGFRONT
350
DAF
  3
PUCSORGLEFT
350
DAD
  3
PUCSORGRIGHT
350
DAE
  3
PUCSORGTOP
350
DAB
  3
PUCSORTHOREF
350
DA8
  3
PUCSORTHOVIEW
350
DA9
  3
STYLESHEET
350
D9D
  3
TSTACKALIGN
350
D9A
  3
TSTACKSIZE
350
D9B
  3
UCSBASE
350
DB3
  3
UCSORGBACK
350
DB9
  3
UCSORGBOTTOM
350
DB5
  3
UCSORGFRONT
350
DB8
  3
UCSORGLEFT
350
DB6
  3
UCSORGRIGHT
350
DB7
  3
UCSORGTOP
350
DB4
  3
UCSORTHOREF
350
DB1
  3
UCSORTHOVIEW
350
DB2
  3
VERSIONGUID
350
DA5
  0
DICTIONARY
  5
D96
102
{ACAD_REACTORS
330
1A
102
}
330
1A
100
AcDbDictionary
  3
DIMASSOC
350
D97
  0
XRECORD
  5
DBA
102
{ACAD_REACTORS
330
D44
102
}
330
D44
100
AcDbXrecord
340
2
  0
XRECORD
  5
DBB
102
{ACAD_REACTORS
330
D46
102
}
330
D46
100
AcDbXrecord
340
7
  0
MLINESTYLE
  5
1B
102
{ACAD_REACTORS
330
19
102
}
330
19
100
AcDbMlineStyle
  2
STANDARD
 70
     0
  3

 62
   256
 51
90.0
 52
90.0
 71
     2
 49
0.5
 62
   256
  6
BYLAYER
 49
-0.5
 62
   256
  6
BYLAYER
  0
ACDBPLACEHOLDER
  5
D19
102
{ACAD_REACTORS
330
D18
102
}
330
D18
100
AcDbPlaceHolder
280
     0
  0
XRECORD
  5
DA3
102
{ACAD_REACTORS
330
D99
102
}
330
D99
100
AcDbXrecord
 90
        0
  0
XRECORD
  5
DA7
102
{ACAD_REACTORS
330
D99
102
}
330
D99
100
AcDbXrecord
1000
DSTYLE
1002
{
1070
   341
340
1D
1070
   342
340
1D
1002
}
  0
XRECORD
  5
DA4
102
{ACAD_REACTORS
330
D99
102
}
330
D99
100
AcDbXrecord
  1
{39A29CDF-FDB2-440A-8E70-EA8409B6CBDA}
  0
XRECORD
  5
D9C
102
{ACAD_REACTORS
330
D99
102
}
330
D99
100
AcDbXrecord
  1

  0
XRECORD
  5
DA2
102
{ACAD_REACTORS
330
D99
102
}
330
D99
100
AcDbXrecord
 90
        0
  0
XRECORD
  5
D9E
102
{ACAD_REACTORS
330
D99
102
}
330
D99
100
AcDbXrecord
340
D1A
  0
XRECORD
  5
DA1
102
{ACAD_REACTORS
330
D99
102
}
330
D99
100
AcDbXrecord
 90
    14877
  0
XRECORD
  5
D9F
102
{ACAD_REACTORS
330
D99
102
}
330
D99
100
AcDbXrecord
340
D1B
  0
XRECORD
  5
DA0
102
{ACAD_REACTORS
330
D99
102
}
330
D99
100
AcDbXrecord
340
D18
  0
XRECORD
  5
DA6
102
{ACAD_REACTORS
330
D99
102
}
330
D99
100
AcDbXrecord
 40
0.0
  0
XRECORD
  5
DAA
102
{ACAD_REACTORS
330
D99
102
}
330
D99
100
AcDbXrecord
340
0
  0
XRECORD
  5
DB0
102
{ACAD_REACTORS
330
D99
102
}
330
D99
100
AcDbXrecord
 10
0.0
 20
0.0
 30
0.0
  0
XRECORD
  5
DAC
102
{ACAD_REACTORS
330
D99
102
}
330
D99
100
AcDbXrecord
 10
0.0
 20
0.0
 30
0.0
  0
XRECORD
  5
DAF
102
{ACAD_REACTORS
330
D99
102
}
330
D99
100
AcDbXrecord
 10
0.0
 20
0.0
 30
0.0
  0
XRECORD
  5
DAD
102
{ACAD_REACTORS
330
D99
102
}
330
D99
100
AcDbXrecord
 10
0.0
 20
0.0
 30
0.0
  0
XRECORD
  5
DAE
102
{ACAD_REACTORS
330
D99
102
}
330
D99
100
AcDbXrecord
 10
0.0
 20
0.0
 30
0.0
  0
XRECORD
  5
DAB
102
{ACAD_REACTORS
330
D99
102
}
330
D99
100
AcDbXrecord
 10
0.0
 20
0.0
 30
0.0
  0
XRECORD
  5
DA8
102
{ACAD_REACTORS
330
D99
102
}
330
D99
100
AcDbXrecord
340
0
  0
XRECORD
  5
DA9
102
{ACAD_REACTORS
330
D99
102
}
330
D99
100
AcDbXrecord
 70
     0
  0
XRECORD
  5
D9D
102
{ACAD_REACTORS
330
D99
102
}
330
D99
100
AcDbXrecord
  1

  0
XRECORD
  5
D9A
102
{ACAD_REACTORS
330
D99
102
}
330
D99
100
AcDbXrecord
 90
        1
  0
XRECORD
  5
D9B
102
{ACAD_REACTORS
330
D99
102
}
330
D99
100
AcDbXrecord
 90
       70
  0
XRECORD
  5
DB3
102
{ACAD_REACTORS
330
D99
102
}
330
D99
100
AcDbXrecord
340
0
  0
XRECORD
  5
DB9
102
{ACAD_REACTORS
330
D99
102
}
330
D99
100
AcDbXrecord
 10
0.0
 20
0.0
 30
0.0
  0
XRECORD
  5
DB5
102
{ACAD_REACTORS
330
D99
102
}
330
D99
100
AcDbXrecord
 10
0.0
 20
0.0
 30
0.0
  0
XRECORD
  5
DB8
102
{ACAD_REACTORS
330
D99
102
}
330
D99
100
AcDbXrecord
 10
0.0
 20
0.0
 30
0.0
  0
XRECORD
  5
DB6
102
{ACAD_REACTORS
330
D99
102
}
330
D99
100
AcDbXrecord
 10
0.0
 20
0.0
 30
0.0
  0
XRECORD
  5
DB7
102
{ACAD_REACTORS
330
D99
102
}
330
D99
100
AcDbXrecord
 10
0.0
 20
0.0
 30
0.0
  0
XRECORD
  5
DB4
102
{ACAD_REACTORS
330
D99
102
}
330
D99
100
AcDbXrecord
 10
0.0
 20
0.0
 30
0.0
  0
XRECORD
  5
DB1
102
{ACAD_REACTORS
330
D99
102
}
330
D99
100
AcDbXrecord
340
0
  0
XRECORD
  5
DB2
102
{ACAD_REACTORS
330
D99
102
}
330
D99
100
AcDbXrecord
 70
     0
  0
XRECORD
  5
DA5
102
{ACAD_REACTORS
330
D99
102
}
330
D99
100
AcDbXrecord
  1
{E0DCE4AB-A5B3-4407-BD23-571124D06BFF}
  0
DICTIONARYVAR
  5
D97
102
{ACAD_REACTORS
330
D96
102
}
330
D96
100
DictionaryVariables
280
     0
  1
1
  0
ENDSEC
  0
EOF
