  0
SECTION
  2
HEADER
  9
$ACADVER
  1
AC1014
  9
$ACADMAINTVER
 70
     9
  9
$DWGCODEPAGE
  3
ANSI_1252
  9
$INSBASE
 10
0.0
 20
0.0
 30
0.0
  9
$EXTMIN
 10
16.27476167172074
 20
6.404448606300575
 30
0.0
  9
$EXTMAX
 10
164.1081138380924
 20
65.63005906916692
 30
0.0
  9
$LIMMIN
 10
0.0
 20
0.0
  9
$LIMMAX
 10
17.0
 20
11.0
  9
$ORTHOMODE
 70
     0
  9
$REGENMODE
 70
     1
  9
$FILLMODE
 70
     1
  9
$QTEXTMODE
 70
     0
  9
$MIRRTEXT
 70
     1
  9
$DRAGMODE
 70
     2
  9
$LTSCALE
 40
0.9350000000000001
  9
$OSMODE
 70
  3071
  9
$ATTMODE
 70
     1
  9
$TEXTSIZE
 40
0.2
  9
$TRACEWID
 40
0.05
  9
$TEXTSTYLE
  7
STANDARD
  9
$CLAYER
  8
0
  9
$CELTYPE
  6
BYLAYER
  9
$CECOLOR
 62
   256
  9
$CELTSCALE
 40
1.0
  9
$DELOBJ
 70
     1
  9
$DISPSILH
 70
     0
  9
$DIMSCALE
 40
1.0
  9
$DIMASZ
 40
0.1875
  9
$DIMEXO
 40
0.10625
  9
$DIMDLI
 40
0.646
  9
$DIMRND
 40
0.0
  9
$DIMDLE
 40
0.0
  9
$DIMEXE
 40
0.306
  9
$DIMTP
 40
0.0
  9
$DIMTM
 40
0.0
  9
$DIMTXT
 40
0.125
  9
$DIMCEN
 40
0.153
  9
$DIMTSZ
 40
0.0
  9
$DIMTOL
 70
     0
  9
$DIMLIM
 70
     0
  9
$DIMTIH
 70
     1
  9
$DIMTOH
 70
     1
  9
$DIMSE1
 70
     0
  9
$DIMSE2
 70
     0
  9
$DIMTAD
 70
     0
  9
$DIMZIN
 70
     0
  9
$DIMBLK
  1
_FILLED
  9
$DIMASO
 70
     1
  9
$DIMSHO
 70
     1
  9
$DIMPOST
  1

  9
$DIMAPOST
  1

  9
$DIMALT
 70
     0
  9
$DIMALTD
 70
     2
  9
$DIMALTF
 40
25.4
  9
$DIMLFAC
 40
1.0
  9
$DIMTOFL
 70
     0
  9
$DIMTVP
 40
0.0
  9
$DIMTIX
 70
     0
  9
$DIMSOXD
 70
     0
  9
$DIMSAH
 70
     0
  9
$DIMBLK1
  1

  9
$DIMBLK2
  1

  9
$DIMSTYLE
  2
STANDARD
  9
$DIMCLRD
 70
     0
  9
$DIMCLRE
 70
     0
  9
$DIMCLRT
 70
     0
  9
$DIMTFAC
 40
1.0
  9
$DIMGAP
 40
0.09
  9
$DIMJUST
 70
     0
  9
$DIMSD1
 70
     0
  9
$DIMSD2
 70
     0
  9
$DIMTOLJ
 70
     1
  9
$DIMTZIN
 70
     0
  9
$DIMALTZ
 70
     0
  9
$DIMALTTZ
 70
     0
  9
$DIMFIT
 70
     3
  9
$DIMUPT
 70
     0
  9
$DIMUNIT
 70
     2
  9
$DIMDEC
 70
     4
  9
$DIMTDEC
 70
     4
  9
$DIMALTU
 70
     2
  9
$DIMALTTD
 70
     2
  9
$DIMTXSTY
  7
STANDARD
  9
$DIMAUNIT
 70
     0
  9
$LUNITS
 70
     2
  9
$LUPREC
 70
     4
  9
$SKETCHINC
 40
0.1
  9
$FILLETRAD
 40
0.0
  9
$AUNITS
 70
     0
  9
$AUPREC
 70
     0
  9
$MENU
  1
acad
  9
$ELEVATION
 40
0.0
  9
$PELEVATION
 40
0.0
  9
$THICKNESS
 40
0.0
  9
$LIMCHECK
 70
     0
  9
$BLIPMODE
 70
     0
  9
$CHAMFERA
 40
0.0
  9
$CHAMFERB
 40
0.0
  9
$CHAMFERC
 40
0.0
  9
$CHAMFERD
 40
0.0
  9
$SKPOLY
 70
     0
  9
$TDCREATE
 40
2453899.661560440
  9
$TDUPDATE
 40
2453899.694837534
  9
$TDINDWG
 40
0.0332841435
  9
$TDUSRTIMER
 40
0.0332841435
  9
$USRTIMER
 70
     1
  9
$ANGBASE
 50
0.0
  9
$ANGDIR
 70
     0
  9
$PDMODE
 70
     3
  9
$PDSIZE
 40
0.03125
  9
$PLINEWID
 40
0.0
  9
$COORDS
 70
     1
  9
$SPLFRAME
 70
     0
  9
$SPLINETYPE
 70
     6
  9
$SPLINESEGS
 70
     8
  9
$ATTDIA
 70
     0
  9
$ATTREQ
 70
     1
  9
$HANDLING
 70
-16383
  9
$HANDSEED
  5
1265
  9
$SURFTAB1
 70
     6
  9
$SURFTAB2
 70
     6
  9
$SURFTYPE
 70
     6
  9
$SURFU
 70
     6
  9
$SURFV
 70
     6
  9
$UCSNAME
  2

  9
$UCSORG
 10
0.0
 20
0.0
 30
0.0
  9
$UCSXDIR
 10
1.0
 20
0.0
 30
0.0
  9
$UCSYDIR
 10
0.0
 20
1.0
 30
0.0
  9
$PUCSNAME
  2

  9
$PUCSORG
 10
0.0
 20
0.0
 30
0.0
  9
$PUCSXDIR
 10
1.0
 20
0.0
 30
0.0
  9
$PUCSYDIR
 10
0.0
 20
1.0
 30
0.0
  9
$USERI1
 70
     0
  9
$USERI2
 70
     0
  9
$USERI3
 70
     0
  9
$USERI4
 70
     0
  9
$USERI5
 70
     0
  9
$USERR1
 40
0.0
  9
$USERR2
 40
0.0
  9
$USERR3
 40
0.0
  9
$USERR4
 40
0.0
  9
$USERR5
 40
0.0
  9
$WORLDVIEW
 70
     1
  9
$SHADEDGE
 70
     3
  9
$SHADEDIF
 70
    70
  9
$TILEMODE
 70
     1
  9
$MAXACTVP
 70
    16
  9
$PINSBASE
 10
0.0
 20
0.0
 30
0.0
  9
$PLIMCHECK
 70
     0
  9
$PEXTMIN
 10
1.000000000000000E+20
 20
1.000000000000000E+20
 30
1.000000000000000E+20
  9
$PEXTMAX
 10
-1.000000000000000E+20
 20
-1.000000000000000E+20
 30
-1.000000000000000E+20
  9
$PLIMMIN
 10
0.0
 20
0.0
  9
$PLIMMAX
 10
12.0
 20
9.0
  9
$UNITMODE
 70
     0
  9
$VISRETAIN
 70
     0
  9
$PLINEGEN
 70
     1
  9
$PSLTSCALE
 70
     0
  9
$TREEDEPTH
 70
  3020
  9
$PICKSTYLE
 70
     1
  9
$CMLSTYLE
  2
STANDARD
  9
$CMLJUST
 70
     0
  9
$CMLSCALE
 40
1.0
  9
$PROXYGRAPHICS
 70
     0
  9
$MEASUREMENT
 70
     0
  0
ENDSEC
  0
SECTION
  2
CLASSES
  0
CLASS
  1
ACDBDICTIONARYWDFLT
  2
AcDbDictionaryWithDefault
  3
AutoCAD 2000
 90
        0
280
     0
281
     0
  0
CLASS
  1
ACDBPLACEHOLDER
  2
AcDbPlaceHolder
  3
AutoCAD 2000
 90
        0
280
     0
281
     0
  0
CLASS
  1
LAYOUT
  2
AcDbLayout
  3
AutoCAD 2000
 90
        0
280
     0
281
     0
  0
CLASS
  1
LWPOLYLINE
  2
AcDbPolyline
  3
AutoCAD 2000
 90
        0
280
     0
281
     1
  0
CLASS
  1
IMAGE
  2
AcDbRasterImage
  3
ISM
 90
      127
280
     0
281
     1
  0
CLASS
  1
OLE2FRAME
  2
AcDbOle2Frame
  3
AutoCAD 2000
 90
        0
280
     0
281
     1
  0
CLASS
  1
HATCH
  2
AcDbHatch
  3
AutoCAD 2000
 90
        0
280
     0
281
     1
  0
CLASS
  1
DICTIONARYVAR
  2
AcDbDictionaryVar
  3
AutoCAD 2000
 90
        0
280
     0
281
     0
  0
CLASS
  1
RASTERVARIABLES
  2
AcDbRasterVariables
  3
ISM
 90
        0
280
     0
281
     0
  0
CLASS
  1
IMAGEDEF
  2
AcDbRasterImageDef
  3
ISM
 90
        0
280
     0
281
     0
  0
CLASS
  1
IMAGEDEF_REACTOR
  2
AcDbRasterImageDefReactor
  3
ISM
 90
        1
280
     0
281
     0
  0
CLASS
  1
IDBUFFER
  2
AcDbIdBuffer
  3
AutoCAD 2000
 90
        0
280
     0
281
     0
  0
CLASS
  1
SPATIAL_FILTER
  2
AcDbSpatialFilter
  3
AutoCAD 2000
 90
        0
280
     0
281
     0
  0
CLASS
  1
XRECORD
  2
AcDbXrecord
  3
AutoCAD 2000
 90
        0
280
     0
281
     0
  0
CLASS
  1
SORTENTSTABLE
  2
AcDbSortentsTable
  3
AutoCAD 2000
 90
        0
280
     0
281
     0
  0
CLASS
  1
LAYER_INDEX
  2
AcDbLayerIndex
  3
AutoCAD 2000
 90
        0
280
     0
281
     0
  0
CLASS
  1
SPATIAL_INDEX
  2
AcDbSpatialIndex
  3
AutoCAD 2000
 90
        0
280
     0
281
     0
  0
CLASS
  1
OBJECT_PTR
  2
CAseDLPNTableRecord
  3
ASE-LPNTableRecord
 90
        1
280
     0
281
     0
  0
CLASS
  1
PLOTSETTINGS
  2
AcDbPlotSettings
  3
AutoCAD 2000
 90
        0
280
     0
281
     0
  0
CLASS
  1
VBA_PROJECT
  2
AcDbVbaProject
  3
acadvba
 90
        0
280
     0
281
     0
  0
CLASS
  1
WIPEOUT
  2
AcDbWipeout
  3
WipeOut|AutoCAD Express Tool|expresstools@autodesk.com
 90
      127
280
     0
281
     1
  0
CLASS
  1
WIPEOUTVARIABLES
  2
AcDbWipeoutVariables
  3
WipeOut|AutoCAD Express Tool|expresstools@autodesk.com
 90
        0
280
     0
281
     0
  0
CLASS
  1
RTEXT
  2
RText
  3
RText|AutoCAD Express Tool|expresstools@autodesk.com
 90
        0
280
     0
281
     1
  0
CLASS
  1
ARCALIGNEDTEXT
  2
AcDbArcAlignedText
  3
ATEXT|AutoCAD Express Tool|expresstools@autodesk.com
 90
        0
280
     0
281
     1
  0
CLASS
  1
LONG_TRANSACTION
  2
AcDbLongTransaction
  3
AutoCAD 2000
 90
        0
280
     0
281
     0
  0
CLASS
  1
LWPOLYLINE
  2
AcDbPolyline
  3
AutoCAD 2000
 90
        0
280
     0
281
     1
  0
CLASS
  1
HATCH
  2
AcDbHatch
  3
AutoCAD 2000
 90
        0
280
     0
281
     1
  0
CLASS
  1
XRECORD
  2
AcDbXrecord
  3
AutoCAD 2000
 90
        0
280
     0
281
     0
  0
ENDSEC
  0
SECTION
  2
TABLES
  0
TABLE
  2
VPORT
  5
8
330
0
100
AcDbSymbolTable
 70
     7
  0
VPORT
  5
123F
330
8
100
AcDbSymbolTableRecord
100
AcDbViewportTableRecord
  2
*ACTIVE
 70
     0
 10
0.0
 20
0.0
 11
1.0
 21
1.0
 12
96.36258719670204
 22
55.37353569677968
 13
0.0
 23
0.0
 14
1.0
 24
1.0
 15
0.0
 25
0.0
 16
0.0
 26
0.0
 36
1.0
 17
0.0
 27
0.0
 37
0.0
 40
100.6735645702818
 41
1.877227722772277
 42
50.0
 43
0.0
 44
0.0
 50
0.0
 51
0.0
 71
     0
 72
   100
 73
     1
 74
     1
 75
     0
 76
     0
 77
     0
 78
     0
  0
ENDTAB
  0
TABLE
  2
LTYPE
  5
5
330
0
100
AcDbSymbolTable
 70
     8
  0
LTYPE
  5
14
330
5
100
AcDbSymbolTableRecord
100
AcDbLinetypeTableRecord
  2
BYBLOCK
 70
     0
  3

 72
    65
 73
     0
 40
0.0
  0
LTYPE
  5
15
330
5
100
AcDbSymbolTableRecord
100
AcDbLinetypeTableRecord
  2
BYLAYER
 70
     0
  3

 72
    65
 73
     0
 40
0.0
  0
LTYPE
  5
16
330
5
100
AcDbSymbolTableRecord
100
AcDbLinetypeTableRecord
  2
CONTINUOUS
 70
     0
  3
Solid line
 72
    65
 73
     0
 40
0.0
  0
LTYPE
  5
1205
330
5
100
AcDbSymbolTableRecord
100
AcDbLinetypeTableRecord
  2
CENTERX2
 70
     0
  3
Center (2x) ________  __  ________  __  _____
 72
    65
 73
     4
 40
4.0
 49
2.5
 74
     0
 49
-0.5
 74
     0
 49
0.5
 74
     0
 49
-0.5
 74
     0
  0
LTYPE
  5
1209
330
5
100
AcDbSymbolTableRecord
100
AcDbLinetypeTableRecord
  2
HIDDEN
 70
     0
  3
Hidden __ __ __ __ __ __ __ __ __ __ __ __ __ _
 72
    65
 73
     2
 40
0.375
 49
0.25
 74
     0
 49
-0.125
 74
     0
  0
ENDTAB
  0
TABLE
  2
LAYER
  5
2
330
0
100
AcDbSymbolTable
 70
    25
  0
LAYER
  5
10
330
2
100
AcDbSymbolTableRecord
100
AcDbLayerTableRecord
  2
0
 70
     0
 62
     7
  6
CONTINUOUS
  0
LAYER
  5
11E3
330
2
100
AcDbSymbolTableRecord
100
AcDbLayerTableRecord
  2
DEFPOINTS
 70
     0
 62
     7
  6
CONTINUOUS
  0
LAYER
  5
1206
330
2
100
AcDbSymbolTableRecord
100
AcDbLayerTableRecord
  2
CENTER
 70
     0
 62
     1
  6
CENTERX2
  0
ENDTAB
  0
TABLE
  2
STYLE
  5
3
330
0
100
AcDbSymbolTable
 70
     6
  0
STYLE
  5
11
330
3
100
AcDbSymbolTableRecord
100
AcDbTextStyleTableRecord
  2
STANDARD
 70
     0
 40
0.0
 41
0.8
 50
0.0
 71
     0
 42
0.2
  3
txt
  4

  0
STYLE
  5
210
330
3
100
AcDbSymbolTableRecord
100
AcDbTextStyleTableRecord
  2
TEXTSTYLE_1
 70
     0
 40
0.0
 41
0.8
 50
0.0
 71
     0
 42
0.2
  3
txt
  4

  0
STYLE
  5
1204
330
3
100
AcDbSymbolTableRecord
100
AcDbTextStyleTableRecord
  2

 70
     1
 40
0.0
 41
1.0
 50
0.0
 71
     0
 42
0.2
  3
ltypeshp.shx
  4

  0
ENDTAB
  0
TABLE
  2
VIEW
  5
6
330
0
100
AcDbSymbolTable
 70
     0
  0
ENDTAB
  0
TABLE
  2
UCS
  5
7
330
0
100
AcDbSymbolTable
 70
     0
  0
ENDTAB
  0
TABLE
  2
APPID
  5
9
330
0
100
AcDbSymbolTable
 70
     2
  0
APPID
  5
214
330
9
100
AcDbSymbolTableRecord
100
AcDbRegAppTableRecord
  2
ACAD
 70
     0
  0
APPID
  5
11DA
330
9
100
AcDbSymbolTableRecord
100
AcDbRegAppTableRecord
  2
DCO15
 70
     0
  0
ENDTAB
  0
TABLE
  2
DIMSTYLE
  5
A
330
0
100
AcDbSymbolTable
 70
     5
  0
DIMSTYLE
105
242
330
A
100
AcDbSymbolTableRecord
100
AcDbDimStyleTableRecord
  2
STANDARD
 70
     0
  3

  4

  5
_FILLED
  6
_FILLED
  7
_FILLED
 40
1.0
 41
0.1875
 42
0.0625
 43
0.38
 44
0.18
 45
0.0
 46
0.0
 47
0.00001
 48
0.00001
140
0.125
141
0.09
142
0.0
143
25.4
144
1.0
145
0.0
146
1.0
147
0.09
 71
     0
 72
     0
 73
     1
 74
     1
 75
     0
 76
     0
 77
     0
 78
     4
170
     0
171
     2
172
     0
173
     0
174
     0
175
     0
176
     0
177
     0
178
     0
270
     2
271
     5
272
     5
273
     2
274
     2
340
11
275
     0
280
     0
281
     0
282
     0
283
     1
284
     4
285
     0
286
     0
287
     3
288
     0
  0
ENDTAB
  0
TABLE
  2
BLOCK_RECORD
  5
1
330
0
100
AcDbSymbolTable
 70
    46
  0
BLOCK_RECORD
  5
1F
102
{ACAD_XDICTIONARY
360
1263
102
}
330
1
100
AcDbSymbolTableRecord
100
AcDbBlockTableRecord
  2
*MODEL_SPACE
  0
BLOCK_RECORD
  5
1B
102
{ACAD_XDICTIONARY
360
1261
102
}
330
1
100
AcDbSymbolTableRecord
100
AcDbBlockTableRecord
  2
*PAPER_SPACE
  0
BLOCK_RECORD
  5
215
330
1
100
AcDbSymbolTableRecord
100
AcDbBlockTableRecord
  2
_FILLED
  0
ENDTAB
  0
ENDSEC
  0
SECTION
  2
BLOCKS
  0
BLOCK
  5
20
330
1F
100
AcDbEntity
  8
0
100
AcDbBlockBegin
  2
*MODEL_SPACE
 70
     0
 10
0.0
 20
0.0
 30
0.0
  3
*MODEL_SPACE
  1

  0
ENDBLK
  5
21
330
1F
100
AcDbEntity
  8
0
100
AcDbBlockEnd
  0
BLOCK
  5
1C
330
1B
100
AcDbEntity
 67
     1
  8
0
100
AcDbBlockBegin
  2
*PAPER_SPACE
 70
     0
 10
0.0
 20
0.0
 30
0.0
  3
*PAPER_SPACE
  1

  0
ENDBLK
  5
1D
330
1B
100
AcDbEntity
 67
     1
  8
0
100
AcDbBlockEnd
  0
BLOCK
  5
4B4
330
215
100
AcDbEntity
  8
0
100
AcDbBlockBegin
  2
_FILLED
 70
     0
 10
0.0
 20
0.0
 30
0.0
  3
_FILLED
  1

  0
SOLID
  5
4B5
330
215
100
AcDbEntity
  8
0
  6
BYBLOCK
 62
     0
100
AcDbTrace
 10
0.0
 20
0.0
 30
0.0
 11
-1.0
 21
0.1666666667
 31
0.0
 12
-1.0
 22
-0.1666666667
 32
0.0
 13
-1.0
 23
-0.1666666667
 33
0.0
  0
ENDBLK
  5
4B6
330
215
100
AcDbEntity
  8
0
  6
BYBLOCK
 62
     0
100
AcDbBlockEnd
  0
ENDSEC
  0
SECTION
  2
ENTITIES
  0
MTEXT
  5
54C
330
1F
100
AcDbEntity
  8
0
  6
CONTINUOUS
 62
     2
100
AcDbMText
 10
15.84375
 20
2.3125
 30
0.0
 40
0.09375
 41
0.075
 71
     2
 72
     1
  1
 \P \P 
  7
TEXTSTYLE_1
1001
ACAD
1000
MTEXTBEGIN
1070
    73
1070
     1
1070
    44
1040
1.0
1070
    74
1070
     0
1000
MTEXTEND
  0
LINE
  5
C95
330
1F
100
AcDbEntity
  8
0
  6
CONTINUOUS
 62
     7
100
AcDbLine
 10
16.42977923010904
 20
63.40184720260523
 30
0.0
 11
16.27476167172074
 21
61.62998790614055
 31
0.0
  0
LINE
  5
C96
330
1F
100
AcDbEntity
  8
0
  6
CONTINUOUS
 62
     7
100
AcDbLine
 10
16.4629778918845
 20
61.62998791052564
 30
0.0
 11
16.61656573674431
 21
63.38550550565391
 31
0.0
  0
LINE
  5
C97
330
1F
100
AcDbEntity
  8
0
  6
HIDDEN
 62
     8
100
AcDbLine
 10
19.9609174280595
 20
59.98263304401884
 30
0.0
 11
19.96049244806322
 21
59.9635068433645
 31
0.0
  0
LINE
  5
C98
330
1F
100
AcDbEntity
  8
0
  6
HIDDEN
 62
     8
100
AcDbLine
 10
20.58487598375178
 20
60.49206528956429
 30
0.0
 11
20.58448341904424
 21
60.47546598327447
 31
0.0
  0
LINE
  5
C99
330
1F
100
AcDbEntity
  8
0
  6
HIDDEN
 62
     8
100
AcDbLine
 10
20.58514283910756
 20
60.49929374358367
 30
0.0
 11
20.58487598375178
 21
60.49206528956429
 31
0.0
  0
LINE
  5
C9A
330
1F
100
AcDbEntity
  8
0
  6
HIDDEN
 62
     8
100
AcDbLine
 10
19.96160472602069
 20
60.00016044255885
 30
0.0
 11
19.9609174280595
 21
59.98263304401884
 31
0.0
  0
LINE
  5
C9B
330
1F
100
AcDbEntity
  8
0
  6
HIDDEN
 62
     8
100
AcDbLine
 10
20.58548495768127
 20
60.50651887753446
 30
0.0
 11
20.58514283910756
 21
60.49929374358367
 31
0.0
  0
LINE
  5
C9C
330
1F
100
AcDbEntity
  8
0
  6
HIDDEN
 62
     8
100
AcDbLine
 10
20.58584960436622
 20
60.51268941907434
 30
0.0
 11
20.58548495768127
 21
60.50651887753446
 31
0.0
  0
LINE
  5
C9D
330
1F
100
AcDbEntity
  8
0
  6
HIDDEN
 62
     8
100
AcDbLine
 10
19.96255976508876
 20
60.01597415867424
 30
0.0
 11
19.96160472602069
 21
60.00016044255885
 31
0.0
  0
LINE
  5
C9E
330
1F
100
AcDbEntity
  8
0
  6
HIDDEN
 62
     8
100
AcDbLine
 10
20.58629911723706
 20
60.51885474810198
 30
0.0
 11
20.58584960436622
 21
60.51268941907434
 31
0.0
  0
LINE
  5
C9F
330
1F
100
AcDbEntity
  8
0
  6
HIDDEN
 62
     8
100
AcDbLine
 10
19.963790882849
 20
60.03000703330958
 30
0.0
 11
19.96255976508876
 21
60.01597415867424
 31
0.0
  0
LINE
  5
CA0
330
1F
100
AcDbEntity
  8
0
  6
HIDDEN
 62
     8
100
AcDbLine
 10
20.58675383534361
 20
60.52397677968247
 30
0.0
 11
20.58629911723706
 21
60.51885474810198
 31
0.0
  0
LINE
  5
CA1
330
1F
100
AcDbEntity
  8
0
  6
HIDDEN
 62
     8
100
AcDbLine
 10
20.58730552270195
 20
60.52908808523511
 30
0.0
 11
20.58675383534361
 21
60.52397677968247
 31
0.0
  0
LINE
  5
CA2
330
1F
100
AcDbEntity
  8
0
  6
HIDDEN
 62
     8
100
AcDbLine
 10
19.96448299367214
 20
60.03608968641363
 30
0.0
 11
19.963790882849
 21
60.03000703330958
 31
0.0
  0
LINE
  5
CA3
330
1F
100
AcDbEntity
  8
0
  6
HIDDEN
 62
     8
100
AcDbLine
 10
20.58784097163176
 20
60.53318827518335
 30
0.0
 11
20.58730552270195
 21
60.52908808523511
 31
0.0
  0
LINE
  5
CA4
330
1F
100
AcDbEntity
  8
0
  6
HIDDEN
 62
     8
100
AcDbLine
 10
19.96530550334797
 20
60.04215533841069
 30
0.0
 11
19.96448299367214
 21
60.03608968641363
 31
0.0
  0
LINE
  5
CA5
330
1F
100
AcDbEntity
  8
0
  6
HIDDEN
 62
     8
100
AcDbLine
 10
20.58849429163657
 20
60.53727461732382
 30
0.0
 11
20.58784097163176
 21
60.53318827518335
 31
0.0
  0
LINE
  5
CA6
330
1F
100
AcDbEntity
  8
0
  6
HIDDEN
 62
     8
100
AcDbLine
 10
19.96612876568033
 20
60.04725617677841
 30
0.0
 11
19.96530550334797
 21
60.04215533841069
 31
0.0
  0
LINE
  5
CA7
330
1F
100
AcDbEntity
  8
0
  6
HIDDEN
 62
     8
100
AcDbLine
 10
19.96711506763654
 20
60.05233023520784
 30
0.0
 11
19.96612876568033
 21
60.04725617677841
 31
0.0
  0
LINE
  5
CA8
330
1F
100
AcDbEntity
  8
0
  6
HIDDEN
 62
     8
100
AcDbLine
 10
20.58910248121725
 20
60.54038017075109
 30
0.0
 11
20.58849429163657
 21
60.53727461732382
 31
0.0
  0
LINE
  5
CA9
330
1F
100
AcDbEntity
  8
0
  6
HIDDEN
 62
     8
100
AcDbLine
 10
19.96807014572827
 20
60.05639666378256
 30
0.0
 11
19.96711506763654
 21
60.05233023520784
 31
0.0
  0
LINE
  5
CAA
330
1F
100
AcDbEntity
  8
0
  6
HIDDEN
 62
     8
100
AcDbLine
 10
20.58985264844534
 20
60.54344607441461
 30
0.0
 11
20.58910248121725
 21
60.54038017075109
 31
0.0
  0
LINE
  5
CAB
330
1F
100
AcDbEntity
  8
0
  6
HIDDEN
 62
     8
100
AcDbLine
 10
19.96922767144324
 20
60.06040389269088
 30
0.0
 11
19.96807014572827
 21
60.05639666378256
 31
0.0
  0
LINE
  5
CAC
330
1F
100
AcDbEntity
  8
0
  6
HIDDEN
 62
     8
100
AcDbLine
 10
20.59051202337084
 20
60.54557722313353
 30
0.0
 11
20.58985264844534
 21
60.54344607441461
 31
0.0
  0
LINE
  5
CAD
330
1F
100
AcDbEntity
  8
0
  6
HIDDEN
 62
     8
100
AcDbLine
 10
19.97029857969107
 20
60.06337997205782
 30
0.0
 11
19.96922767144324
 21
60.06040389269088
 31
0.0
  0
LINE
  5
CAE
330
1F
100
AcDbEntity
  8
0
  6
HIDDEN
 62
     8
100
AcDbLine
 10
20.59137208976179
 20
60.54765772093638
 30
0.0
 11
20.59051202337084
 21
60.54557722313353
 31
0.0
  0
LINE
  5
CAF
330
1F
100
AcDbEntity
  8
0
  6
HIDDEN
 62
     8
100
AcDbLine
 10
19.97165517547532
 20
60.06625653216805
 30
0.0
 11
19.97029857969107
 21
60.06337997205782
 31
0.0
  0
LINE
  5
CB0
330
1F
100
AcDbEntity
  8
0
  6
HIDDEN
 62
     8
100
AcDbLine
 10
20.59182516298391
 20
60.54850750153668
 30
0.0
 11
20.59137208976179
 21
60.54765772093638
 31
0.0
  0
LINE
  5
CB1
330
1F
100
AcDbEntity
  8
0
  6
HIDDEN
 62
     8
100
AcDbLine
 10
19.97242990809397
 20
60.06754550072331
 30
0.0
 11
19.97165517547532
 21
60.06625653216805
 31
0.0
  0
LINE
  5
CB2
330
1F
100
AcDbEntity
  8
0
  6
HIDDEN
 62
     8
100
AcDbLine
 10
20.59236883930906
 20
60.54928983693056
 30
0.0
 11
20.59182516298391
 21
60.54850750153668
 31
0.0
  0
LINE
  5
CB3
330
1F
100
AcDbEntity
  8
0
  6
HIDDEN
 62
     8
100
AcDbLine
 10
19.97333492725649
 20
60.06873349100607
 30
0.0
 11
19.97242990809397
 21
60.06754550072331
 31
0.0
  0
LINE
  5
CB4
330
1F
100
AcDbEntity
  8
0
  6
CONTINUOUS
 62
     7
100
AcDbLine
 10
18.75975219224131
 20
63.07862275334183
 30
0.0
 11
19.57069175291308
 21
58.9222752353926
 31
0.0
  0
LINE
  5
CB5
330
1F
100
AcDbEntity
  8
0
  6
CONTINUOUS
 62
     7
100
AcDbLine
 10
19.75552210568568
 20
58.95380285244847
 30
0.0
 11
18.94458254521918
 21
63.11015037198448
 31
0.0
  0
LINE
  5
CB6
330
1F
100
AcDbEntity
  8
0
  6
HIDDEN
 62
     8
100
AcDbLine
 10
20.04146042740988
 20
59.00893205195888
 30
0.0
 11
20.04545793740618
 21
58.9848836948985
 31
0.0
  0
LINE
  5
CB7
330
1F
100
AcDbEntity
  8
0
  6
HIDDEN
 62
     8
100
AcDbLine
 10
20.03750888466079
 20
59.03414610642926
 30
0.0
 11
20.04146042740988
 21
59.00893205195888
 31
0.0
  0
LINE
  5
CB8
330
1F
100
AcDbEntity
  8
0
  6
HIDDEN
 62
     8
100
AcDbLine
 10
20.03363626538691
 20
59.0602669337056
 30
0.0
 11
20.03750888466079
 21
59.03414610642926
 31
0.0
  0
LINE
  5
CB9
330
1F
100
AcDbEntity
  8
0
  6
HIDDEN
 62
     8
100
AcDbLine
 10
20.02986176728165
 20
59.08710958888017
 30
0.0
 11
20.03363626538691
 21
59.0602669337056
 31
0.0
  0
LINE
  5
CBA
330
1F
100
AcDbEntity
  8
0
  6
HIDDEN
 62
     8
100
AcDbLine
 10
20.02620912536979
 20
59.11444581904156
 30
0.0
 11
20.02986176728165
 21
59.08710958888017
 31
0.0
  0
LINE
  5
CBB
330
1F
100
AcDbEntity
  8
0
  6
HIDDEN
 62
     8
100
AcDbLine
 10
20.022690535522
 20
59.14212260621424
 30
0.0
 11
20.02620912536979
 21
59.11444581904156
 31
0.0
  0
LINE
  5
CBC
330
1F
100
AcDbEntity
  8
0
  6
HIDDEN
 62
     8
100
AcDbLine
 10
20.01932591898818
 20
59.1699188571381
 30
0.0
 11
20.022690535522
 21
59.14212260621424
 31
0.0
  0
LINE
  5
CBD
330
1F
100
AcDbEntity
  8
0
  6
HIDDEN
 62
     8
100
AcDbLine
 10
20.01612243482825
 20
59.1977088786389
 30
0.0
 11
20.01932591898818
 21
59.1699188571381
 31
0.0
  0
LINE
  5
CBE
330
1F
100
AcDbEntity
  8
0
  6
HIDDEN
 62
     8
100
AcDbLine
 10
20.01612243482825
 20
59.1977088786389
 30
0.0
 11
19.99872557814455
 21
59.3599157402775
 31
0.0
  0
LINE
  5
CBF
330
1F
100
AcDbEntity
  8
0
  6
HIDDEN
 62
     8
100
AcDbLine
 10
19.99458127870662
 20
59.39971917343497
 30
0.0
 11
19.99872557814455
 21
59.3599157402775
 31
0.0
  0
LINE
  5
CC0
330
1F
100
AcDbEntity
  8
0
  6
HIDDEN
 62
     8
100
AcDbLine
 10
19.99066172960246
 20
59.43910429477203
 30
0.0
 11
19.99458127870662
 21
59.39971917343497
 31
0.0
  0
LINE
  5
CC1
330
1F
100
AcDbEntity
  8
0
  6
HIDDEN
 62
     8
100
AcDbLine
 10
19.98697333478299
 20
59.47793825202895
 30
0.0
 11
19.99066172960246
 21
59.43910429477203
 31
0.0
  0
LINE
  5
CC2
330
1F
100
AcDbEntity
  8
0
  6
HIDDEN
 62
     8
100
AcDbLine
 10
19.9835167778477
 20
59.51614753563237
 30
0.0
 11
19.98697333478299
 21
59.47793825202895
 31
0.0
  0
LINE
  5
CC3
330
1F
100
AcDbEntity
  8
0
  6
HIDDEN
 62
     8
100
AcDbLine
 10
19.98029960683474
 20
59.55358191009056
 30
0.0
 11
19.9835167778477
 21
59.51614753563237
 31
0.0
  0
LINE
  5
CC4
330
1F
100
AcDbEntity
  8
0
  6
HIDDEN
 62
     8
100
AcDbLine
 10
19.97731893695714
 20
59.5902094351557
 30
0.0
 11
19.98029960683474
 21
59.55358191009056
 31
0.0
  0
LINE
  5
CC5
330
1F
100
AcDbEntity
  8
0
  6
HIDDEN
 62
     8
100
AcDbLine
 10
19.97457944646218
 20
59.62590957212305
 30
0.0
 11
19.97731893695714
 21
59.5902094351557
 31
0.0
  0
LINE
  5
CC6
330
1F
100
AcDbEntity
  8
0
  6
HIDDEN
 62
     8
100
AcDbLine
 10
20.59583073102567
 20
60.18066847714497
 30
0.0
 11
20.59809165287236
 21
60.14936344378895
 31
0.0
  0
LINE
  5
CC7
330
1F
100
AcDbEntity
  8
0
  6
HIDDEN
 62
     8
100
AcDbLine
 10
19.97207864896721
 20
59.66065322352413
 30
0.0
 11
19.97457944646218
 21
59.62590957212305
 31
0.0
  0
LINE
  5
CC8
330
1F
100
AcDbEntity
  8
0
  6
HIDDEN
 62
     8
100
AcDbLine
 10
19.96981947800187
 20
59.69434058503697
 30
0.0
 11
19.97207864896721
 21
59.66065322352413
 31
0.0
  0
LINE
  5
CC9
330
1F
100
AcDbEntity
  8
0
  6
HIDDEN
 62
     8
100
AcDbLine
 10
20.5937184038551
 20
60.21211482567678
 30
0.0
 11
20.59583073102567
 21
60.18066847714497
 31
0.0
  0
LINE
  5
CCA
330
1F
100
AcDbEntity
  8
0
  6
HIDDEN
 62
     8
100
AcDbLine
 10
20.59177889710424
 20
60.24340433667571
 30
0.0
 11
20.5937184038551
 21
60.21211482567678
 31
0.0
  0
LINE
  5
CCB
330
1F
100
AcDbEntity
  8
0
  6
HIDDEN
 62
     8
100
AcDbLine
 10
19.96780236978026
 20
59.72690320623431
 30
0.0
 11
19.96981947800187
 21
59.69434058503697
 31
0.0
  0
LINE
  5
CCC
330
1F
100
AcDbEntity
  8
0
  6
HIDDEN
 62
     8
100
AcDbLine
 10
19.96602256310915
 20
59.75836673873039
 30
0.0
 11
19.96780236978026
 21
59.72690320623431
 31
0.0
  0
LINE
  5
CCD
330
1F
100
AcDbEntity
  8
0
  6
HIDDEN
 62
     8
100
AcDbLine
 10
20.5900287325679
 20
60.27433078145037
 30
0.0
 11
20.59177889710424
 21
60.24340433667571
 31
0.0
  0
LINE
  5
CCE
330
1F
100
AcDbEntity
  8
0
  6
HIDDEN
 62
     8
100
AcDbLine
 10
19.96448398972552
 20
59.78861653386781
 30
0.0
 11
19.96602256310915
 21
59.75836673873039
 31
0.0
  0
LINE
  5
CCF
330
1F
100
AcDbEntity
  8
0
  6
HIDDEN
 62
     8
100
AcDbLine
 10
20.58848472178432
 20
60.30466722381352
 30
0.0
 11
20.5900287325679
 21
60.27433078145037
 31
0.0
  0
LINE
  5
CD0
330
1F
100
AcDbEntity
  8
0
  6
HIDDEN
 62
     8
100
AcDbLine
 10
19.96318460865902
 20
59.81765013398142
 30
0.0
 11
19.96448398972552
 21
59.78861653386781
 31
0.0
  0
LINE
  5
CD1
330
1F
100
AcDbEntity
  8
0
  6
HIDDEN
 62
     8
100
AcDbLine
 10
20.58716986522326
 20
60.33401133213378
 30
0.0
 11
20.58848472178432
 21
60.30466722381352
 31
0.0
  0
LINE
  5
CD2
330
1F
100
AcDbEntity
  8
0
  6
HIDDEN
 62
     8
100
AcDbLine
 10
20.5861000598771
 20
60.36199209050264
 30
0.0
 11
20.58716986522326
 21
60.33401133213378
 31
0.0
  0
LINE
  5
CD3
330
1F
100
AcDbEntity
  8
0
  6
HIDDEN
 62
     8
100
AcDbLine
 10
19.96212623405054
 20
59.84539526103318
 30
0.0
 11
19.96318460865902
 21
59.81765013398142
 31
0.0
  0
LINE
  5
CD4
330
1F
100
AcDbEntity
  8
0
  6
HIDDEN
 62
     8
100
AcDbLine
 10
20.58528057973604
 20
60.38839055215636
 30
0.0
 11
20.5861000598771
 21
60.36199209050264
 31
0.0
  0
LINE
  5
CD5
330
1F
100
AcDbEntity
  8
0
  6
HIDDEN
 62
     8
100
AcDbLine
 10
19.96130917470038
 20
59.87182071678855
 30
0.0
 11
19.96212623405054
 21
59.84539526103318
 31
0.0
  0
LINE
  5
CD6
330
1F
100
AcDbEntity
  8
0
  6
HIDDEN
 62
     8
100
AcDbLine
 10
20.58471112805758
 20
60.41310622390536
 30
0.0
 11
20.58528057973604
 21
60.38839055215636
 31
0.0
  0
LINE
  5
CD7
330
1F
100
AcDbEntity
  8
0
  6
HIDDEN
 62
     8
100
AcDbLine
 10
19.96073436528732
 20
59.89690661378681
 30
0.0
 11
19.96130917470038
 21
59.87182071678855
 31
0.0
  0
LINE
  5
CD8
330
1F
100
AcDbEntity
  8
0
  6
HIDDEN
 62
     8
100
AcDbLine
 10
19.96040476799576
 20
59.92057387209287
 30
0.0
 11
19.96073436528732
 21
59.89690661378681
 31
0.0
  0
LINE
  5
CD9
330
1F
100
AcDbEntity
  8
0
  6
HIDDEN
 62
     8
100
AcDbLine
 10
20.58439203199541
 20
60.43594602176209
 30
0.0
 11
20.58471112805758
 21
60.41310622390536
 31
0.0
  0
LINE
  5
CDA
330
1F
100
AcDbEntity
  8
0
  6
HIDDEN
 62
     8
100
AcDbLine
 10
19.96032289298146
 20
59.94280762440737
 30
0.0
 11
19.96040476799576
 21
59.92057387209287
 31
0.0
  0
LINE
  5
CDB
330
1F
100
AcDbEntity
  8
0
  6
HIDDEN
 62
     8
100
AcDbLine
 10
20.58431891086114
 20
60.45675544699008
 30
0.0
 11
20.58439203199541
 21
60.43594602176209
 31
0.0
  0
LINE
  5
CDC
330
1F
100
AcDbEntity
  8
0
  6
HIDDEN
 62
     8
100
AcDbLine
 10
19.96049244806322
 20
59.9635068433645
 30
0.0
 11
19.96032289298146
 21
59.94280762440737
 31
0.0
  0
LINE
  5
CDD
330
1F
100
AcDbEntity
  8
0
  6
HIDDEN
 62
     8
100
AcDbLine
 10
20.58448341904424
 20
60.47546598327447
 30
0.0
 11
20.58431891086114
 21
60.45675544699008
 31
0.0
  0
LINE
  5
CDE
330
1F
100
AcDbEntity
  8
0
  6
HIDDEN
 62
     8
100
AcDbLine
 10
22.78259141288775
 20
58.9557937767662
 30
0.0
 11
22.77980299329537
 21
58.91617800504359
 31
0.0
  0
LINE
  5
CDF
330
1F
100
AcDbEntity
  8
0
  6
HIDDEN
 62
     8
100
AcDbLine
 10
22.11451695327228
 20
59.66866099796873
 30
0.0
 11
22.11483094616842
 21
59.67299067024066
 31
0.0
  0
LINE
  5
CE0
330
1F
100
AcDbEntity
  8
0
  6
HIDDEN
 62
     8
100
AcDbLine
 10
22.77980299329537
 20
58.91617800504359
 30
0.0
 11
22.7747707499767
 21
58.87681644034929
 31
0.0
  0
LINE
  5
CE1
330
1F
100
AcDbEntity
  8
0
  6
HIDDEN
 62
     8
100
AcDbLine
 10
22.7747707499767
 20
58.87681644034929
 30
0.0
 11
22.76746781662241
 21
58.83786254647474
 31
0.0
  0
LINE
  5
CE2
330
1F
100
AcDbEntity
  8
0
  6
HIDDEN
 62
     8
100
AcDbLine
 10
22.76746781662241
 20
58.83786254647474
 30
0.0
 11
22.75786733071262
 21
58.79946979156115
 31
0.0
  0
LINE
  5
CE3
330
1F
100
AcDbEntity
  8
0
  6
HIDDEN
 62
     8
100
AcDbLine
 10
22.75786733071262
 20
58.79946979156115
 30
0.0
 11
22.74778715997807
 21
58.76664648082331
 31
0.0
  0
LINE
  5
CE4
330
1F
100
AcDbEntity
  8
0
  6
HIDDEN
 62
     8
100
AcDbLine
 10
22.74778715997807
 20
58.76664648082331
 30
0.0
 11
22.73678770936303
 21
58.73412295692552
 31
0.0
  0
LINE
  5
CE5
330
1F
100
AcDbEntity
  8
0
  6
HIDDEN
 62
     8
100
AcDbLine
 10
22.73678770936303
 20
58.73412295692552
 30
0.0
 11
22.72729162693701
 21
58.70687481377008
 31
0.0
  0
LINE
  5
CE6
330
1F
100
AcDbEntity
  8
0
  6
HIDDEN
 62
     8
100
AcDbLine
 10
22.72729162693701
 20
58.70687481377008
 30
0.0
 11
22.71735383971285
 21
58.67979247534911
 31
0.0
  0
LINE
  5
CE7
330
1F
100
AcDbEntity
  8
0
  6
HIDDEN
 62
     8
100
AcDbLine
 10
22.11299907361568
 20
59.66458537598042
 30
0.0
 11
22.11451695327228
 21
59.66866099796873
 31
0.0
  0
LINE
  5
CE8
330
1F
100
AcDbEntity
  8
0
  6
HIDDEN
 62
     8
100
AcDbLine
 10
22.71735383971285
 20
58.67979247534911
 30
0.0
 11
22.70659317836821
 21
58.65299885762238
 31
0.0
  0
LINE
  5
CE9
330
1F
100
AcDbEntity
  8
0
  6
HIDDEN
 62
     8
100
AcDbLine
 10
22.70659317836821
 20
58.65299885762238
 30
0.0
 11
22.69462846364964
 21
58.62661687460771
 31
0.0
  0
LINE
  5
CEA
330
1F
100
AcDbEntity
  8
0
  6
HIDDEN
 62
     8
100
AcDbLine
 10
22.69462846364964
 20
58.62661687460771
 30
0.0
 11
22.68172554954386
 21
58.60181529813499
 31
0.0
  0
LINE
  5
CEB
330
1F
100
AcDbEntity
  8
0
  6
HIDDEN
 62
     8
100
AcDbLine
 10
22.68172554954386
 20
58.60181529813499
 30
0.0
 11
22.66739730420186
 21
58.57767114418568
 31
0.0
  0
LINE
  5
CEC
330
1F
100
AcDbEntity
  8
0
  6
HIDDEN
 62
     8
100
AcDbLine
 10
22.66739730420186
 20
58.57767114418568
 30
0.0
 11
22.65167764072065
 21
58.55434976434662
 31
0.0
  0
LINE
  5
CED
330
1F
100
AcDbEntity
  8
0
  6
HIDDEN
 62
     8
100
AcDbLine
 10
22.11115010865435
 20
59.66198592031232
 30
0.0
 11
22.11299907361568
 21
59.66458537598042
 31
0.0
  0
LINE
  5
CEE
330
1F
100
AcDbEntity
  8
0
  6
HIDDEN
 62
     8
100
AcDbLine
 10
20.59303944930883
 20
60.54994911696394
 30
0.0
 11
20.59236883930906
 21
60.54928983693056
 31
0.0
  0
LINE
  5
CEF
330
1F
100
AcDbEntity
  8
0
  6
HIDDEN
 62
     8
100
AcDbLine
 10
19.97440902241125
 20
60.0697511631425
 30
0.0
 11
19.97333492725649
 21
60.06873349100607
 31
0.0
  0
LINE
  5
CF0
330
1F
100
AcDbEntity
  8
0
  6
HIDDEN
 62
     8
100
AcDbLine
 10
20.66251047332779
 20
60.60387443597716
 30
0.0
 11
20.59303944930883
 21
60.54994911696394
 31
0.0
  0
LINE
  5
CF1
330
1F
100
AcDbEntity
  8
0
  6
HIDDEN
 62
     8
100
AcDbLine
 10
20.08640383300958
 20
60.1566846158915
 30
0.0
 11
19.97440902241125
 21
60.0697511631425
 31
0.0
  0
LINE
  5
CF2
330
1F
100
AcDbEntity
  8
0
  6
HIDDEN
 62
     8
100
AcDbLine
 10
20.07231774466171
 20
58.86469608838204
 30
0.0
 11
20.07389408966361
 21
58.86037874748395
 31
0.0
  0
LINE
  5
CF3
330
1F
100
AcDbEntity
  8
0
  6
HIDDEN
 62
     8
100
AcDbLine
 10
20.0705007235964
 20
58.87014063284857
 30
0.0
 11
20.07231774466171
 21
58.86469608838204
 31
0.0
  0
LINE
  5
CF4
330
1F
100
AcDbEntity
  8
0
  6
HIDDEN
 62
     8
100
AcDbLine
 10
20.06881165623913
 20
58.87562896666873
 30
0.0
 11
20.0705007235964
 21
58.87014063284857
 31
0.0
  0
LINE
  5
CF5
330
1F
100
AcDbEntity
  8
0
  6
HIDDEN
 62
     8
100
AcDbLine
 10
20.06692263687362
 20
58.88222088582108
 30
0.0
 11
20.06881165623913
 21
58.87562896666873
 31
0.0
  0
LINE
  5
CF6
330
1F
100
AcDbEntity
  8
0
  6
HIDDEN
 62
     8
100
AcDbLine
 10
20.06514525767414
 20
58.88884287952241
 30
0.0
 11
20.06692263687362
 21
58.88222088582108
 31
0.0
  0
LINE
  5
CF7
330
1F
100
AcDbEntity
  8
0
  6
HIDDEN
 62
     8
100
AcDbLine
 10
20.06320140312728
 20
58.89651804952324
 30
0.0
 11
20.06514525767414
 21
58.88884287952241
 31
0.0
  0
LINE
  5
CF8
330
1F
100
AcDbEntity
  8
0
  6
HIDDEN
 62
     8
100
AcDbLine
 10
20.0613538100037
 20
58.90421726686817
 30
0.0
 11
20.06320140312728
 21
58.89651804952324
 31
0.0
  0
LINE
  5
CF9
330
1F
100
AcDbEntity
  8
0
  6
HIDDEN
 62
     8
100
AcDbLine
 10
20.05936699223588
 20
58.91291422469341
 30
0.0
 11
20.0613538100037
 21
58.90421726686817
 31
0.0
  0
LINE
  5
CFA
330
1F
100
AcDbEntity
  8
0
  6
HIDDEN
 62
     8
100
AcDbLine
 10
20.0574656979684
 20
58.92163019466559
 30
0.0
 11
20.05936699223588
 21
58.91291422469341
 31
0.0
  0
LINE
  5
CFB
330
1F
100
AcDbEntity
  8
0
  6
HIDDEN
 62
     8
100
AcDbLine
 10
20.05544209914644
 20
58.93131206161955
 30
0.0
 11
20.0574656979684
 21
58.92163019466559
 31
0.0
  0
LINE
  5
CFC
330
1F
100
AcDbEntity
  8
0
  6
HIDDEN
 62
     8
100
AcDbLine
 10
20.05349576260744
 20
58.94100979055399
 30
0.0
 11
20.05544209914644
 21
58.93131206161955
 31
0.0
  0
LINE
  5
CFD
330
1F
100
AcDbEntity
  8
0
  6
HIDDEN
 62
     8
100
AcDbLine
 10
20.05145292123282
 20
58.95158293156367
 30
0.0
 11
20.05349576260744
 21
58.94100979055399
 31
0.0
  0
LINE
  5
CFE
330
1F
100
AcDbEntity
  8
0
  6
HIDDEN
 62
     8
100
AcDbLine
 10
20.04948048538815
 20
58.96216942711422
 30
0.0
 11
20.05145292123282
 21
58.95158293156367
 31
0.0
  0
LINE
  5
CFF
330
1F
100
AcDbEntity
  8
0
  6
HIDDEN
 62
     8
100
AcDbLine
 10
20.04545793740618
 20
58.9848836948985
 30
0.0
 11
20.04948048538815
 21
58.96216942711422
 31
0.0
  0
LINE
  5
D00
330
1F
100
AcDbEntity
  8
0
  6
HIDDEN
 62
     8
100
AcDbLine
 10
22.11239853227984
 20
59.69609491580704
 30
0.0
 11
22.11124713590254
 21
59.70375804332798
 31
0.0
  0
LINE
  5
D01
330
1F
100
AcDbEntity
  8
0
  6
HIDDEN
 62
     8
100
AcDbLine
 10
22.11338362892679
 20
59.68841025764605
 30
0.0
 11
22.11239853227984
 21
59.69609491580704
 31
0.0
  0
LINE
  5
D02
330
1F
100
AcDbEntity
  8
0
  6
CONTINUOUS
 62
     7
100
AcDbLine
 10
22.19088604309978
 20
57.86384326995156
 30
0.0
 11
23.56850736450629
 21
46.3710003289939
 31
0.0
  0
LINE
  5
D03
330
1F
100
AcDbEntity
  8
0
  6
CONTINUOUS
 62
     7
100
AcDbLine
 10
23.75465941633789
 20
46.3934427813968
 30
0.0
 11
22.37690131472974
 21
57.88739255151873
 31
0.0
  0
LINE
  5
D04
330
1F
100
AcDbEntity
  8
0
  6
HIDDEN
 62
     8
100
AcDbLine
 10
22.11419642935054
 20
59.68070765015551
 30
0.0
 11
22.11338362892679
 21
59.68841025764605
 31
0.0
  0
LINE
  5
D05
330
1F
100
AcDbEntity
  8
0
  6
HIDDEN
 62
     8
100
AcDbLine
 10
22.11483094616842
 20
59.67299067024066
 30
0.0
 11
22.11419642935054
 21
59.68070765015551
 31
0.0
  0
LINE
  5
D06
330
1F
100
AcDbEntity
  8
0
  6
HIDDEN
 62
     8
100
AcDbLine
 10
20.59809165287236
 20
60.14936344378895
 30
0.0
 11
20.6087702923821
 21
60.01378311652986
 31
0.0
  0
LINE
  5
D07
330
1F
100
AcDbEntity
  8
0
  6
HIDDEN
 62
     8
100
AcDbLine
 10
22.78139469313738
 20
59.03745002813391
 30
0.0
 11
22.78316287526834
 21
58.99551029331245
 31
0.0
  0
LINE
  5
D08
330
1F
100
AcDbEntity
  8
0
  6
HIDDEN
 62
     8
100
AcDbLine
 10
22.78316287526834
 20
58.99551029331245
 30
0.0
 11
22.78259141288775
 21
58.9557937767662
 31
0.0
  0
LINE
  5
D09
330
1F
100
AcDbEntity
  8
0
  6
HIDDEN
 62
     8
100
AcDbLine
 10
22.65167764072065
 20
58.55434976434662
 30
0.0
 11
22.63460047143154
 21
58.53201651675707
 31
0.0
  0
LINE
  5
D0A
330
1F
100
AcDbEntity
  8
0
  6
HIDDEN
 62
     8
100
AcDbLine
 10
22.63460047143154
 20
58.53201651675707
 30
0.0
 11
22.61619971101829
 21
58.51083675279859
 31
0.0
  0
LINE
  5
D0B
330
1F
100
AcDbEntity
  8
0
  6
HIDDEN
 62
     8
100
AcDbLine
 10
22.61619971101829
 20
58.51083675279859
 30
0.0
 11
22.59650926684664
 21
58.49097582963948
 31
0.0
  0
LINE
  5
D0C
330
1F
100
AcDbEntity
  8
0
  6
HIDDEN
 62
     8
100
AcDbLine
 10
22.10883053080961
 20
59.65976118617295
 30
0.0
 11
22.11115010865435
 21
59.66198592031232
 31
0.0
  0
LINE
  5
D0D
330
1F
100
AcDbEntity
  8
0
  6
HIDDEN
 62
     8
100
AcDbLine
 10
22.59650926684664
 20
58.49097582963948
 30
0.0
 11
22.57556305518713
 21
58.47259909845603
 31
0.0
  0
LINE
  5
D0E
330
1F
100
AcDbEntity
  8
0
  6
HIDDEN
 62
     8
100
AcDbLine
 10
22.1062061184015
 20
59.65787403667701
 30
0.0
 11
22.10883053080961
 21
59.65976118617295
 31
0.0
  0
LINE
  5
D0F
330
1F
100
AcDbEntity
  8
0
  6
HIDDEN
 62
     8
100
AcDbLine
 10
20.66345988227621
 20
60.6044513599535
 30
0.0
 11
20.66251047332779
 21
60.60387443597716
 31
0.0
  0
LINE
  5
D10
330
1F
100
AcDbEntity
  8
0
  6
HIDDEN
 62
     8
100
AcDbLine
 10
20.08697587098424
 20
60.15700297441937
 30
0.0
 11
20.08640383300958
 21
60.1566846158915
 31
0.0
  0
LINE
  5
D11
330
1F
100
AcDbEntity
  8
0
  6
CONTINUOUS
 62
     7
100
AcDbLine
 10
29.39507734822646
 20
43.70328188203024
 30
0.0
 11
29.09150665462316
 21
44.01357362292748
 31
0.0
  0
LINE
  5
D12
330
1F
100
AcDbEntity
  8
0
  6
HIDDEN
 62
     8
100
AcDbLine
 10
20.07709356278875
 20
58.85295090239454
 30
0.0
 11
20.07873618894723
 21
58.84989673830471
 31
0.0
  0
LINE
  5
D13
330
1F
100
AcDbEntity
  8
0
  6
HIDDEN
 62
     8
100
AcDbLine
 10
20.07563201098704
 20
58.85611600205422
 30
0.0
 11
20.07709356278875
 21
58.85295090239454
 31
0.0
  0
LINE
  5
D14
330
1F
100
AcDbEntity
  8
0
  6
HIDDEN
 62
     8
100
AcDbLine
 10
20.07389408966361
 20
58.86037874748395
 30
0.0
 11
20.07563201098704
 21
58.85611600205422
 31
0.0
  0
LINE
  5
D15
330
1F
100
AcDbEntity
  8
0
  6
HIDDEN
 62
     8
100
AcDbLine
 10
22.08986990184257
 20
59.78416395480708
 30
0.0
 11
22.08673565499687
 21
59.79257810239364
 31
0.0
  0
LINE
  5
D16
330
1F
100
AcDbEntity
  8
0
  6
CONTINUOUS
 62
     7
100
AcDbLine
 10
26.4727575870414
 20
43.2449778831179
 30
0.0
 11
26.03361893716174
 21
44.45150900587816
 31
0.0
  0
LINE
  5
D17
330
1F
100
AcDbEntity
  8
0
  6
HIDDEN
 62
     8
100
AcDbLine
 10
22.09286238444349
 20
59.77569855682133
 30
0.0
 11
22.08986990184257
 21
59.78416395480708
 31
0.0
  0
LINE
  5
D18
330
1F
100
AcDbEntity
  8
0
  6
HIDDEN
 62
     8
100
AcDbLine
 10
22.09570686757737
 20
59.76718207293849
 30
0.0
 11
22.09286238444349
 21
59.77569855682133
 31
0.0
  0
LINE
  5
D19
330
1F
100
AcDbEntity
  8
0
  6
HIDDEN
 62
     8
100
AcDbLine
 10
22.66202971995882
 20
59.45173006884577
 30
0.0
 11
22.67144085853068
 21
59.42342665326991
 31
0.0
  0
LINE
  5
D1A
330
1F
100
AcDbEntity
  8
0
  6
HIDDEN
 62
     8
100
AcDbLine
 10
22.73972197154552
 20
59.23946755799199
 30
0.0
 11
22.75154343467965
 21
59.20209060474185
 31
0.0
  0
LINE
  5
D1B
330
1F
100
AcDbEntity
  8
0
  6
HIDDEN
 62
     8
100
AcDbLine
 10
22.09820174899341
 20
59.75925536594099
 30
0.0
 11
22.09570686757737
 21
59.76718207293849
 31
0.0
  0
LINE
  5
D1C
330
1F
100
AcDbEntity
  8
0
  6
HIDDEN
 62
     8
100
AcDbLine
 10
22.10055810232585
 20
59.75128612459174
 30
0.0
 11
22.09820174899341
 21
59.75925536594099
 31
0.0
  0
LINE
  5
D1D
330
1F
100
AcDbEntity
  8
0
  6
HIDDEN
 62
     8
100
AcDbLine
 10
22.10276948651423
 20
59.74327542896682
 30
0.0
 11
22.10055810232585
 21
59.75128612459174
 31
0.0
  0
LINE
  5
D1E
330
1F
100
AcDbEntity
  8
0
  6
HIDDEN
 62
     8
100
AcDbLine
 10
22.75154343467965
 20
59.20209060474185
 30
0.0
 11
22.76225274943028
 21
59.16165111976505
 31
0.0
  0
LINE
  5
D1F
330
1F
100
AcDbEntity
  8
0
  6
HIDDEN
 62
     8
100
AcDbLine
 10
22.10482945850082
 20
59.73522435617403
 30
0.0
 11
22.10276948651423
 21
59.74327542896682
 31
0.0
  0
LINE
  5
D20
330
1F
100
AcDbEntity
  8
0
  6
HIDDEN
 62
     8
100
AcDbLine
 10
22.10673157881193
 20
59.72713398608417
 30
0.0
 11
22.10482945850082
 21
59.73522435617403
 31
0.0
  0
LINE
  5
D21
330
1F
100
AcDbEntity
  8
0
  6
HIDDEN
 62
     8
100
AcDbLine
 10
22.1084694030083
 20
59.7190053975971
 30
0.0
 11
22.10673157881193
 21
59.72713398608417
 31
0.0
  0
LINE
  5
D22
330
1F
100
AcDbEntity
  8
0
  6
HIDDEN
 62
     8
100
AcDbLine
 10
22.76225274943028
 20
59.16165111976505
 30
0.0
 11
22.77085449206662
 21
59.12064689306567
 31
0.0
  0
LINE
  5
D23
330
1F
100
AcDbEntity
  8
0
  6
HIDDEN
 62
     8
100
AcDbLine
 10
22.10993542876435
 20
59.71139606309836
 30
0.0
 11
22.1084694030083
 21
59.7190053975971
 31
0.0
  0
LINE
  5
D24
330
1F
100
AcDbEntity
  8
0
  6
HIDDEN
 62
     8
100
AcDbLine
 10
22.11124713590254
 20
59.70375804332798
 30
0.0
 11
22.10993542876435
 21
59.71139606309836
 31
0.0
  0
LINE
  5
D25
330
1F
100
AcDbEntity
  8
0
  6
HIDDEN
 62
     8
100
AcDbLine
 10
22.77085449206662
 20
59.12064689306567
 30
0.0
 11
22.77726351839767
 21
59.07920437955038
 31
0.0
  0
LINE
  5
D26
330
1F
100
AcDbEntity
  8
0
  6
HIDDEN
 62
     8
100
AcDbLine
 10
22.77726351839767
 20
59.07920437955038
 30
0.0
 11
22.78139469313738
 21
59.03745002813391
 31
0.0
  0
LINE
  5
D27
330
1F
100
AcDbEntity
  8
0
  6
HIDDEN
 62
     8
100
AcDbLine
 10
22.57556305518713
 20
58.47259909845603
 30
0.0
 11
22.55339498837106
 21
58.4558719173875
 31
0.0
  0
LINE
  5
D28
330
1F
100
AcDbEntity
  8
0
  6
HIDDEN
 62
     8
100
AcDbLine
 10
22.55339498837106
 20
58.4558719173875
 30
0.0
 11
22.52907347689988
 21
58.44033877243901
 31
0.0
  0
LINE
  5
D29
330
1F
100
AcDbEntity
  8
0
  6
HIDDEN
 62
     8
100
AcDbLine
 10
20.0858509690438
 20
58.84471821984006
 30
0.0
 11
20.08656647494057
 21
58.84513176527966
 31
0.0
  0
LINE
  5
D2A
330
1F
100
AcDbEntity
  8
0
  6
HIDDEN
 62
     8
100
AcDbLine
 10
22.10050646205477
 20
59.65494796072356
 30
0.0
 11
22.1062061184015
 21
59.65787403667701
 31
0.0
  0
LINE
  5
D2B
330
1F
100
AcDbEntity
  8
0
  6
HIDDEN
 62
     8
100
AcDbLine
 10
20.07957700754302
 20
58.84854726313095
 30
0.0
 11
20.08051648225608
 21
58.84725467626863
 31
0.0
  0
LINE
  5
D2C
330
1F
100
AcDbEntity
  8
0
  6
HIDDEN
 62
     8
100
AcDbLine
 10
20.07873618894723
 20
58.84989673830471
 30
0.0
 11
20.07957700754302
 21
58.84854726313095
 31
0.0
  0
LINE
  5
D2D
330
1F
100
AcDbEntity
  8
0
  6
HIDDEN
 62
     8
100
AcDbLine
 10
22.04491206162082
 20
59.88108620418509
 30
0.0
 11
22.03867127404357
 21
59.89209613639008
 31
0.0
  0
LINE
  5
D2E
330
1F
100
AcDbEntity
  8
0
  6
HIDDEN
 62
     8
100
AcDbLine
 10
22.05098651537394
 20
59.86998334127521
 30
0.0
 11
22.04491206162082
 21
59.88108620418509
 31
0.0
  0
LINE
  5
D2F
330
1F
100
AcDbEntity
  8
0
  6
HIDDEN
 62
     8
100
AcDbLine
 10
22.6125718217199
 20
59.5667066394974
 30
0.0
 11
22.62828310159842
 21
59.53770083448926
 31
0.0
  0
LINE
  5
D30
330
1F
100
AcDbEntity
  8
0
  6
HIDDEN
 62
     8
100
AcDbLine
 10
22.05553779271307
 20
59.86138287482862
 30
0.0
 11
22.05098651537394
 21
59.86998334127521
 31
0.0
  0
LINE
  5
D31
330
1F
100
AcDbEntity
  8
0
  6
HIDDEN
 62
     8
100
AcDbLine
 10
22.05997992526519
 20
59.85272556689273
 30
0.0
 11
22.05553779271307
 21
59.86138287482862
 31
0.0
  0
LINE
  5
D32
330
1F
100
AcDbEntity
  8
0
  6
HIDDEN
 62
     8
100
AcDbLine
 10
22.06430729492154
 20
59.84401059060506
 30
0.0
 11
22.05997992526519
 21
59.85272556689273
 31
0.0
  0
LINE
  5
D33
330
1F
100
AcDbEntity
  8
0
  6
HIDDEN
 62
     8
100
AcDbLine
 10
22.06851427922349
 20
59.83523712289254
 30
0.0
 11
22.06430729492154
 21
59.84401059060506
 31
0.0
  0
LINE
  5
D34
330
1F
100
AcDbEntity
  8
0
  6
HIDDEN
 62
     8
100
AcDbLine
 10
22.07259526108862
 20
59.82640434482657
 30
0.0
 11
22.06851427922349
 21
59.83523712289254
 31
0.0
  0
LINE
  5
D35
330
1F
100
AcDbEntity
  8
0
  6
HIDDEN
 62
     8
100
AcDbLine
 10
22.62828310159842
 20
59.53770083448926
 30
0.0
 11
22.64192938368063
 21
59.50774514859232
 31
0.0
  0
LINE
  5
D36
330
1F
100
AcDbEntity
  8
0
  6
HIDDEN
 62
     8
100
AcDbLine
 10
22.07654461923455
 20
59.81751142995526
 30
0.0
 11
22.07259526108862
 21
59.82640434482657
 31
0.0
  0
LINE
  5
D37
330
1F
100
AcDbEntity
  8
0
  6
HIDDEN
 62
     8
100
AcDbLine
 10
22.08006678412697
 20
59.80925200454476
 30
0.0
 11
22.07654461923455
 21
59.81751142995526
 31
0.0
  0
LINE
  5
D38
330
1F
100
AcDbEntity
  8
0
  6
HIDDEN
 62
     8
100
AcDbLine
 10
22.08346587319204
 20
59.80094083907359
 30
0.0
 11
22.08006678412697
 21
59.80925200454476
 31
0.0
  0
LINE
  5
D39
330
1F
100
AcDbEntity
  8
0
  6
HIDDEN
 62
     8
100
AcDbLine
 10
22.08673565499687
 20
59.79257810239364
 30
0.0
 11
22.08346587319204
 21
59.80094083907359
 31
0.0
  0
LINE
  5
D3A
330
1F
100
AcDbEntity
  8
0
  6
HIDDEN
 62
     8
100
AcDbLine
 10
22.69858215935122
 20
59.34971864726887
 30
0.0
 11
22.71273985818101
 21
59.31310420265167
 31
0.0
  0
LINE
  5
D3B
330
1F
100
AcDbEntity
  8
0
  6
HIDDEN
 62
     8
100
AcDbLine
 10
22.68464866701377
 20
59.38643367389423
 30
0.0
 11
22.69858215935122
 21
59.34971864726887
 31
0.0
  0
LINE
  5
D3C
330
1F
100
AcDbEntity
  8
0
  6
HIDDEN
 62
     8
100
AcDbLine
 10
22.64192938368063
 20
59.50774514859232
 30
0.0
 11
22.65247582168928
 21
59.47995113029698
 31
0.0
  0
LINE
  5
D3D
330
1F
100
AcDbEntity
  8
0
  6
HIDDEN
 62
     8
100
AcDbLine
 10
22.71273985818101
 20
59.31310420265167
 30
0.0
 11
22.7266202871121
 21
59.27641296433481
 31
0.0
  0
LINE
  5
D3E
330
1F
100
AcDbEntity
  8
0
  6
HIDDEN
 62
     8
100
AcDbLine
 10
22.67144085853068
 20
59.42342665326991
 30
0.0
 11
22.68464866701377
 21
59.38643367389423
 31
0.0
  0
LINE
  5
D3F
330
1F
100
AcDbEntity
  8
0
  6
HIDDEN
 62
     8
100
AcDbLine
 10
22.7266202871121
 20
59.27641296433481
 30
0.0
 11
22.73972197154552
 21
59.23946755799199
 31
0.0
  0
LINE
  5
D40
330
1F
100
AcDbEntity
  8
0
  6
HIDDEN
 62
     8
100
AcDbLine
 10
22.65247582168928
 20
59.47995113029698
 30
0.0
 11
22.66202971995882
 21
59.45173006884577
 31
0.0
  0
LINE
  5
D41
330
1F
100
AcDbEntity
  8
0
  6
HIDDEN
 62
     8
100
AcDbLine
 10
22.52907347689988
 20
58.44033877243901
 30
0.0
 11
22.50362506477749
 21
58.42666801515196
 31
0.0
  0
LINE
  5
D42
330
1F
100
AcDbEntity
  8
0
  6
HIDDEN
 62
     8
100
AcDbLine
 10
22.50362506477749
 20
58.42666801515196
 30
0.0
 11
22.47721055581458
 21
58.41475470976243
 31
0.0
  0
LINE
  5
D43
330
1F
100
AcDbEntity
  8
0
  6
HIDDEN
 62
     8
100
AcDbLine
 10
22.09446504056146
 20
59.65286944898292
 30
0.0
 11
22.10050646205477
 21
59.65494796072356
 31
0.0
  0
LINE
  5
D44
330
1F
100
AcDbEntity
  8
0
  6
HIDDEN
 62
     8
100
AcDbLine
 10
20.66452684579547
 20
60.60480590062316
 30
0.0
 11
20.66345988227621
 21
60.6044513599535
 31
0.0
  0
LINE
  5
D45
330
1F
100
AcDbEntity
  8
0
  6
HIDDEN
 62
     8
100
AcDbLine
 10
20.08762613757026
 20
60.15715884187186
 30
0.0
 11
20.08697587098424
 21
60.15700297441937
 31
0.0
  0
LINE
  5
D46
330
1F
100
AcDbEntity
  8
0
  6
CONTINUOUS
 62
     7
100
AcDbLine
 10
54.50925148806843
 20
42.62812243751762
 30
0.0
 11
43.55963254879148
 21
42.62812217543857
 31
0.0
  0
LINE
  5
D47
330
1F
100
AcDbEntity
  8
0
  6
CONTINUOUS
 62
     7
100
AcDbLine
 10
32.11487625517384
 20
43.63005864114289
 30
0.0
 11
29.57185404517495
 21
43.63005858067899
 31
0.0
  0
LINE
  5
D48
330
1F
100
AcDbEntity
  8
0
  6
CONTINUOUS
 62
     7
100
AcDbLine
 10
28.91472995588262
 20
44.0867969228972
 30
0.0
 11
25.78191770270565
 21
44.12455905904408
 31
0.0
  0
LWPOLYLINE
  5
D49
330
1F
100
AcDbEntity
  8
0
  6
CONTINUOUS
 62
     7
100
AcDbPolyline
 90
        7
 70
     0
 43
0.0
 10
43.55963254879148
 20
42.62812217543857
 10
43.40882506947647
 20
42.64344073551869
 10
43.26417799843588
 20
42.68877066436046
 10
43.13160009649893
 20
42.76226025942236
 10
43.01470501183088
 20
42.86280653017415
 10
42.92221708154842
 20
42.98290531461816
 10
42.85486756332544
 20
43.12160704719822
  0
LINE
  5
D4A
330
1F
100
AcDbEntity
  8
0
  6
HIDDEN
 62
     8
100
AcDbLine
 10
20.08051648225608
 20
58.84725467626863
 30
0.0
 11
20.08160307986116
 21
58.84603716601835
 31
0.0
  0
LINE
  5
D4B
330
1F
100
AcDbEntity
  8
0
  6
HIDDEN
 62
     8
100
AcDbLine
 10
22.57574005697181
 20
59.62185827096333
 30
0.0
 11
22.59499199247472
 21
59.59475997745702
 31
0.0
  0
LINE
  5
D4C
330
1F
100
AcDbEntity
  8
0
  6
HIDDEN
 62
     8
100
AcDbLine
 10
22.59499199247472
 20
59.59475997745702
 30
0.0
 11
22.6125718217199
 21
59.5667066394974
 31
0.0
  0
LINE
  5
D4D
330
1F
100
AcDbEntity
  8
0
  6
HIDDEN
 62
     8
100
AcDbLine
 10
22.02572593089393
 20
59.91384459104235
 30
0.0
 11
22.01903899254566
 21
59.92458680218529
 31
0.0
  0
LINE
  5
D4E
330
1F
100
AcDbEntity
  8
0
  6
HIDDEN
 62
     8
100
AcDbLine
 10
22.03227296135688
 20
59.90301498303141
 30
0.0
 11
22.02572593089393
 21
59.91384459104235
 31
0.0
  0
LINE
  5
D4F
330
1F
100
AcDbEntity
  8
0
  6
HIDDEN
 62
     8
100
AcDbLine
 10
22.03867127404357
 20
59.89209613639008
 30
0.0
 11
22.03227296135688
 21
59.90301498303141
 31
0.0
  0
LINE
  5
D50
330
1F
100
AcDbEntity
  8
0
  6
HIDDEN
 62
     8
100
AcDbLine
 10
22.47721055581458
 20
58.41475470976243
 30
0.0
 11
22.44999076099002
 21
58.40449392603247
 31
0.0
  0
LINE
  5
D51
330
1F
100
AcDbEntity
  8
0
  6
CONTINUOUS
 62
     7
100
AcDbLine
 10
42.94179155657011
 20
65.08506661652152
 30
0.0
 11
42.56461688735872
 21
64.95504934440171
 31
0.0
  0
LINE
  5
D52
330
1F
100
AcDbEntity
  8
0
  6
CONTINUOUS
 62
     7
100
AcDbLine
 10
43.35321818052981
 20
64.87007345062946
 30
0.0
 11
42.97604351131842
 21
64.74005617850966
 31
0.0
  0
LINE
  5
D53
330
1F
100
AcDbEntity
  8
0
  6
HIDDEN
 62
     8
100
AcDbLine
 10
22.44999076099002
 20
58.40449392603247
 30
0.0
 11
22.42212648570127
 21
58.39578072799283
 31
0.0
  0
LINE
  5
D54
330
1F
100
AcDbEntity
  8
0
  6
HIDDEN
 62
     8
100
AcDbLine
 10
20.085041320784
 20
58.84449215926212
 30
0.0
 11
20.0858509690438
 21
58.84471821984006
 31
0.0
  0
LINE
  5
D55
330
1F
100
AcDbEntity
  8
0
  6
HIDDEN
 62
     8
100
AcDbLine
 10
22.42212648570127
 20
58.39578072799283
 30
0.0
 11
22.39377854031136
 21
58.38851018064524
 31
0.0
  0
LINE
  5
D56
330
1F
100
AcDbEntity
  8
0
  6
HIDDEN
 62
     8
100
AcDbLine
 10
22.08619721662896
 20
59.65090262587143
 30
0.0
 11
22.09446504056146
 21
59.65286944898292
 31
0.0
  0
LINE
  5
D57
330
1F
100
AcDbEntity
  8
0
  6
HIDDEN
 62
     8
100
AcDbLine
 10
22.07779820890651
 20
59.6495811531493
 30
0.0
 11
22.08619721662896
 21
59.65090262587143
 31
0.0
  0
LINE
  5
D58
330
1F
100
AcDbEntity
  8
0
  6
CONTINUOUS
 62
     7
100
AcDbLine
 10
51.80535195574908
 20
46.26026095025297
 30
0.0
 11
51.77829138187313
 21
46.25704081985392
 31
0.0
  0
LINE
  5
D59
330
1F
100
AcDbEntity
  8
0
  6
CONTINUOUS
 62
     7
100
AcDbLine
 10
51.77829138187313
 20
46.25704081985392
 30
0.0
 11
51.75113124924329
 21
46.25496827694481
 31
0.0
  0
LINE
  5
D5A
330
1F
100
AcDbEntity
  8
0
  6
CONTINUOUS
 62
     7
100
AcDbLine
 10
25.78191769491107
 20
44.44572523231943
 30
0.0
 11
55.38859179092937
 21
45.00935428220296
 31
0.0
  0
LINE
  5
D5B
330
1F
100
AcDbEntity
  8
0
  6
CONTINUOUS
 62
     7
100
AcDbLine
 10
55.3850229568299
 20
45.19682031498057
 30
0.0
 11
25.77834886081159
 21
44.63319126509705
 31
0.0
  0
LINE
  5
D5C
330
1F
100
AcDbEntity
  8
0
  6
CONTINUOUS
 62
     7
100
AcDbLine
 10
47.31620070600543
 20
46.24585557219475
 30
0.0
 11
47.93586888419257
 21
46.25773871513435
 31
0.0
  0
LINE
  5
D5D
330
1F
100
AcDbEntity
  8
0
  6
CONTINUOUS
 62
     7
100
AcDbLine
 10
46.80111316372967
 20
46.23847334468202
 30
0.0
 11
47.31620070600543
 21
46.24585557219475
 31
0.0
  0
LINE
  5
D5E
330
1F
100
AcDbEntity
  8
0
  6
CONTINUOUS
 62
     7
100
AcDbLine
 10
47.93586888419257
 20
46.25773871513435
 30
0.0
 11
48.28603918297365
 21
46.26273894377284
 31
0.0
  0
LINE
  5
D5F
330
1F
100
AcDbEntity
  8
0
  6
CONTINUOUS
 62
     7
100
AcDbLine
 10
32.77200032104876
 20
44.08679701605549
 30
0.0
 11
35.90481257311925
 21
44.12455930117353
 31
0.0
  0
LINE
  5
D60
330
1F
100
AcDbEntity
  8
0
  6
HIDDEN
 62
     8
100
AcDbLine
 10
20.08991841546324
 20
60.15618069351939
 30
0.0
 11
20.0894236077728
 21
60.1566111395997
 31
0.0
  0
LINE
  5
D61
330
1F
100
AcDbEntity
  8
0
  6
HIDDEN
 62
     8
100
AcDbLine
 10
20.08160307986116
 20
58.84603716601835
 30
0.0
 11
20.08218368142757
 21
58.84549850682785
 31
0.0
  0
LINE
  5
D62
330
1F
100
AcDbEntity
  8
0
  6
HIDDEN
 62
     8
100
AcDbLine
 10
22.50991606896735
 20
59.69739705424553
 30
0.0
 11
22.53300564944883
 21
59.67317939113984
 31
0.0
  0
LINE
  5
D63
330
1F
100
AcDbEntity
  8
0
  6
HIDDEN
 62
     8
100
AcDbLine
 10
20.09037259188316
 20
60.15569674929392
 30
0.0
 11
20.08991841546324
 21
60.15618069351939
 31
0.0
  0
LINE
  5
D64
330
1F
100
AcDbEntity
  8
0
  6
HIDDEN
 62
     8
100
AcDbLine
 10
22.53300564944883
 20
59.67317939113984
 30
0.0
 11
22.55501246225932
 21
59.64799893564862
 31
0.0
  0
LINE
  5
D65
330
1F
100
AcDbEntity
  8
0
  6
HIDDEN
 62
     8
100
AcDbLine
 10
22.55501246225932
 20
59.64799893564862
 30
0.0
 11
22.57574005697181
 21
59.62185827096333
 31
0.0
  0
LINE
  5
D66
330
1F
100
AcDbEntity
  8
0
  6
CONTINUOUS
 62
     7
100
AcDbLine
 10
33.34771379072513
 20
43.24497804802368
 30
0.0
 11
32.86126623079671
 21
44.58149014964684
 31
0.0
  0
LINE
  5
D69
330
1F
100
AcDbEntity
  8
0
  6
CONTINUOUS
 62
     7
100
AcDbLine
 10
28.23467002669941
 20
43.24497792630833
 30
0.0
 11
28.69223018997611
 21
44.50212224381904
 31
0.0
  0
LINE
  5
D6A
330
1F
100
AcDbEntity
  8
0
  6
HIDDEN
 62
     8
100
AcDbLine
 10
22.39377854031136
 20
58.38851018064524
 30
0.0
 11
22.36510773062833
 21
58.38257735119403
 31
0.0
  0
LINE
  5
D6B
330
1F
100
AcDbEntity
  8
0
  6
HIDDEN
 62
     8
100
AcDbLine
 10
22.36510773062833
 20
58.38257735119403
 30
0.0
 11
22.33627486542844
 21
58.37787730484615
 31
0.0
  0
LINE
  5
D6C
330
1F
100
AcDbEntity
  8
0
  6
CONTINUOUS
 62
     7
100
AcDbLine
 10
46.4399504326918
 20
46.23462804516296
 30
0.0
 11
46.80111316372967
 21
46.23847334468202
 31
0.0
  0
LINE
  5
D6D
330
1F
100
AcDbEntity
  8
0
  6
CONTINUOUS
 62
     7
100
AcDbLine
 10
48.28603918297365
 20
46.26273894377284
 30
0.0
 11
48.85035174136604
 21
46.26816405300736
 31
0.0
  0
LINE
  5
D6E
330
1F
100
AcDbEntity
  8
0
  6
CONTINUOUS
 62
     7
100
AcDbLine
 10
48.85035174136604
 20
46.26816405300736
 30
0.0
 11
49.63967518586176
 21
46.27197569201839
 31
0.0
  0
LINE
  5
D6F
330
1F
100
AcDbEntity
  8
0
  6
CONTINUOUS
 62
     7
100
AcDbLine
 10
41.654958435246
 20
46.25505886942318
 30
0.0
 11
56.31436611640181
 21
46.25505921858553
 31
0.0
  0
LINE
  5
D70
330
1F
100
AcDbEntity
  8
0
  6
CONTINUOUS
 62
     7
100
AcDbLine
 10
49.63967518586176
 20
46.27197569201839
 30
0.0
 11
50.07305366545416
 21
46.27154002522085
 31
0.0
  0
LINE
  5
D71
330
1F
100
AcDbEntity
  8
0
  6
CONTINUOUS
 62
     7
100
AcDbLine
 10
50.07305366545416
 20
46.27154002522085
 30
0.0
 11
50.71307823093599
 21
46.2680129878555
 31
0.0
  0
LINE
  5
D72
330
1F
100
AcDbEntity
  8
0
  6
CONTINUOUS
 62
     7
100
AcDbLine
 10
50.71307823093599
 20
46.2680129878555
 30
0.0
 11
51.28052955545491
 21
46.26245787446609
 31
0.0
  0
LINE
  5
D73
330
1F
100
AcDbEntity
  8
0
  6
CONTINUOUS
 62
     7
100
AcDbLine
 10
52.55410292849953
 20
46.24045171202138
 30
0.0
 11
53.13733087562313
 21
46.23361024773628
 31
0.0
  0
LINE
  5
D74
330
1F
100
AcDbEntity
  8
0
  6
CONTINUOUS
 62
     7
100
AcDbLine
 10
51.28052955545491
 20
46.26245787446609
 30
0.0
 11
51.62270361092469
 21
46.25747695103048
 31
0.0
  0
LINE
  5
D75
330
1F
100
AcDbEntity
  8
0
  6
CONTINUOUS
 62
     7
100
AcDbLine
 10
52.00786885679211
 20
46.24959694940166
 30
0.0
 11
52.55410292849953
 21
46.24045171202138
 31
0.0
  0
LINE
  5
D76
330
1F
100
AcDbEntity
  8
0
  6
CONTINUOUS
 62
     7
100
AcDbLine
 10
51.62270361092469
 20
46.25747695103048
 30
0.0
 11
52.00786885679211
 21
46.24959694940166
 31
0.0
  0
LINE
  5
D77
330
1F
100
AcDbEntity
  8
0
  6
CONTINUOUS
 62
     7
100
AcDbLine
 10
47.77391029320227
 20
46.25722494353019
 30
0.0
 11
47.80051551070819
 21
46.25514929642529
 31
0.0
  0
LINE
  5
D78
330
1F
100
AcDbEntity
  8
0
  6
CONTINUOUS
 62
     7
100
AcDbLine
 10
47.74740613016642
 20
46.26044100856998
 30
0.0
 11
47.77391029320227
 21
46.25722494353019
 31
0.0
  0
LINE
  5
D79
330
1F
100
AcDbEntity
  8
0
  6
CONTINUOUS
 62
     7
100
AcDbLine
 10
47.72105873466794
 20
46.26477602730588
 30
0.0
 11
47.74740613016642
 21
46.26044100856998
 31
0.0
  0
LINE
  5
D7A
330
1F
100
AcDbEntity
  8
0
  6
CONTINUOUS
 62
     7
100
AcDbLine
 10
46.42710248375415
 20
46.23692680347829
 30
0.0
 11
46.43995043433396
 21
46.23462805785718
 31
0.0
  0
LINE
  5
D7B
330
1F
100
AcDbEntity
  8
0
  6
CONTINUOUS
 62
     7
100
AcDbLine
 10
47.69442975709869
 20
46.27031886460208
 30
0.0
 11
47.72105873466794
 21
46.26477602730588
 31
0.0
  0
LINE
  5
D7C
330
1F
100
AcDbEntity
  8
0
  6
HIDDEN
 62
     8
100
AcDbLine
 10
20.08218368142757
 20
58.84549850682785
 30
0.0
 11
20.08281092435627
 21
58.84502795303482
 31
0.0
  0
LINE
  5
D7D
330
1F
100
AcDbEntity
  8
0
  6
HIDDEN
 62
     8
100
AcDbLine
 10
20.66884816682558
 20
60.60326898832935
 30
0.0
 11
20.66786251467321
 21
60.6040273729245
 31
0.0
  0
LINE
  5
D7E
330
1F
100
AcDbEntity
  8
0
  6
HIDDEN
 62
     8
100
AcDbLine
 10
22.41902559031034
 20
59.77790439752543
 30
0.0
 11
22.4530265324145
 21
59.7500474470446
 31
0.0
  0
LINE
  5
D7F
330
1F
100
AcDbEntity
  8
0
  6
HIDDEN
 62
     8
100
AcDbLine
 10
22.4530265324145
 20
59.7500474470446
 30
0.0
 11
22.48594016351322
 21
59.72064934438733
 31
0.0
  0
LINE
  5
D80
330
1F
100
AcDbEntity
  8
0
  6
HIDDEN
 62
     8
100
AcDbLine
 10
22.48594016351322
 20
59.72064934438733
 30
0.0
 11
22.50991606896735
 21
59.69739705424553
 31
0.0
  0
LWPOLYLINE
  5
D81
330
1F
100
AcDbEntity
  8
0
  6
CONTINUOUS
 62
     7
100
AcDbPolyline
 90
       13
 70
     0
 43
0.0
 10
28.23467002669941
 20
43.24497792630833
 10
28.15220272529735
 20
43.07438502175563
 10
28.03711754925355
 20
42.92385889301572
 10
27.89411567157924
 20
42.79954845909981
 10
27.7260375960772
 20
42.7052268355643
 10
27.54542764917134
 20
42.64793361656621
 10
27.35698628621412
 20
42.62812750050118
 10
27.16520447218531
 20
42.64726998755425
 10
26.98439563353852
 20
42.70393239979653
 10
26.81867325755015
 20
42.79579439222854
 10
26.67255440028226
 20
42.92147723206364
 10
26.55694448767194
 20
43.07160071137725
 10
26.47275759057011
 20
43.24497787298144
  0
LINE
  5
D82
330
1F
100
AcDbEntity
  8
0
  6
CONTINUOUS
 62
     7
100
AcDbLine
 10
47.66805715118585
 20
46.27696344675551
 30
0.0
 11
47.69442975709869
 21
46.27031886460208
 31
0.0
  0
LINE
  5
D83
330
1F
100
AcDbEntity
  8
0
  6
CONTINUOUS
 62
     7
100
AcDbLine
 10
46.41447156526213
 20
46.24031644332603
 30
0.0
 11
46.42710248375415
 21
46.23692680347829
 31
0.0
  0
LINE
  5
D84
330
1F
100
AcDbEntity
  8
0
  6
CONTINUOUS
 62
     7
100
AcDbLine
 10
47.64197672072562
 20
46.28467226558619
 30
0.0
 11
47.66805715118585
 21
46.27696344675551
 31
0.0
  0
LINE
  5
D85
330
1F
100
AcDbEntity
  8
0
  6
CONTINUOUS
 62
     7
100
AcDbLine
 10
47.61548178775965
 20
46.29367435969482
 30
0.0
 11
47.64197672072562
 21
46.28467226558619
 31
0.0
  0
LINE
  5
D86
330
1F
100
AcDbEntity
  8
0
  6
CONTINUOUS
 62
     7
100
AcDbLine
 10
46.40214412809297
 20
46.24470116347642
 30
0.0
 11
46.41447156526213
 21
46.24031644332603
 31
0.0
  0
LINE
  5
D87
330
1F
100
AcDbEntity
  8
0
  6
CONTINUOUS
 62
     7
100
AcDbLine
 10
47.58936134577488
 20
46.30371461358295
 30
0.0
 11
47.61548178775965
 21
46.29367435969482
 31
0.0
  0
LINE
  5
D88
330
1F
100
AcDbEntity
  8
0
  6
CONTINUOUS
 62
     7
100
AcDbLine
 10
47.56364264279135
 20
46.31474413061439
 30
0.0
 11
47.58936134577488
 21
46.30371461358295
 31
0.0
  0
LINE
  5
D89
330
1F
100
AcDbEntity
  8
0
  6
CONTINUOUS
 62
     7
100
AcDbLine
 10
46.38913061764276
 20
46.25050379623508
 30
0.0
 11
46.40214412809297
 21
46.24470116347642
 31
0.0
  0
LINE
  5
D8A
330
1F
100
AcDbEntity
  8
0
  6
HIDDEN
 62
     8
100
AcDbLine
 10
20.08281092435627
 20
58.84502795303482
 30
0.0
 11
20.08348740628899
 21
58.84467261025027
 31
0.0
  0
LINE
  5
D8B
330
1F
100
AcDbEntity
  8
0
  6
HIDDEN
 62
     8
100
AcDbLine
 10
22.23720059726307
 20
59.89982614129059
 30
0.0
 11
22.27471407085892
 21
59.87720884033771
 31
0.0
  0
LINE
  5
D8C
330
1F
100
AcDbEntity
  8
0
  6
HIDDEN
 62
     8
100
AcDbLine
 10
20.0894236077728
 20
60.1566111395997
 30
0.0
 11
20.08888101756973
 21
60.15694500416336
 31
0.0
  0
LINE
  5
D8D
330
1F
100
AcDbEntity
  8
0
  6
HIDDEN
 62
     8
100
AcDbLine
 10
22.27471407085892
 20
59.87720884033771
 30
0.0
 11
22.31178157343314
 21
59.85387242340549
 31
0.0
  0
LINE
  5
D8E
330
1F
100
AcDbEntity
  8
0
  6
HIDDEN
 62
     8
100
AcDbLine
 10
22.31178157343314
 20
59.85387242340549
 30
0.0
 11
22.34827484173821
 21
59.82965248005879
 31
0.0
  0
LINE
  5
D8F
330
1F
100
AcDbEntity
  8
0
  6
HIDDEN
 62
     8
100
AcDbLine
 10
22.34827484173821
 20
59.82965248005879
 30
0.0
 11
22.38406560382707
 21
59.80438460744117
 31
0.0
  0
LINE
  5
D90
330
1F
100
AcDbEntity
  8
0
  6
HIDDEN
 62
     8
100
AcDbLine
 10
22.38406560382707
 20
59.80438460744117
 30
0.0
 11
22.41902559031034
 21
59.77790439752543
 31
0.0
  0
LINE
  5
D91
330
1F
100
AcDbEntity
  8
0
  6
CONTINUOUS
 62
     7
100
AcDbLine
 10
39.35177233175864
 20
62.43209250963379
 30
0.0
 11
39.56360383059267
 21
63.04153329246651
 31
0.0
  0
LINE
  5
D92
330
1F
100
AcDbEntity
  8
0
  6
CONTINUOUS
 62
     7
100
AcDbLine
 10
49.33187630474238
 20
59.94326024751249
 30
0.0
 11
49.27612100278615
 21
59.92260010268879
 31
0.0
  0
LINE
  5
D93
330
1F
100
AcDbEntity
  8
0
  6
CONTINUOUS
 62
     7
100
AcDbLine
 10
49.38798439722986
 20
59.96143860789219
 30
0.0
 11
49.33187630474238
 21
59.94326024751249
 31
0.0
  0
LINE
  5
D94
330
1F
100
AcDbEntity
  8
0
  6
CONTINUOUS
 62
     7
100
AcDbLine
 10
49.44479731206392
 20
59.97727734055935
 30
0.0
 11
49.38798439722986
 21
59.96143860789219
 31
0.0
  0
LINE
  5
D95
330
1F
100
AcDbEntity
  8
0
  6
CONTINUOUS
 62
     7
100
AcDbLine
 10
49.57389523619531
 20
59.49485791786688
 30
0.0
 11
49.50116487448771
 21
59.47511239815395
 31
0.0
  0
LINE
  5
D96
330
1F
100
AcDbEntity
  8
0
  6
CONTINUOUS
 62
     7
100
AcDbLine
 10
49.55756086378087
 20
60.00130968666603
 30
0.0
 11
49.44479731206392
 21
59.97727734055935
 31
0.0
  0
LINE
  5
D97
330
1F
100
AcDbEntity
  8
0
  6
CONTINUOUS
 62
     7
100
AcDbLine
 10
49.6448172090943
 20
59.50898068659149
 30
0.0
 11
49.57389523619531
 21
59.49485791786688
 31
0.0
  0
LINE
  5
D98
330
1F
100
AcDbEntity
  8
0
  6
HIDDEN
 62
     8
100
AcDbLine
 10
59.149521879548
 20
59.67473282982026
 30
0.0
 11
59.0997805018495
 21
59.66601547975351
 31
0.0
  0
LINE
  5
D99
330
1F
100
AcDbEntity
  8
0
  6
HIDDEN
 62
     8
100
AcDbLine
 10
59.0997805018495
 20
59.66601547975351
 30
0.0
 11
59.05454989310223
 21
59.65898936684793
 31
0.0
  0
LINE
  5
D9A
330
1F
100
AcDbEntity
  8
0
  6
HIDDEN
 62
     8
100
AcDbLine
 10
21.62148300932431
 20
60.21003915093394
 30
0.0
 11
21.73749399807149
 21
60.15663006601413
 31
0.0
  0
LINE
  5
D9B
330
1F
100
AcDbEntity
  8
0
  6
CONTINUOUS
 62
     7
100
AcDbLine
 10
47.5374236484441
 20
46.32717403993213
 30
0.0
 11
47.56364264279135
 21
46.31474413061439
 31
0.0
  0
LINE
  5
D9C
330
1F
100
AcDbEntity
  8
0
  6
HIDDEN
 62
     8
100
AcDbLine
 10
21.73749399807149
 20
60.15663006601413
 30
0.0
 11
21.8528178178356
 21
60.10175324855777
 31
0.0
  0
LINE
  5
D9D
330
1F
100
AcDbEntity
  8
0
  6
HIDDEN
 62
     8
100
AcDbLine
 10
21.8528178178356
 20
60.10175324855777
 30
0.0
 11
21.96738141009454
 21
60.04527553913876
 31
0.0
  0
LINE
  5
D9E
330
1F
100
AcDbEntity
  8
0
  6
HIDDEN
 62
     8
100
AcDbLine
 10
21.96738141009454
 20
60.04527553913876
 30
0.0
 11
22.03570673174616
 21
60.01052109266995
 31
0.0
  0
LINE
  5
D9F
330
1F
100
AcDbEntity
  8
0
  6
CONTINUOUS
 62
     7
100
AcDbLine
 10
47.51168008945973
 20
46.34056071946321
 30
0.0
 11
47.5374236484441
 21
46.32717403993213
 31
0.0
  0
LINE
  5
DA0
330
1F
100
AcDbEntity
  8
0
  6
HIDDEN
 62
     8
100
AcDbLine
 10
22.03570673174616
 20
60.01052109266995
 30
0.0
 11
22.10356382410222
 21
59.97487372392065
 31
0.0
  0
LINE
  5
DA1
330
1F
100
AcDbEntity
  8
0
  6
HIDDEN
 62
     8
100
AcDbLine
 10
20.66786251467321
 20
60.6040273729245
 30
0.0
 11
20.66678376215024
 21
60.6046021185912
 31
0.0
  0
LINE
  5
DA2
330
1F
100
AcDbEntity
  8
0
  6
CONTINUOUS
 62
     7
100
AcDbLine
 10
46.37658516354051
 20
46.25724799948353
 30
0.0
 11
46.38913061764276
 21
46.25050379623508
 31
0.0
  0
LINE
  5
DA3
330
1F
100
AcDbEntity
  8
0
  6
HIDDEN
 62
     8
100
AcDbLine
 10
22.10356382410222
 20
59.97487372392065
 30
0.0
 11
22.1707845055045
 21
59.9380649138177
 31
0.0
  0
LINE
  5
DA4
330
1F
100
AcDbEntity
  8
0
  6
CONTINUOUS
 62
     7
100
AcDbLine
 10
47.48642610420766
 20
46.35484973752238
 30
0.0
 11
47.51168008945973
 21
46.34056071946321
 31
0.0
  0
LINE
  5
DA5
330
1F
100
AcDbEntity
  8
0
  6
HIDDEN
 62
     8
100
AcDbLine
 10
22.1707845055045
 20
59.9380649138177
 30
0.0
 11
22.23720059726307
 21
59.89982614129059
 31
0.0
  0
LINE
  5
DA6
330
1F
100
AcDbEntity
  8
0
  6
CONTINUOUS
 62
     7
100
AcDbLine
 10
47.46062902822187
 20
46.3706516823447
 30
0.0
 11
47.48642610420766
 21
46.35484973752238
 31
0.0
  0
LINE
  5
DA7
330
1F
100
AcDbEntity
  8
0
  6
CONTINUOUS
 62
     7
100
AcDbLine
 10
46.36451211631185
 20
46.26480596206346
 30
0.0
 11
46.37658516354051
 21
46.25724799948353
 31
0.0
  0
LINE
  5
DA8
330
1F
100
AcDbEntity
  8
0
  6
CONTINUOUS
 62
     7
100
AcDbLine
 10
47.43538299778485
 20
46.38732015286793
 30
0.0
 11
47.46062902822187
 21
46.3706516823447
 31
0.0
  0
LINE
  5
DA9
330
1F
100
AcDbEntity
  8
0
  6
CONTINUOUS
 62
     7
100
AcDbLine
 10
46.35152469548358
 20
46.27410970187303
 30
0.0
 11
46.36451211631185
 21
46.26480596206346
 31
0.0
  0
LINE
  5
DAA
330
1F
100
AcDbEntity
  8
0
  6
CONTINUOUS
 62
     7
100
AcDbLine
 10
35.10962623017788
 20
43.24497808962732
 30
0.0
 11
35.61515548074885
 21
44.63391724067013
 31
0.0
  0
LINE
  5
DAB
330
1F
100
AcDbEntity
  8
0
  6
CONTINUOUS
 62
     7
100
AcDbLine
 10
49.11567821165673
 20
59.84727548575655
 30
0.0
 11
49.01843375473053
 21
59.78838268899841
 31
0.0
  0
LINE
  5
DAC
330
1F
100
AcDbEntity
  8
0
  6
CONTINUOUS
 62
     7
100
AcDbLine
 10
49.16792406062348
 20
59.87456809860816
 30
0.0
 11
49.11567821165673
 21
59.84727548575655
 31
0.0
  0
LINE
  5
DAD
330
1F
100
AcDbEntity
  8
0
  6
CONTINUOUS
 62
     7
100
AcDbLine
 10
49.22128124030442
 20
59.89961974642665
 30
0.0
 11
49.16792406062348
 21
59.87456809860816
 31
0.0
  0
LINE
  5
DAE
330
1F
100
AcDbEntity
  8
0
  6
CONTINUOUS
 62
     7
100
AcDbLine
 10
49.42904961231384
 20
59.44972789145684
 30
0.0
 11
49.35978435149739
 21
59.41868922753773
 31
0.0
  0
LINE
  5
DAF
330
1F
100
AcDbEntity
  8
0
  6
CONTINUOUS
 62
     7
100
AcDbLine
 10
49.27612100278615
 20
59.92260010268879
 30
0.0
 11
49.22128124030442
 21
59.89961974642665
 31
0.0
  0
LINE
  5
DB0
330
1F
100
AcDbEntity
  8
0
  6
CONTINUOUS
 62
     7
100
AcDbLine
 10
49.50116487448771
 20
59.47511239815395
 30
0.0
 11
49.42904961231384
 21
59.44972789145684
 31
0.0
  0
LINE
  5
DB1
330
1F
100
AcDbEntity
  8
0
  6
HIDDEN
 62
     8
100
AcDbLine
 10
60.15267147886429
 20
59.9301858308673
 30
0.0
 11
60.05574973866557
 21
59.90210513619365
 31
0.0
  0
LINE
  5
DB2
330
1F
100
AcDbEntity
  8
0
  6
HIDDEN
 62
     8
100
AcDbLine
 10
60.05574973866557
 20
59.90210513619365
 30
0.0
 11
59.96152240728417
 21
59.87526739938655
 31
0.0
  0
LINE
  5
DB3
330
1F
100
AcDbEntity
  8
0
  6
HIDDEN
 62
     8
100
AcDbLine
 10
59.96152240728417
 20
59.87526739938655
 30
0.0
 11
59.87016685749715
 21
59.84972306542221
 31
0.0
  0
LINE
  5
DB4
330
1F
100
AcDbEntity
  8
0
  6
HIDDEN
 62
     8
100
AcDbLine
 10
59.87016685749715
 20
59.84972306542221
 30
0.0
 11
59.78185200084215
 21
59.82551934205265
 31
0.0
  0
LINE
  5
DB5
330
1F
100
AcDbEntity
  8
0
  6
HIDDEN
 62
     8
100
AcDbLine
 10
59.78185200084215
 20
59.82551934205265
 30
0.0
 11
59.69674555269711
 21
59.80270222204975
 31
0.0
  0
LINE
  5
DB6
330
1F
100
AcDbEntity
  8
0
  6
HIDDEN
 62
     8
100
AcDbLine
 10
59.69674555269711
 20
59.80270222204975
 30
0.0
 11
59.61501181543129
 21
59.7813157713313
 31
0.0
  0
LINE
  5
DB7
330
1F
100
AcDbEntity
  8
0
  6
HIDDEN
 62
     8
100
AcDbLine
 10
59.61501181543129
 20
59.7813157713313
 30
0.0
 11
59.53680729888896
 21
59.76140093697705
 31
0.0
  0
LINE
  5
DB8
330
1F
100
AcDbEntity
  8
0
  6
HIDDEN
 62
     8
100
AcDbLine
 10
59.53680729888896
 20
59.76140093697705
 30
0.0
 11
59.46228057132687
 21
59.74299554231187
 31
0.0
  0
LINE
  5
DB9
330
1F
100
AcDbEntity
  8
0
  6
HIDDEN
 62
     8
100
AcDbLine
 10
60.30978082808123
 20
60.60460305995674
 30
0.0
 11
60.31093963548109
 21
60.6048815636343
 31
0.0
  0
LINE
  5
DBA
330
1F
100
AcDbEntity
  8
0
  6
HIDDEN
 62
     8
100
AcDbLine
 10
59.46228057132687
 20
59.74299554231187
 30
0.0
 11
59.39157324790173
 21
59.72613455752498
 31
0.0
  0
LINE
  5
DBB
330
1F
100
AcDbEntity
  8
0
  6
HIDDEN
 62
     8
100
AcDbLine
 10
59.39157324790173
 20
59.72613455752498
 30
0.0
 11
59.32482027397039
 21
59.71085016950126
 31
0.0
  0
LINE
  5
DBC
330
1F
100
AcDbEntity
  8
0
  6
HIDDEN
 62
     8
100
AcDbLine
 10
59.65745930823391
 20
58.51764145758294
 30
0.0
 11
59.56274581452061
 21
58.49635914733863
 31
0.0
  0
LINE
  5
DBD
330
1F
100
AcDbEntity
  8
0
  6
HIDDEN
 62
     8
100
AcDbLine
 10
59.32482027397039
 20
59.71085016950126
 30
0.0
 11
59.26214908762307
 21
59.69717155619878
 31
0.0
  0
LINE
  5
DBE
330
1F
100
AcDbEntity
  8
0
  6
HIDDEN
 62
     8
100
AcDbLine
 10
59.56274581452061
 20
58.49635914733863
 30
0.0
 11
59.47200259231458
 21
58.47682444113317
 31
0.0
  0
LINE
  5
DBF
330
1F
100
AcDbEntity
  8
0
  6
HIDDEN
 62
     8
100
AcDbLine
 10
59.26214908762307
 20
59.69717155619878
 30
0.0
 11
59.20367913760917
 21
59.68512478929169
 31
0.0
  0
LINE
  5
DC0
330
1F
100
AcDbEntity
  8
0
  6
HIDDEN
 62
     8
100
AcDbLine
 10
59.47200259231458
 20
58.47682444113317
 30
0.0
 11
59.38548872671242
 21
58.4591112321005
 31
0.0
  0
LINE
  5
DC1
330
1F
100
AcDbEntity
  8
0
  6
HIDDEN
 62
     8
100
AcDbLine
 10
59.38548872671242
 20
58.4591112321005
 30
0.0
 11
59.30346099697903
 21
58.44329060438628
 31
0.0
  0
LINE
  5
DC2
330
1F
100
AcDbEntity
  8
0
  6
HIDDEN
 62
     8
100
AcDbLine
 10
59.20367913760917
 20
59.68512478929169
 30
0.0
 11
59.149521879548
 21
59.67473282982026
 31
0.0
  0
LINE
  5
DC3
330
1F
100
AcDbEntity
  8
0
  6
HIDDEN
 62
     8
100
AcDbLine
 10
59.30346099697903
 20
58.44329060438628
 30
0.0
 11
59.22617087060068
 21
58.42942988294094
 31
0.0
  0
LINE
  5
DC4
330
1F
100
AcDbEntity
  8
0
  6
HIDDEN
 62
     8
100
AcDbLine
 10
59.22617087060068
 20
58.42942988294094
 30
0.0
 11
59.21794728162116
 21
58.42802388813973
 31
0.0
  0
LINE
  5
DC5
330
1F
100
AcDbEntity
  8
0
  6
HIDDEN
 62
     8
100
AcDbLine
 10
59.06348313779173
 20
58.40206074667676
 30
0.0
 11
59.16666047610291
 21
58.41976870835402
 31
0.0
  0
LINE
  5
DC6
330
1F
100
AcDbEntity
  8
0
  6
HIDDEN
 62
     8
100
AcDbLine
 10
59.01163463608122
 20
58.39345138069866
 30
0.0
 11
59.06348313779173
 21
58.40206074667676
 31
0.0
  0
LINE
  5
DC7
330
1F
100
AcDbEntity
  8
0
  6
HIDDEN
 62
     8
100
AcDbLine
 10
59.16666047610291
 20
58.41976870835402
 30
0.0
 11
59.21794728162116
 21
58.42802388813973
 31
0.0
  0
LINE
  5
DC8
330
1F
100
AcDbEntity
  8
0
  6
HIDDEN
 62
     8
100
AcDbLine
 10
58.95964093591526
 20
58.38556737146975
 30
0.0
 11
59.01163463608122
 21
58.39345138069866
 31
0.0
  0
LINE
  5
DC9
330
1F
100
AcDbEntity
  8
0
  6
CONTINUOUS
 62
     7
100
AcDbLine
 10
60.16051462081223
 20
52.80924848392944
 30
0.0
 11
60.78234669054719
 21
52.80924849829698
 31
0.0
  0
LINE
  5
DCA
330
1F
100
AcDbEntity
  8
0
  6
HIDDEN
 62
     8
100
AcDbLine
 10
21.22068193501951
 20
58.54059427596897
 30
0.0
 11
21.31910537978308
 21
58.51764054787031
 31
0.0
  0
LINE
  5
DCB
330
1F
100
AcDbEntity
  8
0
  6
HIDDEN
 62
     8
100
AcDbLine
 10
21.11880677546321
 20
58.56514200351066
 30
0.0
 11
21.22068193501951
 21
58.54059427596897
 31
0.0
  0
LINE
  5
DCC
330
1F
100
AcDbEntity
  8
0
  6
HIDDEN
 62
     8
100
AcDbLine
 10
21.01373568865255
 20
58.59120542413411
 30
0.0
 11
21.11880677546321
 21
58.56514200351066
 31
0.0
  0
LINE
  5
DCD
330
1F
100
AcDbEntity
  8
0
  6
HIDDEN
 62
     8
100
AcDbLine
 10
20.90571887770412
 20
58.6187063634172
 30
0.0
 11
21.01373568865255
 21
58.59120542413411
 31
0.0
  0
LINE
  5
DCE
330
1F
100
AcDbEntity
  8
0
  6
HIDDEN
 62
     8
100
AcDbLine
 10
20.79500093518456
 20
58.64756702587003
 30
0.0
 11
20.90571887770412
 21
58.6187063634172
 31
0.0
  0
LINE
  5
DCF
330
1F
100
AcDbEntity
  8
0
  6
HIDDEN
 62
     8
100
AcDbLine
 10
20.08348740628899
 20
58.84467261025027
 30
0.0
 11
20.08421573141988
 21
58.84447958485097
 31
0.0
  0
LINE
  5
DD0
330
1F
100
AcDbEntity
  8
0
  6
HIDDEN
 62
     8
100
AcDbLine
 10
20.68181808716744
 20
58.67771092741228
 30
0.0
 11
20.79500093518456
 21
58.64756702587003
 31
0.0
  0
LINE
  5
DD1
330
1F
100
AcDbEntity
  8
0
  6
HIDDEN
 62
     8
100
AcDbLine
 10
20.56639848039417
 20
58.70906303246504
 30
0.0
 11
20.68181808716744
 21
58.67771092741228
 31
0.0
  0
LINE
  5
DD2
330
1F
100
AcDbEntity
  8
0
  6
HIDDEN
 62
     8
100
AcDbLine
 10
20.4489607162217
 20
58.74155034371044
 30
0.0
 11
20.56639848039417
 21
58.70906303246504
 31
0.0
  0
LINE
  5
DD3
330
1F
100
AcDbEntity
  8
0
  6
HIDDEN
 62
     8
100
AcDbLine
 10
20.20885332758802
 20
58.80965091169311
 30
0.0
 11
20.4489607162217
 21
58.74155034371044
 31
0.0
  0
LINE
  5
DD4
330
1F
100
AcDbEntity
  8
0
  6
HIDDEN
 62
     8
100
AcDbLine
 10
20.08656647494057
 20
58.84513176527966
 30
0.0
 11
20.20885332758802
 21
58.80965091169311
 31
0.0
  0
LINE
  5
DD5
330
1F
100
AcDbEntity
  8
0
  6
HIDDEN
 62
     8
100
AcDbLine
 10
20.51891954366948
 20
60.02131246667817
 30
0.0
 11
20.72447340768909
 21
59.95945164189402
 31
0.0
  0
LINE
  5
DD6
330
1F
100
AcDbEntity
  8
0
  6
HIDDEN
 62
     8
100
AcDbLine
 10
20.30559049999334
 20
60.08725478328462
 30
0.0
 11
20.51891954366948
 21
60.02131246667817
 31
0.0
  0
LINE
  5
DD7
330
1F
100
AcDbEntity
  8
0
  6
HIDDEN
 62
     8
100
AcDbLine
 10
20.08640383300958
 20
60.1566846158915
 30
0.0
 11
20.30559049999334
 21
60.08725478328462
 31
0.0
  0
LINE
  5
DD8
330
1F
100
AcDbEntity
  8
0
  6
HIDDEN
 62
     8
100
AcDbLine
 10
20.08888101756973
 20
60.15694500416336
 30
0.0
 11
20.08828349837226
 21
60.157139203223
 31
0.0
  0
LINE
  5
DD9
330
1F
100
AcDbEntity
  8
0
  6
HIDDEN
 62
     8
100
AcDbLine
 10
20.66699417186025
 20
60.60451277795525
 30
0.0
 11
20.95629962533521
 21
60.49073047524171
 31
0.0
  0
LINE
  5
DDA
330
1F
100
AcDbEntity
  8
0
  6
HIDDEN
 62
     8
100
AcDbLine
 10
20.95629962533521
 20
60.49073047524171
 30
0.0
 11
21.10057100023878
 21
60.43266560567933
 31
0.0
  0
LINE
  5
DDB
330
1F
100
AcDbEntity
  8
0
  6
HIDDEN
 62
     8
100
AcDbLine
 10
21.10057100023878
 20
60.43266560567933
 30
0.0
 11
21.24441232694449
 21
60.3734978087755
 31
0.0
  0
LINE
  5
DDC
330
1F
100
AcDbEntity
  8
0
  6
HIDDEN
 62
     8
100
AcDbLine
 10
21.24441232694449
 20
60.3734978087755
 30
0.0
 11
21.38769174760107
 21
60.312986747819
 31
0.0
  0
LINE
  5
DDD
330
1F
100
AcDbEntity
  8
0
  6
HIDDEN
 62
     8
100
AcDbLine
 10
21.38769174760107
 20
60.312986747819
 30
0.0
 11
21.50485790791358
 21
60.26211365818827
 31
0.0
  0
LINE
  5
DDE
330
1F
100
AcDbEntity
  8
0
  6
HIDDEN
 62
     8
100
AcDbLine
 10
21.50485790791358
 20
60.26211365818827
 30
0.0
 11
21.62148300932431
 21
60.21003915093394
 31
0.0
  0
LINE
  5
DDF
330
1F
100
AcDbEntity
  8
0
  6
CONTINUOUS
 62
     7
100
AcDbLine
 10
47.4106914386067
 20
46.40479985585881
 30
0.0
 11
47.43538299778485
 21
46.38732015286793
 31
0.0
  0
LINE
  5
DE0
330
1F
100
AcDbEntity
  8
0
  6
CONTINUOUS
 62
     7
100
AcDbLine
 10
47.38545622388473
 20
46.42389597166714
 30
0.0
 11
47.4106914386067
 21
46.40479985585881
 31
0.0
  0
LINE
  5
DE1
330
1F
100
AcDbEntity
  8
0
  6
CONTINUOUS
 62
     7
100
AcDbLine
 10
47.36082619716917
 20
46.44376656716096
 30
0.0
 11
47.38545622388473
 21
46.42389597166714
 31
0.0
  0
LINE
  5
DE2
330
1F
100
AcDbEntity
  8
0
  6
CONTINUOUS
 62
     7
100
AcDbLine
 10
46.33910690100269
 20
46.2841625750637
 30
0.0
 11
46.35152469548358
 21
46.27410970187303
 31
0.0
  0
LINE
  5
DE3
330
1F
100
AcDbEntity
  8
0
  6
CONTINUOUS
 62
     7
100
AcDbLine
 10
47.33679598182106
 20
46.46435880589966
 30
0.0
 11
47.36082619716917
 21
46.44376656716096
 31
0.0
  0
LINE
  5
DE4
330
1F
100
AcDbEntity
  8
0
  6
CONTINUOUS
 62
     7
100
AcDbLine
 10
46.32722787871908
 20
46.29484977691496
 30
0.0
 11
46.33910690100269
 21
46.2841625750637
 31
0.0
  0
LINE
  5
DE5
330
1F
100
AcDbEntity
  8
0
  6
CONTINUOUS
 62
     7
100
AcDbLine
 10
47.31225651160992
 20
46.48665154856469
 30
0.0
 11
47.33679598182106
 21
46.46435880589966
 31
0.0
  0
LINE
  5
DE6
330
1F
100
AcDbEntity
  8
0
  6
CONTINUOUS
 62
     7
100
AcDbLine
 10
47.28835786708088
 20
46.50962995605721
 30
0.0
 11
47.31225651160992
 21
46.48665154856469
 31
0.0
  0
LINE
  5
DE7
330
1F
100
AcDbEntity
  8
0
  6
CONTINUOUS
 62
     7
100
AcDbLine
 10
46.31438861107024
 20
46.30758412675641
 30
0.0
 11
46.32722787871908
 21
46.29484977691496
 31
0.0
  0
LINE
  5
DE8
330
1F
100
AcDbEntity
  8
0
  6
CONTINUOUS
 62
     7
100
AcDbLine
 10
47.26508840047862
 20
46.53324556865277
 30
0.0
 11
47.28835786708088
 21
46.50962995605721
 31
0.0
  0
LINE
  5
DE9
330
1F
100
AcDbEntity
  8
0
  6
CONTINUOUS
 62
     7
100
AcDbLine
 10
46.30215042999984
 20
46.32089529543454
 30
0.0
 11
46.31438861107024
 21
46.30758412675641
 31
0.0
  0
LINE
  5
DEA
330
1F
100
AcDbEntity
  8
0
  6
CONTINUOUS
 62
     7
100
AcDbLine
 10
46.29046329179597
 20
46.33469410229084
 30
0.0
 11
46.30215042999984
 21
46.32089529543454
 31
0.0
  0
LINE
  5
DEB
330
1F
100
AcDbEntity
  8
0
  6
CONTINUOUS
 62
     7
100
AcDbLine
 10
42.85486756235447
 20
43.12160705216382
 30
0.0
 11
42.25840386931301
 21
44.76038789629931
 31
0.0
  0
LINE
  5
DEC
330
1F
100
AcDbEntity
  8
0
  6
CONTINUOUS
 62
     7
100
AcDbLine
 10
38.10046560902361
 20
46.26780429270531
 30
0.0
 11
37.95697485628203
 21
53.62160240187953
 31
0.0
  0
LINE
  5
DED
330
1F
100
AcDbEntity
  8
0
  6
CONTINUOUS
 62
     7
100
AcDbLine
 10
39.85418758836848
 20
45.3187457269225
 30
0.0
 11
40.11277599402132
 21
47.07778020124322
 31
0.0
  0
LWPOLYLINE
  5
DEE
330
1F
100
AcDbEntity
  8
0
  6
CONTINUOUS
 62
     7
100
AcDbPolyline
 90
       13
 70
     0
 43
0.0
 10
35.10962623017788
 20
43.24497808962732
 10
35.0271589287758
 20
43.07438518507463
 10
34.91207375293728
 20
42.9238590579215
 10
34.76907187526297
 20
42.79954862400558
 10
34.60099379976092
 20
42.70522700047005
 10
34.4203838526498
 20
42.6479337798852
 10
34.23194248989784
 20
42.62812766540695
 10
34.04016067428225
 20
42.64727015266529
 10
33.8593518354302
 20
42.70393256332079
 10
33.69362945964709
 20
42.79579455733959
 10
33.54751060376071
 20
42.92147739538265
 10
33.43190069135568
 20
43.07160087628303
 10
33.34771379425383
 20
43.2449780378872
  0
LINE
  5
DEF
330
1F
100
AcDbEntity
  8
0
  6
CONTINUOUS
 62
     7
100
AcDbLine
 10
32.29165294877104
 20
43.70328195034729
 30
0.0
 11
32.59522362745155
 21
44.01357370685111
 31
0.0
  0
LINE
  5
DF0
330
1F
100
AcDbEntity
  8
0
  6
CONTINUOUS
 62
     7
100
AcDbLine
 10
48.93060917432975
 20
59.72474805359695
 30
0.0
 11
48.85004751539456
 21
59.65591351412971
 31
0.0
  0
LINE
  5
DF1
330
1F
100
AcDbEntity
  8
0
  6
CONTINUOUS
 62
     7
100
AcDbLine
 10
49.01843375473053
 20
59.78838268899841
 30
0.0
 11
48.93060917432975
 21
59.72474805359695
 31
0.0
  0
LINE
  5
DF2
330
1F
100
AcDbEntity
  8
0
  6
CONTINUOUS
 62
     7
100
AcDbLine
 10
49.29610562985093
 20
59.38269828314957
 30
0.0
 11
49.23907785697863
 21
59.34240046790968
 31
0.0
  0
LINE
  5
DF3
330
1F
100
AcDbEntity
  8
0
  6
CONTINUOUS
 62
     7
100
AcDbLine
 10
49.35978435149739
 20
59.41868922753773
 30
0.0
 11
49.29610562985093
 21
59.38269828314957
 31
0.0
  0
LINE
  5
DF4
330
1F
100
AcDbEntity
  8
0
  6
HIDDEN
 62
     8
100
AcDbLine
 10
59.73215227195836
 20
60.37349872198813
 30
0.0
 11
59.58887285459384
 21
60.31298765390774
 31
0.0
  0
LINE
  5
DF5
330
1F
100
AcDbEntity
  8
0
  6
HIDDEN
 62
     8
100
AcDbLine
 10
59.87599359675378
 20
60.43266652650276
 30
0.0
 11
59.73215227195836
 21
60.37349872198813
 31
0.0
  0
LINE
  5
DF6
330
1F
100
AcDbEntity
  8
0
  6
HIDDEN
 62
     8
100
AcDbLine
 10
60.02026496809134
 20
60.49073140252609
 30
0.0
 11
59.87599359675378
 21
60.43266652650276
 31
0.0
  0
LINE
  5
DF7
330
1F
100
AcDbEntity
  8
0
  6
HIDDEN
 62
     8
100
AcDbLine
 10
60.30957041600281
 20
60.60451371789084
 30
0.0
 11
60.02026496809134
 21
60.49073140252609
 31
0.0
  0
LINE
  5
DF8
330
1F
100
AcDbEntity
  8
0
  6
HIDDEN
 62
     8
100
AcDbLine
 10
60.88768359203424
 20
60.15694597233693
 30
0.0
 11
60.88828111148099
 21
60.15714017009544
 31
0.0
  0
LINE
  5
DF9
330
1F
100
AcDbEntity
  8
0
  6
HIDDEN
 62
     8
100
AcDbLine
 10
60.89016077671235
 20
60.15668558337257
 30
0.0
 11
60.67097411248496
 21
60.08725573952872
 31
0.0
  0
LINE
  5
DFA
330
1F
100
AcDbEntity
  8
0
  6
HIDDEN
 62
     8
100
AcDbLine
 10
60.67097411248496
 20
60.08725573952872
 30
0.0
 11
60.45764507178123
 21
60.02131341384049
 31
0.0
  0
LINE
  5
DFB
330
1F
100
AcDbEntity
  8
0
  6
HIDDEN
 62
     8
100
AcDbLine
 10
60.45764507178123
 20
60.02131341384049
 30
0.0
 11
60.25209121158166
 21
59.9594525802346
 31
0.0
  0
LINE
  5
DFC
330
1F
100
AcDbEntity
  8
0
  6
HIDDEN
 62
     8
100
AcDbLine
 10
60.25209121158166
 20
59.9594525802346
 30
0.0
 11
60.15267147886429
 21
59.9301858308673
 31
0.0
  0
LINE
  5
DFD
330
1F
100
AcDbEntity
  8
0
  6
HIDDEN
 62
     8
100
AcDbLine
 10
60.88999819518676
 20
58.84513273384292
 30
0.0
 11
60.64685127253811
 21
58.77510314162799
 31
0.0
  0
LINE
  5
DFE
330
1F
100
AcDbEntity
  8
0
  6
HIDDEN
 62
     8
100
AcDbLine
 10
60.64685127253811
 20
58.77510314162799
 30
0.0
 11
60.52760396011521
 21
58.7415512925429
 31
0.0
  0
LINE
  5
DFF
330
1F
100
AcDbEntity
  8
0
  6
HIDDEN
 62
     8
100
AcDbLine
 10
60.52760396011521
 20
58.7415512925429
 30
0.0
 11
60.41016619580147
 21
58.70906397732622
 31
0.0
  0
LINE
  5
E00
330
1F
100
AcDbEntity
  8
0
  6
HIDDEN
 62
     8
100
AcDbLine
 10
60.41016619580147
 20
58.70906397732622
 30
0.0
 11
60.29474659087589
 21
58.67771186597287
 31
0.0
  0
LINE
  5
E01
330
1F
100
AcDbEntity
  8
0
  6
HIDDEN
 62
     8
100
AcDbLine
 10
60.29474659087589
 20
58.67771186597287
 30
0.0
 11
60.18156374487499
 21
58.64756796152248
 31
0.0
  0
LINE
  5
E02
330
1F
100
AcDbEntity
  8
0
  6
HIDDEN
 62
     8
100
AcDbLine
 10
60.89307726595414
 20
58.8446735782263
 30
0.0
 11
60.89234894092858
 21
58.8444805541601
 31
0.0
  0
LINE
  5
E03
330
1F
100
AcDbEntity
  8
0
  6
HIDDEN
 62
     8
100
AcDbLine
 10
60.18156374487499
 20
58.64756796152248
 30
0.0
 11
60.0708458042991
 21
58.61870729414682
 31
0.0
  0
LINE
  5
E04
330
1F
100
AcDbEntity
  8
0
  6
HIDDEN
 62
     8
100
AcDbLine
 10
60.0708458042991
 20
58.61870729414682
 30
0.0
 11
59.96282899474852
 21
58.5912063495444
 31
0.0
  0
LINE
  5
E05
330
1F
100
AcDbEntity
  8
0
  6
HIDDEN
 62
     8
100
AcDbLine
 10
59.96282899474852
 20
58.5912063495444
 30
0.0
 11
59.85775790824774
 21
58.56514292045154
 31
0.0
  0
LINE
  5
E06
330
1F
100
AcDbEntity
  8
0
  6
HIDDEN
 62
     8
100
AcDbLine
 10
59.85775790824774
 20
58.56514292045154
 30
0.0
 11
59.75588275146008
 21
58.54059518808942
 31
0.0
  0
LINE
  5
E07
330
1F
100
AcDbEntity
  8
0
  6
HIDDEN
 62
     8
100
AcDbLine
 10
59.75588275146008
 20
58.54059518808942
 30
0.0
 11
59.65745930823391
 21
58.51764145758294
 31
0.0
  0
LINE
  5
E08
330
1F
100
AcDbEntity
  8
0
  6
HIDDEN
 62
     8
100
AcDbLine
 10
58.90752304735627
 20
58.37883042200885
 30
0.0
 11
58.95964093591526
 21
58.38556737146975
 31
0.0
  0
LINE
  5
E09
330
1F
100
AcDbEntity
  8
0
  6
HIDDEN
 62
     8
100
AcDbLine
 10
58.85530199004273
 20
58.37366224700265
 30
0.0
 11
58.90752304735627
 21
58.37883042200885
 31
0.0
  0
LINE
  5
E0A
330
1F
100
AcDbEntity
  8
0
  6
HIDDEN
 62
     8
100
AcDbLine
 10
22.06904164509123
 20
58.37882954850204
 30
0.0
 11
22.01692375788292
 21
58.38556649381223
 31
0.0
  0
LINE
  5
E0B
330
1F
100
AcDbEntity
  8
0
  6
HIDDEN
 62
     8
100
AcDbLine
 10
22.01692375788292
 20
58.38556649381223
 30
0.0
 11
21.96493005531311
 21
58.39345050291187
 31
0.0
  0
LINE
  5
E0C
330
1F
100
AcDbEntity
  8
0
  6
HIDDEN
 62
     8
100
AcDbLine
 10
21.8099042150915
 20
58.41976782130766
 30
0.0
 11
21.7586174097615
 21
58.4280229988909
 31
0.0
  0
LINE
  5
E0D
330
1F
100
AcDbEntity
  8
0
  6
HIDDEN
 62
     8
100
AcDbLine
 10
21.96493005531311
 20
58.39345050291187
 30
0.0
 11
21.91308155520503
 21
58.40205986478334
 31
0.0
  0
LINE
  5
E0E
330
1F
100
AcDbEntity
  8
0
  6
HIDDEN
 62
     8
100
AcDbLine
 10
21.75039382108078
 20
58.4294289938922
 30
0.0
 11
21.7586174097615
 21
58.4280229988909
 31
0.0
  0
LINE
  5
E0F
330
1F
100
AcDbEntity
  8
0
  6
HIDDEN
 62
     8
100
AcDbLine
 10
21.91308155520503
 20
58.40205986478334
 30
0.0
 11
21.8099042150915
 21
58.41976782130766
 31
0.0
  0
LINE
  5
E10
330
1F
100
AcDbEntity
  8
0
  6
HIDDEN
 62
     8
100
AcDbLine
 10
21.67310369293747
 20
58.44328971188294
 30
0.0
 11
21.75039382108078
 21
58.4294289938922
 31
0.0
  0
LINE
  5
E11
330
1F
100
AcDbEntity
  8
0
  6
HIDDEN
 62
     8
100
AcDbLine
 10
21.77288549290005
 20
59.68512390209707
 30
0.0
 11
21.82704275322161
 21
59.67473194466245
 31
0.0
  0
LINE
  5
E12
330
1F
100
AcDbEntity
  8
0
  6
HIDDEN
 62
     8
100
AcDbLine
 10
21.59107596403085
 20
58.45911033517779
 30
0.0
 11
21.67310369293747
 21
58.44328971188294
 31
0.0
  0
LINE
  5
E13
330
1F
100
AcDbEntity
  8
0
  6
HIDDEN
 62
     8
100
AcDbLine
 10
21.50456209743188
 20
58.47682353896927
 30
0.0
 11
21.59107596403085
 21
58.45911033517779
 31
0.0
  0
LINE
  5
E14
330
1F
100
AcDbEntity
  8
0
  6
HIDDEN
 62
     8
100
AcDbLine
 10
21.71441554320046
 20
59.69717066589287
 30
0.0
 11
21.77288549290005
 21
59.68512390209707
 31
0.0
  0
LINE
  5
E15
330
1F
100
AcDbEntity
  8
0
  6
HIDDEN
 62
     8
100
AcDbLine
 10
21.41381887342665
 20
58.49635824203983
 30
0.0
 11
21.50456209743188
 21
58.47682353896927
 31
0.0
  0
LINE
  5
E16
330
1F
100
AcDbEntity
  8
0
  6
HIDDEN
 62
     8
100
AcDbLine
 10
21.65174435605496
 20
59.71084927406256
 30
0.0
 11
21.71441554320046
 21
59.69717066589287
 31
0.0
  0
LINE
  5
E17
330
1F
100
AcDbEntity
  8
0
  6
HIDDEN
 62
     8
100
AcDbLine
 10
21.31910537978308
 20
58.51764054787031
 30
0.0
 11
21.41381887342665
 21
58.49635824203983
 31
0.0
  0
LINE
  5
E18
330
1F
100
AcDbEntity
  8
0
  6
HIDDEN
 62
     8
100
AcDbLine
 10
21.58499138238568
 20
59.72613365993841
 30
0.0
 11
21.65174435605496
 21
59.71084927406256
 31
0.0
  0
LINE
  5
E19
330
1F
100
AcDbEntity
  8
0
  6
HIDDEN
 62
     8
100
AcDbLine
 10
21.51428405776835
 20
59.74299464112036
 30
0.0
 11
21.58499138238568
 21
59.72613365993841
 31
0.0
  0
LINE
  5
E1A
330
1F
100
AcDbEntity
  8
0
  6
HIDDEN
 62
     8
100
AcDbLine
 10
20.66678376215024
 20
60.6046021185912
 30
0.0
 11
20.6656249534247
 21
60.6048806245234
 31
0.0
  0
LINE
  5
E1B
330
1F
100
AcDbEntity
  8
0
  6
HIDDEN
 62
     8
100
AcDbLine
 10
21.43975732999937
 20
59.76140003383125
 30
0.0
 11
21.51428405776835
 21
59.74299464112036
 31
0.0
  0
LINE
  5
E1C
330
1F
100
AcDbEntity
  8
0
  6
HIDDEN
 62
     8
100
AcDbLine
 10
21.36155281040741
 20
59.78131486434593
 30
0.0
 11
21.43975732999937
 21
59.76140003383125
 31
0.0
  0
LINE
  5
E1D
330
1F
100
AcDbEntity
  8
0
  6
HIDDEN
 62
     8
100
AcDbLine
 10
21.27981907287805
 20
59.80270131094844
 30
0.0
 11
21.36155281040741
 21
59.78131486434593
 31
0.0
  0
LINE
  5
E1E
330
1F
100
AcDbEntity
  8
0
  6
HIDDEN
 62
     8
100
AcDbLine
 10
21.19471262470761
 20
59.825518426686
 30
0.0
 11
21.27981907287805
 21
59.80270131094844
 31
0.0
  0
LINE
  5
E1F
330
1F
100
AcDbEntity
  8
0
  6
HIDDEN
 62
     8
100
AcDbLine
 10
21.10639776552991
 20
59.84972214632539
 30
0.0
 11
21.19471262470761
 21
59.825518426686
 31
0.0
  0
LINE
  5
E20
330
1F
100
AcDbEntity
  8
0
  6
HIDDEN
 62
     8
100
AcDbLine
 10
21.01504221425728
 20
59.87526647642552
 30
0.0
 11
21.10639776552991
 21
59.84972214632539
 31
0.0
  0
LINE
  5
E21
330
1F
100
AcDbEntity
  8
0
  6
HIDDEN
 62
     8
100
AcDbLine
 10
20.92081488286705
 20
59.90210420763384
 30
0.0
 11
21.01504221425728
 21
59.87526647642552
 31
0.0
  0
LINE
  5
E22
330
1F
100
AcDbEntity
  8
0
  6
HIDDEN
 62
     8
100
AcDbLine
 10
20.72447340768909
 20
59.95945164189402
 30
0.0
 11
20.92081488286705
 21
59.90210420763384
 31
0.0
  0
LINE
  5
E23
330
1F
100
AcDbEntity
  8
0
  6
CONTINUOUS
 62
     7
100
AcDbLine
 10
47.2413710965408
 20
46.55862013508484
 30
0.0
 11
47.26508840047862
 21
46.53324556865277
 31
0.0
  0
LINE
  5
E24
330
1F
100
AcDbEntity
  8
0
  6
CONTINUOUS
 62
     7
100
AcDbLine
 10
47.21831588438241
 20
46.58459772469048
 30
0.0
 11
47.2413710965408
 21
46.55862013508484
 31
0.0
  0
LINE
  5
E25
330
1F
100
AcDbEntity
  8
0
  6
CONTINUOUS
 62
     7
100
AcDbLine
 10
47.19590703188079
 20
46.61113512026915
 30
0.0
 11
47.21831588438241
 21
46.58459772469048
 31
0.0
  0
LINE
  5
E26
330
1F
100
AcDbEntity
  8
0
  6
CONTINUOUS
 62
     7
100
AcDbLine
 10
47.16199606172297
 20
46.65382490407239
 30
0.0
 11
47.19590703188079
 21
46.61113512026915
 31
0.0
  0
LINE
  5
E27
330
1F
100
AcDbEntity
  8
0
  6
CONTINUOUS
 62
     7
100
AcDbLine
 10
46.27786901036123
 20
46.35076073206599
 30
0.0
 11
46.29046329179597
 21
46.33469410229084
 31
0.0
  0
LINE
  5
E28
330
1F
100
AcDbEntity
  8
0
  6
CONTINUOUS
 62
     7
100
AcDbLine
 10
47.12957829749801
 20
46.69765994891747
 30
0.0
 11
47.16199606172297
 21
46.65382490407239
 31
0.0
  0
LINE
  5
E29
330
1F
100
AcDbEntity
  8
0
  6
CONTINUOUS
 62
     7
100
AcDbLine
 10
46.26586128532149
 20
46.36726969827421
 30
0.0
 11
46.27786901036123
 21
46.35076073206599
 31
0.0
  0
LINE
  5
E2A
330
1F
100
AcDbEntity
  8
0
  6
CONTINUOUS
 62
     7
100
AcDbLine
 10
47.09724727693482
 20
46.74453605188188
 30
0.0
 11
47.12957829749801
 21
46.69765994891747
 31
0.0
  0
LINE
  5
E2B
330
1F
100
AcDbEntity
  8
0
  6
CONTINUOUS
 62
     7
100
AcDbLine
 10
46.25438784094287
 20
46.38415526031741
 30
0.0
 11
46.26586128532149
 21
46.36726969827421
 31
0.0
  0
LINE
  5
E2C
330
1F
100
AcDbEntity
  8
0
  6
CONTINUOUS
 62
     7
100
AcDbLine
 10
46.24210826007505
 20
46.40344556216298
 30
0.0
 11
46.25438784094287
 21
46.38415526031741
 31
0.0
  0
LINE
  5
E2D
330
1F
100
AcDbEntity
  8
0
  6
CONTINUOUS
 62
     7
100
AcDbLine
 10
46.23038460145679
 20
46.42307816635796
 30
0.0
 11
46.24210826007505
 21
46.40344556216298
 31
0.0
  0
LINE
  5
E2E
330
1F
100
AcDbEntity
  8
0
  6
CONTINUOUS
 62
     7
100
AcDbLine
 10
46.21916783101316
 20
46.44300523234138
 30
0.0
 11
46.23038460145679
 21
46.42307816635796
 31
0.0
  0
LINE
  5
E2F
330
1F
100
AcDbEntity
  8
0
  6
CONTINUOUS
 62
     7
100
AcDbLine
 10
41.16027509019325
 20
46.68233748714361
 30
0.0
 11
41.10214266495307
 21
47.07778022446321
 31
0.0
  0
LINE
  5
E30
330
1F
100
AcDbEntity
  8
0
  6
CONTINUOUS
 62
     7
100
AcDbLine
 10
48.69769050494067
 20
59.49022208638838
 30
0.0
 11
48.65912124046785
 21
59.43889180558539
 31
0.0
  0
LINE
  5
E31
330
1F
100
AcDbEntity
  8
0
  6
CONTINUOUS
 62
     7
100
AcDbLine
 10
48.77319334045364
 20
59.57895607653163
 30
0.0
 11
48.69769050494067
 21
59.49022208638838
 31
0.0
  0
LINE
  5
E32
330
1F
100
AcDbEntity
  8
0
  6
CONTINUOUS
 62
     7
100
AcDbLine
 10
49.18784648617614
 20
59.29748651706252
 30
0.0
 11
49.13998892396808
 21
59.24556318744143
 31
0.0
  0
LINE
  5
E33
330
1F
100
AcDbEntity
  8
0
  6
CONTINUOUS
 62
     7
100
AcDbLine
 10
48.85004751539456
 20
59.65591351412971
 30
0.0
 11
48.77319334045364
 21
59.57895607653163
 31
0.0
  0
LINE
  5
E34
330
1F
100
AcDbEntity
  8
0
  6
CONTINUOUS
 62
     7
100
AcDbLine
 10
49.23907785697863
 20
59.34240046790968
 30
0.0
 11
49.18784648617614
 21
59.29748651706252
 31
0.0
  0
LINE
  5
E35
330
1F
100
AcDbEntity
  8
0
  6
HIDDEN
 62
     8
100
AcDbLine
 10
58.87300079480759
 20
59.97487459702927
 30
0.0
 11
58.8057801133131
 21
59.93806578188308
 31
0.0
  0
LINE
  5
E36
330
1F
100
AcDbEntity
  8
0
  6
HIDDEN
 62
     8
100
AcDbLine
 10
60.30870207275396
 20
60.60402831315854
 30
0.0
 11
60.30978082808123
 21
60.60460305995674
 31
0.0
  0
LINE
  5
E37
330
1F
100
AcDbEntity
  8
0
  6
HIDDEN
 62
     8
100
AcDbLine
 10
58.94085788420743
 20
60.01052196836305
 30
0.0
 11
58.87300079480759
 21
59.97487459702927
 31
0.0
  0
LINE
  5
E38
330
1F
100
AcDbEntity
  8
0
  6
HIDDEN
 62
     8
100
AcDbLine
 10
59.00918320467212
 20
60.04527641741209
 30
0.0
 11
58.94085788420743
 21
60.01052196836305
 31
0.0
  0
LINE
  5
E39
330
1F
100
AcDbEntity
  8
0
  6
HIDDEN
 62
     8
100
AcDbLine
 10
59.12374679459624
 20
60.10175413333827
 30
0.0
 11
59.00918320467212
 21
60.04527641741209
 31
0.0
  0
LINE
  5
E3A
330
1F
100
AcDbEntity
  8
0
  6
HIDDEN
 62
     8
100
AcDbLine
 10
59.23907061122688
 20
60.15663095587971
 30
0.0
 11
59.12374679459624
 21
60.10175413333827
 31
0.0
  0
LINE
  5
E3B
330
1F
100
AcDbEntity
  8
0
  6
HIDDEN
 62
     8
100
AcDbLine
 10
59.35508159704376
 20
60.21004004631412
 30
0.0
 11
59.23907061122688
 21
60.15663095587971
 31
0.0
  0
LINE
  5
E3C
330
1F
100
AcDbEntity
  8
0
  6
HIDDEN
 62
     8
100
AcDbLine
 10
59.47170669687899
 20
60.26211455916158
 30
0.0
 11
59.35508159704376
 21
60.21004004631412
 31
0.0
  0
LINE
  5
E3D
330
1F
100
AcDbEntity
  8
0
  6
HIDDEN
 62
     8
100
AcDbLine
 10
59.58887285459384
 20
60.31298765390774
 30
0.0
 11
59.47170669687899
 21
60.26211455916158
 31
0.0
  0
LINE
  5
E3E
330
1F
100
AcDbEntity
  8
0
  6
HIDDEN
 62
     8
100
AcDbLine
 10
59.05454989310223
 20
59.65898936684793
 30
0.0
 11
59.0139162561931
 21
59.65366788001962
 31
0.0
  0
LINE
  5
E3F
330
1F
100
AcDbEntity
  8
0
  6
CONTINUOUS
 62
     7
100
AcDbLine
 10
49.71117938090917
 20
59.51739732222403
 30
0.0
 11
49.6448172090943
 21
59.50898068659149
 31
0.0
  0
LINE
  5
E40
330
1F
100
AcDbEntity
  8
0
  6
HIDDEN
 62
     8
100
AcDbLine
 10
59.0139162561931
 20
59.65366788001962
 30
0.0
 11
58.97795707795345
 21
59.65006117165768
 31
0.0
  0
LINE
  5
E41
330
1F
100
AcDbEntity
  8
0
  6
HIDDEN
 62
     8
100
AcDbLine
 10
58.97795707795345
 20
59.65006117165768
 30
0.0
 11
58.96235985703599
 21
59.64893867684131
 31
0.0
  0
LINE
  5
E42
330
1F
100
AcDbEntity
  8
0
  6
HIDDEN
 62
     8
100
AcDbLine
 10
58.81952351473557
 20
58.37124743716978
 30
0.0
 11
58.85530199004273
 21
58.37366224700265
 31
0.0
  0
LINE
  5
E43
330
1F
100
AcDbEntity
  8
0
  6
HIDDEN
 62
     8
100
AcDbLine
 10
58.78371330685931
 20
58.36989951341907
 30
0.0
 11
58.81952351473557
 21
58.37124743716978
 31
0.0
  0
LINE
  5
E44
330
1F
100
AcDbEntity
  8
0
  6
HIDDEN
 62
     8
100
AcDbLine
 10
58.74787810512724
 20
58.36975355145726
 30
0.0
 11
58.78371330685931
 21
58.36989951341907
 31
0.0
  0
LINE
  5
E45
330
1F
100
AcDbEntity
  8
0
  6
CONTINUOUS
 62
     7
100
AcDbLine
 10
59.19664271158786
 20
57.64861797736088
 30
0.0
 11
60.58056552401584
 21
57.64861801057152
 31
0.0
  0
LINE
  5
E46
330
1F
100
AcDbEntity
  8
0
  6
CONTINUOUS
 62
     7
100
AcDbLine
 10
60.58056551924479
 20
57.83611801125985
 30
0.0
 11
59.19664270840357
 21
57.83611797784394
 31
0.0
  0
LINE
  5
E47
330
1F
100
AcDbEntity
  8
0
  6
CONTINUOUS
 62
     7
100
AcDbLine
 10
20.3716233003085
 20
58.24639491194999
 30
0.0
 11
21.75685039821406
 21
58.24639494412998
 31
0.0
  0
LINE
  5
E48
330
1F
100
AcDbEntity
  8
0
  6
CONTINUOUS
 62
     7
100
AcDbLine
 10
21.72549079297856
 20
58.43389494431137
 30
0.0
 11
20.37162329712423
 21
58.43389491243304
 31
0.0
  0
LINE
  5
E49
330
1F
100
AcDbEntity
  8
0
  6
HIDDEN
 62
     8
100
AcDbLine
 10
22.2286865883883
 20
58.3697526857234
 30
0.0
 11
22.19285138565131
 21
58.36989864508232
 31
0.0
  0
LINE
  5
E4A
330
1F
100
AcDbEntity
  8
0
  6
HIDDEN
 62
     8
100
AcDbLine
 10
22.19285138565131
 20
58.36989864508232
 30
0.0
 11
22.15704117988715
 21
58.37124656710554
 31
0.0
  0
LINE
  5
E4B
330
1F
100
AcDbEntity
  8
0
  6
HIDDEN
 62
     8
100
AcDbLine
 10
22.15704117988715
 20
58.37124656710554
 30
0.0
 11
22.12126270208315
 21
58.37366137600158
 31
0.0
  0
LINE
  5
E4C
330
1F
100
AcDbEntity
  8
0
  6
HIDDEN
 62
     8
100
AcDbLine
 10
21.99860755512212
 20
59.6500602934482
 30
0.0
 11
22.01420477643938
 21
59.64893780079035
 31
0.0
  0
LINE
  5
E4D
330
1F
100
AcDbEntity
  8
0
  6
HIDDEN
 62
     8
100
AcDbLine
 10
22.12126270208315
 20
58.37366137600158
 30
0.0
 11
22.06904164509123
 21
58.37882954850204
 31
0.0
  0
LINE
  5
E4E
330
1F
100
AcDbEntity
  8
0
  6
HIDDEN
 62
     8
100
AcDbLine
 10
21.96264837781047
 20
59.65366700190776
 30
0.0
 11
21.99860755512212
 21
59.6500602934482
 31
0.0
  0
LINE
  5
E4F
330
1F
100
AcDbEntity
  8
0
  6
HIDDEN
 62
     8
100
AcDbLine
 10
21.92201473983335
 20
59.65898848464076
 30
0.0
 11
21.96264837781047
 21
59.65366700190776
 31
0.0
  0
LINE
  5
E50
330
1F
100
AcDbEntity
  8
0
  6
HIDDEN
 62
     8
100
AcDbLine
 10
21.87678413037284
 20
59.66601459639822
 30
0.0
 11
21.92201473983335
 21
59.65898848464076
 31
0.0
  0
LINE
  5
E51
330
1F
100
AcDbEntity
  8
0
  6
HIDDEN
 62
     8
100
AcDbLine
 10
21.82704275322161
 20
59.67473194466245
 30
0.0
 11
21.87678413037284
 21
59.66601459639822
 31
0.0
  0
LINE
  5
E52
330
1F
100
AcDbEntity
  8
0
  6
CONTINUOUS
 62
     7
100
AcDbLine
 10
47.06641515856861
 20
46.79241180982507
 30
0.0
 11
47.09724727693482
 21
46.74453605188188
 31
0.0
  0
LINE
  5
E53
330
1F
100
AcDbEntity
  8
0
  6
CONTINUOUS
 62
     7
100
AcDbLine
 10
47.03581829934698
 20
46.84324253759697
 30
0.0
 11
47.06641515856861
 21
46.79241180982507
 31
0.0
  0
LINE
  5
E54
330
1F
100
AcDbEntity
  8
0
  6
CONTINUOUS
 62
     7
100
AcDbLine
 10
47.00671563962278
 20
46.89494363125187
 30
0.0
 11
47.03581829934698
 21
46.84324253759697
 31
0.0
  0
LINE
  5
E55
330
1F
100
AcDbEntity
  8
0
  6
CONTINUOUS
 62
     7
100
AcDbLine
 10
46.97799706235267
 20
46.94947973181796
 30
0.0
 11
47.00671563962278
 21
46.89494363125187
 31
0.0
  0
LINE
  5
E56
330
1F
100
AcDbEntity
  8
0
  6
CONTINUOUS
 62
     7
100
AcDbLine
 10
46.20150595217149
 20
46.47670649998729
 30
0.0
 11
46.21916783101316
 21
46.44300523234138
 31
0.0
  0
LINE
  5
E57
330
1F
100
AcDbEntity
  8
0
  6
CONTINUOUS
 62
     7
100
AcDbLine
 10
46.95076142717153
 20
47.00477163983404
 30
0.0
 11
46.97799706235267
 21
46.94947973181796
 31
0.0
  0
LINE
  5
E58
330
1F
100
AcDbEntity
  8
0
  6
CONTINUOUS
 62
     7
100
AcDbLine
 10
46.18496562543507
 20
46.51097272374563
 30
0.0
 11
46.20150595217149
 21
46.47670649998729
 31
0.0
  0
LINE
  5
E59
330
1F
100
AcDbEntity
  8
0
  6
CONTINUOUS
 62
     7
100
AcDbLine
 10
46.92405499859463
 20
47.06274755231858
 30
0.0
 11
46.95076142717153
 21
47.00477163983404
 31
0.0
  0
LINE
  5
E5A
330
1F
100
AcDbEntity
  8
0
  6
CONTINUOUS
 62
     7
100
AcDbLine
 10
46.16792736696178
 20
46.54913256710176
 30
0.0
 11
46.18496562543507
 21
46.51097272374563
 31
0.0
  0
LINE
  5
E5B
330
1F
100
AcDbEntity
  8
0
  6
CONTINUOUS
 62
     7
100
AcDbLine
 10
46.89881653114996
 20
47.12137763430253
 30
0.0
 11
46.92405499859463
 21
47.06274755231858
 31
0.0
  0
LINE
  5
E5C
330
1F
100
AcDbEntity
  8
0
  6
CONTINUOUS
 62
     7
100
AcDbLine
 10
46.15193889839258
 20
46.58774440454194
 30
0.0
 11
46.16792736696178
 21
46.54913256710176
 31
0.0
  0
LINE
  5
E5D
330
1F
100
AcDbEntity
  8
0
  6
CONTINUOUS
 62
     7
100
AcDbLine
 10
46.87424564591012
 20
47.1825127078376
 30
0.0
 11
46.89881653114996
 21
47.12137763430253
 31
0.0
  0
LINE
  5
E5E
330
1F
100
AcDbEntity
  8
0
  6
CONTINUOUS
 62
     7
100
AcDbLine
 10
46.13559727944582
 20
46.63017219716919
 30
0.0
 11
46.15193889839258
 21
46.58774440454194
 31
0.0
  0
LINE
  5
E5F
330
1F
100
AcDbEntity
  8
0
  6
CONTINUOUS
 62
     7
100
AcDbLine
 10
46.12023989782392
 20
46.67296635829785
 30
0.0
 11
46.13559727944582
 21
46.63017219716919
 31
0.0
  0
LINE
  5
E60
330
1F
100
AcDbEntity
  8
0
  6
CONTINUOUS
 62
     7
100
AcDbLine
 10
46.10466424977987
 20
46.71945588687046
 30
0.0
 11
46.12023989782392
 21
46.67296635829785
 31
0.0
  0
LINE
  5
E61
330
1F
100
AcDbEntity
  8
0
  6
CONTINUOUS
 62
     7
100
AcDbLine
 10
46.09001475603294
 20
46.76624571205057
 30
0.0
 11
46.10466424977987
 21
46.71945588687046
 31
0.0
  0
LINE
  5
E62
330
1F
100
AcDbEntity
  8
0
  6
CONTINUOUS
 62
     7
100
AcDbLine
 10
46.07527105368591
 20
46.81657489312446
 30
0.0
 11
46.09001475603294
 21
46.76624571205057
 31
0.0
  0
LINE
  5
E63
330
1F
100
AcDbEntity
  8
0
  6
CONTINUOUS
 62
     7
100
AcDbLine
 10
48.47582479373826
 20
59.11860658355671
 30
0.0
 11
48.43980158877522
 21
59.03583524864392
 31
0.0
  0
LINE
  5
E64
330
1F
100
AcDbEntity
  8
0
  6
CONTINUOUS
 62
     7
100
AcDbLine
 10
48.51070291037818
 20
59.19145734375788
 30
0.0
 11
48.47582479373826
 21
59.11860658355671
 31
0.0
  0
LINE
  5
E65
330
1F
100
AcDbEntity
  8
0
  6
CONTINUOUS
 62
     7
100
AcDbLine
 10
49.04943945269294
 20
59.10849549079857
 30
0.0
 11
49.02664938307843
 21
59.06287659407448
 31
0.0
  0
LINE
  5
E66
330
1F
100
AcDbEntity
  8
0
  6
CONTINUOUS
 62
     7
100
AcDbLine
 10
48.54830594069959
 20
59.26293695687784
 30
0.0
 11
48.51070291037818
 21
59.19145734375788
 31
0.0
  0
LINE
  5
E67
330
1F
100
AcDbEntity
  8
0
  6
CONTINUOUS
 62
     7
100
AcDbLine
 10
49.07084570574363
 20
59.14668754244136
 30
0.0
 11
49.04943945269294
 21
59.10849549079857
 31
0.0
  0
LINE
  5
E68
330
1F
100
AcDbEntity
  8
0
  6
CONTINUOUS
 62
     7
100
AcDbLine
 10
48.58425465131965
 20
59.32523218485759
 30
0.0
 11
48.54830594069959
 21
59.26293695687784
 31
0.0
  0
LINE
  5
E69
330
1F
100
AcDbEntity
  8
0
  6
CONTINUOUS
 62
     7
100
AcDbLine
 10
49.09412243734262
 20
59.1837657072065
 30
0.0
 11
49.07084570574363
 21
59.14668754244136
 31
0.0
  0
LINE
  5
E6A
330
1F
100
AcDbEntity
  8
0
  6
CONTINUOUS
 62
     7
100
AcDbLine
 10
48.62266170620557
 20
59.38603978245826
 30
0.0
 11
48.58425465131965
 21
59.32523218485759
 31
0.0
  0
LINE
  5
E6B
330
1F
100
AcDbEntity
  8
0
  6
CONTINUOUS
 62
     7
100
AcDbLine
 10
48.65912124046785
 20
59.43889180558539
 30
0.0
 11
48.62266170620557
 21
59.38603978245826
 31
0.0
  0
LINE
  5
E6C
330
1F
100
AcDbEntity
  8
0
  6
CONTINUOUS
 62
     7
100
AcDbLine
 10
49.13998892396808
 20
59.24556318744143
 30
0.0
 11
49.09412243734262
 21
59.1837657072065
 31
0.0
  0
LINE
  5
E6D
330
1F
100
AcDbEntity
  8
0
  6
HIDDEN
 62
     8
100
AcDbLine
 10
58.62828978272144
 20
59.82965334110281
 30
0.0
 11
58.59249902365751
 21
59.80438546587099
 31
0.0
  0
LINE
  5
E6E
330
1F
100
AcDbEntity
  8
0
  6
HIDDEN
 62
     8
100
AcDbLine
 10
58.66478304928783
 20
59.85387328477667
 30
0.0
 11
58.62828978272144
 21
59.82965334110281
 31
0.0
  0
LINE
  5
E6F
330
1F
100
AcDbEntity
  8
0
  6
HIDDEN
 62
     8
100
AcDbLine
 10
58.70185055340325
 20
59.87720970381264
 30
0.0
 11
58.66478304928783
 21
59.85387328477667
 31
0.0
  0
LINE
  5
E70
330
1F
100
AcDbEntity
  8
0
  6
HIDDEN
 62
     8
100
AcDbLine
 10
60.8871410016682
 20
60.15661210771265
 30
0.0
 11
60.88768359203424
 21
60.15694597233693
 31
0.0
  0
LINE
  5
E71
330
1F
100
AcDbEntity
  8
0
  6
HIDDEN
 62
     8
100
AcDbLine
 10
58.73936402373273
 20
59.89982700692277
 30
0.0
 11
58.70185055340325
 21
59.87720970381264
 31
0.0
  0
LINE
  5
E72
330
1F
100
AcDbEntity
  8
0
  6
HIDDEN
 62
     8
100
AcDbLine
 10
58.8057801133131
 20
59.93806578188308
 30
0.0
 11
58.73936402373273
 21
59.89982700692277
 31
0.0
  0
LINE
  5
E73
330
1F
100
AcDbEntity
  8
0
  6
HIDDEN
 62
     8
100
AcDbLine
 10
60.89375374713704
 20
58.84502892133425
 30
0.0
 11
60.89307726595414
 21
58.8446735782263
 31
0.0
  0
LINE
  5
E74
330
1F
100
AcDbEntity
  8
0
  6
CONTINUOUS
 62
     7
100
AcDbLine
 10
49.66695290939657
 20
60.01529731982204
 30
0.0
 11
49.55756086378087
 21
60.00130968666603
 31
0.0
  0
LINE
  5
E75
330
1F
100
AcDbEntity
  8
0
  6
HIDDEN
 62
     8
100
AcDbLine
 10
22.33627486542844
 20
58.37787730484615
 30
0.0
 11
22.30040506036548
 21
58.37360694209134
 31
0.0
  0
LINE
  5
E76
330
1F
100
AcDbEntity
  8
0
  6
HIDDEN
 62
     8
100
AcDbLine
 10
22.30040506036548
 20
58.37360694209134
 30
0.0
 11
22.26454005649496
 21
58.37094376005992
 31
0.0
  0
LINE
  5
E77
330
1F
100
AcDbEntity
  8
0
  6
HIDDEN
 62
     8
100
AcDbLine
 10
58.96235985703599
 20
59.64893867684131
 30
0.0
 11
58.9467408957755
 21
59.64817611198874
 31
0.0
  0
LINE
  5
E78
330
1F
100
AcDbEntity
  8
0
  6
HIDDEN
 62
     8
100
AcDbLine
 10
22.05623741069342
 20
59.64801542048149
 30
0.0
 11
22.06703626671965
 21
59.64853566221184
 31
0.0
  0
LINE
  5
E79
330
1F
100
AcDbEntity
  8
0
  6
CONTINUOUS
 62
     7
100
AcDbLine
 10
49.77173348011731
 20
59.52019817334928
 30
0.0
 11
49.71117938090917
 21
59.51739732222403
 31
0.0
  0
LINE
  5
E7A
330
1F
100
AcDbEntity
  8
0
  6
CONTINUOUS
 62
     7
100
AcDbLine
 10
49.77173346804291
 20
60.01981651982855
 30
0.0
 11
49.66695290939657
 21
60.01529731982204
 31
0.0
  0
LINE
  5
E7B
330
1F
100
AcDbEntity
  8
0
  6
HIDDEN
 62
     8
100
AcDbLine
 10
22.26454005649496
 20
58.37094376005992
 30
0.0
 11
22.2286865883883
 21
58.3697526857234
 31
0.0
  0
LINE
  5
E7C
330
1F
100
AcDbEntity
  8
0
  6
HIDDEN
 62
     8
100
AcDbLine
 10
60.88828111148099
 20
60.15714017009544
 30
0.0
 11
60.88893847124724
 21
60.15715980815601
 31
0.0
  0
LINE
  5
E7D
330
1F
100
AcDbEntity
  8
0
  6
HIDDEN
 62
     8
100
AcDbLine
 10
58.9467408957755
 20
59.64817611198874
 30
0.0
 11
58.93353513241551
 21
59.64788335190833
 31
0.0
  0
LINE
  5
E7E
330
1F
100
AcDbEntity
  8
0
  6
HIDDEN
 62
     8
100
AcDbLine
 10
20.08421573141988
 20
58.84447958485097
 30
0.0
 11
20.085041320784
 21
58.84449215926212
 31
0.0
  0
LINE
  5
E7F
330
1F
100
AcDbEntity
  8
0
  6
HIDDEN
 62
     8
100
AcDbLine
 10
22.04302950096157
 20
59.64788247565619
 30
0.0
 11
22.05623741069342
 21
59.64801542048149
 31
0.0
  0
LINE
  5
E80
330
1F
100
AcDbEntity
  8
CENTER
100
AcDbLine
 10
33.53309066870783
 20
60.00505858902887
 30
0.0
 11
28.37409884966954
 21
60.00505855198458
 31
0.0
  0
LINE
  5
E82
330
1F
100
AcDbEntity
  8
0
  6
HIDDEN
 62
     8
100
AcDbLine
 10
58.93353513241551
 20
59.64788335190833
 30
0.0
 11
58.92032722421013
 21
59.64801629534592
 31
0.0
  0
LINE
  5
E83
330
1F
100
AcDbEntity
  8
0
  6
HIDDEN
 62
     8
100
AcDbLine
 10
60.89234894092858
 20
58.8444805541601
 30
0.0
 11
60.89152335058749
 21
58.84449312688627
 31
0.0
  0
LINE
  5
E84
330
1F
100
AcDbEntity
  8
0
  6
HIDDEN
 62
     8
100
AcDbLine
 10
22.02982373803181
 20
59.64817523576724
 30
0.0
 11
22.04302950096157
 21
59.64788247565619
 31
0.0
  0
LINE
  5
E85
330
1F
100
AcDbEntity
  8
0
  6
HIDDEN
 62
     8
100
AcDbLine
 10
20.08828349837226
 20
60.157139203223
 30
0.0
 11
20.08762613757026
 21
60.15715884187186
 31
0.0
  0
LINE
  5
E86
330
1F
100
AcDbEntity
  8
0
  6
HIDDEN
 62
     8
100
AcDbLine
 10
58.71202463673461
 20
58.37094462525444
 30
0.0
 11
58.74787810512724
 21
58.36975355145726
 31
0.0
  0
LINE
  5
E87
330
1F
100
AcDbEntity
  8
0
  6
CONTINUOUS
 62
     7
100
AcDbLine
 10
49.87598616489404
 20
60.01540789690301
 30
0.0
 11
49.77173346826446
 21
60.01981657142652
 31
0.0
  0
LINE
  5
E88
330
1F
100
AcDbEntity
  8
0
  6
CONTINUOUS
 62
     7
100
AcDbLine
 10
49.83261646936068
 20
59.51743316077958
 30
0.0
 11
49.77173348011731
 21
59.52019817334928
 31
0.0
  0
LINE
  5
E89
330
1F
100
AcDbEntity
  8
0
  6
HIDDEN
 62
     8
100
AcDbLine
 10
58.92032722421013
 20
59.64801629534592
 30
0.0
 11
58.90952836473234
 21
59.64853653563796
 31
0.0
  0
LINE
  5
E8A
330
1F
100
AcDbEntity
  8
0
  6
HIDDEN
 62
     8
100
AcDbLine
 10
22.01420477643938
 20
59.64893780079035
 30
0.0
 11
22.02982373803181
 21
59.64817523576724
 31
0.0
  0
LINE
  5
E8B
330
1F
100
AcDbEntity
  8
0
  6
HIDDEN
 62
     8
100
AcDbLine
 10
58.67615963501863
 20
58.37360780637282
 30
0.0
 11
58.71202463673461
 21
58.37094462525444
 31
0.0
  0
LINE
  5
E8C
330
1F
100
AcDbEntity
  8
0
  6
HIDDEN
 62
     8
100
AcDbLine
 10
58.64028982855605
 20
58.37787816699044
 30
0.0
 11
58.67615963501863
 21
58.37360780637282
 31
0.0
  0
LINE
  5
E8D
330
1F
100
AcDbEntity
  8
0
  6
CONTINUOUS
 62
     7
100
AcDbLine
 10
46.85112604792393
 20
47.24421143320978
 30
0.0
 11
46.87424564591012
 21
47.1825127078376
 31
0.0
  0
LINE
  5
E8E
330
1F
100
AcDbEntity
  8
0
  6
CONTINUOUS
 62
     7
100
AcDbLine
 10
46.82880334119078
 20
47.3082111724971
 30
0.0
 11
46.85112604792393
 21
47.24421143320978
 31
0.0
  0
LINE
  5
E8F
330
1F
100
AcDbEntity
  8
0
  6
CONTINUOUS
 62
     7
100
AcDbLine
 10
46.80791500191891
 20
47.37269346897884
 30
0.0
 11
46.82880334119078
 21
47.3082111724971
 31
0.0
  0
LINE
  5
E90
330
1F
100
AcDbEntity
  8
0
  6
CONTINUOUS
 62
     7
100
AcDbLine
 10
46.78794203105762
 20
47.43925082741578
 30
0.0
 11
46.80791500191891
 21
47.37269346897884
 31
0.0
  0
LINE
  5
E91
330
1F
100
AcDbEntity
  8
0
  6
CONTINUOUS
 62
     7
100
AcDbLine
 10
46.76938727815445
 20
47.50621752345915
 30
0.0
 11
46.78794203105762
 21
47.43925082741578
 31
0.0
  0
LINE
  5
E92
330
1F
100
AcDbEntity
  8
0
  6
CONTINUOUS
 62
     7
100
AcDbLine
 10
46.06140281141778
 20
46.86715245192907
 30
0.0
 11
46.07527105368591
 21
46.81657489312446
 31
0.0
  0
LINE
  5
E93
330
1F
100
AcDbEntity
  8
0
  6
CONTINUOUS
 62
     7
100
AcDbLine
 10
46.04755358161168
 20
46.92108349864159
 30
0.0
 11
46.06140281141778
 21
46.86715245192907
 31
0.0
  0
LINE
  5
E94
330
1F
100
AcDbEntity
  8
0
  6
CONTINUOUS
 62
     7
100
AcDbLine
 10
46.75185420303053
 20
47.57501424806818
 30
0.0
 11
46.76938727815445
 21
47.50621752345915
 31
0.0
  0
LINE
  5
E95
330
1F
100
AcDbEntity
  8
0
  6
CONTINUOUS
 62
     7
100
AcDbLine
 10
46.03453596403656
 20
46.97522140057252
 30
0.0
 11
46.04755358161168
 21
46.92108349864159
 31
0.0
  0
LINE
  5
E96
330
1F
100
AcDbEntity
  8
0
  6
CONTINUOUS
 62
     7
100
AcDbLine
 10
46.73572466845967
 20
47.64415359397607
 30
0.0
 11
46.75185420303053
 21
47.57501424806818
 31
0.0
  0
LINE
  5
E97
330
1F
100
AcDbEntity
  8
0
  6
CONTINUOUS
 62
     7
100
AcDbLine
 10
46.02164005850797
 20
47.0325013489344
 30
0.0
 11
46.03453596403656
 21
46.97522140057252
 31
0.0
  0
LINE
  5
E98
330
1F
100
AcDbEntity
  8
0
  6
CONTINUOUS
 62
     7
100
AcDbLine
 10
46.72070992726014
 20
47.7148616354473
 30
0.0
 11
46.73572466845967
 21
47.64415359397607
 31
0.0
  0
LINE
  5
E99
330
1F
100
AcDbEntity
  8
0
  6
CONTINUOUS
 62
     7
100
AcDbLine
 10
46.00953806859432
 20
47.08995435910736
 30
0.0
 11
46.02164005850797
 21
47.0325013489344
 31
0.0
  0
LINE
  5
E9A
330
1F
100
AcDbEntity
  8
0
  6
CONTINUOUS
 62
     7
100
AcDbLine
 10
45.99765037316513
 20
47.15031583807548
 30
0.0
 11
46.00953806859432
 21
47.08995435910736
 31
0.0
  0
LINE
  5
E9B
330
1F
100
AcDbEntity
  8
0
  6
CONTINUOUS
 62
     7
100
AcDbLine
 10
46.707086007402
 20
47.78585085425485
 30
0.0
 11
46.72070992726014
 21
47.7148616354473
 31
0.0
  0
LINE
  5
E9C
330
1F
100
AcDbEntity
  8
0
  6
CONTINUOUS
 62
     7
100
AcDbLine
 10
45.98652436602743
 20
47.21082241030468
 30
0.0
 11
45.99765037316513
 21
47.15031583807548
 31
0.0
  0
LINE
  5
E9D
330
1F
100
AcDbEntity
  8
0
  6
CONTINUOUS
 62
     7
100
AcDbLine
 10
46.69465601976435
 20
47.85813385089601
 30
0.0
 11
46.707086007402
 21
47.78585085425485
 31
0.0
  0
LINE
  5
E9E
330
1F
100
AcDbEntity
  8
0
  6
CONTINUOUS
 62
     7
100
AcDbLine
 10
45.97569550586787
 20
47.27398460596289
 30
0.0
 11
45.98652436602743
 21
47.21082241030468
 31
0.0
  0
LINE
  5
E9F
330
1F
100
AcDbEntity
  8
0
  6
CONTINUOUS
 62
     7
100
AcDbLine
 10
45.96560094564061
 20
47.3372683581451
 30
0.0
 11
45.97569550586787
 21
47.27398460596289
 31
0.0
  0
LINE
  5
EA0
330
1F
100
AcDbEntity
  8
0
  6
CONTINUOUS
 62
     7
100
AcDbLine
 10
46.68360642721772
 20
47.93064073708332
 30
0.0
 11
46.69465601976435
 21
47.85813385089601
 31
0.0
  0
LINE
  5
EA1
330
1F
100
AcDbEntity
  8
0
  6
CONTINUOUS
 62
     7
100
AcDbLine
 10
45.95587699308373
 20
47.4029381098483
 30
0.0
 11
45.96560094564061
 21
47.3372683581451
 31
0.0
  0
LINE
  5
EA2
330
1F
100
AcDbEntity
  8
0
  6
CONTINUOUS
 62
     7
100
AcDbLine
 10
45.94686426768508
 20
47.46870928540466
 30
0.0
 11
45.95587699308373
 21
47.4029381098483
 31
0.0
  0
LINE
  5
EA3
330
1F
100
AcDbEntity
  8
0
  6
CONTINUOUS
 62
     7
100
AcDbLine
 10
46.67381532877818
 20
48.00415546727852
 30
0.0
 11
46.68360642721772
 21
47.93064073708332
 31
0.0
  0
LINE
  5
EA4
330
1F
100
AcDbEntity
  8
0
  6
CONTINUOUS
 62
     7
100
AcDbLine
 10
45.93828647721487
 20
47.53658231715414
 30
0.0
 11
45.94686426768508
 21
47.46870928540466
 31
0.0
  0
LINE
  5
EA5
330
1F
100
AcDbEntity
  8
0
  6
CONTINUOUS
 62
     7
100
AcDbLine
 10
45.93040070420556
 20
47.60453925246403
 30
0.0
 11
45.93828647721487
 21
47.53658231715414
 31
0.0
  0
LINE
  5
EA6
330
1F
100
AcDbEntity
  8
0
  6
CONTINUOUS
 62
     7
100
AcDbLine
 10
45.92300527587371
 20
47.6743014619119
 30
0.0
 11
45.93040070420556
 21
47.60453925246403
 31
0.0
  0
LINE
  5
EA7
330
1F
100
AcDbEntity
  8
0
  6
CONTINUOUS
 62
     7
100
AcDbLine
 10
45.91628615311712
 20
47.74413208828437
 30
0.0
 11
45.92300527587371
 21
47.6743014619119
 31
0.0
  0
LINE
  5
EA8
330
1F
100
AcDbEntity
  8
0
  6
CONTINUOUS
 62
     7
100
AcDbLine
 10
45.91010402083644
 20
47.81546099062636
 30
0.0
 11
45.91628615311712
 21
47.74413208828437
 31
0.0
  0
LINE
  5
EA9
330
1F
100
AcDbEntity
  8
0
  6
CONTINUOUS
 62
     7
100
AcDbLine
 10
45.90458567913967
 20
47.88684428922879
 30
0.0
 11
45.91010402083644
 21
47.81546099062636
 31
0.0
  0
LINE
  5
EAA
330
1F
100
AcDbEntity
  8
0
  6
CONTINUOUS
 62
     7
100
AcDbLine
 10
45.89964232176614
 20
47.95941017581587
 30
0.0
 11
45.90458567913967
 21
47.88684428922879
 31
0.0
  0
LINE
  5
EAB
330
1F
100
AcDbEntity
  8
0
  6
CONTINUOUS
 62
     7
100
AcDbLine
 10
45.89535323159203
 20
48.0320178385676
 30
0.0
 11
45.89964232176614
 21
47.95941017581587
 31
0.0
  0
LINE
  5
EAC
330
1F
100
AcDbEntity
  8
0
  6
CONTINUOUS
 62
     7
100
AcDbLine
 10
45.89166857186883
 20
48.10548626321739
 30
0.0
 11
45.89535323159203
 21
48.0320178385676
 31
0.0
  0
LINE
  5
EAD
330
1F
100
AcDbEntity
  8
0
  6
CONTINUOUS
 62
     7
100
AcDbLine
 10
45.8886314933507
 20
48.17898371565537
 30
0.0
 11
45.89166857186883
 21
48.10548626321739
 31
0.0
  0
LINE
  5
EAE
330
1F
100
AcDbEntity
  8
0
  6
CONTINUOUS
 62
     7
100
AcDbLine
 10
48.03339865017905
 20
56.93846671367343
 30
0.0
 11
47.9892603353483
 21
56.48483693627946
 31
0.0
  0
LINE
  5
EAF
330
1F
100
AcDbEntity
  8
0
  6
CONTINUOUS
 62
     7
100
AcDbLine
 10
47.9892603353483
 20
56.48483693627946
 30
0.0
 11
47.93745528237694
 21
55.97667469297807
 31
0.0
  0
LINE
  5
EB0
330
1F
100
AcDbEntity
  8
0
  6
CONTINUOUS
 62
     7
100
AcDbLine
 10
48.07643713615547
 20
57.34292783385726
 30
0.0
 11
48.03339865017905
 21
56.93846671367343
 31
0.0
  0
LINE
  5
EB1
330
1F
100
AcDbEntity
  8
0
  6
CONTINUOUS
 62
     7
100
AcDbLine
 10
47.93745528237694
 20
55.97667469297807
 30
0.0
 11
47.90535976224383
 21
55.69536173267819
 31
0.0
  0
LINE
  5
EB2
330
1F
100
AcDbEntity
  8
0
  6
CONTINUOUS
 62
     7
100
AcDbLine
 10
48.09799580971326
 20
57.52206168043402
 30
0.0
 11
48.07643713615547
 21
57.34292783385726
 31
0.0
  0
LINE
  5
EB3
330
1F
100
AcDbEntity
  8
0
  6
CONTINUOUS
 62
     7
100
AcDbLine
 10
47.90535976224383
 20
55.69536173267819
 30
0.0
 11
47.86995414881674
 21
55.41444501170784
 31
0.0
  0
LINE
  5
EB4
330
1F
100
AcDbEntity
  8
0
  6
CONTINUOUS
 62
     7
100
AcDbLine
 10
48.12169875216459
 20
57.70092406489372
 30
0.0
 11
48.09799580971326
 21
57.52206168043402
 31
0.0
  0
LINE
  5
EB5
330
1F
100
AcDbEntity
  8
0
  6
CONTINUOUS
 62
     7
100
AcDbLine
 10
47.86995414881674
 20
55.41444501170784
 30
0.0
 11
47.82953243569595
 21
55.12600165535234
 31
0.0
  0
LINE
  5
EB6
330
1F
100
AcDbEntity
  8
0
  6
CONTINUOUS
 62
     7
100
AcDbLine
 10
48.14487767853933
 20
57.85922584476253
 30
0.0
 11
48.12169875216459
 21
57.70092406489372
 31
0.0
  0
LINE
  5
EB7
330
1F
100
AcDbEntity
  8
0
  6
CONTINUOUS
 62
     7
100
AcDbLine
 10
47.82953243569595
 20
55.12600165535234
 30
0.0
 11
47.78460716622909
 21
54.83822724548646
 31
0.0
  0
LINE
  5
EB8
330
1F
100
AcDbEntity
  8
0
  6
CONTINUOUS
 62
     7
100
AcDbLine
 10
48.17046823567043
 20
58.01715499834135
 30
0.0
 11
48.14487767853933
 21
57.85922584476253
 31
0.0
  0
LINE
  5
EB9
330
1F
100
AcDbEntity
  8
0
  6
CONTINUOUS
 62
     7
100
AcDbLine
 10
47.78460716622909
 20
54.83822724548646
 30
0.0
 11
47.73553955006168
 21
54.55500463873436
 31
0.0
  0
LINE
  5
EBA
330
1F
100
AcDbEntity
  8
0
  6
CONTINUOUS
 62
     7
100
AcDbLine
 10
48.84531098208135
 20
58.42310575698784
 30
0.0
 11
48.80774255982344
 21
58.20824152393774
 31
0.0
  0
LINE
  5
EBB
330
1F
100
AcDbEntity
  8
0
  6
CONTINUOUS
 62
     7
100
AcDbLine
 10
48.19552776187844
 20
58.15695651777781
 30
0.0
 11
48.17046823567043
 21
58.01715499834135
 31
0.0
  0
LINE
  5
EBC
330
1F
100
AcDbEntity
  8
0
  6
CONTINUOUS
 62
     7
100
AcDbLine
 10
47.73553955006168
 20
54.55500463873436
 30
0.0
 11
47.68184536663426
 21
54.27262192956783
 31
0.0
  0
LINE
  5
EBD
330
1F
100
AcDbEntity
  8
0
  6
CONTINUOUS
 62
     7
100
AcDbLine
 10
48.22314806434436
 20
58.29627397473491
 30
0.0
 11
48.19552776187844
 21
58.15695651777781
 31
0.0
  0
LINE
  5
EBE
330
1F
100
AcDbEntity
  8
0
  6
CONTINUOUS
 62
     7
100
AcDbLine
 10
48.88370587974907
 20
58.60928347320435
 30
0.0
 11
48.84531098208135
 21
58.42310575698784
 31
0.0
  0
LINE
  5
EBF
330
1F
100
AcDbEntity
  8
0
  6
CONTINUOUS
 62
     7
100
AcDbLine
 10
47.68184536663426
 20
54.27262192956783
 30
0.0
 11
47.61822869432433
 21
53.96520757469395
 31
0.0
  0
LINE
  5
EC0
330
1F
100
AcDbEntity
  8
0
  6
CONTINUOUS
 62
     7
100
AcDbLine
 10
48.25022472762745
 20
58.41987761209913
 30
0.0
 11
48.22314806434436
 21
58.29627397473491
 31
0.0
  0
LINE
  5
EC1
330
1F
100
AcDbEntity
  8
0
  6
CONTINUOUS
 62
     7
100
AcDbLine
 10
47.61822869432433
 20
53.96520757469395
 30
0.0
 11
47.55018037233405
 21
53.6587413780657
 31
0.0
  0
LINE
  5
EC2
330
1F
100
AcDbEntity
  8
0
  6
CONTINUOUS
 62
     7
100
AcDbLine
 10
47.55018037233405
 20
53.6587413780657
 30
0.0
 11
47.46937095875824
 21
53.31452898647372
 31
0.0
  0
LINE
  5
EC3
330
1F
100
AcDbEntity
  8
0
  6
CONTINUOUS
 62
     7
100
AcDbLine
 10
48.27999305746565
 20
58.54285952087095
 30
0.0
 11
48.25022472762745
 21
58.41987761209913
 31
0.0
  0
LINE
  5
EC4
330
1F
100
AcDbEntity
  8
0
  6
CONTINUOUS
 62
     7
100
AcDbLine
 10
47.46937095875824
 20
53.31452898647372
 30
0.0
 11
47.38555119743931
 21
52.97103398131382
 31
0.0
  0
LINE
  5
EC5
330
1F
100
AcDbEntity
  8
0
  6
CONTINUOUS
 62
     7
100
AcDbLine
 10
48.92297242014335
 20
58.76856291644957
 30
0.0
 11
48.88370587974907
 21
58.60928347320435
 31
0.0
  0
LINE
  5
EC6
330
1F
100
AcDbEntity
  8
0
  6
CONTINUOUS
 62
     7
100
AcDbLine
 10
47.38555119743931
 20
52.97103398131382
 30
0.0
 11
47.30077103285049
 21
52.63157243576886
 31
0.0
  0
LINE
  5
EC7
330
1F
100
AcDbEntity
  8
0
  6
CONTINUOUS
 62
     7
100
AcDbLine
 10
47.30077103285049
 20
52.63157243576886
 30
0.0
 11
47.21394887401983
 21
52.29262972656103
 31
0.0
  0
LINE
  5
EC8
330
1F
100
AcDbEntity
  8
0
  6
CONTINUOUS
 62
     7
100
AcDbLine
 10
47.21394887401983
 20
52.29262972656103
 30
0.0
 11
47.13268969160431
 21
51.98481837172373
 31
0.0
  0
LINE
  5
EC9
330
1F
100
AcDbEntity
  8
0
  6
CONTINUOUS
 62
     7
100
AcDbLine
 10
48.30920618464552
 20
58.65215874898867
 30
0.0
 11
48.27999305746565
 21
58.54285952087095
 31
0.0
  0
LINE
  5
ECA
330
1F
100
AcDbEntity
  8
0
  6
CONTINUOUS
 62
     7
100
AcDbLine
 10
47.13268969160431
 20
51.98481837172373
 30
0.0
 11
47.04874207683043
 21
51.67773175460144
 31
0.0
  0
LINE
  5
ECB
330
1F
100
AcDbEntity
  8
0
  6
CONTINUOUS
 62
     7
100
AcDbLine
 10
47.04874207683043
 20
51.67773175460144
 30
0.0
 11
46.96600522758399
 21
51.38621476749171
 31
0.0
  0
LINE
  5
ECC
330
1F
100
AcDbEntity
  8
0
  6
CONTINUOUS
 62
     7
100
AcDbLine
 10
48.94231521837141
 20
58.8363930199076
 30
0.0
 11
48.92297242014335
 21
58.76856291644957
 31
0.0
  0
LINE
  5
ECD
330
1F
100
AcDbEntity
  8
0
  6
CONTINUOUS
 62
     7
100
AcDbLine
 10
46.96600522758399
 20
51.38621476749171
 30
0.0
 11
46.88083948762262
 21
51.09539622876647
 31
0.0
  0
LINE
  5
ECE
330
1F
100
AcDbEntity
  8
0
  6
CONTINUOUS
 62
     7
100
AcDbLine
 10
48.34122255424945
 20
58.76066864170427
 30
0.0
 11
48.30920618464552
 21
58.65215874898867
 31
0.0
  0
LINE
  5
ECF
330
1F
100
AcDbEntity
  8
0
  6
CONTINUOUS
 62
     7
100
AcDbLine
 10
46.88083948762262
 20
51.09539622876647
 30
0.0
 11
46.7841523802762
 21
50.77350962954231
 31
0.0
  0
LINE
  5
ED0
330
1F
100
AcDbEntity
  8
0
  6
CONTINUOUS
 62
     7
100
AcDbLine
 10
46.7841523802762
 20
50.77350962954231
 30
0.0
 11
46.57350637358738
 21
50.09006814806015
 31
0.0
  0
LINE
  5
ED1
330
1F
100
AcDbEntity
  8
0
  6
CONTINUOUS
 62
     7
100
AcDbLine
 10
48.96363698992371
 20
58.90362567299074
 30
0.0
 11
48.94231521837141
 21
58.8363930199076
 31
0.0
  0
LINE
  5
ED2
330
1F
100
AcDbEntity
  8
0
  6
CONTINUOUS
 62
     7
100
AcDbLine
 10
46.57350637358738
 20
50.09006814806015
 30
0.0
 11
46.45858888295215
 21
49.72883649136107
 31
0.0
  0
LINE
  5
ED3
330
1F
100
AcDbEntity
  8
0
  6
CONTINUOUS
 62
     7
100
AcDbLine
 10
48.37249270098595
 20
58.85676491184092
 30
0.0
 11
48.34122255424945
 21
58.76066864170427
 31
0.0
  0
LINE
  5
ED4
330
1F
100
AcDbEntity
  8
0
  6
CONTINUOUS
 62
     7
100
AcDbLine
 10
46.45858888295215
 20
49.72883649136107
 30
0.0
 11
46.34207436501012
 21
49.37627846869965
 31
0.0
  0
LINE
  5
ED5
330
1F
100
AcDbEntity
  8
0
  6
CONTINUOUS
 62
     7
100
AcDbLine
 10
46.34207436501012
 20
49.37627846869965
 30
0.0
 11
46.22011816525507
 21
49.02556142282934
 31
0.0
  0
LINE
  5
ED6
330
1F
100
AcDbEntity
  8
0
  6
CONTINUOUS
 62
     7
100
AcDbLine
 10
48.98371977826427
 20
58.96035257935976
 30
0.0
 11
48.96363698992371
 21
58.90362567299074
 31
0.0
  0
LINE
  5
ED7
330
1F
100
AcDbEntity
  8
0
  6
CONTINUOUS
 62
     7
100
AcDbLine
 10
48.40661906403234
 20
58.95188249516451
 30
0.0
 11
48.37249270098595
 21
58.85676491184092
 31
0.0
  0
LINE
  5
ED8
330
1F
100
AcDbEntity
  8
0
  6
CONTINUOUS
 62
     7
100
AcDbLine
 10
46.22011816525507
 20
49.02556142282934
 30
0.0
 11
46.10676694869013
 21
48.71819640290201
 31
0.0
  0
LINE
  5
ED9
330
1F
100
AcDbEntity
  8
0
  6
CONTINUOUS
 62
     7
100
AcDbLine
 10
46.10676694869013
 20
48.71819640290201
 30
0.0
 11
45.98687798707191
 21
48.41334701594131
 31
0.0
  0
LINE
  5
EDA
330
1F
100
AcDbEntity
  8
0
  6
CONTINUOUS
 62
     7
100
AcDbLine
 10
48.43980158877522
 20
59.03583524864392
 30
0.0
 11
48.40661906403234
 21
58.95188249516451
 31
0.0
  0
LINE
  5
EDB
330
1F
100
AcDbEntity
  8
0
  6
CONTINUOUS
 62
     7
100
AcDbLine
 10
49.005911563322
 20
59.01628547536993
 30
0.0
 11
48.98371977826427
 21
58.96035257935976
 31
0.0
  0
LINE
  5
EDC
330
1F
100
AcDbEntity
  8
0
  6
CONTINUOUS
 62
     7
100
AcDbLine
 10
45.98687798707191
 20
48.41334701594131
 30
0.0
 11
45.8886314933507
 21
48.17898371565537
 31
0.0
  0
LINE
  5
EDD
330
1F
100
AcDbEntity
  8
0
  6
CONTINUOUS
 62
     7
100
AcDbLine
 10
49.02664938307843
 20
59.06287659407448
 30
0.0
 11
49.005911563322
 21
59.01628547536993
 31
0.0
  0
LINE
  5
EDE
330
1F
100
AcDbEntity
  8
0
  6
HIDDEN
 62
     8
100
AcDbLine
 10
58.52353809618285
 20
59.75004830262943
 30
0.0
 11
58.49062446767894
 21
59.7206502007796
 31
0.0
  0
LINE
  5
EDF
330
1F
100
AcDbEntity
  8
0
  6
HIDDEN
 62
     8
100
AcDbLine
 10
58.55753903769965
 20
59.77790525595057
 30
0.0
 11
58.52353809618285
 21
59.75004830262943
 31
0.0
  0
LINE
  5
EE0
330
1F
100
AcDbEntity
  8
0
  6
HIDDEN
 62
     8
100
AcDbLine
 10
60.30771642129976
 20
60.60326992650539
 30
0.0
 11
60.30870207275396
 21
60.60402831315854
 31
0.0
  0
LINE
  5
EE1
330
1F
100
AcDbEntity
  8
0
  6
HIDDEN
 62
     8
100
AcDbLine
 10
58.59249902365751
 20
59.80438546587099
 30
0.0
 11
58.55753903769965
 21
59.77790525595057
 31
0.0
  0
LINE
  5
EE2
330
1F
100
AcDbEntity
  8
0
  6
HIDDEN
 62
     8
100
AcDbLine
 10
22.06703626671965
 20
59.64853566221184
 30
0.0
 11
22.07779820890651
 21
59.6495811531493
 31
0.0
  0
LINE
  5
EE3
330
1F
100
AcDbEntity
  8
0
  6
HIDDEN
 62
     8
100
AcDbLine
 10
20.6656249534247
 20
60.6048806245234
 30
0.0
 11
20.66452684579547
 21
60.60480590062316
 31
0.0
  0
LINE
  5
EE4
330
1F
100
AcDbEntity
  8
0
  6
CONTINUOUS
 62
     7
100
AcDbLine
 10
16.27476167172074
 20
61.62998790614055
 30
0.0
 11
19.04239344125711
 21
61.62998797214907
 31
0.0
  0
LINE
  5
EE5
330
1F
100
AcDbEntity
  8
0
  6
CONTINUOUS
 62
     7
100
AcDbLine
 10
63.33065834449778
 20
61.62998902799737
 30
0.0
 11
68.69796064746228
 21
61.62998915607547
 31
0.0
  0
LINE
  5
EE6
330
1F
100
AcDbEntity
  8
0
  6
HIDDEN
 62
     8
100
AcDbLine
 10
60.31093963548109
 20
60.6048815636343
 30
0.0
 11
60.31203774124974
 21
60.60480684157538
 31
0.0
  0
LINE
  5
EE7
330
1F
100
AcDbEntity
  8
0
  6
HIDDEN
 62
     8
100
AcDbLine
 10
58.90952836473234
 20
59.64853653563796
 30
0.0
 11
58.8987664243297
 21
59.64958202802851
 31
0.0
  0
LINE
  5
EE8
330
1F
100
AcDbEntity
  8
0
  6
CONTINUOUS
 62
     7
100
AcDbLine
 10
49.89936279300161
 20
59.50913722753553
 30
0.0
 11
49.83261646936068
 21
59.51743316077958
 31
0.0
  0
LINE
  5
EE9
330
1F
100
AcDbEntity
  8
0
  6
CONTINUOUS
 62
     7
100
AcDbLine
 10
49.98486401464685
 20
60.00176966176543
 30
0.0
 11
49.87598616489404
 21
60.01540789690301
 31
0.0
  0
LINE
  5
EEA
330
1F
100
AcDbEntity
  8
0
  6
HIDDEN
 62
     8
100
AcDbLine
 10
58.8987664243297
 20
59.64958202802851
 30
0.0
 11
58.89036741741893
 21
59.65090350008162
 31
0.0
  0
LINE
  5
EEB
330
1F
100
AcDbEntity
  8
0
  6
HIDDEN
 62
     8
100
AcDbLine
 10
58.61145696256243
 20
58.38257821121245
 30
0.0
 11
58.64028982855605
 21
58.37787816699044
 31
0.0
  0
LINE
  5
EEC
330
1F
100
AcDbEntity
  8
0
  6
CONTINUOUS
 62
     7
100
AcDbLine
 10
49.97071955947003
 20
59.49524621893636
 30
0.0
 11
49.89936279300161
 21
59.50913722753553
 31
0.0
  0
LINE
  5
EED
330
1F
100
AcDbEntity
  8
0
  6
HIDDEN
 62
     8
100
AcDbLine
 10
58.58278615315477
 20
58.38851103925065
 30
0.0
 11
58.61145696256243
 21
58.38257821121245
 31
0.0
  0
LINE
  5
EEE
330
1F
100
AcDbEntity
  8
0
  6
CONTINUOUS
 62
     7
100
AcDbLine
 10
50.09716578165496
 20
59.97835421023068
 30
0.0
 11
49.98486401464685
 21
60.00176966176543
 31
0.0
  0
LINE
  5
EEF
330
1F
100
AcDbEntity
  8
0
  6
CONTINUOUS
 62
     7
100
AcDbLine
 10
50.04404798123035
 20
59.47583204307455
 30
0.0
 11
49.97071955947003
 21
59.49524621893636
 31
0.0
  0
LINE
  5
EF0
330
1F
100
AcDbEntity
  8
0
  6
CONTINUOUS
 62
     7
100
AcDbLine
 10
50.11675848409431
 20
59.45093616750128
 30
0.0
 11
50.04404798123035
 21
59.47583204307455
 31
0.0
  0
LINE
  5
EF1
330
1F
100
AcDbEntity
  8
0
  6
CONTINUOUS
 62
     7
100
AcDbLine
 10
46.66539671698108
 20
48.07784007447658
 30
0.0
 11
46.67381532877818
 21
48.00415546727852
 31
0.0
  0
LINE
  5
EF2
330
1F
100
AcDbEntity
  8
0
  6
CONTINUOUS
 62
     7
100
AcDbLine
 10
46.65828613755109
 20
48.15223827134106
 30
0.0
 11
46.66539671698108
 21
48.07784007447658
 31
0.0
  0
LINE
  5
EF3
330
1F
100
AcDbEntity
  8
0
  6
CONTINUOUS
 62
     7
100
AcDbLine
 10
46.6525428006089
 20
48.22675432088202
 30
0.0
 11
46.65828613755109
 21
48.15223827134106
 31
0.0
  0
LINE
  5
EF4
330
1F
100
AcDbEntity
  8
0
  6
CONTINUOUS
 62
     7
100
AcDbLine
 10
46.64814167139286
 20
48.3016834393339
 30
0.0
 11
46.6525428006089
 21
48.22675432088202
 31
0.0
  0
LINE
  5
EF5
330
1F
100
AcDbEntity
  8
0
  6
CONTINUOUS
 62
     7
100
AcDbLine
 10
46.64510532805775
 20
48.3766809779279
 30
0.0
 11
46.64814167139286
 21
48.3016834393339
 31
0.0
  0
LINE
  5
EF6
330
1F
100
AcDbEntity
  8
0
  6
CONTINUOUS
 62
     7
100
AcDbLine
 10
46.64342984686989
 20
48.45178898917153
 30
0.0
 11
46.64510532805775
 21
48.3766809779279
 31
0.0
  0
LINE
  5
EF7
330
1F
100
AcDbEntity
  8
0
  6
CONTINUOUS
 62
     7
100
AcDbLine
 10
46.64311948991119
 20
48.5269124014073
 30
0.0
 11
46.64342984686989
 21
48.45178898917153
 31
0.0
  0
LINE
  5
EF8
330
1F
100
AcDbEntity
  8
0
  6
CONTINUOUS
 62
     7
100
AcDbLine
 10
48.66548868165925
 20
56.98550835112271
 30
0.0
 11
48.5948945511317
 21
56.08102136930016
 31
0.0
  0
LINE
  5
EF9
330
1F
100
AcDbEntity
  8
0
  6
CONTINUOUS
 62
     7
100
AcDbLine
 10
48.5948945511317
 20
56.08102136930016
 30
0.0
 11
48.57205256162837
 21
55.80906206329927
 31
0.0
  0
LINE
  5
EFA
330
1F
100
AcDbEntity
  8
0
  6
CONTINUOUS
 62
     7
100
AcDbLine
 10
48.6993792669136
 20
57.35556527719045
 30
0.0
 11
48.66548868165925
 21
56.98550835112271
 31
0.0
  0
LINE
  5
EFB
330
1F
100
AcDbEntity
  8
0
  6
CONTINUOUS
 62
     7
100
AcDbLine
 10
48.57205256162837
 20
55.80906206329927
 30
0.0
 11
48.5466336948351
 21
55.53733164391314
 31
0.0
  0
LINE
  5
EFC
330
1F
100
AcDbEntity
  8
0
  6
CONTINUOUS
 62
     7
100
AcDbLine
 10
48.5466336948351
 20
55.53733164391314
 30
0.0
 11
48.51473370725907
 21
55.23730914363444
 31
0.0
  0
LINE
  5
EFD
330
1F
100
AcDbEntity
  8
0
  6
CONTINUOUS
 62
     7
100
AcDbLine
 10
48.7346065610045
 20
57.67902432014079
 30
0.0
 11
48.6993792669136
 21
57.35556527719045
 31
0.0
  0
LINE
  5
EFE
330
1F
100
AcDbEntity
  8
0
  6
CONTINUOUS
 62
     7
100
AcDbLine
 10
48.51473370725907
 20
55.23730914363444
 30
0.0
 11
48.47830231200863
 21
54.93780162829439
 31
0.0
  0
LINE
  5
EFF
330
1F
100
AcDbEntity
  8
0
  6
CONTINUOUS
 62
     7
100
AcDbLine
 10
48.7708545743029
 20
57.96169563379689
 30
0.0
 11
48.7346065610045
 21
57.67902432014079
 31
0.0
  0
LINE
  5
F00
330
1F
100
AcDbEntity
  8
0
  6
CONTINUOUS
 62
     7
100
AcDbLine
 10
48.47830231200863
 20
54.93780162829439
 30
0.0
 11
48.43782307147323
 21
54.64536733751724
 31
0.0
  0
LINE
  5
F01
330
1F
100
AcDbEntity
  8
0
  6
CONTINUOUS
 62
     7
100
AcDbLine
 10
48.80774255982344
 20
58.20824152393774
 30
0.0
 11
48.7708545743029
 21
57.96169563379689
 31
0.0
  0
LINE
  5
F02
330
1F
100
AcDbEntity
  8
0
  6
CONTINUOUS
 62
     7
100
AcDbLine
 10
48.43782307147323
 20
54.64536733751724
 30
0.0
 11
48.39220289955163
 21
54.353694176116
 31
0.0
  0
LINE
  5
F03
330
1F
100
AcDbEntity
  8
0
  6
CONTINUOUS
 62
     7
100
AcDbLine
 10
48.39220289955163
 20
54.353694176116
 30
0.0
 11
48.34073859349405
 21
54.06028948838929
 31
0.0
  0
LINE
  5
F04
330
1F
100
AcDbEntity
  8
0
  6
CONTINUOUS
 62
     7
100
AcDbLine
 10
48.34073859349405
 20
54.06028948838929
 30
0.0
 11
48.28408500573762
 21
53.76783895865982
 31
0.0
  0
LINE
  5
F05
330
1F
100
AcDbEntity
  8
0
  6
CONTINUOUS
 62
     7
100
AcDbLine
 10
48.28408500573762
 20
53.76783895865982
 30
0.0
 11
48.21362589230874
 21
53.43532713072178
 31
0.0
  0
LINE
  5
F06
330
1F
100
AcDbEntity
  8
0
  6
CONTINUOUS
 62
     7
100
AcDbLine
 10
48.21362589230874
 20
53.43532713072178
 30
0.0
 11
48.13764450219131
 21
53.10403038634442
 31
0.0
  0
LINE
  5
F07
330
1F
100
AcDbEntity
  8
0
  6
CONTINUOUS
 62
     7
100
AcDbLine
 10
48.13764450219131
 20
53.10403038634442
 30
0.0
 11
48.05094412242365
 21
52.75069876992981
 31
0.0
  0
LINE
  5
F08
330
1F
100
AcDbEntity
  8
0
  6
CONTINUOUS
 62
     7
100
AcDbLine
 10
48.05094412242365
 20
52.75069876992981
 30
0.0
 11
47.95918097944
 21
52.39864815531446
 31
0.0
  0
LINE
  5
F09
330
1F
100
AcDbEntity
  8
0
  6
CONTINUOUS
 62
     7
100
AcDbLine
 10
47.95918097944
 20
52.39864815531446
 30
0.0
 11
47.8698040045684
 21
52.07306004642259
 31
0.0
  0
LINE
  5
F0A
330
1F
100
AcDbEntity
  8
0
  6
CONTINUOUS
 62
     7
100
AcDbLine
 10
47.8698040045684
 20
52.07306004642259
 30
0.0
 11
47.77639458566595
 21
51.74860789758369
 31
0.0
  0
LINE
  5
F0B
330
1F
100
AcDbEntity
  8
0
  6
CONTINUOUS
 62
     7
100
AcDbLine
 10
47.77639458566595
 20
51.74860789758369
 30
0.0
 11
47.68978081323846
 21
51.46066096750269
 31
0.0
  0
LINE
  5
F0C
330
1F
100
AcDbEntity
  8
0
  6
CONTINUOUS
 62
     7
100
AcDbLine
 10
47.68978081323846
 20
51.46066096750269
 30
0.0
 11
47.59994215915773
 21
51.1737049371746
 31
0.0
  0
LINE
  5
F0D
330
1F
100
AcDbEntity
  8
0
  6
CONTINUOUS
 62
     7
100
AcDbLine
 10
47.59994215915773
 20
51.1737049371746
 30
0.0
 11
47.50485999924701
 21
50.88142262330386
 31
0.0
  0
LINE
  5
F0E
330
1F
100
AcDbEntity
  8
0
  6
CONTINUOUS
 62
     7
100
AcDbLine
 10
47.50485999924701
 20
50.88142262330386
 30
0.0
 11
47.4068656026839
 21
50.59010259176545
 31
0.0
  0
LINE
  5
F0F
330
1F
100
AcDbEntity
  8
0
  6
CONTINUOUS
 62
     7
100
AcDbLine
 10
47.4068656026839
 20
50.59010259176545
 30
0.0
 11
47.29144482327427
 21
50.25694941703459
 31
0.0
  0
LINE
  5
F10
330
1F
100
AcDbEntity
  8
0
  6
CONTINUOUS
 62
     7
100
AcDbLine
 10
47.29144482327427
 20
50.25694941703459
 30
0.0
 11
47.17345537436647
 21
49.92469508269917
 31
0.0
  0
LINE
  5
F11
330
1F
100
AcDbEntity
  8
0
  6
CONTINUOUS
 62
     7
100
AcDbLine
 10
47.17345537436647
 20
49.92469508269917
 30
0.0
 11
47.0424048692246
 21
49.56335021574594
 31
0.0
  0
LINE
  5
F12
330
1F
100
AcDbEntity
  8
0
  6
CONTINUOUS
 62
     7
100
AcDbLine
 10
47.0424048692246
 20
49.56335021574594
 30
0.0
 11
46.90826101073594
 21
49.20314162520057
 31
0.0
  0
LINE
  5
F13
330
1F
100
AcDbEntity
  8
0
  6
CONTINUOUS
 62
     7
100
AcDbLine
 10
46.90826101073594
 20
49.20314162520057
 30
0.0
 11
46.77788452812649
 21
48.86416022283565
 31
0.0
  0
LINE
  5
F14
330
1F
100
AcDbEntity
  8
0
  6
CONTINUOUS
 62
     7
100
AcDbLine
 10
46.77788452812649
 20
48.86416022283565
 30
0.0
 11
46.64311309223807
 21
48.52691263209784
 31
0.0
  0
LINE
  5
F15
330
1F
100
AcDbEntity
  8
0
  6
HIDDEN
 62
     8
100
AcDbLine
 10
58.46664856252343
 20
59.69739790752997
 30
0.0
 11
58.44355898311485
 21
59.67318024297836
 31
0.0
  0
LINE
  5
F16
330
1F
100
AcDbEntity
  8
0
  6
HIDDEN
 62
     8
100
AcDbLine
 10
60.30645768655652
 20
60.6020159836476
 30
0.0
 11
60.30771642129976
 21
60.60326992650539
 31
0.0
  0
LINE
  5
F17
330
1F
100
AcDbEntity
  8
0
  6
HIDDEN
 62
     8
100
AcDbLine
 10
58.49062446767894
 20
59.7206502007796
 30
0.0
 11
58.46664856252343
 21
59.69739790752997
 31
0.0
  0
LINE
  5
F18
330
1F
100
AcDbEntity
  8
0
  6
HIDDEN
 62
     8
100
AcDbLine
 10
60.88664619456476
 20
60.15618166184215
 30
0.0
 11
60.8871410016682
 21
60.15661210771265
 31
0.0
  0
LINE
  5
F19
330
1F
100
AcDbEntity
  8
0
  6
HIDDEN
 62
     8
100
AcDbLine
 10
60.89438098938136
 20
58.84549947438777
 30
0.0
 11
60.89375374713704
 21
58.84502892133425
 31
0.0
  0
LINE
  5
F1A
330
1F
100
AcDbEntity
  8
0
  6
CONTINUOUS
 62
     7
100
AcDbLine
 10
51.85943721861129
 20
46.27016713673718
 30
0.0
 11
51.83225760652049
 21
46.26460789378934
 31
0.0
  0
LINE
  5
F1B
330
1F
100
AcDbEntity
  8
0
  6
CONTINUOUS
 62
     7
100
AcDbLine
 10
53.15039753840103
 20
46.23590853093754
 30
0.0
 11
53.13733088038349
 21
46.23361024712046
 31
0.0
  0
LINE
  5
F1C
330
1F
100
AcDbEntity
  8
0
  6
CONTINUOUS
 62
     7
100
AcDbLine
 10
51.83225760652049
 20
46.26460789378934
 30
0.0
 11
51.80535195574908
 21
46.26026095025297
 31
0.0
  0
LINE
  5
F1D
330
1F
100
AcDbEntity
  8
0
  6
CONTINUOUS
 62
     7
100
AcDbLine
 10
16.67882790442445
 20
63.44255827243997
 30
0.0
 11
18.32848135875696
 21
63.44255831289834
 31
0.0
  0
LINE
  5
F1E
330
1F
100
AcDbEntity
  8
0
  6
CONTINUOUS
 62
     7
100
AcDbLine
 10
62.62370720369327
 20
63.44255936851097
 30
0.0
 11
64.32290623261373
 21
63.44255941023597
 31
0.0
  0
LINE
  5
F1F
330
1F
100
AcDbEntity
  8
0
  6
CONTINUOUS
 62
     7
100
AcDbLine
 10
16.67882789965339
 20
63.63005827312829
 30
0.0
 11
68.29389432399541
 21
63.63005950382685
 31
0.0
  0
LINE
  5
F20
330
1F
100
AcDbEntity
  8
0
  6
HIDDEN
 62
     8
100
AcDbLine
 10
58.89036741741893
 20
59.65090350008162
 30
0.0
 11
58.8820995931587
 21
59.65287032163215
 31
0.0
  0
LINE
  5
F21
330
1F
100
AcDbEntity
  8
0
  6
HIDDEN
 62
     8
100
AcDbLine
 10
58.55443820606812
 20
58.39578158542756
 30
0.0
 11
58.58278615315477
 21
58.38851103925065
 31
0.0
  0
LINE
  5
F22
330
1F
100
AcDbEntity
  8
0
  6
HIDDEN
 62
     8
100
AcDbLine
 10
60.89152335058749
 20
58.84449312688627
 30
0.0
 11
60.89071370212838
 21
58.844719188198
 31
0.0
  0
LINE
  5
F23
330
1F
100
AcDbEntity
  8
0
  6
CONTINUOUS
 62
     7
100
AcDbLine
 10
50.20985200975488
 20
59.9451761386247
 30
0.0
 11
50.09716578165496
 21
59.97835421023068
 31
0.0
  0
LINE
  5
F24
330
1F
100
AcDbEntity
  8
0
  6
HIDDEN
 62
     8
100
AcDbLine
 10
58.5265739331793
 20
58.40449478165777
 30
0.0
 11
58.55443820606812
 21
58.39578158542756
 31
0.0
  0
LINE
  5
F25
330
1F
100
AcDbEntity
  8
0
  6
CONTINUOUS
 62
     7
100
AcDbLine
 10
50.26543532205566
 20
59.92505999267333
 30
0.0
 11
50.20985200975488
 21
59.9451761386247
 31
0.0
  0
LINE
  5
F26
330
1F
100
AcDbEntity
  8
0
  6
CONTINUOUS
 62
     7
100
AcDbLine
 10
50.32014643918474
 20
59.90268025914591
 30
0.0
 11
50.26543532205566
 21
59.92505999267333
 31
0.0
  0
LINE
  5
F27
330
1F
100
AcDbEntity
  8
0
  6
CONTINUOUS
 62
     7
100
AcDbLine
 10
50.18647757302019
 20
59.42063368797119
 30
0.0
 11
50.11675848409431
 21
59.45093616750128
 31
0.0
  0
LINE
  5
F28
330
1F
100
AcDbEntity
  8
0
  6
CONTINUOUS
 62
     7
100
AcDbLine
 10
50.37326905734961
 20
59.87834874355424
 30
0.0
 11
50.32014643918474
 21
59.90268025914591
 31
0.0
  0
LINE
  5
F29
330
1F
100
AcDbEntity
  8
0
  6
CONTINUOUS
 62
     7
100
AcDbLine
 10
50.42533527260499
 20
59.85183305261543
 30
0.0
 11
50.37326905734961
 21
59.87834874355424
 31
0.0
  0
LINE
  5
F2A
330
1F
100
AcDbEntity
  8
0
  6
CONTINUOUS
 62
     7
100
AcDbLine
 10
50.25047241710665
 20
59.3856694363282
 30
0.0
 11
50.18647757302019
 21
59.42063368797119
 31
0.0
  0
LINE
  5
F2B
330
1F
100
AcDbEntity
  8
0
  6
CONTINUOUS
 62
     7
100
AcDbLine
 10
50.5220949553054
 20
59.79476791779596
 30
0.0
 11
50.42533527260499
 21
59.85183305261543
 31
0.0
  0
LINE
  5
F2C
330
1F
100
AcDbEntity
  8
0
  6
CONTINUOUS
 62
     7
100
AcDbLine
 10
50.30808182637176
 20
59.34643772190212
 30
0.0
 11
50.25047241710665
 21
59.3856694363282
 31
0.0
  0
LINE
  5
F2D
330
1F
100
AcDbEntity
  8
0
  6
CONTINUOUS
 62
     7
100
AcDbLine
 10
52.92923810506429
 20
48.53671663901301
 30
0.0
 11
52.78922945214815
 21
48.88462269209156
 31
0.0
  0
LINE
  5
F2E
330
1F
100
AcDbEntity
  8
0
  6
CONTINUOUS
 62
     7
100
AcDbLine
 10
52.78922945214815
 20
48.88462269209156
 30
0.0
 11
52.65380245525486
 21
49.2343481664265
 31
0.0
  0
LINE
  5
F2F
330
1F
100
AcDbEntity
  8
0
  6
HIDDEN
 62
     8
100
AcDbLine
 10
58.40082457761851
 20
59.62185912117229
 30
0.0
 11
58.3815726431548
 21
59.59476082728248
 31
0.0
  0
LINE
  5
F30
330
1F
100
AcDbEntity
  8
0
  6
HIDDEN
 62
     8
100
AcDbLine
 10
58.42155217188643
 20
59.64799978763079
 30
0.0
 11
58.40082457761851
 21
59.62185912117229
 31
0.0
  0
LINE
  5
F31
330
1F
100
AcDbEntity
  8
0
  6
HIDDEN
 62
     8
100
AcDbLine
 10
60.30536984054427
 20
60.60064691578709
 30
0.0
 11
60.30645768655652
 21
60.6020159836476
 31
0.0
  0
LINE
  5
F32
330
1F
100
AcDbEntity
  8
0
  6
HIDDEN
 62
     8
100
AcDbLine
 10
58.44355898311485
 20
59.67318024297836
 30
0.0
 11
58.42155217188643
 21
59.64799978763079
 31
0.0
  0
LINE
  5
F33
330
1F
100
AcDbEntity
  8
0
  6
HIDDEN
 62
     8
100
AcDbLine
 10
60.88619201794286
 20
60.1556977164058
 30
0.0
 11
60.88664619456476
 21
60.15618166184215
 31
0.0
  0
LINE
  5
F34
330
1F
100
AcDbEntity
  8
0
  6
HIDDEN
 62
     8
100
AcDbLine
 10
60.89496159344678
 20
58.84603813366684
 30
0.0
 11
60.89438098938136
 21
58.84549947438777
 31
0.0
  0
LINE
  5
F35
330
1F
100
AcDbEntity
  8
0
  6
CONTINUOUS
 62
     7
100
AcDbLine
 10
52.01972522617616
 20
46.32727082541681
 30
0.0
 11
51.99297168535827
 21
46.31478736980592
 31
0.0
  0
LINE
  5
F36
330
1F
100
AcDbEntity
  8
0
  6
CONTINUOUS
 62
     7
100
AcDbLine
 10
51.99297168535827
 20
46.31478736980592
 30
0.0
 11
51.96670453548193
 21
46.30370179130944
 31
0.0
  0
LINE
  5
F37
330
1F
100
AcDbEntity
  8
0
  6
CONTINUOUS
 62
     7
100
AcDbLine
 10
51.96670453548193
 20
46.30370179130944
 30
0.0
 11
51.94003765369926
 21
46.29361650312755
 31
0.0
  0
LINE
  5
F38
330
1F
100
AcDbEntity
  8
0
  6
CONTINUOUS
 62
     7
100
AcDbLine
 10
53.17580214147712
 20
46.24369468241414
 30
0.0
 11
53.16325006625963
 21
46.23930111997151
 31
0.0
  0
LINE
  5
F39
330
1F
100
AcDbEntity
  8
0
  6
CONTINUOUS
 62
     7
100
AcDbLine
 10
51.94003765369926
 20
46.29361650312755
 30
0.0
 11
51.91299884067176
 21
46.2845791934854
 31
0.0
  0
LINE
  5
F3A
330
1F
100
AcDbEntity
  8
0
  6
CONTINUOUS
 62
     7
100
AcDbLine
 10
51.91299884067176
 20
46.2845791934854
 30
0.0
 11
51.88636294009083
 21
46.27683637479491
 31
0.0
  0
LINE
  5
F3B
330
1F
100
AcDbEntity
  8
0
  6
CONTINUOUS
 62
     7
100
AcDbLine
 10
53.16325006625963
 20
46.23930111997151
 30
0.0
 11
53.15039753840103
 21
46.23590853093754
 31
0.0
  0
LINE
  5
F3C
330
1F
100
AcDbEntity
  8
0
  6
CONTINUOUS
 62
     7
100
AcDbLine
 10
51.88636294009083
 20
46.27683637479491
 30
0.0
 11
51.85943721861129
 21
46.27016713673718
 31
0.0
  0
LINE
  5
F3D
330
1F
100
AcDbEntity
  8
0
  6
CONTINUOUS
 62
     7
100
AcDbLine
 10
50.01810688044698
 20
65.63005906916692
 30
0.0
 11
46.55017468985973
 21
65.63005898552751
 31
0.0
  0
LINE
  5
F3E
330
1F
100
AcDbEntity
  8
0
  6
HIDDEN
 62
     8
100
AcDbLine
 10
60.88893847124724
 20
60.15715980815601
 30
0.0
 11
60.88958873929906
 21
60.15700394089385
 31
0.0
  0
LINE
  5
F3F
330
1F
100
AcDbEntity
  8
0
  6
HIDDEN
 62
     8
100
AcDbLine
 10
58.8820995931587
 20
59.65287032163215
 30
0.0
 11
58.8760581703394
 21
59.65494883344963
 31
0.0
  0
LINE
  5
F40
330
1F
100
AcDbEntity
  8
0
  6
HIDDEN
 62
     8
100
AcDbLine
 10
58.49935413746035
 20
58.41475556584789
 30
0.0
 11
58.5265739331793
 21
58.40449478165777
 31
0.0
  0
LINE
  5
F41
330
1F
100
AcDbEntity
  8
0
  6
HIDDEN
 62
     8
100
AcDbLine
 10
58.47293962740933
 20
58.42666886873631
 30
0.0
 11
58.49935413746035
 21
58.41475556584789
 31
0.0
  0
LINE
  5
F42
330
1F
100
AcDbEntity
  8
0
  6
CONTINUOUS
 62
     7
100
AcDbLine
 10
50.61001165096552
 20
59.73279485309511
 30
0.0
 11
50.5220949553054
 21
59.79476791779596
 31
0.0
  0
LINE
  5
F43
330
1F
100
AcDbEntity
  8
0
  6
CONTINUOUS
 62
     7
100
AcDbLine
 10
50.69078620313688
 20
59.66567612400139
 30
0.0
 11
50.61001165096552
 21
59.73279485309511
 31
0.0
  0
LINE
  5
F44
330
1F
100
AcDbEntity
  8
0
  6
CONTINUOUS
 62
     7
100
AcDbLine
 10
50.36019551047829
 20
59.30249241095168
 30
0.0
 11
50.30808182637176
 21
59.34643772190212
 31
0.0
  0
LINE
  5
F45
330
1F
100
AcDbEntity
  8
0
  6
CONTINUOUS
 62
     7
100
AcDbLine
 10
50.76715067498945
 20
59.59139139419828
 30
0.0
 11
50.69078620313688
 21
59.66567612400139
 31
0.0
  0
LINE
  5
F46
330
1F
100
AcDbEntity
  8
0
  6
CONTINUOUS
 62
     7
100
AcDbLine
 10
50.40844794344369
 20
59.25225136908079
 30
0.0
 11
50.36019551047829
 21
59.30249241095168
 31
0.0
  0
LINE
  5
F47
330
1F
100
AcDbEntity
  8
0
  6
CONTINUOUS
 62
     7
100
AcDbLine
 10
50.84172067515041
 20
59.50646571270159
 30
0.0
 11
50.76715067498945
 21
59.59139139419828
 31
0.0
  0
LINE
  5
F48
330
1F
100
AcDbEntity
  8
0
  6
CONTINUOUS
 62
     7
100
AcDbLine
 10
50.87964493141318
 20
59.45768473502369
 30
0.0
 11
50.84172067515041
 21
59.50646571270159
 31
0.0
  0
LINE
  5
F49
330
1F
100
AcDbEntity
  8
0
  6
CONTINUOUS
 62
     7
100
AcDbLine
 10
50.45447337706292
 20
59.19298210886697
 30
0.0
 11
50.40844794344369
 21
59.25225136908079
 31
0.0
  0
LINE
  5
F4A
330
1F
100
AcDbEntity
  8
0
  6
CONTINUOUS
 62
     7
100
AcDbLine
 10
50.91559222486489
 20
59.40742712670472
 30
0.0
 11
50.87964493141318
 21
59.45768473502369
 31
0.0
  0
LINE
  5
F4B
330
1F
100
AcDbEntity
  8
0
  6
CONTINUOUS
 62
     7
100
AcDbLine
 10
50.4777564064961
 20
59.1576745631453
 30
0.0
 11
50.45447337706292
 21
59.19298210886697
 31
0.0
  0
LINE
  5
F4C
330
1F
100
AcDbEntity
  8
0
  6
CONTINUOUS
 62
     7
100
AcDbLine
 10
50.95307852402697
 20
59.35033857669998
 30
0.0
 11
50.91559222486489
 21
59.40742712670472
 31
0.0
  0
LINE
  5
F4D
330
1F
100
AcDbEntity
  8
0
  6
CONTINUOUS
 62
     7
100
AcDbLine
 10
50.98829640976494
 20
59.29182113235377
 30
0.0
 11
50.95307852402697
 21
59.35033857669998
 31
0.0
  0
LINE
  5
F4E
330
1F
100
AcDbEntity
  8
0
  6
CONTINUOUS
 62
     7
100
AcDbLine
 10
50.49926174831965
 20
59.12125384852668
 30
0.0
 11
50.4777564064961
 21
59.1576745631453
 31
0.0
  0
LINE
  5
F4F
330
1F
100
AcDbEntity
  8
0
  6
CONTINUOUS
 62
     7
100
AcDbLine
 10
51.02508324422349
 20
59.22499430318696
 30
0.0
 11
50.98829640976494
 21
59.29182113235377
 31
0.0
  0
LINE
  5
F50
330
1F
100
AcDbEntity
  8
0
  6
CONTINUOUS
 62
     7
100
AcDbLine
 10
50.52192107066416
 20
59.07834482819898
 30
0.0
 11
50.49926174831965
 21
59.12125384852668
 31
0.0
  0
LINE
  5
F51
330
1F
100
AcDbEntity
  8
0
  6
CONTINUOUS
 62
     7
100
AcDbLine
 10
51.05934774169961
 20
59.15683733105652
 30
0.0
 11
51.02508324422349
 21
59.22499430318696
 31
0.0
  0
LINE
  5
F52
330
1F
100
AcDbEntity
  8
0
  6
CONTINUOUS
 62
     7
100
AcDbLine
 10
50.54264572154647
 20
59.03446567148545
 30
0.0
 11
50.52192107066416
 21
59.07834482819898
 31
0.0
  0
LINE
  5
F53
330
1F
100
AcDbEntity
  8
0
  6
CONTINUOUS
 62
     7
100
AcDbLine
 10
51.09494753664941
 20
59.07918908727151
 30
0.0
 11
51.05934774169961
 21
59.15683733105652
 31
0.0
  0
LINE
  5
F54
330
1F
100
AcDbEntity
  8
0
  6
CONTINUOUS
 62
     7
100
AcDbLine
 10
50.56470312716232
 20
58.98227590372944
 30
0.0
 11
50.54264572154647
 21
59.03446567148545
 31
0.0
  0
LINE
  5
F55
330
1F
100
AcDbEntity
  8
0
  6
CONTINUOUS
 62
     7
100
AcDbLine
 10
53.69784196985735
 20
48.18138685997685
 30
0.0
 11
53.59046192524775
 21
48.43698442685877
 31
0.0
  0
LINE
  5
F56
330
1F
100
AcDbEntity
  8
0
  6
CONTINUOUS
 62
     7
100
AcDbLine
 10
51.12786890987462
 20
59.0003656344347
 30
0.0
 11
51.09494753664941
 21
59.07918908727151
 31
0.0
  0
LINE
  5
F57
330
1F
100
AcDbEntity
  8
0
  6
CONTINUOUS
 62
     7
100
AcDbLine
 10
53.59046192524775
 20
48.43698442685877
 30
0.0
 11
53.46690005684333
 21
48.75034533776315
 31
0.0
  0
LINE
  5
F58
330
1F
100
AcDbEntity
  8
0
  6
CONTINUOUS
 62
     7
100
AcDbLine
 10
51.16189975822935
 20
58.91086171027462
 30
0.0
 11
51.12786890987462
 21
59.0003656344347
 31
0.0
  0
LINE
  5
F59
330
1F
100
AcDbEntity
  8
0
  6
CONTINUOUS
 62
     7
100
AcDbLine
 10
50.58476617387262
 20
58.92928498157914
 30
0.0
 11
50.56470312716232
 21
58.98227590372944
 31
0.0
  0
LINE
  5
F5A
330
1F
100
AcDbEntity
  8
0
  6
CONTINUOUS
 62
     7
100
AcDbLine
 10
52.65380245525486
 20
49.2343481664265
 30
0.0
 11
52.51574680799961
 21
49.60288975064521
 31
0.0
  0
LINE
  5
F5B
330
1F
100
AcDbEntity
  8
0
  6
CONTINUOUS
 62
     7
100
AcDbLine
 10
53.46690005684333
 20
48.75034533776315
 30
0.0
 11
53.3498313022044
 21
49.06621345922275
 31
0.0
  0
LINE
  5
F5C
330
1F
100
AcDbEntity
  8
0
  6
CONTINUOUS
 62
     7
100
AcDbLine
 10
52.51574680799961
 20
49.60288975064521
 30
0.0
 11
52.38103146655631
 21
49.97266493457771
 31
0.0
  0
LINE
  5
F5D
330
1F
100
AcDbEntity
  8
0
  6
CONTINUOUS
 62
     7
100
AcDbLine
 10
52.38103146655631
 20
49.97266493457771
 30
0.0
 11
52.25740320565613
 21
50.31986614374753
 31
0.0
  0
LINE
  5
F5E
330
1F
100
AcDbEntity
  8
0
  6
CONTINUOUS
 62
     7
100
AcDbLine
 10
53.3498313022044
 20
49.06621345922275
 30
0.0
 11
53.22318534562215
 21
49.42780834261077
 31
0.0
  0
LINE
  5
F5F
330
1F
100
AcDbEntity
  8
0
  6
CONTINUOUS
 62
     7
100
AcDbLine
 10
52.25740320565613
 20
50.31986614374753
 30
0.0
 11
52.13666816680214
 21
50.66808235239363
 31
0.0
  0
LINE
  5
F60
330
1F
100
AcDbEntity
  8
0
  6
CONTINUOUS
 62
     7
100
AcDbLine
 10
51.19319622959284
 20
58.8203635731201
 30
0.0
 11
51.16189975822935
 21
58.91086171027462
 31
0.0
  0
LINE
  5
F61
330
1F
100
AcDbEntity
  8
0
  6
CONTINUOUS
 62
     7
100
AcDbLine
 10
50.60613212777098
 20
58.86648774136514
 30
0.0
 11
50.58476617387262
 21
58.92928498157914
 31
0.0
  0
LINE
  5
F62
330
1F
100
AcDbEntity
  8
0
  6
CONTINUOUS
 62
     7
100
AcDbLine
 10
52.13666816680214
 20
50.66808235239363
 30
0.0
 11
52.03020678165882
 21
50.98510338567497
 31
0.0
  0
LINE
  5
F63
330
1F
100
AcDbEntity
  8
0
  6
CONTINUOUS
 62
     7
100
AcDbLine
 10
53.22318534562215
 20
49.42780834261077
 30
0.0
 11
53.10199741619689
 21
49.79126487007104
 31
0.0
  0
LINE
  5
F64
330
1F
100
AcDbEntity
  8
0
  6
CONTINUOUS
 62
     7
100
AcDbLine
 10
52.03020678165882
 20
50.98510338567497
 30
0.0
 11
51.92730219877415
 21
51.30329434121783
 31
0.0
  0
LINE
  5
F65
330
1F
100
AcDbEntity
  8
0
  6
CONTINUOUS
 62
     7
100
AcDbLine
 10
53.10199741619689
 20
49.79126487007104
 30
0.0
 11
52.98295940044096
 21
50.16183351435596
 31
0.0
  0
LINE
  5
F66
330
1F
100
AcDbEntity
  8
0
  6
CONTINUOUS
 62
     7
100
AcDbLine
 10
51.22534586741847
 20
58.71812340297148
 30
0.0
 11
51.19319622959284
 21
58.8203635731201
 31
0.0
  0
LINE
  5
F67
330
1F
100
AcDbEntity
  8
0
  6
CONTINUOUS
 62
     7
100
AcDbLine
 10
52.98295940044096
 20
50.16183351435596
 30
0.0
 11
52.86670126822572
 21
50.53328532130795
 31
0.0
  0
LINE
  5
F68
330
1F
100
AcDbEntity
  8
0
  6
CONTINUOUS
 62
     7
100
AcDbLine
 10
51.92730219877415
 20
51.30329434121783
 30
0.0
 11
51.82675402015248
 21
51.62841240274568
 31
0.0
  0
LINE
  5
F69
330
1F
100
AcDbEntity
  8
0
  6
CONTINUOUS
 62
     7
100
AcDbLine
 10
52.86670126822572
 20
50.53328532130795
 30
0.0
 11
52.76165330791204
 21
50.87459977744515
 31
0.0
  0
LINE
  5
F6A
330
1F
100
AcDbEntity
  8
0
  6
CONTINUOUS
 62
     7
100
AcDbLine
 10
50.62558469846488
 20
58.80307000134763
 30
0.0
 11
50.60613212777098
 21
58.86648774136514
 31
0.0
  0
LINE
  5
F6B
330
1F
100
AcDbEntity
  8
0
  6
CONTINUOUS
 62
     7
100
AcDbLine
 10
52.76165330791204
 20
50.87459977744515
 30
0.0
 11
52.65853234474547
 21
51.21650042971627
 31
0.0
  0
LINE
  5
F6C
330
1F
100
AcDbEntity
  8
0
  6
CONTINUOUS
 62
     7
100
AcDbLine
 10
51.82675402015248
 20
51.62841240274568
 30
0.0
 11
51.73046511497631
 21
51.95482015250461
 31
0.0
  0
LINE
  5
F6D
330
1F
100
AcDbEntity
  8
0
  6
CONTINUOUS
 62
     7
100
AcDbLine
 10
52.65853234474547
 20
51.21650042971627
 30
0.0
 11
52.5637239526123
 21
51.53944644707253
 31
0.0
  0
LINE
  5
F6E
330
1F
100
AcDbEntity
  8
0
  6
CONTINUOUS
 62
     7
100
AcDbLine
 10
51.25478633815681
 20
58.6150691057464
 30
0.0
 11
51.22534586741847
 21
58.71812340297148
 31
0.0
  0
LINE
  5
F6F
330
1F
100
AcDbEntity
  8
0
  6
CONTINUOUS
 62
     7
100
AcDbLine
 10
52.5637239526123
 20
51.53944644707253
 30
0.0
 11
52.47186723622738
 21
51.86324006931336
 31
0.0
  0
LINE
  5
F70
330
1F
100
AcDbEntity
  8
0
  6
CONTINUOUS
 62
     7
100
AcDbLine
 10
51.73046511497631
 20
51.95482015250461
 30
0.0
 11
51.63080235686272
 21
52.31017479569259
 31
0.0
  0
LINE
  5
F71
330
1F
100
AcDbEntity
  8
0
  6
CONTINUOUS
 62
     7
100
AcDbLine
 10
52.47186723622738
 20
51.86324006931336
 30
0.0
 11
52.379343927413
 21
52.20294139019253
 31
0.0
  0
LINE
  5
F72
330
1F
100
AcDbEntity
  8
0
  6
CONTINUOUS
 62
     7
100
AcDbLine
 10
50.66535327893118
 20
58.65342683599365
 30
0.0
 11
50.62558469846488
 21
58.80307000134763
 31
0.0
  0
LINE
  5
F73
330
1F
100
AcDbEntity
  8
0
  6
CONTINUOUS
 62
     7
100
AcDbLine
 10
51.63080235686272
 20
52.31017479569259
 30
0.0
 11
51.53611649315276
 21
52.66688923670142
 31
0.0
  0
LINE
  5
F74
330
1F
100
AcDbEntity
  8
0
  6
CONTINUOUS
 62
     7
100
AcDbLine
 10
52.379343927413
 20
52.20294139019253
 30
0.0
 11
52.28973643376621
 21
52.54342964730348
 31
0.0
  0
LINE
  5
F75
330
1F
100
AcDbEntity
  8
0
  6
CONTINUOUS
 62
     7
100
AcDbLine
 10
51.28487596963378
 20
58.49911255559731
 30
0.0
 11
51.25478633815681
 21
58.6150691057464
 31
0.0
  0
LINE
  5
F76
330
1F
100
AcDbEntity
  8
0
  6
CONTINUOUS
 62
     7
100
AcDbLine
 10
52.28973643376621
 20
52.54342964730348
 30
0.0
 11
52.19859227968282
 21
52.89888711377759
 31
0.0
  0
LINE
  5
F77
330
1F
100
AcDbEntity
  8
0
  6
CONTINUOUS
 62
     7
100
AcDbLine
 10
51.53611649315276
 20
52.66688923670142
 30
0.0
 11
51.4489512570454
 21
53.01501920591497
 31
0.0
  0
LINE
  5
F78
330
1F
100
AcDbEntity
  8
0
  6
CONTINUOUS
 62
     7
100
AcDbLine
 10
52.19859227968282
 20
52.89888711377759
 30
0.0
 11
52.10983120344089
 21
53.25494708667742
 31
0.0
  0
LINE
  5
F79
330
1F
100
AcDbEntity
  8
0
  6
CONTINUOUS
 62
     7
100
AcDbLine
 10
52.10983120344089
 20
53.25494708667742
 30
0.0
 11
52.03059095489637
 21
53.58382871049845
 31
0.0
  0
LINE
  5
F7A
330
1F
100
AcDbEntity
  8
0
  6
CONTINUOUS
 62
     7
100
AcDbLine
 10
51.31234193017514
 20
58.38250552123281
 30
0.0
 11
51.28487596963378
 21
58.49911255559731
 31
0.0
  0
LINE
  5
F7B
330
1F
100
AcDbEntity
  8
0
  6
CONTINUOUS
 62
     7
100
AcDbLine
 10
51.4489512570454
 20
53.01501920591497
 30
0.0
 11
51.36713108278224
 21
53.36444190336084
 31
0.0
  0
LINE
  5
F7C
330
1F
100
AcDbEntity
  8
0
  6
CONTINUOUS
 62
     7
100
AcDbLine
 10
52.03059095489637
 20
53.58382871049845
 30
0.0
 11
51.95508707492514
 21
53.91358381915758
 31
0.0
  0
LINE
  5
F7D
330
1F
100
AcDbEntity
  8
0
  6
CONTINUOUS
 62
     7
100
AcDbLine
 10
50.70437888960921
 20
58.47842489076852
 30
0.0
 11
50.66535327893118
 21
58.65342683599365
 31
0.0
  0
LINE
  5
F7E
330
1F
100
AcDbEntity
  8
0
  6
CONTINUOUS
 62
     7
100
AcDbLine
 10
51.36713108278224
 20
53.36444190336084
 30
0.0
 11
51.30007095641608
 21
53.67301445434321
 31
0.0
  0
LINE
  5
F7F
330
1F
100
AcDbEntity
  8
0
  6
CONTINUOUS
 62
     7
100
AcDbLine
 10
51.95508707492514
 20
53.91358381915758
 30
0.0
 11
51.89354209296652
 21
54.20118271024634
 31
0.0
  0
LINE
  5
F80
330
1F
100
AcDbEntity
  8
0
  6
CONTINUOUS
 62
     7
100
AcDbLine
 10
51.34041009887258
 20
58.25122445760628
 30
0.0
 11
51.31234193017514
 21
58.38250552123281
 31
0.0
  0
LINE
  5
F81
330
1F
100
AcDbEntity
  8
0
  6
CONTINUOUS
 62
     7
100
AcDbLine
 10
51.30007095641608
 20
53.67301445434321
 30
0.0
 11
51.23823658887492
 21
53.9826732805445
 31
0.0
  0
LINE
  5
F82
330
1F
100
AcDbEntity
  8
0
  6
CONTINUOUS
 62
     7
100
AcDbLine
 10
51.89354209296652
 20
54.20118271024634
 30
0.0
 11
51.83651233746239
 21
54.48970922988327
 31
0.0
  0
LINE
  5
F83
330
1F
100
AcDbEntity
  8
0
  6
CONTINUOUS
 62
     7
100
AcDbLine
 10
51.36596718735887
 20
58.1194306642119
 30
0.0
 11
51.34041009887258
 21
58.25122445760628
 31
0.0
  0
LINE
  5
F84
330
1F
100
AcDbEntity
  8
0
  6
CONTINUOUS
 62
     7
100
AcDbLine
 10
50.74274361619969
 20
58.27633128066668
 30
0.0
 11
50.70437888960921
 21
58.47842489076852
 31
0.0
  0
LINE
  5
F85
330
1F
100
AcDbEntity
  8
0
  6
CONTINUOUS
 62
     7
100
AcDbLine
 10
51.23823658887492
 20
53.9826732805445
 30
0.0
 11
51.18595011592562
 21
54.27142247604365
 31
0.0
  0
LINE
  5
F86
330
1F
100
AcDbEntity
  8
0
  6
CONTINUOUS
 62
     7
100
AcDbLine
 10
51.83651233746239
 20
54.48970922988327
 30
0.0
 11
51.78574528121963
 21
54.77180684708243
 31
0.0
  0
LINE
  5
F87
330
1F
100
AcDbEntity
  8
0
  6
CONTINUOUS
 62
     7
100
AcDbLine
 10
51.39212315707945
 20
57.97069752092724
 30
0.0
 11
51.36596718735887
 21
58.1194306642119
 31
0.0
  0
LINE
  5
F88
330
1F
100
AcDbEntity
  8
0
  6
CONTINUOUS
 62
     7
100
AcDbLine
 10
50.78050847825108
 20
58.04434514335058
 30
0.0
 11
50.74274361619969
 21
58.27633128066668
 31
0.0
  0
LINE
  5
F89
330
1F
100
AcDbEntity
  8
0
  6
CONTINUOUS
 62
     7
100
AcDbLine
 10
51.18595011592562
 20
54.27142247604365
 30
0.0
 11
51.13888674955581
 21
54.56106778435716
 31
0.0
  0
LINE
  5
F8A
330
1F
100
AcDbEntity
  8
0
  6
CONTINUOUS
 62
     7
100
AcDbLine
 10
51.78574528121963
 20
54.77180684708243
 30
0.0
 11
51.73974654347841
 21
55.05472216214592
 31
0.0
  0
LINE
  5
F8B
330
1F
100
AcDbEntity
  8
0
  6
CONTINUOUS
 62
     7
100
AcDbLine
 10
51.41588735161845
 20
57.82156284787436
 30
0.0
 11
51.39212315707945
 21
57.97069752092724
 31
0.0
  0
LINE
  5
F8C
330
1F
100
AcDbEntity
  8
0
  6
CONTINUOUS
 62
     7
100
AcDbLine
 10
51.73974654347841
 20
55.05472216214592
 30
0.0
 11
51.6972688463117
 21
55.34622400030774
 31
0.0
  0
LINE
  5
F8D
330
1F
100
AcDbEntity
  8
0
  6
CONTINUOUS
 62
     7
100
AcDbLine
 10
51.44023945053611
 20
57.65295016128117
 30
0.0
 11
51.41588735161845
 21
57.82156284787436
 31
0.0
  0
LINE
  5
F8E
330
1F
100
AcDbEntity
  8
0
  6
CONTINUOUS
 62
     7
100
AcDbLine
 10
51.13888674955581
 20
54.56106778435716
 30
0.0
 11
51.09580250158835
 21
54.86134988777954
 31
0.0
  0
LINE
  5
F8F
330
1F
100
AcDbEntity
  8
0
  6
CONTINUOUS
 62
     7
100
AcDbLine
 10
50.81764113221192
 20
57.77867202836834
 30
0.0
 11
50.78050847825108
 21
58.04434514335058
 31
0.0
  0
LINE
  5
F90
330
1F
100
AcDbEntity
  8
0
  6
CONTINUOUS
 62
     7
100
AcDbLine
 10
51.46236994150988
 20
57.4840310965736
 30
0.0
 11
51.44023945053611
 21
57.65295016128117
 31
0.0
  0
LINE
  5
F91
330
1F
100
AcDbEntity
  8
0
  6
CONTINUOUS
 62
     7
100
AcDbLine
 10
51.6972688463117
 20
55.34622400030774
 30
0.0
 11
51.65919269528107
 21
55.63833410034388
 31
0.0
  0
LINE
  5
F92
330
1F
100
AcDbEntity
  8
0
  6
CONTINUOUS
 62
     7
100
AcDbLine
 10
51.09580250158835
 20
54.86134988777954
 30
0.0
 11
51.0580458412622
 21
55.16235098643341
 31
0.0
  0
LINE
  5
F93
330
1F
100
AcDbEntity
  8
0
  6
CONTINUOUS
 62
     7
100
AcDbLine
 10
50.85376938813531
 20
57.47462927999063
 30
0.0
 11
50.81764113221192
 21
57.77867202836834
 31
0.0
  0
LINE
  5
F94
330
1F
100
AcDbEntity
  8
0
  6
CONTINUOUS
 62
     7
100
AcDbLine
 10
51.65919269528107
 20
55.63833410034388
 30
0.0
 11
51.62691046855766
 21
55.91319591092531
 31
0.0
  0
LINE
  5
F95
330
1F
100
AcDbEntity
  8
0
  6
CONTINUOUS
 62
     7
100
AcDbLine
 10
51.50608606564047
 20
57.10232474758182
 30
0.0
 11
51.46236994150988
 21
57.4840310965736
 31
0.0
  0
LINE
  5
F96
330
1F
100
AcDbEntity
  8
0
  6
CONTINUOUS
 62
     7
100
AcDbLine
 10
51.0580458412622
 20
55.16235098643341
 30
0.0
 11
51.02592662611183
 21
55.45627098867484
 31
0.0
  0
LINE
  5
F97
330
1F
100
AcDbEntity
  8
0
  6
CONTINUOUS
 62
     7
100
AcDbLine
 10
51.62691046855766
 20
55.91319591092531
 30
0.0
 11
51.59734383794682
 21
56.18836250584857
 31
0.0
  0
LINE
  5
F98
330
1F
100
AcDbEntity
  8
0
  6
CONTINUOUS
 62
     7
100
AcDbLine
 10
51.59734383794682
 20
56.18836250584857
 30
0.0
 11
51.50608606564047
 21
57.10232474758182
 31
0.0
  0
LINE
  5
F99
330
1F
100
AcDbEntity
  8
0
  6
CONTINUOUS
 62
     7
100
AcDbLine
 10
50.88829136369556
 20
57.1266214103803
 30
0.0
 11
50.85376938813531
 21
57.47462927999063
 31
0.0
  0
LINE
  5
F9A
330
1F
100
AcDbEntity
  8
0
  6
CONTINUOUS
 62
     7
100
AcDbLine
 10
51.02592662611183
 20
55.45627098867484
 30
0.0
 11
50.99788156519406
 21
55.75060552311139
 31
0.0
  0
LINE
  5
F9B
330
1F
100
AcDbEntity
  8
0
  6
CONTINUOUS
 62
     7
100
AcDbLine
 10
50.99788156519406
 20
55.75060552311139
 30
0.0
 11
50.97585174636051
 21
56.01203898538166
 31
0.0
  0
LINE
  5
F9C
330
1F
100
AcDbEntity
  8
0
  6
CONTINUOUS
 62
     7
100
AcDbLine
 10
50.9214610457149
 20
56.72850512488948
 30
0.0
 11
50.88829136369556
 21
57.1266214103803
 31
0.0
  0
LINE
  5
F9D
330
1F
100
AcDbEntity
  8
0
  6
CONTINUOUS
 62
     7
100
AcDbLine
 10
50.97585174636051
 20
56.01203898538166
 30
0.0
 11
50.9214610457149
 21
56.72850512488948
 31
0.0
  0
LINE
  5
F9E
330
1F
100
AcDbEntity
  8
0
  6
CONTINUOUS
 62
     7
100
AcDbLine
 10
52.92907619231423
 20
48.46137335282358
 30
0.0
 11
52.92755358993002
 21
48.38603913088626
 31
0.0
  0
LINE
  5
F9F
330
1F
100
AcDbEntity
  8
0
  6
CONTINUOUS
 62
     7
100
AcDbLine
 10
52.92755358993002
 20
48.38603913088626
 30
0.0
 11
52.92463663917755
 21
48.31079616100748
 31
0.0
  0
LINE
  5
FA0
330
1F
100
AcDbEntity
  8
0
  6
CONTINUOUS
 62
     7
100
AcDbLine
 10
53.69784196985735
 20
48.18138685997685
 30
0.0
 11
53.6947816217448
 21
48.10778973615589
 31
0.0
  0
LINE
  5
FA1
330
1F
100
AcDbEntity
  8
0
  6
CONTINUOUS
 62
     7
100
AcDbLine
 10
53.6947816217448
 20
48.10778973615589
 30
0.0
 11
53.69106177905805
 21
48.03422238286258
 31
0.0
  0
LINE
  5
FA2
330
1F
100
AcDbEntity
  8
0
  6
CONTINUOUS
 62
     7
100
AcDbLine
 10
52.92463663917755
 20
48.31079616100748
 30
0.0
 11
52.92032219936972
 21
48.23562112542474
 31
0.0
  0
LINE
  5
FA3
330
1F
100
AcDbEntity
  8
0
  6
CONTINUOUS
 62
     7
100
AcDbLine
 10
53.69106177905805
 20
48.03422238286258
 30
0.0
 11
53.68672560288487
 21
47.96150940196092
 31
0.0
  0
LINE
  5
FA4
330
1F
100
AcDbEntity
  8
0
  6
CONTINUOUS
 62
     7
100
AcDbLine
 10
53.68672560288487
 20
47.96150940196092
 30
0.0
 11
53.68172318113444
 21
47.88883939239059
 31
0.0
  0
LINE
  5
FA5
330
1F
100
AcDbEntity
  8
0
  6
CONTINUOUS
 62
     7
100
AcDbLine
 10
52.92032219936972
 20
48.23562112542474
 30
0.0
 11
52.91463129727754
 21
48.16083955264224
 31
0.0
  0
LINE
  5
FA6
330
1F
100
AcDbEntity
  8
0
  6
CONTINUOUS
 62
     7
100
AcDbLine
 10
53.68172318113444
 20
47.88883939239059
 30
0.0
 11
53.67613414277034
 21
47.81734638325777
 31
0.0
  0
LINE
  5
FA7
330
1F
100
AcDbEntity
  8
0
  6
CONTINUOUS
 62
     7
100
AcDbLine
 10
53.67613414277034
 20
47.81734638325777
 30
0.0
 11
53.66986923492397
 21
47.74590940002811
 31
0.0
  0
LINE
  5
FA8
330
1F
100
AcDbEntity
  8
0
  6
CONTINUOUS
 62
     7
100
AcDbLine
 10
52.91463129727754
 20
48.16083955264224
 30
0.0
 11
52.9075407581125
 21
48.08617751535813
 31
0.0
  0
LINE
  5
FA9
330
1F
100
AcDbEntity
  8
0
  6
CONTINUOUS
 62
     7
100
AcDbLine
 10
52.9075407581125
 20
48.08617751535813
 30
0.0
 11
52.89910762316991
 21
48.0122113914024
 31
0.0
  0
LINE
  5
FAA
330
1F
100
AcDbEntity
  8
0
  6
CONTINUOUS
 62
     7
100
AcDbLine
 10
52.89910762316991
 20
48.0122113914024
 30
0.0
 11
52.88926999990559
 21
47.93841902864466
 31
0.0
  0
LINE
  5
FAB
330
1F
100
AcDbEntity
  8
0
  6
CONTINUOUS
 62
     7
100
AcDbLine
 10
52.88926999990559
 20
47.93841902864466
 30
0.0
 11
52.87813928771645
 21
47.86561793898132
 31
0.0
  0
LINE
  5
FAC
330
1F
100
AcDbEntity
  8
0
  6
CONTINUOUS
 62
     7
100
AcDbLine
 10
52.87813928771645
 20
47.86561793898132
 30
0.0
 11
52.86559663714657
 21
47.79304682123163
 31
0.0
  0
LINE
  5
FAD
330
1F
100
AcDbEntity
  8
0
  6
CONTINUOUS
 62
     7
100
AcDbLine
 10
52.86559663714657
 20
47.79304682123163
 30
0.0
 11
52.85182575435637
 21
47.72175414737353
 31
0.0
  0
LINE
  5
FAE
330
1F
100
AcDbEntity
  8
0
  6
CONTINUOUS
 62
     7
100
AcDbLine
 10
52.85182575435637
 20
47.72175414737353
 30
0.0
 11
52.8366330386178
 21
47.65075095865229
 31
0.0
  0
LINE
  5
FAF
330
1F
100
AcDbEntity
  8
0
  6
CONTINUOUS
 62
     7
100
AcDbLine
 10
52.8366330386178
 20
47.65075095865229
 30
0.0
 11
52.82029182053747
 21
47.58130233395745
 31
0.0
  0
LINE
  5
FB0
330
1F
100
AcDbEntity
  8
0
  6
CONTINUOUS
 62
     7
100
AcDbLine
 10
52.82029182053747
 20
47.58130233395745
 30
0.0
 11
52.80251669127328
 21
47.51220690405317
 31
0.0
  0
LINE
  5
FB1
330
1F
100
AcDbEntity
  8
0
  6
CONTINUOUS
 62
     7
100
AcDbLine
 10
52.80251669127328
 20
47.51220690405317
 30
0.0
 11
52.78368702257454
 21
47.44492849135389
 31
0.0
  0
LINE
  5
FB2
330
1F
100
AcDbEntity
  8
0
  6
CONTINUOUS
 62
     7
100
AcDbLine
 10
52.78368702257454
 20
47.44492849135389
 30
0.0
 11
52.76340954029603
 21
47.3780723123683
 31
0.0
  0
LINE
  5
FB3
330
1F
100
AcDbEntity
  8
0
  6
HIDDEN
 62
     8
100
AcDbLine
 10
58.91658469786719
 20
59.85272644085752
 30
0.0
 11
58.92102682996243
 21
59.86138374944428
 31
0.0
  0
LINE
  5
FB4
330
1F
100
AcDbEntity
  8
0
  6
HIDDEN
 62
     8
100
AcDbLine
 10
58.92102682996243
 20
59.86138374944428
 30
0.0
 11
58.9255781075137
 21
59.86998421597161
 31
0.0
  0
LINE
  5
FB5
330
1F
100
AcDbEntity
  8
0
  6
HIDDEN
 62
     8
100
AcDbLine
 10
58.36399281430738
 20
59.56670748764366
 30
0.0
 11
58.34828153668301
 21
59.53770168235137
 31
0.0
  0
LINE
  5
FB6
330
1F
100
AcDbEntity
  8
0
  6
HIDDEN
 62
     8
100
AcDbLine
 10
58.9255781075137
 20
59.86998421597161
 30
0.0
 11
58.93165256097669
 21
59.88108708013026
 31
0.0
  0
LINE
  5
FB7
330
1F
100
AcDbEntity
  8
0
  6
HIDDEN
 62
     8
100
AcDbLine
 10
58.93165256097669
 20
59.88108708013026
 30
0.0
 11
58.93789334801173
 21
59.89209701268932
 31
0.0
  0
LINE
  5
FB8
330
1F
100
AcDbEntity
  8
0
  6
HIDDEN
 62
     8
100
AcDbLine
 10
58.93789334801173
 20
59.89209701268932
 30
0.0
 11
58.94429165987718
 21
59.90301585981541
 31
0.0
  0
LINE
  5
FB9
330
1F
100
AcDbEntity
  8
0
  6
HIDDEN
 62
     8
100
AcDbLine
 10
58.94429165987718
 20
59.90301585981541
 30
0.0
 11
58.95083868941819
 21
59.91384546746989
 31
0.0
  0
LINE
  5
FBA
330
1F
100
AcDbEntity
  8
0
  6
HIDDEN
 62
     8
100
AcDbLine
 10
58.95083868941819
 20
59.91384546746989
 30
0.0
 11
58.95752562748258
 21
59.92458767864583
 31
0.0
  0
LINE
  5
FBB
330
1F
100
AcDbEntity
  8
0
  6
HIDDEN
 62
     8
100
AcDbLine
 10
58.3815726431548
 20
59.59476082728248
 30
0.0
 11
58.36399281430738
 21
59.56670748764366
 31
0.0
  0
LINE
  5
FBC
330
1F
100
AcDbEntity
  8
0
  6
HIDDEN
 62
     8
100
AcDbLine
 10
60.30439828390822
 20
60.59919850822686
 30
0.0
 11
60.30536984054427
 21
60.60064691578709
 31
0.0
  0
LINE
  5
FBD
330
1F
100
AcDbEntity
  8
0
  6
HIDDEN
 62
     8
100
AcDbLine
 10
60.89698766351903
 20
58.84854823174477
 30
0.0
 11
60.89604818995823
 21
58.84725564378166
 31
0.0
  0
LINE
  5
FBE
330
1F
100
AcDbEntity
  8
0
  6
HIDDEN
 62
     8
100
AcDbLine
 10
60.88532232322741
 20
60.15460346484445
 30
0.0
 11
60.88619201794286
 21
60.1556977164058
 31
0.0
  0
LINE
  5
FBF
330
1F
100
AcDbEntity
  8
0
  6
CONTINUOUS
 62
     7
100
AcDbLine
 10
52.36825109472004
 20
46.61270630077995
 30
0.0
 11
52.34538446393395
 21
46.58601901667291
 31
0.0
  0
LINE
  5
FC0
330
1F
100
AcDbEntity
  8
0
  6
HIDDEN
 62
     8
100
AcDbLine
 10
60.89604818995823
 20
58.84725564378166
 30
0.0
 11
60.89496159344678
 21
58.84603813366684
 31
0.0
  0
LINE
  5
FC1
330
1F
100
AcDbEntity
  8
0
  6
CONTINUOUS
 62
     7
100
AcDbLine
 10
52.34538446393395
 20
46.58601901667291
 30
0.0
 11
52.32186539624243
 21
46.55990512363024
 31
0.0
  0
LINE
  5
FC2
330
1F
100
AcDbEntity
  8
0
  6
CONTINUOUS
 62
     7
100
AcDbLine
 10
52.32186539624243
 20
46.55990512363024
 30
0.0
 11
52.2976790979297
 21
46.53440795126856
 31
0.0
  0
LINE
  5
FC3
330
1F
100
AcDbEntity
  8
0
  6
CONTINUOUS
 62
     7
100
AcDbLine
 10
52.2976790979297
 20
46.53440795126856
 30
0.0
 11
52.27392733142893
 21
46.51065816392353
 31
0.0
  0
LINE
  5
FC4
330
1F
100
AcDbEntity
  8
0
  6
CONTINUOUS
 62
     7
100
AcDbLine
 10
52.27392733142893
 20
46.51065816392353
 30
0.0
 11
52.24954205108861
 21
46.4875595910442
 31
0.0
  0
LINE
  5
FC5
330
1F
100
AcDbEntity
  8
0
  6
CONTINUOUS
 62
     7
100
AcDbLine
 10
52.24954205108861
 20
46.4875595910442
 30
0.0
 11
52.22451268306605
 21
46.46516057105404
 31
0.0
  0
LINE
  5
FC6
330
1F
100
AcDbEntity
  8
0
  6
CONTINUOUS
 62
     7
100
AcDbLine
 10
52.22451268306605
 20
46.46516057105404
 30
0.0
 11
52.19997854366157
 21
46.44445153064471
 31
0.0
  0
LINE
  5
FC7
330
1F
100
AcDbEntity
  8
0
  6
CONTINUOUS
 62
     7
100
AcDbLine
 10
52.19997854366157
 20
46.44445153064471
 30
0.0
 11
52.17484210959245
 21
46.42447815736647
 31
0.0
  0
LINE
  5
FC8
330
1F
100
AcDbEntity
  8
0
  6
CONTINUOUS
 62
     7
100
AcDbLine
 10
52.17484210959245
 20
46.42447815736647
 30
0.0
 11
52.14909916386196
 21
46.4052928702178
 31
0.0
  0
LINE
  5
FC9
330
1F
100
AcDbEntity
  8
0
  6
CONTINUOUS
 62
     7
100
AcDbLine
 10
53.22730022757093
 20
46.27314608800571
 30
0.0
 11
53.21409564145902
 21
46.26383344116763
 31
0.0
  0
LINE
  5
FCA
330
1F
100
AcDbEntity
  8
0
  6
CONTINUOUS
 62
     7
100
AcDbLine
 10
52.14909916386196
 20
46.4052928702178
 30
0.0
 11
52.12388522288897
 21
46.3877153096423
 31
0.0
  0
LINE
  5
FCB
330
1F
100
AcDbEntity
  8
0
  6
CONTINUOUS
 62
     7
100
AcDbLine
 10
52.12388522288897
 20
46.3877153096423
 30
0.0
 11
52.09811615695669
 21
46.370962516914
 31
0.0
  0
LINE
  5
FCC
330
1F
100
AcDbEntity
  8
0
  6
CONTINUOUS
 62
     7
100
AcDbLine
 10
53.21409564145902
 20
46.26383344116763
 30
0.0
 11
53.20179925349957
 21
46.25625595771883
 31
0.0
  0
LINE
  5
FCD
330
1F
100
AcDbEntity
  8
0
  6
CONTINUOUS
 62
     7
100
AcDbLine
 10
52.09811615695669
 20
46.370962516914
 30
0.0
 11
52.07179651610331
 21
46.35508903260425
 31
0.0
  0
LINE
  5
FCE
330
1F
100
AcDbEntity
  8
0
  6
CONTINUOUS
 62
     7
100
AcDbLine
 10
52.07179651610331
 20
46.35508903260425
 30
0.0
 11
52.04600519112226
 21
46.34072250651381
 31
0.0
  0
LINE
  5
FCF
330
1F
100
AcDbEntity
  8
0
  6
CONTINUOUS
 62
     7
100
AcDbLine
 10
53.20179925349957
 20
46.25625595771883
 30
0.0
 11
53.18903267835996
 21
46.24950111471487
 31
0.0
  0
LINE
  5
FD0
330
1F
100
AcDbEntity
  8
0
  6
CONTINUOUS
 62
     7
100
AcDbLine
 10
52.04600519112226
 20
46.34072250651381
 30
0.0
 11
52.01972522617616
 21
46.32727082541681
 31
0.0
  0
LINE
  5
FD1
330
1F
100
AcDbEntity
  8
0
  6
CONTINUOUS
 62
     7
100
AcDbLine
 10
53.18903267835996
 20
46.24950111471487
 30
0.0
 11
53.17580214147712
 21
46.24369468241414
 31
0.0
  0
LINE
  5
FD2
330
1F
100
AcDbEntity
  8
0
  6
HIDDEN
 62
     8
100
AcDbLine
 10
60.31203774124974
 20
60.60480684157538
 30
0.0
 11
60.31310470665559
 21
60.60445230147117
 31
0.0
  0
LINE
  5
FD3
330
1F
100
AcDbEntity
  8
0
  6
HIDDEN
 62
     8
100
AcDbLine
 10
58.8760581703394
 20
59.65494883344963
 30
0.0
 11
58.87035851254168
 21
59.65787490934355
 31
0.0
  0
LINE
  5
FD4
330
1F
100
AcDbEntity
  8
0
  6
HIDDEN
 62
     8
100
AcDbLine
 10
58.44749121352157
 20
58.44033962402971
 30
0.0
 11
58.47293962740933
 21
58.42666886873631
 31
0.0
  0
LINE
  5
FD5
330
1F
100
AcDbEntity
  8
0
  6
HIDDEN
 62
     8
100
AcDbLine
 10
58.42316970035584
 20
58.45587276942939
 30
0.0
 11
58.44749121352157
 21
58.44033962402971
 31
0.0
  0
LINE
  5
FD6
330
1F
100
AcDbEntity
  8
0
  6
CONTINUOUS
 62
     7
100
AcDbLine
 10
52.92920066381935
 20
48.53672008861337
 30
0.0
 11
52.92907619231423
 21
48.46137335282358
 31
0.0
  0
LINE
  5
FD7
330
1F
100
AcDbEntity
  8
0
  6
CONTINUOUS
 62
     7
100
AcDbLine
 10
53.66986923492397
 20
47.74590940002811
 30
0.0
 11
53.66305621322908
 21
47.67596589447373
 31
0.0
  0
LINE
  5
FD8
330
1F
100
AcDbEntity
  8
0
  6
CONTINUOUS
 62
     7
100
AcDbLine
 10
53.66305621322908
 20
47.67596589447373
 30
0.0
 11
53.65555471140723
 21
47.60609291250122
 31
0.0
  0
LINE
  5
FD9
330
1F
100
AcDbEntity
  8
0
  6
CONTINUOUS
 62
     7
100
AcDbLine
 10
53.65555471140723
 20
47.60609291250122
 30
0.0
 11
53.64755240049746
 21
47.53802115283217
 31
0.0
  0
LINE
  5
FDA
330
1F
100
AcDbEntity
  8
0
  6
CONTINUOUS
 62
     7
100
AcDbLine
 10
53.64755240049746
 20
47.53802115283217
 30
0.0
 11
53.63884575374747
 21
47.47003591837551
 31
0.0
  0
LINE
  5
FDB
330
1F
100
AcDbEntity
  8
0
  6
CONTINUOUS
 62
     7
100
AcDbLine
 10
53.63884575374747
 20
47.47003591837551
 30
0.0
 11
53.62969452004134
 21
47.40414917866324
 31
0.0
  0
LINE
  5
FDC
330
1F
100
AcDbEntity
  8
0
  6
CONTINUOUS
 62
     7
100
AcDbLine
 10
53.62969452004134
 20
47.40414917866324
 30
0.0
 11
53.61981956268555
 21
47.3383670570228
 31
0.0
  0
LINE
  5
FDD
330
1F
100
AcDbEntity
  8
0
  6
CONTINUOUS
 62
     7
100
AcDbLine
 10
53.61981956268555
 20
47.3383670570228
 30
0.0
 11
53.60956530800841
 21
47.27496817332019
 31
0.0
  0
LINE
  5
FDE
330
1F
100
AcDbEntity
  8
0
  6
CONTINUOUS
 62
     7
100
AcDbLine
 10
53.60956530800841
 20
47.27496817332019
 30
0.0
 11
53.59856404996176
 21
47.21169469008417
 31
0.0
  0
LINE
  5
FDF
330
1F
100
AcDbEntity
  8
0
  6
CONTINUOUS
 62
     7
100
AcDbLine
 10
53.59856404996176
 20
47.21169469008417
 30
0.0
 11
53.58725805088731
 21
47.15107455660978
 31
0.0
  0
LINE
  5
FE0
330
1F
100
AcDbEntity
  8
0
  6
CONTINUOUS
 62
     7
100
AcDbLine
 10
53.58725805088731
 20
47.15107455660978
 30
0.0
 11
53.57517742559126
 21
47.09060409764977
 31
0.0
  0
LINE
  5
FE1
330
1F
100
AcDbEntity
  8
0
  6
CONTINUOUS
 62
     7
100
AcDbLine
 10
53.57517742559126
 20
47.09060409764977
 30
0.0
 11
53.56287613972146
 21
47.03304018176908
 31
0.0
  0
LINE
  5
FE2
330
1F
100
AcDbEntity
  8
0
  6
CONTINUOUS
 62
     7
100
AcDbLine
 10
53.56287613972146
 20
47.03304018176908
 30
0.0
 11
53.54976774503689
 21
46.97565476351978
 31
0.0
  0
LINE
  5
FE3
330
1F
100
AcDbEntity
  8
0
  6
CONTINUOUS
 62
     7
100
AcDbLine
 10
53.54976774503689
 20
46.97565476351978
 30
0.0
 11
53.53653260802175
 21
46.92140963644421
 31
0.0
  0
LINE
  5
FE4
330
1F
100
AcDbEntity
  8
0
  6
CONTINUOUS
 62
     7
100
AcDbLine
 10
53.53653260802175
 20
46.92140963644421
 30
0.0
 11
53.52245241056394
 21
46.86737780513896
 31
0.0
  0
LINE
  5
FE5
330
1F
100
AcDbEntity
  8
0
  6
CONTINUOUS
 62
     7
100
AcDbLine
 10
53.52245241056394
 20
46.86737780513896
 30
0.0
 11
53.50834959272546
 21
46.81669764719747
 31
0.0
  0
LINE
  5
FE6
330
1F
100
AcDbEntity
  8
0
  6
CONTINUOUS
 62
     7
100
AcDbLine
 10
53.50834959272546
 20
46.81669764719747
 30
0.0
 11
53.49335763710275
 21
46.76627350330941
 31
0.0
  0
LINE
  5
FE7
330
1F
100
AcDbEntity
  8
0
  6
HIDDEN
 62
     8
100
AcDbLine
 10
58.23684268027633
 20
59.23946840020865
 30
0.0
 11
58.22502121977509
 21
59.20209144822115
 31
0.0
  0
LINE
  5
FE8
330
1F
100
AcDbEntity
  8
0
  6
CONTINUOUS
 62
     7
100
AcDbLine
 10
53.49335763710275
 20
46.76627350330941
 30
0.0
 11
53.47845773897915
 21
46.71938657356152
 31
0.0
  0
LINE
  5
FE9
330
1F
100
AcDbEntity
  8
0
  6
CONTINUOUS
 62
     7
100
AcDbLine
 10
52.76340954029603
 20
47.3780723123683
 30
0.0
 11
52.74218488826125
 21
47.3132791913259
 31
0.0
  0
LINE
  5
FEA
330
1F
100
AcDbEntity
  8
0
  6
HIDDEN
 62
     8
100
AcDbLine
 10
58.3145349247052
 20
59.45173091583335
 30
0.0
 11
58.30512378450672
 21
59.42342750007883
 31
0.0
  0
LINE
  5
FEB
330
1F
100
AcDbEntity
  8
0
  6
HIDDEN
 62
     8
100
AcDbLine
 10
58.8808577610752
 20
59.76718294456069
 30
0.0
 11
58.88370224441577
 21
59.77569942962417
 31
0.0
  0
LINE
  5
FEC
330
1F
100
AcDbEntity
  8
0
  6
HIDDEN
 62
     8
100
AcDbLine
 10
58.32408881992279
 20
59.47995197799413
 30
0.0
 11
58.3145349247052
 21
59.45173091583335
 31
0.0
  0
LINE
  5
FED
330
1F
100
AcDbEntity
  8
0
  6
CONTINUOUS
 62
     7
100
AcDbLine
 10
53.47845773897915
 20
46.71938657356152
 30
0.0
 11
53.46261785295222
 21
46.67280900166559
 31
0.0
  0
LINE
  5
FEE
330
1F
100
AcDbEntity
  8
0
  6
CONTINUOUS
 62
     7
100
AcDbLine
 10
52.74218488826125
 20
47.3132791913259
 30
0.0
 11
52.71949721677154
 21
47.24898390356526
 31
0.0
  0
LINE
  5
FEF
330
1F
100
AcDbEntity
  8
0
  6
HIDDEN
 62
     8
100
AcDbLine
 10
58.88370224441577
 20
59.77569942962417
 30
0.0
 11
58.88669472452389
 21
59.78416482698453
 31
0.0
  0
LINE
  5
FF0
330
1F
100
AcDbEntity
  8
0
  6
HIDDEN
 62
     8
100
AcDbLine
 10
58.24994436215283
 20
59.27641380824681
 30
0.0
 11
58.23684268027633
 21
59.23946840020865
 31
0.0
  0
LINE
  5
FF1
330
1F
100
AcDbEntity
  8
0
  6
HIDDEN
 62
     8
100
AcDbLine
 10
58.30512378450672
 20
59.42342750007883
 30
0.0
 11
58.29191597806566
 21
59.38643451725299
 31
0.0
  0
LINE
  5
FF2
330
1F
100
AcDbEntity
  8
0
  6
CONTINUOUS
 62
     7
100
AcDbLine
 10
53.46261785295222
 20
46.67280900166559
 30
0.0
 11
53.4469955146577
 21
46.62992400250354
 31
0.0
  0
LINE
  5
FF3
330
1F
100
AcDbEntity
  8
0
  6
HIDDEN
 62
     8
100
AcDbLine
 10
58.88669472452389
 20
59.78416482698453
 30
0.0
 11
58.88982896934767
 21
59.79257897645395
 31
0.0
  0
LINE
  5
FF4
330
1F
100
AcDbEntity
  8
0
  6
HIDDEN
 62
     8
100
AcDbLine
 10
58.26382479264316
 20
59.31310504696307
 30
0.0
 11
58.24994436215283
 21
59.27641380824681
 31
0.0
  0
LINE
  5
FF5
330
1F
100
AcDbEntity
  8
0
  6
CONTINUOUS
 62
     7
100
AcDbLine
 10
52.71949721677154
 20
47.24898390356526
 30
0.0
 11
52.69598208055517
 21
47.18697849470308
 31
0.0
  0
LINE
  5
FF6
330
1F
100
AcDbEntity
  8
0
  6
HIDDEN
 62
     8
100
AcDbLine
 10
58.33463525629897
 20
59.50774599467469
 30
0.0
 11
58.32408881992279
 21
59.47995197799413
 31
0.0
  0
LINE
  5
FF7
330
1F
100
AcDbEntity
  8
0
  6
HIDDEN
 62
     8
100
AcDbLine
 10
58.29191597806566
 20
59.38643451725299
 30
0.0
 11
58.27798248787849
 21
59.34971949242175
 31
0.0
  0
LINE
  5
FF8
330
1F
100
AcDbEntity
  8
0
  6
HIDDEN
 62
     8
100
AcDbLine
 10
58.27798248787849
 20
59.34971949242175
 30
0.0
 11
58.26382479264316
 21
59.31310504696307
 31
0.0
  0
LINE
  5
FF9
330
1F
100
AcDbEntity
  8
0
  6
CONTINUOUS
 62
     7
100
AcDbLine
 10
53.4469955146577
 20
46.62992400250354
 30
0.0
 11
53.4303750859906
 21
46.58741614354416
 31
0.0
  0
LINE
  5
FFA
330
1F
100
AcDbEntity
  8
0
  6
HIDDEN
 62
     8
100
AcDbLine
 10
58.88982896934767
 20
59.79257897645395
 30
0.0
 11
58.89309875256657
 21
59.80094171226312
 31
0.0
  0
LINE
  5
FFB
330
1F
100
AcDbEntity
  8
0
  6
CONTINUOUS
 62
     7
100
AcDbLine
 10
52.69598208055517
 20
47.18697849470308
 30
0.0
 11
52.67098816860019
 21
47.12555444843509
 31
0.0
  0
LINE
  5
FFC
330
1F
100
AcDbEntity
  8
0
  6
HIDDEN
 62
     8
100
AcDbLine
 10
58.89309875256657
 20
59.80094171226312
 30
0.0
 11
58.89649784095247
 21
59.80925287760306
 31
0.0
  0
LINE
  5
FFD
330
1F
100
AcDbEntity
  8
0
  6
CONTINUOUS
 62
     7
100
AcDbLine
 10
53.4303750859906
 20
46.58741614354416
 30
0.0
 11
53.41410839734179
 21
46.54872040456203
 31
0.0
  0
LINE
  5
FFE
330
1F
100
AcDbEntity
  8
0
  6
HIDDEN
 62
     8
100
AcDbLine
 10
58.89649784095247
 20
59.80925287760306
 30
0.0
 11
58.9000200061875
 21
59.81751230373619
 31
0.0
  0
LINE
  5
FFF
330
1F
100
AcDbEntity
  8
0
  6
HIDDEN
 62
     8
100
AcDbLine
 10
60.29917295703775
 20
60.58856070607642
 30
0.0
 11
60.30099682036999
 21
60.59280975975537
 31
0.0
  0
LINE
  5
1000
330
1F
100
AcDbEntity
  8
0
  6
CONTINUOUS
 62
     7
100
AcDbLine
 10
52.67098816860019
 20
47.12555444843509
 30
0.0
 11
52.64529741691063
 21
47.06662497257913
 31
0.0
  0
LINE
  5
1001
330
1F
100
AcDbEntity
  8
0
  6
HIDDEN
 62
     8
100
AcDbLine
 10
58.9000200061875
 20
59.81751230373619
 30
0.0
 11
58.90396936349349
 21
59.82640521947572
 31
0.0
  0
LINE
  5
1002
330
1F
100
AcDbEntity
  8
0
  6
CONTINUOUS
 62
     7
100
AcDbLine
 10
53.41410839734179
 20
46.54872040456203
 30
0.0
 11
53.39677831687336
 21
46.51048947768427
 31
0.0
  0
LINE
  5
1003
330
1F
100
AcDbEntity
  8
0
  6
HIDDEN
 62
     8
100
AcDbLine
 10
58.34828153668301
 20
59.53770168235137
 30
0.0
 11
58.33463525629897
 21
59.50774599467469
 31
0.0
  0
LINE
  5
1004
330
1F
100
AcDbEntity
  8
0
  6
HIDDEN
 62
     8
100
AcDbLine
 10
58.90396936349349
 20
59.82640521947572
 30
0.0
 11
58.9080503444757
 21
59.83523799810136
 31
0.0
  0
LINE
  5
1005
330
1F
100
AcDbEntity
  8
0
  6
CONTINUOUS
 62
     7
100
AcDbLine
 10
52.64529741691063
 20
47.06662497257913
 30
0.0
 11
52.61811265906835
 21
47.00836985378228
 31
0.0
  0
LINE
  5
1006
330
1F
100
AcDbEntity
  8
0
  6
HIDDEN
 62
     8
100
AcDbLine
 10
58.9080503444757
 20
59.83523799810136
 30
0.0
 11
58.91225733018109
 21
59.84401146491221
 31
0.0
  0
LINE
  5
1007
330
1F
100
AcDbEntity
  8
0
  6
CONTINUOUS
 62
     7
100
AcDbLine
 10
53.39677831687336
 20
46.51048947768427
 30
0.0
 11
53.37994776749685
 21
46.47614686348354
 31
0.0
  0
LINE
  5
1008
330
1F
100
AcDbEntity
  8
0
  6
HIDDEN
 62
     8
100
AcDbLine
 10
60.30099682036999
 20
60.59280975975537
 30
0.0
 11
60.30259473031586
 21
60.5960649245955
 31
0.0
  0
LINE
  5
1009
330
1F
100
AcDbEntity
  8
0
  6
HIDDEN
 62
     8
100
AcDbLine
 10
58.91225733018109
 20
59.84401146491221
 30
0.0
 11
58.91658469786719
 21
59.85272644085752
 31
0.0
  0
LINE
  5
100A
330
1F
100
AcDbEntity
  8
0
  6
CONTINUOUS
 62
     7
100
AcDbLine
 10
52.61811265906835
 20
47.00836985378228
 30
0.0
 11
52.59037077338614
 21
46.95278888438846
 31
0.0
  0
LINE
  5
100B
330
1F
100
AcDbEntity
  8
0
  6
CONTINUOUS
 62
     7
100
AcDbLine
 10
53.37994776749685
 20
46.47614686348354
 30
0.0
 11
53.36198277582723
 21
46.44238443901118
 31
0.0
  0
LINE
  5
100C
330
1F
100
AcDbEntity
  8
0
  6
CONTINUOUS
 62
     7
100
AcDbLine
 10
52.59037077338614
 20
46.95278888438846
 30
0.0
 11
52.56112168105335
 21
46.89798638114178
 31
0.0
  0
LINE
  5
100D
330
1F
100
AcDbEntity
  8
0
  6
HIDDEN
 62
     8
100
AcDbLine
 10
60.89947110749091
 20
58.85295187054039
 30
0.0
 11
60.89782848247323
 21
58.84989770662322
 31
0.0
  0
LINE
  5
100E
330
1F
100
AcDbEntity
  8
0
  6
CONTINUOUS
 62
     7
100
AcDbLine
 10
52.56112168105335
 20
46.89798638114178
 30
0.0
 11
52.53146186066588
 21
46.8460094758059
 31
0.0
  0
LINE
  5
100F
330
1F
100
AcDbEntity
  8
0
  6
CONTINUOUS
 62
     7
100
AcDbLine
 10
53.36198277582723
 20
46.44238443901118
 30
0.0
 11
53.35056660623611
 21
46.42240993686773
 31
0.0
  0
LINE
  5
1010
330
1F
100
AcDbEntity
  8
0
  6
HIDDEN
 62
     8
100
AcDbLine
 10
60.8838969345541
 20
60.15229050637599
 30
0.0
 11
60.88457009735397
 21
60.15346597903456
 31
0.0
  0
LINE
  5
1011
330
1F
100
AcDbEntity
  8
0
  6
HIDDEN
 62
     8
100
AcDbLine
 10
60.30259473031586
 20
60.5960649245955
 30
0.0
 11
60.30439828390822
 21
60.59919850822686
 31
0.0
  0
LINE
  5
1012
330
1F
100
AcDbEntity
  8
0
  6
CONTINUOUS
 62
     7
100
AcDbLine
 10
53.35056660623611
 20
46.42240993686773
 30
0.0
 11
53.33863833718656
 21
46.40273748781822
 31
0.0
  0
LINE
  5
1013
330
1F
100
AcDbEntity
  8
0
  6
CONTINUOUS
 62
     7
100
AcDbLine
 10
52.53146186066588
 20
46.8460094758059
 30
0.0
 11
52.50028576229421
 21
46.79492800865486
 31
0.0
  0
LINE
  5
1014
330
1F
100
AcDbEntity
  8
0
  6
HIDDEN
 62
     8
100
AcDbLine
 10
60.89782848247323
 20
58.84989770662322
 30
0.0
 11
60.89698766351903
 21
58.84854823174477
 31
0.0
  0
LINE
  5
1015
330
1F
100
AcDbEntity
  8
0
  6
CONTINUOUS
 62
     7
100
AcDbLine
 10
53.33863833718656
 20
46.40273748781822
 30
0.0
 11
53.3261492354037
 21
46.38341569772889
 31
0.0
  0
LINE
  5
1016
330
1F
100
AcDbEntity
  8
0
  6
CONTINUOUS
 62
     7
100
AcDbLine
 10
52.50028576229421
 20
46.79492800865486
 30
0.0
 11
52.46884888707459
 21
46.74679248809158
 31
0.0
  0
LINE
  5
1017
330
1F
100
AcDbEntity
  8
0
  6
CONTINUOUS
 62
     7
100
AcDbLine
 10
53.3261492354037
 20
46.38341569772889
 30
0.0
 11
53.31446959190046
 21
46.3664881259045
 31
0.0
  0
LINE
  5
1018
330
1F
100
AcDbEntity
  8
0
  6
CONTINUOUS
 62
     7
100
AcDbLine
 10
52.46884888707459
 20
46.74679248809158
 30
0.0
 11
52.43589367882849
 21
46.69968394357124
 31
0.0
  0
LINE
  5
1019
330
1F
100
AcDbEntity
  8
0
  6
CONTINUOUS
 62
     7
100
AcDbLine
 10
53.31446959190046
 20
46.3664881259045
 30
0.0
 11
53.30225145286035
 21
46.34994597537868
 31
0.0
  0
LINE
  5
101A
330
1F
100
AcDbEntity
  8
0
  6
CONTINUOUS
 62
     7
100
AcDbLine
 10
52.43589367882849
 20
46.69968394357124
 30
0.0
 11
52.40282712915846
 21
46.65560786331349
 31
0.0
  0
LINE
  5
101B
330
1F
100
AcDbEntity
  8
0
  6
CONTINUOUS
 62
     7
100
AcDbLine
 10
53.30225145286035
 20
46.34994597537868
 30
0.0
 11
53.28944325886819
 21
46.33385571420534
 31
0.0
  0
LINE
  5
101C
330
1F
100
AcDbEntity
  8
0
  6
CONTINUOUS
 62
     7
100
AcDbLine
 10
52.40282712915846
 20
46.65560786331349
 30
0.0
 11
52.36825109472004
 21
46.61270630077995
 31
0.0
  0
LINE
  5
101D
330
1F
100
AcDbEntity
  8
0
  6
CONTINUOUS
 62
     7
100
AcDbLine
 10
53.28944325886819
 20
46.33385571420534
 30
0.0
 11
53.277543501302
 21
46.32002094173865
 31
0.0
  0
LINE
  5
101E
330
1F
100
AcDbEntity
  8
0
  6
CONTINUOUS
 62
     7
100
AcDbLine
 10
53.277543501302
 20
46.32002094173865
 30
0.0
 11
53.26509012811509
 21
46.30668367100421
 31
0.0
  0
LINE
  5
101F
330
1F
100
AcDbEntity
  8
0
  6
CONTINUOUS
 62
     7
100
AcDbLine
 10
53.26509012811509
 20
46.30668367100421
 30
0.0
 11
53.25203444480923
 21
46.29393347665302
 31
0.0
  0
LINE
  5
1020
330
1F
100
AcDbEntity
  8
0
  6
CONTINUOUS
 62
     7
100
AcDbLine
 10
53.25203444480923
 20
46.29393347665302
 30
0.0
 11
53.23993685184051
 21
46.28321753242033
 31
0.0
  0
LINE
  5
1021
330
1F
100
AcDbEntity
  8
0
  6
CONTINUOUS
 62
     7
100
AcDbLine
 10
53.23993685184051
 20
46.28321753242033
 30
0.0
 11
53.22730022757093
 21
46.27314608800571
 31
0.0
  0
LINE
  5
1022
330
1F
100
AcDbEntity
  8
0
  6
HIDDEN
 62
     8
100
AcDbLine
 10
60.88958873929906
 20
60.15700394089385
 30
0.0
 11
60.89016077671235
 21
60.15668558337257
 31
0.0
  0
LINE
  5
1023
330
1F
100
AcDbEntity
  8
0
  6
HIDDEN
 62
     8
100
AcDbLine
 10
60.89071370212838
 20
58.844719188198
 30
0.0
 11
60.88999819518676
 21
58.84513273384292
 31
0.0
  0
LINE
  5
1024
330
1F
100
AcDbEntity
  8
0
  6
HIDDEN
 62
     8
100
AcDbLine
 10
60.31310470665559
 20
60.60445230147117
 30
0.0
 11
60.31405411394117
 21
60.60387537683765
 31
0.0
  0
LINE
  5
1025
330
1F
100
AcDbEntity
  8
0
  6
HIDDEN
 62
     8
100
AcDbLine
 10
58.87035851254168
 20
59.65787490934355
 30
0.0
 11
58.86773410306638
 21
59.65976205848085
 31
0.0
  0
LINE
  5
1026
330
1F
100
AcDbEntity
  8
0
  6
HIDDEN
 62
     8
100
AcDbLine
 10
58.40100163297524
 20
58.47259994920254
 30
0.0
 11
58.42316970035584
 21
58.45587276942939
 31
0.0
  0
LINE
  5
1027
330
1F
100
AcDbEntity
  8
0
  6
HIDDEN
 62
     8
100
AcDbLine
 10
58.38005541985181
 20
58.49097667740697
 30
0.0
 11
58.40100163297524
 21
58.47259994920254
 31
0.0
  0
LINE
  5
1028
330
1F
100
AcDbEntity
  8
0
  6
HIDDEN
 62
     8
100
AcDbLine
 10
58.36036497705172
 20
58.51083760115895
 30
0.0
 11
58.38005541985181
 21
58.49097667740697
 31
0.0
  0
LINE
  5
1029
330
1F
100
AcDbEntity
  8
0
  6
HIDDEN
 62
     8
100
AcDbLine
 10
58.19516996817462
 20
59.03745086913734
 30
0.0
 11
58.19340178879212
 21
58.99551113448065
 31
0.0
  0
LINE
  5
102A
330
1F
100
AcDbEntity
  8
0
  6
HIDDEN
 62
     8
100
AcDbLine
 10
58.19930114237891
 20
59.07920521894467
 30
0.0
 11
58.19516996817462
 21
59.03745086913734
 31
0.0
  0
LINE
  5
102B
330
1F
100
AcDbEntity
  8
0
  6
HIDDEN
 62
     8
100
AcDbLine
 10
58.86236820211976
 20
59.68070852256672
 30
0.0
 11
58.86318100340973
 21
59.68841113003529
 31
0.0
  0
LINE
  5
102C
330
1F
100
AcDbEntity
  8
0
  6
CONTINUOUS
 62
     7
100
AcDbLine
 10
58.57613588114069
 20
57.28592612388159
 30
0.0
 11
57.33111830521274
 21
46.94526574941096
 31
0.0
  0
LINE
  5
102D
330
1F
100
AcDbEntity
  8
0
  6
CONTINUOUS
 62
     7
100
AcDbLine
 10
57.51713357872019
 20
46.9217164748873
 30
0.0
 11
58.76228793290329
 21
57.2634836801809
 31
0.0
  0
LINE
  5
102E
330
1F
100
AcDbEntity
  8
0
  6
HIDDEN
 62
     8
100
AcDbLine
 10
58.86318100340973
 20
59.68841113003529
 30
0.0
 11
58.86416609839978
 21
59.69609578728896
 31
0.0
  0
LINE
  5
102F
330
1F
100
AcDbEntity
  8
0
  6
HIDDEN
 62
     8
100
AcDbLine
 10
58.86416609839978
 20
59.69609578728896
 30
0.0
 11
58.86531749517669
 21
59.70375891507687
 31
0.0
  0
LINE
  5
1030
330
1F
100
AcDbEntity
  8
0
  6
HIDDEN
 62
     8
100
AcDbLine
 10
58.20571016745692
 20
59.12064773441608
 30
0.0
 11
58.19930114237891
 21
59.07920521894467
 31
0.0
  0
LINE
  5
1031
330
1F
100
AcDbEntity
  8
0
  6
HIDDEN
 62
     8
100
AcDbLine
 10
58.86531749517669
 20
59.70375891507687
 30
0.0
 11
58.86662920203248
 21
59.71139693573499
 31
0.0
  0
LINE
  5
1032
330
1F
100
AcDbEntity
  8
0
  6
HIDDEN
 62
     8
100
AcDbLine
 10
58.86662920203248
 20
59.71139693573499
 30
0.0
 11
58.86809522684863
 21
59.7190062684257
 31
0.0
  0
LINE
  5
1033
330
1F
100
AcDbEntity
  8
0
  6
HIDDEN
 62
     8
100
AcDbLine
 10
58.21431190698399
 20
59.16165196186511
 30
0.0
 11
58.20571016745692
 21
59.12064773441608
 31
0.0
  0
LINE
  5
1034
330
1F
100
AcDbEntity
  8
0
  6
HIDDEN
 62
     8
100
AcDbLine
 10
58.86809522684863
 20
59.7190062684257
 30
0.0
 11
58.86983305148923
 21
59.72713485864611
 31
0.0
  0
LINE
  5
1035
330
1F
100
AcDbEntity
  8
0
  6
HIDDEN
 62
     8
100
AcDbLine
 10
58.86983305148923
 20
59.72713485864611
 30
0.0
 11
58.87173516870811
 21
59.73522522803573
 31
0.0
  0
LINE
  5
1036
330
1F
100
AcDbEntity
  8
0
  6
HIDDEN
 62
     8
100
AcDbLine
 10
60.28678441972364
 20
60.54659208026835
 30
0.0
 11
60.29041290192033
 21
60.56103538192866
 31
0.0
  0
LINE
  5
1037
330
1F
100
AcDbEntity
  8
0
  6
HIDDEN
 62
     8
100
AcDbLine
 10
58.87173516870811
 20
59.73522522803573
 30
0.0
 11
58.87379514268134
 21
59.74327630219453
 31
0.0
  0
LINE
  5
1038
330
1F
100
AcDbEntity
  8
0
  6
HIDDEN
 62
     8
100
AcDbLine
 10
58.22502121977509
 20
59.20209144822115
 30
0.0
 11
58.21431190698399
 21
59.16165196186511
 31
0.0
  0
LINE
  5
1039
330
1F
100
AcDbEntity
  8
0
  6
HIDDEN
 62
     8
100
AcDbLine
 10
60.29041290192033
 20
60.56103538192866
 30
0.0
 11
60.29214594533496
 21
60.56733963269858
 31
0.0
  0
LINE
  5
103A
330
1F
100
AcDbEntity
  8
0
  6
HIDDEN
 62
     8
100
AcDbLine
 10
58.87379514268134
 20
59.74327630219453
 30
0.0
 11
58.87600652662747
 21
59.75128699684673
 31
0.0
  0
LINE
  5
103B
330
1F
100
AcDbEntity
  8
0
  6
HIDDEN
 62
     8
100
AcDbLine
 10
60.29214594533496
 20
60.56733963269858
 30
0.0
 11
60.29399440346447
 21
60.57361139676854
 31
0.0
  0
LINE
  5
103C
330
1F
100
AcDbEntity
  8
0
  6
HIDDEN
 62
     8
100
AcDbLine
 10
58.87600652662747
 20
59.75128699684673
 30
0.0
 11
58.87836287996228
 21
59.75925623820813
 31
0.0
  0
LINE
  5
103D
330
1F
100
AcDbEntity
  8
0
  6
HIDDEN
 62
     8
100
AcDbLine
 10
58.87836287996228
 20
59.75925623820813
 30
0.0
 11
58.8808577610752
 21
59.76718294456069
 31
0.0
  0
LINE
  5
103E
330
1F
100
AcDbEntity
  8
0
  6
HIDDEN
 62
     8
100
AcDbLine
 10
60.29399440346447
 20
60.57361139676854
 30
0.0
 11
60.29569250255459
 21
60.57895086830793
 31
0.0
  0
LINE
  5
103F
330
1F
100
AcDbEntity
  8
0
  6
HIDDEN
 62
     8
100
AcDbLine
 10
60.90606394795357
 20
58.87014160157872
 30
0.0
 11
60.90424692656842
 21
58.86469705636409
 31
0.0
  0
LINE
  5
1040
330
1F
100
AcDbEntity
  8
0
  6
HIDDEN
 62
     8
100
AcDbLine
 10
60.29569250255459
 20
60.57895086830793
 30
0.0
 11
60.29752685626196
 21
60.58424377678456
 31
0.0
  0
LINE
  5
1041
330
1F
100
AcDbEntity
  8
0
  6
CONTINUOUS
 62
     7
100
AcDbLine
 10
55.93600587216418
 20
45.1052697608919
 30
0.0
 11
55.21401645199524
 21
43.12160734574482
 31
0.0
  0
LINE
  5
1042
330
1F
100
AcDbEntity
  8
0
  6
HIDDEN
 62
     8
100
AcDbLine
 10
60.90424692656842
 20
58.86469705636409
 30
0.0
 11
60.90267058140509
 21
58.86037971523046
 31
0.0
  0
LINE
  5
1043
330
1F
100
AcDbEntity
  8
0
  6
HIDDEN
 62
     8
100
AcDbLine
 10
60.29752685626196
 20
60.58424377678456
 30
0.0
 11
60.29917295703775
 21
60.58856070607642
 31
0.0
  0
LINE
  5
1044
330
1F
100
AcDbEntity
  8
0
  6
HIDDEN
 62
     8
100
AcDbLine
 10
60.90267058140509
 20
58.86037971523046
 30
0.0
 11
60.90093266060441
 21
58.856116970485
 31
0.0
  0
LINE
  5
1045
330
1F
100
AcDbEntity
  8
0
  6
HIDDEN
 62
     8
100
AcDbLine
 10
60.90093266060441
 20
58.856116970485
 30
0.0
 11
60.89947110749091
 21
58.85295187054039
 31
0.0
  0
LINE
  5
1046
330
1F
100
AcDbEntity
  8
0
  6
HIDDEN
 62
     8
100
AcDbLine
 10
60.31405411394117
 20
60.60387537683765
 30
0.0
 11
60.38352514147608
 21
60.54995006033331
 31
0.0
  0
LINE
  5
1047
330
1F
100
AcDbEntity
  8
0
  6
HIDDEN
 62
     8
100
AcDbLine
 10
60.89016077671235
 20
60.15668558337257
 30
0.0
 11
61.00215559135468
 21
60.06975213572023
 31
0.0
  0
LINE
  5
1048
330
1F
100
AcDbEntity
  8
0
  6
HIDDEN
 62
     8
100
AcDbLine
 10
58.86773410306638
 20
59.65976205848085
 30
0.0
 11
58.86541452454579
 21
59.66198679333922
 31
0.0
  0
LINE
  5
1049
330
1F
100
AcDbEntity
  8
0
  6
HIDDEN
 62
     8
100
AcDbLine
 10
58.34196421367815
 20
58.53201736363551
 30
0.0
 11
58.36036497705172
 21
58.51083760115895
 31
0.0
  0
LINE
  5
104A
330
1F
100
AcDbEntity
  8
0
  6
HIDDEN
 62
     8
100
AcDbLine
 10
58.32488704559198
 20
58.55435061036614
 30
0.0
 11
58.34196421367815
 21
58.53201736363551
 31
0.0
  0
LINE
  5
104B
330
1F
100
AcDbEntity
  8
0
  6
HIDDEN
 62
     8
100
AcDbLine
 10
58.30916738092544
 20
58.57767198949346
 30
0.0
 11
58.32488704559198
 21
58.55435061036614
 31
0.0
  0
LINE
  5
104C
330
1F
100
AcDbEntity
  8
0
  6
HIDDEN
 62
     8
100
AcDbLine
 10
58.29483913512891
 20
58.60181614337342
 30
0.0
 11
58.30916738092544
 21
58.57767198949346
 31
0.0
  0
LINE
  5
104D
330
1F
100
AcDbEntity
  8
0
  6
HIDDEN
 62
     8
100
AcDbLine
 10
58.28193621771608
 20
58.62661771835658
 30
0.0
 11
58.29483913512891
 21
58.60181614337342
 31
0.0
  0
LINE
  5
104E
330
1F
100
AcDbEntity
  8
0
  6
HIDDEN
 62
     8
100
AcDbLine
 10
58.19340178879212
 20
58.99551113448065
 30
0.0
 11
58.19397325271821
 21
58.95579461593658
 31
0.0
  0
LINE
  5
104F
330
1F
100
AcDbEntity
  8
0
  6
HIDDEN
 62
     8
100
AcDbLine
 10
60.39185346987927
 20
60.41310716824883
 30
0.0
 11
60.39128401877218
 21
60.38839149749505
 31
0.0
  0
LINE
  5
1050
330
1F
100
AcDbEntity
  8
0
  6
HIDDEN
 62
     8
100
AcDbLine
 10
60.39128401877218
 20
60.38839149749505
 30
0.0
 11
60.39046454042078
 21
60.36199303586011
 31
0.0
  0
LINE
  5
1051
330
1F
100
AcDbEntity
  8
0
  6
HIDDEN
 62
     8
100
AcDbLine
 10
60.39046454042078
 20
60.36199303586011
 30
0.0
 11
60.38939473460681
 21
60.33401227631839
 31
0.0
  0
LINE
  5
1052
330
1F
100
AcDbEntity
  8
0
  6
HIDDEN
 62
     8
100
AcDbLine
 10
60.38939473460681
 20
60.33401227631839
 30
0.0
 11
60.38807988031824
 21
60.304668166959
 31
0.0
  0
LINE
  5
1053
330
1F
100
AcDbEntity
  8
0
  6
HIDDEN
 62
     8
100
AcDbLine
 10
60.38807988031824
 20
60.304668166959
 30
0.0
 11
60.3865358714605
 21
60.27433172511542
 31
0.0
  0
LINE
  5
1054
330
1F
100
AcDbEntity
  8
0
  6
HIDDEN
 62
     8
100
AcDbLine
 10
60.3865358714605
 20
60.27433172511542
 30
0.0
 11
60.38478570839892
 21
60.24340528157306
 31
0.0
  0
LINE
  5
1055
330
1F
100
AcDbEntity
  8
0
  6
HIDDEN
 62
     8
100
AcDbLine
 10
60.38478570839892
 20
60.24340528157306
 30
0.0
 11
60.38284620242645
 21
60.21211576766591
 31
0.0
  0
LINE
  5
1056
330
1F
100
AcDbEntity
  8
0
  6
HIDDEN
 62
     8
100
AcDbLine
 10
60.38284620242645
 20
60.21211576766591
 30
0.0
 11
60.38073387692056
 21
60.18066941903983
 31
0.0
  0
LINE
  5
1057
330
1F
100
AcDbEntity
  8
0
  6
HIDDEN
 62
     8
100
AcDbLine
 10
60.38073387692056
 20
60.18066941903983
 30
0.0
 11
60.3784729575214
 21
60.14936438675992
 31
0.0
  0
LINE
  5
1058
330
1F
100
AcDbEntity
  8
0
  6
HIDDEN
 62
     8
100
AcDbLine
 10
60.21435611438331
 20
59.95255311550045
 30
0.0
 11
60.21747511543757
 21
59.99313332067512
 31
0.0
  0
LINE
  5
1059
330
1F
100
AcDbEntity
  8
0
  6
HIDDEN
 62
     8
100
AcDbLine
 10
60.36779432458281
 20
60.013784058625
 30
0.0
 11
60.3784729575214
 21
60.14936438675992
 31
0.0
  0
LINE
  5
105A
330
1F
100
AcDbEntity
  8
0
  6
HIDDEN
 62
     8
100
AcDbLine
 10
60.21747511543757
 20
59.99313332067512
 30
0.0
 11
60.22071668606198
 21
60.03296169023748
 31
0.0
  0
LINE
  5
105B
330
1F
100
AcDbEntity
  8
0
  6
HIDDEN
 62
     8
100
AcDbLine
 10
58.86173368623786
 20
59.67299154254728
 30
0.0
 11
58.86236820211976
 21
59.68070852256672
 31
0.0
  0
LINE
  5
105C
330
1F
100
AcDbEntity
  8
0
  6
HIDDEN
 62
     8
100
AcDbLine
 10
60.22071668606198
 20
60.03296169023748
 30
0.0
 11
60.22406376528518
 21
60.07192221593678
 31
0.0
  0
LINE
  5
105D
330
1F
100
AcDbEntity
  8
0
  6
HIDDEN
 62
     8
100
AcDbLine
 10
60.22406376528518
 20
60.07192221593678
 30
0.0
 11
60.22750467896774
 21
60.10996070929195
 31
0.0
  0
LINE
  5
105E
330
1F
100
AcDbEntity
  8
0
  6
HIDDEN
 62
     8
100
AcDbLine
 10
60.22750467896774
 20
60.10996070929195
 30
0.0
 11
60.23102074006319
 21
60.14694458891039
 31
0.0
  0
LINE
  5
105F
330
1F
100
AcDbEntity
  8
0
  6
HIDDEN
 62
     8
100
AcDbLine
 10
60.98590291417363
 20
59.43910526582929
 30
0.0
 11
60.98198336563221
 21
59.39972014622862
 31
0.0
  0
LINE
  5
1060
330
1F
100
AcDbEntity
  8
0
  6
HIDDEN
 62
     8
100
AcDbLine
 10
60.23102074006319
 20
60.14694458891039
 30
0.0
 11
60.23460443727696
 21
60.1828602016197
 31
0.0
  0
LINE
  5
1061
330
1F
100
AcDbEntity
  8
0
  6
HIDDEN
 62
     8
100
AcDbLine
 10
60.23460443727696
 20
60.1828602016197
 30
0.0
 11
60.23823937172597
 21
60.21760023650043
 31
0.0
  0
LINE
  5
1062
330
1F
100
AcDbEntity
  8
0
  6
HIDDEN
 62
     8
100
AcDbLine
 10
60.96347289168743
 20
59.22532592089758
 30
0.0
 11
60.98198336563221
 21
59.39972014622862
 31
0.0
  0
LINE
  5
1063
330
1F
100
AcDbEntity
  8
0
  6
HIDDEN
 62
     8
100
AcDbLine
 10
60.23823937172597
 20
60.21760023650043
 30
0.0
 11
60.24191931178747
 21
60.25115515823507
 31
0.0
  0
LINE
  5
1064
330
1F
100
AcDbEntity
  8
0
  6
HIDDEN
 62
     8
100
AcDbLine
 10
60.96347289168743
 20
59.22532592089758
 30
0.0
 11
60.96044222099786
 21
59.19770984981456
 31
0.0
  0
LINE
  5
1065
330
1F
100
AcDbEntity
  8
0
  6
HIDDEN
 62
     8
100
AcDbLine
 10
60.24191931178747
 20
60.25115515823507
 30
0.0
 11
60.24563330289263
 21
60.28346610177954
 31
0.0
  0
LINE
  5
1066
330
1F
100
AcDbEntity
  8
0
  6
HIDDEN
 62
     8
100
AcDbLine
 10
60.96044222099786
 20
59.19770984981456
 30
0.0
 11
60.95723873646466
 21
59.16991982743393
 31
0.0
  0
LINE
  5
1067
330
1F
100
AcDbEntity
  8
0
  6
HIDDEN
 62
     8
100
AcDbLine
 10
60.24563330289263
 20
60.28346610177954
 30
0.0
 11
60.24937038070764
 21
60.31447423884614
 31
0.0
  0
LINE
  5
1068
330
1F
100
AcDbEntity
  8
0
  6
CONTINUOUS
 62
     7
100
AcDbLine
 10
59.66410915880775
 20
52.36909500175269
 30
0.0
 11
59.1523594276055
 21
48.12431389152346
 31
0.0
  0
LINE
  5
1069
330
1F
100
AcDbEntity
  8
0
  6
HIDDEN
 62
     8
100
AcDbLine
 10
60.95723873646466
 20
59.16991982743393
 30
0.0
 11
60.95387412144056
 21
59.14212357769391
 31
0.0
  0
LINE
  5
106A
330
1F
100
AcDbEntity
  8
0
  6
HIDDEN
 62
     8
100
AcDbLine
 10
60.24937038070764
 20
60.31447423884614
 30
0.0
 11
60.2531284681085
 21
60.34419027639851
 31
0.0
  0
LINE
  5
106B
330
1F
100
AcDbEntity
  8
0
  6
HIDDEN
 62
     8
100
AcDbLine
 10
60.95387412144056
 20
59.14212357769391
 30
0.0
 11
60.95035553317247
 21
59.11444679064421
 31
0.0
  0
LINE
  5
106C
330
1F
100
AcDbEntity
  8
0
  6
HIDDEN
 62
     8
100
AcDbLine
 10
60.2531284681085
 20
60.34419027639851
 30
0.0
 11
60.25689438525048
 21
60.37253173735624
 31
0.0
  0
LINE
  5
106D
330
1F
100
AcDbEntity
  8
0
  6
HIDDEN
 62
     8
100
AcDbLine
 10
60.95035553317247
 20
59.11444679064421
 30
0.0
 11
60.94670289311082
 21
59.08711055834887
 31
0.0
  0
LINE
  5
106E
330
1F
100
AcDbEntity
  8
0
  6
HIDDEN
 62
     8
100
AcDbLine
 10
60.25689438525048
 20
60.37253173735624
 30
0.0
 11
60.26066836159978
 21
60.39951541102434
 31
0.0
  0
LINE
  5
106F
330
1F
100
AcDbEntity
  8
0
  6
HIDDEN
 62
     8
100
AcDbLine
 10
60.94670289311082
 20
59.08711055834887
 30
0.0
 11
60.94292839462577
 21
59.06026790261776
 31
0.0
  0
LINE
  5
1070
330
1F
100
AcDbEntity
  8
0
  6
HIDDEN
 62
     8
100
AcDbLine
 10
60.26066836159978
 20
60.39951541102434
 30
0.0
 11
60.26444123999961
 21
60.42508252089281
 31
0.0
  0
LINE
  5
1071
330
1F
100
AcDbEntity
  8
0
  6
HIDDEN
 62
     8
100
AcDbLine
 10
60.94292839462577
 20
59.06026790261776
 30
0.0
 11
60.93905577826977
 21
59.03414707672554
 31
0.0
  0
LINE
  5
1072
330
1F
100
AcDbEntity
  8
0
  6
HIDDEN
 62
     8
100
AcDbLine
 10
60.26444123999961
 20
60.42508252089281
 30
0.0
 11
60.26820699324497
 21
60.44919450716483
 31
0.0
  0
LINE
  5
1073
330
1F
100
AcDbEntity
  8
0
  6
HIDDEN
 62
     8
100
AcDbLine
 10
60.93905577826977
 20
59.03414707672554
 30
0.0
 11
60.93510423514103
 21
59.00893302209294
 31
0.0
  0
LINE
  5
1074
330
1F
100
AcDbEntity
  8
0
  6
HIDDEN
 62
     8
100
AcDbLine
 10
60.26820699324497
 20
60.44919450716483
 30
0.0
 11
60.27196513969416
 21
60.47184143594002
 31
0.0
  0
LINE
  5
1075
330
1F
100
AcDbEntity
  8
0
  6
HIDDEN
 62
     8
100
AcDbLine
 10
60.93510423514103
 20
59.00893302209294
 30
0.0
 11
60.93110672822852
 21
58.98488466387743
 31
0.0
  0
LINE
  5
1076
330
1F
100
AcDbEntity
  8
0
  6
CONTINUOUS
 62
     7
100
AcDbLine
 10
62.00760603306926
 20
63.11015139901138
 30
0.0
 11
61.19666668509776
 21
58.35602598144776
 31
0.0
  0
LINE
  5
1077
330
1F
100
AcDbEntity
  8
0
  6
CONTINUOUS
 62
     7
100
AcDbLine
 10
61.38149703925129
 20
58.32449837267077
 30
0.0
 11
62.1924363872228
 21
63.0786237902344
 31
0.0
  0
LINE
  5
1078
330
1F
100
AcDbEntity
  8
0
  6
HIDDEN
 62
     8
100
AcDbLine
 10
60.93110672822852
 20
58.98488466387743
 30
0.0
 11
60.92708418017394
 21
58.96217039741862
 31
0.0
  0
LINE
  5
1079
330
1F
100
AcDbEntity
  8
0
  6
HIDDEN
 62
     8
100
AcDbLine
 10
60.27196513969416
 20
60.47184143594002
 30
0.0
 11
60.27570421854967
 21
60.49294124824948
 31
0.0
  0
LINE
  5
107A
330
1F
100
AcDbEntity
  8
0
  6
HIDDEN
 62
     8
100
AcDbLine
 10
60.92708418017394
 20
58.96217039741862
 30
0.0
 11
60.92511174560742
 21
58.95158390012685
 31
0.0
  0
LINE
  5
107B
330
1F
100
AcDbEntity
  8
0
  6
HIDDEN
 62
     8
100
AcDbLine
 10
60.27570421854967
 20
60.49294124824948
 30
0.0
 11
60.27942585870521
 21
60.51248237874141
 31
0.0
  0
LINE
  5
107C
330
1F
100
AcDbEntity
  8
0
  6
HIDDEN
 62
     8
100
AcDbLine
 10
60.92511174560742
 20
58.95158390012685
 30
0.0
 11
60.92306890529933
 21
58.94101076026493
 31
0.0
  0
LINE
  5
107D
330
1F
100
AcDbEntity
  8
0
  6
HIDDEN
 62
     8
100
AcDbLine
 10
60.92306890529933
 20
58.94101076026493
 30
0.0
 11
60.92112256771402
 21
58.93131303071934
 31
0.0
  0
LINE
  5
107E
330
1F
100
AcDbEntity
  8
0
  6
HIDDEN
 62
     8
100
AcDbLine
 10
60.27942585870521
 20
60.51248237874141
 30
0.0
 11
60.28312067977504
 21
60.53038530651644
 31
0.0
  0
LINE
  5
107F
330
1F
100
AcDbEntity
  8
0
  6
HIDDEN
 62
     8
100
AcDbLine
 10
60.92112256771402
 20
58.93131303071934
 30
0.0
 11
60.91909896911215
 21
58.92163116359625
 31
0.0
  0
LINE
  5
1080
330
1F
100
AcDbEntity
  8
0
  6
HIDDEN
 62
     8
100
AcDbLine
 10
60.91909896911215
 20
58.92163116359625
 30
0.0
 11
60.91719767642441
 21
58.91291519537388
 31
0.0
  0
LINE
  5
1081
330
1F
100
AcDbEntity
  8
0
  6
HIDDEN
 62
     8
100
AcDbLine
 10
60.28312067977504
 20
60.53038530651644
 30
0.0
 11
60.28678441972364
 21
60.54659208026835
 31
0.0
  0
LINE
  5
1082
330
1F
100
AcDbEntity
  8
0
  6
HIDDEN
 62
     8
100
AcDbLine
 10
60.91719767642441
 20
58.91291519537388
 30
0.0
 11
60.91521085817776
 21
58.90421823667375
 31
0.0
  0
LINE
  5
1083
330
1F
100
AcDbEntity
  8
0
  6
HIDDEN
 62
     8
100
AcDbLine
 10
60.91521085817776
 20
58.90421823667375
 30
0.0
 11
60.91336326511497
 21
58.89651901816208
 31
0.0
  0
LINE
  5
1084
330
1F
100
AcDbEntity
  8
0
  6
HIDDEN
 62
     8
100
AcDbLine
 10
60.91336326511497
 20
58.89651901816208
 30
0.0
 11
60.91141941133746
 21
58.88884384726456
 31
0.0
  0
LINE
  5
1085
330
1F
100
AcDbEntity
  8
0
  6
HIDDEN
 62
     8
100
AcDbLine
 10
60.91141941133746
 20
58.88884384726456
 30
0.0
 11
60.9096420322214
 21
58.88222185393214
 31
0.0
  0
LINE
  5
1086
330
1F
100
AcDbEntity
  8
0
  6
HIDDEN
 62
     8
100
AcDbLine
 10
60.9096420322214
 20
58.88222185393214
 30
0.0
 11
60.90775301460293
 21
58.87562993570458
 31
0.0
  0
LINE
  5
1087
330
1F
100
AcDbEntity
  8
0
  6
HIDDEN
 62
     8
100
AcDbLine
 10
60.90775301460293
 20
58.87562993570458
 30
0.0
 11
60.90606394795357
 21
58.87014160157872
 31
0.0
  0
LWPOLYLINE
  5
1088
330
1F
100
AcDbEntity
  8
0
  6
CONTINUOUS
 62
     7
100
AcDbPolyline
 90
        7
 70
     0
 43
0.0
 10
55.21401645199524
 20
43.12160734574482
 10
55.14804261072043
 20
42.98513302341312
 10
55.05597446952698
 20
42.8647121201449
 10
54.94157296655863
 20
42.7652637740874
 10
54.80711050643328
 20
42.68980647490058
 10
54.66262254954333
 20
42.64397189962001
 10
54.50925149124199
 20
42.62812243710707
  0
LINE
  5
1089
330
1F
100
AcDbEntity
  8
0
  6
HIDDEN
 62
     8
100
AcDbLine
 10
61.00215559135468
 20
60.06975213572023
 30
0.0
 11
61.00322968707089
 21
60.06873446483041
 31
0.0
  0
LINE
  5
108A
330
1F
100
AcDbEntity
  8
0
  6
HIDDEN
 62
     8
100
AcDbLine
 10
60.38352514147608
 20
60.54995006033331
 30
0.0
 11
60.38419575265773
 21
60.54929077983853
 31
0.0
  0
LINE
  5
108B
330
1F
100
AcDbEntity
  8
0
  6
HIDDEN
 62
     8
100
AcDbLine
 10
61.00322968707089
 20
60.06873446483041
 30
0.0
 11
61.0041347056088
 21
60.06754647325341
 31
0.0
  0
LINE
  5
108C
330
1F
100
AcDbEntity
  8
0
  6
HIDDEN
 62
     8
100
AcDbLine
 10
58.86541452454579
 20
59.66198679333922
 30
0.0
 11
58.86356555905208
 21
59.66458624791489
 31
0.0
  0
LINE
  5
108D
330
1F
100
AcDbEntity
  8
0
  6
HIDDEN
 62
     8
100
AcDbLine
 10
60.38419575265773
 20
60.54929077983853
 30
0.0
 11
60.38473942683499
 21
60.54850844451559
 31
0.0
  0
LINE
  5
108E
330
1F
100
AcDbEntity
  8
0
  6
HIDDEN
 62
     8
100
AcDbLine
 10
58.26997150179247
 20
58.65299970140222
 30
0.0
 11
58.28193621771608
 21
58.62661771835658
 31
0.0
  0
LINE
  5
108F
330
1F
100
AcDbEntity
  8
0
  6
HIDDEN
 62
     8
100
AcDbLine
 10
58.25921083905249
 20
58.67979331872546
 30
0.0
 11
58.26997150179247
 21
58.65299970140222
 31
0.0
  0
LINE
  5
1090
330
1F
100
AcDbEntity
  8
0
  6
HIDDEN
 62
     8
100
AcDbLine
 10
58.86356555905208
 20
59.66458624791489
 30
0.0
 11
58.86204767964641
 21
59.66866186968909
 31
0.0
  0
LINE
  5
1091
330
1F
100
AcDbEntity
  8
0
  6
HIDDEN
 62
     8
100
AcDbLine
 10
58.24927305268653
 20
58.70687565574178
 30
0.0
 11
58.25921083905249
 21
58.67979331872546
 31
0.0
  0
LINE
  5
1092
330
1F
100
AcDbEntity
  8
0
  6
HIDDEN
 62
     8
100
AcDbLine
 10
58.23977696767695
 20
58.73412379924815
 30
0.0
 11
58.24927305268653
 21
58.70687565574178
 31
0.0
  0
LINE
  5
1093
330
1F
100
AcDbEntity
  8
0
  6
HIDDEN
 62
     8
100
AcDbLine
 10
58.22877751400581
 20
58.76664732310075
 30
0.0
 11
58.23977696767695
 21
58.73412379924815
 31
0.0
  0
LINE
  5
1094
330
1F
100
AcDbEntity
  8
0
  6
HIDDEN
 62
     8
100
AcDbLine
 10
58.21869734184105
 20
58.79947063227463
 30
0.0
 11
58.22877751400581
 21
58.76664732310075
 31
0.0
  0
LINE
  5
1095
330
1F
100
AcDbEntity
  8
0
  6
HIDDEN
 62
     8
100
AcDbLine
 10
58.20909685495019
 20
58.83786338886096
 30
0.0
 11
58.21869734184105
 21
58.79947063227463
 31
0.0
  0
LINE
  5
1096
330
1F
100
AcDbEntity
  8
0
  6
HIDDEN
 62
     8
100
AcDbLine
 10
58.20179392106014
 20
58.87681728072677
 30
0.0
 11
58.20909685495019
 21
58.83786338886096
 31
0.0
  0
LINE
  5
1097
330
1F
100
AcDbEntity
  8
0
  6
HIDDEN
 62
     8
100
AcDbLine
 10
58.19676167453777
 20
58.91617884478133
 30
0.0
 11
58.20179392106014
 21
58.87681728072677
 31
0.0
  0
LINE
  5
1098
330
1F
100
AcDbEntity
  8
0
  6
HIDDEN
 62
     8
100
AcDbLine
 10
58.86204767964641
 20
59.66866186968909
 30
0.0
 11
58.86173368623786
 21
59.67299154254728
 31
0.0
  0
LINE
  5
1099
330
1F
100
AcDbEntity
  8
0
  6
HIDDEN
 62
     8
100
AcDbLine
 10
58.19397325271821
 20
58.95579461593658
 30
0.0
 11
58.19676167453777
 21
58.91617884478133
 31
0.0
  0
LINE
  5
109A
330
1F
100
AcDbEntity
  8
0
  6
HIDDEN
 62
     8
100
AcDbLine
 10
60.39224568533794
 20
60.45675638998639
 30
0.0
 11
60.39217256440314
 21
60.43594696516656
 31
0.0
  0
LINE
  5
109B
330
1F
100
AcDbEntity
  8
0
  6
HIDDEN
 62
     8
100
AcDbLine
 10
60.39217256440314
 20
60.43594696516656
 30
0.0
 11
60.39185346987927
 21
60.41310716824883
 31
0.0
  0
LINE
  5
109C
330
1F
100
AcDbEntity
  8
0
  6
HIDDEN
 62
     8
100
AcDbLine
 10
61.01583025690217
 20
59.89690758773754
 30
0.0
 11
61.01525544899991
 21
59.87182168872131
 31
0.0
  0
LINE
  5
109D
330
1F
100
AcDbEntity
  8
0
  6
HIDDEN
 62
     8
100
AcDbLine
 10
61.01525544899991
 20
59.87182168872131
 30
0.0
 11
61.01443839162825
 21
59.84539623422403
 31
0.0
  0
LINE
  5
109E
330
1F
100
AcDbEntity
  8
0
  6
HIDDEN
 62
     8
100
AcDbLine
 10
61.01443839162825
 20
59.84539623422403
 30
0.0
 11
61.01338001777193
 21
59.81765110725929
 31
0.0
  0
LINE
  5
109F
330
1F
100
AcDbEntity
  8
0
  6
HIDDEN
 62
     8
100
AcDbLine
 10
61.01338001777193
 20
59.81765110725929
 30
0.0
 11
61.01208063663017
 21
59.7886175067819
 31
0.0
  0
LINE
  5
10A0
330
1F
100
AcDbEntity
  8
0
  6
HIDDEN
 62
     8
100
AcDbLine
 10
61.01208063663017
 20
59.7886175067819
 30
0.0
 11
61.010542065838
 21
59.75836771210473
 31
0.0
  0
LINE
  5
10A1
330
1F
100
AcDbEntity
  8
0
  6
HIDDEN
 62
     8
100
AcDbLine
 10
61.010542065838
 20
59.75836771210473
 30
0.0
 11
61.00876226131548
 21
59.72690418017515
 31
0.0
  0
LINE
  5
10A2
330
1F
100
AcDbEntity
  8
0
  6
HIDDEN
 62
     8
100
AcDbLine
 10
61.00876226131548
 20
59.72690418017515
 30
0.0
 11
61.00674515142788
 21
59.69434155924187
 31
0.0
  0
LINE
  5
10A3
330
1F
100
AcDbEntity
  8
0
  6
HIDDEN
 62
     8
100
AcDbLine
 10
61.00674515142788
 20
59.69434155924187
 30
0.0
 11
61.00448598489936
 21
59.66065419566826
 31
0.0
  0
LINE
  5
10A4
330
1F
100
AcDbEntity
  8
0
  6
HIDDEN
 62
     8
100
AcDbLine
 10
61.00448598489936
 20
59.66065419566826
 30
0.0
 11
61.00198518763474
 21
59.62591054451505
 31
0.0
  0
LINE
  5
10A5
330
1F
100
AcDbEntity
  8
0
  6
HIDDEN
 62
     8
100
AcDbLine
 10
61.00198518763474
 20
59.62591054451505
 30
0.0
 11
60.99924569845296
 21
59.59021040870457
 31
0.0
  0
LINE
  5
10A6
330
1F
100
AcDbEntity
  8
0
  6
HIDDEN
 62
     8
100
AcDbLine
 10
60.99924569845296
 20
59.59021040870457
 30
0.0
 11
60.99626503276583
 21
59.55358288343306
 31
0.0
  0
LINE
  5
10A7
330
1F
100
AcDbEntity
  8
0
  6
HIDDEN
 62
     8
100
AcDbLine
 10
60.99626503276583
 20
59.55358288343306
 30
0.0
 11
60.99304786165673
 21
59.51614850794516
 31
0.0
  0
LINE
  5
10A8
330
1F
100
AcDbEntity
  8
0
  6
HIDDEN
 62
     8
100
AcDbLine
 10
60.99304786165673
 20
59.51614850794516
 30
0.0
 11
60.98959130552032
 21
59.47793922282937
 31
0.0
  0
LINE
  5
10A9
330
1F
100
AcDbEntity
  8
0
  6
HIDDEN
 62
     8
100
AcDbLine
 10
60.98959130552032
 20
59.47793922282937
 30
0.0
 11
60.98590291417363
 21
59.43910526582929
 31
0.0
  0
LINE
  5
10AA
330
1F
100
AcDbEntity
  8
0
  6
CONTINUOUS
 62
     7
100
AcDbLine
 10
63.577760565931
 20
63.07862382352261
 30
0.0
 11
62.01985106548268
 21
55.2343915247032
 31
0.0
  0
LINE
  5
10AB
330
1F
100
AcDbEntity
  8
0
  6
HIDDEN
 62
     8
100
AcDbLine
 10
61.0041347056088
 20
60.06754647325341
 30
0.0
 11
61.00490943830606
 21
60.06625750453091
 31
0.0
  0
LINE
  5
10AC
330
1F
100
AcDbEntity
  8
0
  6
HIDDEN
 62
     8
100
AcDbLine
 10
60.38473942683499
 20
60.54850844451559
 30
0.0
 11
60.38519250298851
 21
60.54765866625302
 31
0.0
  0
LINE
  5
10AD
330
1F
100
AcDbEntity
  8
0
  6
HIDDEN
 62
     8
100
AcDbLine
 10
61.00490943830606
 20
60.06625750453091
 30
0.0
 11
61.00626603527324
 21
60.06338094561986
 31
0.0
  0
LINE
  5
10AE
330
1F
100
AcDbEntity
  8
0
  6
HIDDEN
 62
     8
100
AcDbLine
 10
60.38519250298851
 20
60.54765866625302
 30
0.0
 11
60.38605256792711
 21
60.54557816560633
 31
0.0
  0
LINE
  5
10AF
330
1F
100
AcDbEntity
  8
0
  6
HIDDEN
 62
     8
100
AcDbLine
 10
61.00626603527324
 20
60.06338094561986
 30
0.0
 11
61.00733694364376
 21
60.06040486768047
 31
0.0
  0
LINE
  5
10B0
330
1F
100
AcDbEntity
  8
0
  6
HIDDEN
 62
     8
100
AcDbLine
 10
60.38605256792711
 20
60.54557816560633
 30
0.0
 11
60.38671194226186
 21
60.54344701785429
 31
0.0
  0
LINE
  5
10B1
330
1F
100
AcDbEntity
  8
0
  6
HIDDEN
 62
     8
100
AcDbLine
 10
61.00733694364376
 20
60.06040486768047
 30
0.0
 11
61.00849446899693
 21
60.05639763760839
 31
0.0
  0
LINE
  5
10B2
330
1F
100
AcDbEntity
  8
0
  6
HIDDEN
 62
     8
100
AcDbLine
 10
60.38671194226186
 20
60.54344701785429
 30
0.0
 11
60.38746210964255
 21
60.54038111481331
 31
0.0
  0
LINE
  5
10B3
330
1F
100
AcDbEntity
  8
0
  6
HIDDEN
 62
     8
100
AcDbLine
 10
61.00849446899693
 20
60.05639763760839
 30
0.0
 11
61.00944954560496
 21
60.05233120811526
 31
0.0
  0
LINE
  5
10B4
330
1F
100
AcDbEntity
  8
0
  6
HIDDEN
 62
     8
100
AcDbLine
 10
60.38746210964255
 20
60.54038111481331
 30
0.0
 11
60.38807030002691
 21
60.53727556132816
 31
0.0
  0
LINE
  5
10B5
330
1F
100
AcDbEntity
  8
0
  6
HIDDEN
 62
     8
100
AcDbLine
 10
61.00944954560496
 20
60.05233120811526
 30
0.0
 11
61.01043584892797
 21
60.04725714952853
 31
0.0
  0
LINE
  5
10B6
330
1F
100
AcDbEntity
  8
0
  6
HIDDEN
 62
     8
100
AcDbLine
 10
61.01043584892797
 20
60.04725714952853
 30
0.0
 11
61.01125911167547
 21
60.04215631159673
 31
0.0
  0
LINE
  5
10B7
330
1F
100
AcDbEntity
  8
0
  6
HIDDEN
 62
     8
100
AcDbLine
 10
60.38807030002691
 20
60.53727556132816
 30
0.0
 11
60.3887236194047
 21
60.53318921856815
 31
0.0
  0
LINE
  5
10B8
330
1F
100
AcDbEntity
  8
0
  6
HIDDEN
 62
     8
100
AcDbLine
 10
61.01125911167547
 20
60.04215631159673
 30
0.0
 11
61.01208162019125
 21
60.03609065975829
 31
0.0
  0
LINE
  5
10B9
330
1F
100
AcDbEntity
  8
0
  6
HIDDEN
 62
     8
100
AcDbLine
 10
60.3887236194047
 20
60.53318921856815
 30
0.0
 11
60.38925906826475
 21
60.52908902908118
 31
0.0
  0
LINE
  5
10BA
330
1F
100
AcDbEntity
  8
0
  6
HIDDEN
 62
     8
100
AcDbLine
 10
61.01208162019125
 20
60.03609065975829
 30
0.0
 11
61.01277373250495
 21
60.03000800770521
 31
0.0
  0
LINE
  5
10BB
330
1F
100
AcDbEntity
  8
0
  6
HIDDEN
 62
     8
100
AcDbLine
 10
60.38925906826475
 20
60.52908902908118
 30
0.0
 11
60.38981075685128
 21
60.5239777252422
 31
0.0
  0
LINE
  5
10BC
330
1F
100
AcDbEntity
  8
0
  6
HIDDEN
 62
     8
100
AcDbLine
 10
60.38981075685128
 20
60.5239777252422
 30
0.0
 11
60.39026547575454
 21
60.51885569339361
 31
0.0
  0
LINE
  5
10BD
330
1F
100
AcDbEntity
  8
0
  6
HIDDEN
 62
     8
100
AcDbLine
 10
61.01277373250495
 20
60.03000800770521
 30
0.0
 11
61.01400485016073
 21
60.01597513221499
 31
0.0
  0
LINE
  5
10BE
330
1F
100
AcDbEntity
  8
0
  6
HIDDEN
 62
     8
100
AcDbLine
 10
60.39026547575454
 20
60.51885569339361
 30
0.0
 11
60.39071498880979
 21
60.51269036216322
 31
0.0
  0
LINE
  5
10BF
330
1F
100
AcDbEntity
  8
0
  6
HIDDEN
 62
     8
100
AcDbLine
 10
61.01400485016073
 20
60.01597513221499
 30
0.0
 11
61.01495989156902
 21
60.00016141510298
 31
0.0
  0
LINE
  5
10C0
330
1F
100
AcDbEntity
  8
0
  6
HIDDEN
 62
     8
100
AcDbLine
 10
60.39071498880979
 20
60.51269036216322
 30
0.0
 11
60.39107963479541
 21
60.50651982304588
 31
0.0
  0
LINE
  5
10C1
330
1F
100
AcDbEntity
  8
0
  6
HIDDEN
 62
     8
100
AcDbLine
 10
60.39107963479541
 20
60.50651982304588
 30
0.0
 11
60.39142175448048
 21
60.49929468770443
 31
0.0
  0
LINE
  5
10C2
330
1F
100
AcDbEntity
  8
0
  6
HIDDEN
 62
     8
100
AcDbLine
 10
61.01495989156902
 20
60.00016141510298
 30
0.0
 11
61.01564718997227
 21
59.98263401747151
 31
0.0
  0
LINE
  5
10C3
330
1F
100
AcDbEntity
  8
0
  6
HIDDEN
 62
     8
100
AcDbLine
 10
60.39142175448048
 20
60.49929468770443
 30
0.0
 11
60.39168860904313
 21
60.49206623542875
 31
0.0
  0
LINE
  5
10C4
330
1F
100
AcDbEntity
  8
0
  6
HIDDEN
 62
     8
100
AcDbLine
 10
60.39168860904313
 20
60.49206623542875
 30
0.0
 11
60.39208117556066
 21
60.47546692776915
 31
0.0
  0
LINE
  5
10C5
330
1F
100
AcDbEntity
  8
0
  6
HIDDEN
 62
     8
100
AcDbLine
 10
61.01564718997227
 20
59.98263401747151
 30
0.0
 11
61.01607217148448
 21
59.96350781650879
 31
0.0
  0
LINE
  5
10C6
330
1F
100
AcDbEntity
  8
0
  6
HIDDEN
 62
     8
100
AcDbLine
 10
60.39208117556066
 20
60.47546692776915
 30
0.0
 11
60.39224568533794
 21
60.45675638998639
 31
0.0
  0
LINE
  5
10C7
330
1F
100
AcDbEntity
  8
0
  6
HIDDEN
 62
     8
100
AcDbLine
 10
61.01607217148448
 20
59.96350781650879
 30
0.0
 11
61.01624172751456
 21
59.94280859717004
 31
0.0
  0
LINE
  5
10C8
330
1F
100
AcDbEntity
  8
0
  6
HIDDEN
 62
     8
100
AcDbLine
 10
61.01624172751456
 20
59.94280859717004
 30
0.0
 11
61.01615985275181
 21
59.92057484661171
 31
0.0
  0
LINE
  5
10C9
330
1F
100
AcDbEntity
  8
0
  6
HIDDEN
 62
     8
100
AcDbLine
 10
61.01615985275181
 20
59.92057484661171
 30
0.0
 11
61.01583025690217
 21
59.89690758773754
 31
0.0
  0
LINE
  5
10CA
330
1F
100
AcDbEntity
  8
0
  6
CONTINUOUS
 62
     7
100
AcDbLine
 10
64.44743057288069
 20
63.32845388129907
 30
0.0
 11
64.59602703128132
 21
61.62998905948336
 31
0.0
  0
LINE
  5
10CB
330
1F
100
AcDbEntity
  8
0
  6
CONTINUOUS
 62
     7
100
AcDbLine
 10
64.78424324985832
 20
61.62998906407373
 30
0.0
 11
64.62922560672014
 21
63.40184835236453
 31
0.0
  0
LINE
  5
10CC
330
1F
100
AcDbEntity
  8
0
  6
CONTINUOUS
 62
     7
100
AcDbLine
 10
68.69796064746228
 20
61.62998915607547
 30
0.0
 11
68.54294300452938
 21
63.40184844595306
 31
0.0
  0
ARC
  5
119E
330
1F
100
AcDbEntity
  8
0
  6
CONTINUOUS
 62
     7
100
AcDbCircle
 10
63.57319554954566
 20
54.08192390205181
 30
0.0
 40
25.6203563312
100
AcDbArc
 50
160.978720186
 51
200.8144481061999
  0
ARC
  5
119F
330
1F
100
AcDbEntity
  8
0
  6
CONTINUOUS
 62
     7
100
AcDbCircle
 10
43.77948686563306
 20
61.43076233993284
 30
0.0
 40
3.7278020272
100
AcDbArc
 50
109.0197735464999
 51
160.6366896371999
  0
ARC
  5
11A0
330
1F
100
AcDbEntity
  8
0
  6
CONTINUOUS
 62
     7
100
AcDbCircle
 10
61.06400460468759
 20
55.35636082605171
 30
0.0
 40
22.0486346288
100
AcDbArc
 50
160.6366896371
 51
200.9153215747999
  0
ARC
  5
11A1
330
1F
100
AcDbEntity
  8
0
  6
CONTINUOUS
 62
     7
100
AcDbCircle
 10
44.19091348959277
 20
61.21576917404079
 30
0.0
 40
3.7278020272
100
AcDbArc
 50
109.0197735463999
 51
160.6366896371999
  0
ARC
  5
11A2
330
1F
100
AcDbEntity
  8
0
  6
CONTINUOUS
 62
     7
100
AcDbCircle
 10
62.32952400356719
 20
55.39086564175715
 30
0.0
 40
22.77759669119999
100
AcDbArc
 50
161.9412254745999
 51
201.0354665308999
  0
ARC
  5
11A3
330
1F
100
AcDbEntity
  8
0
  6
CONTINUOUS
 62
     7
100
AcDbCircle
 10
39.35950425087448
 20
45.39146708390987
 30
0.0
 40
0.5
100
AcDbArc
 50
268.9093815690999
 51
351.6370833141999
  0
ARC
  5
11A4
330
1F
100
AcDbEntity
  8
0
  6
CONTINUOUS
 62
     7
100
AcDbCircle
 10
56.30648770305676
 20
47.3055070912669
 30
0.0
 40
1.0504774176
100
AcDbArc
 50
270.4297132963
 51
351.4436449201999
  0
ARC
  5
11A5
330
1F
100
AcDbEntity
  8
0
  6
CONTINUOUS
 62
     7
100
AcDbCircle
 10
41.65495842383627
 20
46.75505886893773
 30
0.0
 40
0.5
100
AcDbArc
 50
188.3629194205999
 51
270.0000013673
  0
ARC
  5
11A6
330
1F
100
AcDbEntity
  8
0
  6
CONTINUOUS
 62
     7
100
AcDbCircle
 10
40.60745932992854
 20
47.00505884446111
 30
0.0
 40
0.5
100
AcDbArc
 50
8.362919420699986
 51
171.6370833140999
  0
ARC
  5
11A7
330
1F
100
AcDbEntity
  8
0
  6
CONTINUOUS
 62
     7
100
AcDbCircle
 10
56.67033205915284
 20
48.42354648000458
 30
0.0
 40
2.5
100
AcDbArc
 50
286.4670126964
 51
353.1256128778
  0
ARC
  5
11A8
330
1F
100
AcDbEntity
  8
0
  6
CONTINUOUS
 62
     7
100
AcDbCircle
 10
35.52335510792232
 20
38.16834516146446
 30
0.0
 40
7.949411462399999
100
AcDbArc
 50
58.93843866969998
 51
72.14830663349999
  0
ARC
  5
11A9
330
1F
100
AcDbEntity
  8
0
  6
CONTINUOUS
 62
     7
100
AcDbCircle
 10
36.32538414223137
 20
58.23735230374473
 30
0.0
 40
5.394251232
100
AcDbArc
 50
54.89337515799999
 51
91.37125476999999
  0
ARC
  5
11AA
330
1F
100
AcDbEntity
  8
0
  6
CONTINUOUS
 62
     7
100
AcDbCircle
 10
68.29389433049367
 20
63.38005950396693
 30
0.0
 40
0.25
100
AcDbArc
 50
5.000001342399986
 51
90.0000013674
  0
ARC
  5
11AB
330
1F
100
AcDbEntity
  8
0
  6
CONTINUOUS
 62
     7
100
AcDbCircle
 10
64.00903139228927
 20
63.00505940304297
 30
0.0
 40
0.4375
100
AcDbArc
 50
90.00000136729999
 51
170.3198864465
  0
ARC
  5
11AC
330
1F
100
AcDbEntity
  8
0
  6
CONTINUOUS
 62
     7
100
AcDbCircle
 10
57.64062220059877
 20
55.94071976024477
 30
0.0
 40
4.4358251808
100
AcDbArc
 50
315.0936470442
 51
32.50630205689998
  0
ARC
  5
11AD
330
1F
100
AcDbEntity
  8
0
  6
CONTINUOUS
 62
     7
100
AcDbCircle
 10
60.16051463222197
 20
52.30924848441486
 30
0.0
 40
0.5
100
AcDbArc
 50
90.00000136729999
 51
173.1256128777999
  0
ARC
  5
11AE
330
1F
100
AcDbEntity
  8
0
  6
CONTINUOUS
 62
     7
100
AcDbCircle
 10
54.94642973592397
 20
54.18160563567456
 30
0.0
 40
5.391664430399999
100
AcDbArc
 50
345.2540781161999
 51
39.82558768049997
  0
ARC
  5
11AF
330
1F
100
AcDbEntity
  8
0
  6
CONTINUOUS
 62
     7
100
AcDbCircle
 10
53.36062368036433
 20
53.73791641510869
 30
0.0
 40
6.450395431999999
100
AcDbArc
 50
347.7482591214999
 51
33.13174830079999
  0
ARC
  5
11B0
330
1F
100
AcDbEntity
  8
0
  6
CONTINUOUS
 62
     7
100
AcDbCircle
 10
46.75107301251618
 20
52.08190437567886
 30
0.0
 40
13.5496440352
100
AcDbArc
 50
90.84954614489999
 51
106.3279667798999
  0
ARC
  5
11B1
330
1F
100
AcDbEntity
  8
0
  6
CONTINUOUS
 62
     7
100
AcDbCircle
 10
42.31624057022044
 20
62.08476246056564
 30
0.0
 40
2.914175603199999
100
AcDbArc
 50
113.8543387384999
 51
160.8333972321999
  0
ARC
  5
11B2
330
1F
100
AcDbEntity
  8
0
  6
CONTINUOUS
 62
     7
100
AcDbCircle
 10
45.79931234924582
 20
53.16429204072811
 30
0.0
 40
12.4883601712
100
AcDbArc
 50
86.55301375769999
 51
111.9177828990999
  0
ARC
  5
11B3
330
1F
100
AcDbEntity
  8
0
  6
CONTINUOUS
 62
     7
100
AcDbCircle
 10
58.74138079102062
 20
55.14804034845397
 30
0.0
 40
3.1041084256
100
AcDbArc
 50
286.8462916961
 51
53.66537156269998
  0
ARC
  5
11B4
330
1F
100
AcDbEntity
  8
0
  6
CONTINUOUS
 62
     7
100
AcDbCircle
 10
50.01810787399989
 20
23.97378818679292
 30
0.0
 40
41.65627088159999
100
AcDbArc
 50
72.1735234488
 51
90.00000136729999
  0
ARC
  5
11B5
330
1F
100
AcDbEntity
  8
0
  6
CONTINUOUS
 62
     7
100
AcDbCircle
 10
20.37162328087859
 20
59.05889491208284
 30
0.0
 40
0.625
100
AcDbArc
 50
189.6801162880999
 51
270.0000013673
  0
ARC
  5
11B6
330
1F
100
AcDbEntity
  8
0
  6
CONTINUOUS
 62
     7
100
AcDbCircle
 10
18.32848137002626
 20
63.00505831235011
 30
0.0
 40
0.625
100
AcDbArc
 50
9.680116288199986
 51
90.0000013674
  0
ARC
  5
11B7
330
1F
100
AcDbEntity
  8
0
  6
CONTINUOUS
 62
     7
100
AcDbCircle
 10
16.67882790456487
 20
63.38005827347365
 30
0.0
 40
0.25
100
AcDbArc
 50
90.00000136729999
 51
175.0000013921999
  0
ARC
  5
11B8
330
1F
100
AcDbEntity
  8
0
  6
CONTINUOUS
 62
     7
100
AcDbCircle
 10
16.67882790456487
 20
63.38005827347365
 30
0.0
 40
0.0625
100
AcDbArc
 50
90.00000136569999
 51
175.0000013917
  0
ARC
  5
11B9
330
1F
100
AcDbEntity
  8
0
  6
CONTINUOUS
 62
     7
100
AcDbCircle
 10
18.32848137002626
 20
63.00505831235011
 30
0.0
 40
0.4375
100
AcDbArc
 50
9.680116288099986
 51
90.00000136719998
  0
ARC
  5
11BA
330
1F
100
AcDbEntity
  8
0
  6
CONTINUOUS
 62
     7
100
AcDbCircle
 10
20.37162328087859
 20
59.05889491208284
 30
0.0
 40
0.8125
100
AcDbArc
 50
189.6801162880999
 51
270.0000013673999
  0
ARC
  5
11BB
330
1F
100
AcDbEntity
  8
0
  6
CONTINUOUS
 62
     7
100
AcDbCircle
 10
21.75685040968863
 20
57.80889494516853
 30
0.0
 40
0.4375
100
AcDbArc
 50
7.215185247299986
 51
90.00000136729999
  0
ARC
  5
11BC
330
1F
100
AcDbEntity
  8
0
  6
CONTINUOUS
 62
     7
100
AcDbCircle
 10
25.74028130025755
 20
46.63282894764773
 30
0.0
 40
2.1875
100
AcDbArc
 50
186.8743898568999
 51
271.0906211656999
  0
ARC
  5
11BD
330
1F
100
AcDbEntity
  8
0
  6
CONTINUOUS
 62
     7
100
AcDbCircle
 10
55.34695539468907
 20
47.19645799773653
 30
0.0
 40
2.1875
100
AcDbArc
 50
271.0906211656999
 51
352.7848174872999
  0
ARC
  5
11BE
330
1F
100
AcDbEntity
  8
0
  6
CONTINUOUS
 62
     7
100
AcDbCircle
 10
59.19664272285714
 20
57.21111797681264
 30
0.0
 40
0.4375
100
AcDbArc
 50
90.00000136729999
 51
173.1256128777999
  0
ARC
  5
11BF
330
1F
100
AcDbEntity
  8
0
  6
CONTINUOUS
 62
     7
100
AcDbCircle
 10
60.58056550458593
 20
58.46111801070438
 30
0.0
 40
0.8125
100
AcDbArc
 50
270.0000013674999
 51
350.3198864464999
  0
ARC
  5
11C0
330
1F
100
AcDbEntity
  8
0
  6
CONTINUOUS
 62
     7
100
AcDbCircle
 10
62.62370721358109
 20
63.00505936975479
 30
0.0
 40
0.4375
100
AcDbArc
 50
90.00000136729999
 51
170.3198864464
  0
ARC
  5
11C1
330
1F
100
AcDbEntity
  8
0
  6
CONTINUOUS
 62
     7
100
AcDbCircle
 10
64.32290623586286
 20
63.317559410306
 30
0.0
 40
0.125
100
AcDbArc
 50
5.000001342399986
 51
90.00000136749996
  0
ARC
  5
11C2
330
1F
100
AcDbEntity
  8
0
  6
CONTINUOUS
 62
     7
100
AcDbCircle
 10
64.38017693288973
 20
63.38005941196519
 30
0.0
 40
0.25
100
AcDbArc
 50
5.000001342499986
 51
90.0000013674
  0
ARC
  5
11C3
330
1F
100
AcDbEntity
  8
0
  6
CONTINUOUS
 62
     7
100
AcDbCircle
 10
62.62370721358109
 20
63.00505936975479
 30
0.0
 40
0.625
100
AcDbArc
 50
90.00000136729999
 51
170.3198864464
  0
ARC
  5
11C4
330
1F
100
AcDbEntity
  8
0
  6
CONTINUOUS
 62
     7
100
AcDbCircle
 10
60.58056550458593
 20
58.46111801070438
 30
0.0
 40
0.625
100
AcDbArc
 50
270.0000013673
 51
350.3198864464
  0
ARC
  5
11C5
330
1F
100
AcDbEntity
  8
0
  6
CONTINUOUS
 62
     7
100
AcDbCircle
 10
59.19664272285714
 20
57.21111797681264
 30
0.0
 40
0.625
100
AcDbArc
 50
90.00000136729999
 51
173.1256128777999
  0
ARC
  5
11C6
330
1F
100
AcDbEntity
  8
0
  6
CONTINUOUS
 62
     7
100
AcDbCircle
 10
55.34695539468907
 20
47.19645799773653
 30
0.0
 40
2.0
100
AcDbArc
 50
271.0906211656999
 51
352.7848174872999
  0
ARC
  5
11C7
330
1F
100
AcDbEntity
  8
0
  6
CONTINUOUS
 62
     7
100
AcDbCircle
 10
25.74028130025755
 20
46.63282894764773
 30
0.0
 40
2.0
100
AcDbArc
 50
186.8743898568999
 51
271.0906211656999
  0
ARC
  5
11C8
330
1F
100
AcDbEntity
  8
0
  6
CONTINUOUS
 62
     7
100
AcDbCircle
 10
36.11463742294934
 20
46.50547299290272
 30
0.0
 40
2.0
100
AcDbArc
 50
303.9381596874999
 51
353.1751655575
  0
ARC
  5
11C9
330
1F
100
AcDbEntity
  8
0
  6
CONTINUOUS
 62
     7
100
AcDbCircle
 10
25.74028130805213
 20
46.31166277437239
 30
0.0
 40
2.1875
100
AcDbArc
 50
186.8743898568999
 51
271.0906211656999
  0
ARC
  5
11CA
330
1F
100
AcDbEntity
  8
0
  6
CONTINUOUS
 62
     7
100
AcDbCircle
 10
35.94644886382859
 20
46.31166301810494
 30
0.0
 40
2.1875
100
AcDbArc
 50
268.909381569
 51
311.2367631501
  0
ARC
  5
11CB
330
1F
100
AcDbEntity
  8
0
  6
CONTINUOUS
 62
     7
100
AcDbCircle
 10
29.57185404026348
 20
43.88005858033364
 30
0.0
 40
0.25
100
AcDbArc
 50
225.000001239
 51
270.0000013673
  0
ARC
  5
11CC
330
1F
100
AcDbEntity
  8
0
  6
CONTINUOUS
 62
     7
100
AcDbCircle
 10
28.91472996238087
 20
43.83679692303728
 30
0.0
 40
0.25
100
AcDbArc
 50
45.00000123919998
 51
90.0000013674
  0
ARC
  5
11CD
330
1F
100
AcDbEntity
  8
0
  6
CONTINUOUS
 62
     7
100
AcDbCircle
 10
32.77200032754701
 20
43.83679701619558
 30
0.0
 40
0.25
100
AcDbArc
 50
90.00000136729999
 51
135.0000014955999
  0
ARC
  5
11CE
330
1F
100
AcDbEntity
  8
0
  6
CONTINUOUS
 62
     7
100
AcDbCircle
 10
32.11487624867557
 20
43.8800586410028
 30
0.0
 40
0.25
100
AcDbArc
 50
270.0000013673
 51
315.0000014957
  0
CIRCLE
  5
11CF
330
1F
100
AcDbEntity
  8
0
  6
CONTINUOUS
 62
     7
100
AcDbCircle
 10
30.95359475918867
 20
60.00505861267727
 30
0.0
 40
1.1875
  0
ARC
  5
11D0
330
1F
100
AcDbEntity
  8
0
  6
CONTINUOUS
 62
     7
100
AcDbCircle
 10
25.25319080001148
 20
48.58666979267709
 30
0.0
 40
10.99079359519999
100
AcDbArc
 50
86.37720672239998
 51
103.3025145027
  0
ARC
  5
11D1
330
1F
100
AcDbEntity
  8
0
  6
CONTINUOUS
 62
     7
100
AcDbCircle
 10
26.21553247167913
 20
50.93459272044094
 30
0.0
 40
8.6250677808
100
AcDbArc
 50
91.77966571509999
 51
113.5601206917
  0
ARC
  5
11D2
330
1F
100
AcDbEntity
  8
0
  6
CONTINUOUS
 62
     7
100
AcDbCircle
 10
25.25319080001148
 20
48.58666979267709
 30
0.0
 40
10.99079359519999
100
AcDbArc
 50
113.8097967215
 51
116.3690068165999
  0
ARC
  5
11D3
330
1F
100
AcDbEntity
  8
0
  6
CONTINUOUS
 62
     7
100
AcDbCircle
 10
21.75685040968863
 20
57.80889494516853
 30
0.0
 40
0.625
100
AcDbArc
 50
7.215185247299986
 51
68.44430120369999
  0
LINE
  5
1207
330
1F
100
AcDbEntity
  8
CENTER
100
AcDbLine
 10
30.95359477771082
 20
57.42556270315812
 30
0.0
 11
30.95359474066652
 21
62.58455452219641
 31
0.0
  0
ENDSEC
  0
SECTION
  2
OBJECTS
  0
DICTIONARY
  5
C
330
0
100
AcDbDictionary
  3
ACAD_GROUP
350
D
  3
ACAD_LAYOUT
350
1A
  3
ACAD_MLINESTYLE
350
17
  3
ACAD_PLOTSETTINGS
350
19
  3
ACAD_PLOTSTYLENAME
350
E
  3
ACDBHEADERROUNDTRIPXREC
350
1240
  0
DICTIONARY
  5
1263
330
1F
100
AcDbDictionary
280
     1
  3
ACAD_LAYOUTSELFREF
360
1264
  0
DICTIONARY
  5
1261
330
1B
100
AcDbDictionary
280
     1
  3
ACAD_LAYOUTSELFREF
360
1262
  0
DICTIONARY
  5
D
102
{ACAD_REACTORS
330
C
102
}
330
C
100
AcDbDictionary
  0
DICTIONARY
  5
1A
102
{ACAD_REACTORS
330
C
102
}
330
C
100
AcDbDictionary
  0
DICTIONARY
  5
17
102
{ACAD_REACTORS
330
C
102
}
330
C
100
AcDbDictionary
  3
STANDARD
350
18
  0
DICTIONARY
  5
19
102
{ACAD_REACTORS
330
C
102
}
330
C
100
AcDbDictionary
  0
ACDBDICTIONARYWDFLT
  5
E
102
{ACAD_REACTORS
330
C
102
}
330
C
100
AcDbDictionary
281
     1
  3
Normal
350
F
100
AcDbDictionaryWithDefault
340
F
  0
DICTIONARY
  5
1240
102
{ACAD_REACTORS
330
C
102
}
330
C
100
AcDbDictionary
  3
CEPSNTYPE
350
124A
  3
DIMSTYLEDATA
350
124E
  3
FINGERPRINTGUID
350
124B
  3
HYPERLINKBASE
350
1243
  3
INSUNITS
350
1249
  3
LAYOUTDICT
350
1245
  3
LWETCUNION
350
1248
  3
PLOTSETDICT
350
1246
  3
PLOTSTYLNAMDICT
350
1247
  3
PSVPSCALE
350
124D
  3
PUCSBASE
350
1251
  3
PUCSORGBACK
350
1257
  3
PUCSORGBOTTOM
350
1253
  3
PUCSORGFRONT
350
1256
  3
PUCSORGLEFT
350
1254
  3
PUCSORGRIGHT
350
1255
  3
PUCSORGTOP
350
1252
  3
PUCSORTHOREF
350
124F
  3
PUCSORTHOVIEW
350
1250
  3
STYLESHEET
350
1244
  3
TSTACKALIGN
350
1241
  3
TSTACKSIZE
350
1242
  3
UCSBASE
350
125A
  3
UCSORGBACK
350
1260
  3
UCSORGBOTTOM
350
125C
  3
UCSORGFRONT
350
125F
  3
UCSORGLEFT
350
125D
  3
UCSORGRIGHT
350
125E
  3
UCSORGTOP
350
125B
  3
UCSORTHOREF
350
1258
  3
UCSORTHOVIEW
350
1259
  3
VERSIONGUID
350
124C
  0
XRECORD
  5
1264
102
{ACAD_REACTORS
330
1263
102
}
330
1263
100
AcDbXrecord
340
1F
  0
XRECORD
  5
1262
102
{ACAD_REACTORS
330
1261
102
}
330
1261
100
AcDbXrecord
340
1B
  0
MLINESTYLE
  5
18
102
{ACAD_REACTORS
330
17
102
}
330
17
100
AcDbMlineStyle
  2
STANDARD
 70
     0
  3

 62
   256
 51
90.0
 52
90.0
 71
     2
 49
0.5
 62
   256
  6
BYLAYER
 49
-0.5
 62
   256
  6
BYLAYER
  0
ACDBPLACEHOLDER
  5
F
102
{ACAD_REACTORS
330
E
102
}
330
0
100
AcDbPlaceHolder
280
     0
  0
XRECORD
  5
124A
102
{ACAD_REACTORS
330
1240
102
}
330
1240
100
AcDbXrecord
 90
        0
  0
XRECORD
  5
124E
102
{ACAD_REACTORS
330
1240
102
}
330
1240
100
AcDbXrecord
1000
DSTYLE
1002
{
1070
   179
 70
     5
1070
   278
 70
     0
1070
   342
340
215
1070
   371
 70
     0
1070
   372
 70
     0
1002
}
  0
XRECORD
  5
124B
102
{ACAD_REACTORS
330
1240
102
}
330
1240
100
AcDbXrecord
  1

  0
XRECORD
  5
1243
102
{ACAD_REACTORS
330
1240
102
}
330
1240
100
AcDbXrecord
  1

  0
XRECORD
  5
1249
102
{ACAD_REACTORS
330
1240
102
}
330
1240
100
AcDbXrecord
 90
        1
  0
XRECORD
  5
1245
102
{ACAD_REACTORS
330
1240
102
}
330
1240
100
AcDbXrecord
340
1A
  0
XRECORD
  5
1248
102
{ACAD_REACTORS
330
1240
102
}
330
1240
100
AcDbXrecord
 90
    10752
  0
XRECORD
  5
1246
102
{ACAD_REACTORS
330
1240
102
}
330
1240
100
AcDbXrecord
340
19
  0
XRECORD
  5
1247
102
{ACAD_REACTORS
330
1240
102
}
330
1240
100
AcDbXrecord
340
E
  0
XRECORD
  5
124D
102
{ACAD_REACTORS
330
1240
102
}
330
1240
100
AcDbXrecord
 40
0.0
  0
XRECORD
  5
1251
102
{ACAD_REACTORS
330
1240
102
}
330
1240
100
AcDbXrecord
340
0
  0
XRECORD
  5
1257
102
{ACAD_REACTORS
330
1240
102
}
330
1240
100
AcDbXrecord
 10
0.0
 20
0.0
 30
0.0
  0
XRECORD
  5
1253
102
{ACAD_REACTORS
330
1240
102
}
330
1240
100
AcDbXrecord
 10
0.0
 20
0.0
 30
0.0
  0
XRECORD
  5
1256
102
{ACAD_REACTORS
330
1240
102
}
330
1240
100
AcDbXrecord
 10
0.0
 20
0.0
 30
0.0
  0
XRECORD
  5
1254
102
{ACAD_REACTORS
330
1240
102
}
330
1240
100
AcDbXrecord
 10
0.0
 20
0.0
 30
0.0
  0
XRECORD
  5
1255
102
{ACAD_REACTORS
330
1240
102
}
330
1240
100
AcDbXrecord
 10
0.0
 20
0.0
 30
0.0
  0
XRECORD
  5
1252
102
{ACAD_REACTORS
330
1240
102
}
330
1240
100
AcDbXrecord
 10
0.0
 20
0.0
 30
0.0
  0
XRECORD
  5
124F
102
{ACAD_REACTORS
330
1240
102
}
330
1240
100
AcDbXrecord
340
0
  0
XRECORD
  5
1250
102
{ACAD_REACTORS
330
1240
102
}
330
1240
100
AcDbXrecord
 70
     0
  0
XRECORD
  5
1244
102
{ACAD_REACTORS
330
1240
102
}
330
1240
100
AcDbXrecord
  1

  0
XRECORD
  5
1241
102
{ACAD_REACTORS
330
1240
102
}
330
1240
100
AcDbXrecord
 90
        1
  0
XRECORD
  5
1242
102
{ACAD_REACTORS
330
1240
102
}
330
1240
100
AcDbXrecord
 90
       70
  0
XRECORD
  5
125A
102
{ACAD_REACTORS
330
1240
102
}
330
1240
100
AcDbXrecord
340
0
  0
XRECORD
  5
1260
102
{ACAD_REACTORS
330
1240
102
}
330
1240
100
AcDbXrecord
 10
0.0
 20
0.0
 30
0.0
  0
XRECORD
  5
125C
102
{ACAD_REACTORS
330
1240
102
}
330
1240
100
AcDbXrecord
 10
0.0
 20
0.0
 30
0.0
  0
XRECORD
  5
125F
102
{ACAD_REACTORS
330
1240
102
}
330
1240
100
AcDbXrecord
 10
0.0
 20
0.0
 30
0.0
  0
XRECORD
  5
125D
102
{ACAD_REACTORS
330
1240
102
}
330
1240
100
AcDbXrecord
 10
0.0
 20
0.0
 30
0.0
  0
XRECORD
  5
125E
102
{ACAD_REACTORS
330
1240
102
}
330
1240
100
AcDbXrecord
 10
0.0
 20
0.0
 30
0.0
  0
XRECORD
  5
125B
102
{ACAD_REACTORS
330
1240
102
}
330
1240
100
AcDbXrecord
 10
0.0
 20
0.0
 30
0.0
  0
XRECORD
  5
1258
102
{ACAD_REACTORS
330
1240
102
}
330
1240
100
AcDbXrecord
340
0
  0
XRECORD
  5
1259
102
{ACAD_REACTORS
330
1240
102
}
330
1240
100
AcDbXrecord
 70
     0
  0
XRECORD
  5
124C
102
{ACAD_REACTORS
330
1240
102
}
330
1240
100
AcDbXrecord
  1
{B92A76EE-E963-4569-9913-1CFA13F3CED1}
  0
ENDSEC
  0
EOF
