  0
SECTION
  2
HEADER
  9
$ACADVER
  1
AC1014
  9
$ACADMAINTVER
 70
     9
  9
$DWGCODEPAGE
  3
ANSI_1252
  9
$INSBASE
 10
128.911036340159
 20
-412.3917560887868
 30
0.0
  9
$EXTMIN
 10
112.2979345213447
 20
-415.3975656683924
 30
-4.114093830931718
  9
$EXTMAX
 10
145.5208602818781
 20
-392.0206669983921
 30
0.0001255579274861
  9
$LIMMIN
 10
0.0
 20
0.0
  9
$LIMMAX
 10
12.0
 20
9.0
  9
$ORTHOMODE
 70
     1
  9
$REGENMODE
 70
     1
  9
$FILLMODE
 70
     1
  9
$QTEXTMODE
 70
     0
  9
$MIRRTEXT
 70
     1
  9
$DRAGMODE
 70
     2
  9
$LTSCALE
 40
4.0
  9
$OSMODE
 70
    55
  9
$ATTMODE
 70
     1
  9
$TEXTSIZE
 40
1.0
  9
$TRACEWID
 40
0.05
  9
$TEXTSTYLE
  7
TEMPLATE
  9
$CLAYER
  8
0
  9
$CELTYPE
  6
BYLAYER
  9
$CECOLOR
 62
   256
  9
$CELTSCALE
 40
1.0
  9
$DELOBJ
 70
     1
  9
$DISPSILH
 70
     0
  9
$DIMSCALE
 40
16.0
  9
$DIMASZ
 40
0.1
  9
$DIMEXO
 40
0.0625
  9
$DIMDLI
 40
0.25
  9
$DIMRND
 40
0.0
  9
$DIMDLE
 40
0.0
  9
$DIMEXE
 40
0.1
  9
$DIMTP
 40
0.00001
  9
$DIMTM
 40
0.00001
  9
$DIMTXT
 40
0.1
  9
$DIMCEN
 40
0.09
  9
$DIMTSZ
 40
0.0
  9
$DIMTOL
 70
     0
  9
$DIMLIM
 70
     0
  9
$DIMTIH
 70
     1
  9
$DIMTOH
 70
     1
  9
$DIMSE1
 70
     0
  9
$DIMSE2
 70
     0
  9
$DIMTAD
 70
     0
  9
$DIMZIN
 70
     4
  9
$DIMBLK
  1

  9
$DIMASO
 70
     1
  9
$DIMSHO
 70
     1
  9
$DIMPOST
  1
\X
  9
$DIMAPOST
  1
cm
  9
$DIMALT
 70
     1
  9
$DIMALTD
 70
     1
  9
$DIMALTF
 40
2.54
  9
$DIMLFAC
 40
1.0
  9
$DIMTOFL
 70
     1
  9
$DIMTVP
 40
0.0
  9
$DIMTIX
 70
     0
  9
$DIMSOXD
 70
     0
  9
$DIMSAH
 70
     0
  9
$DIMBLK1
  1

  9
$DIMBLK2
  1

  9
$DIMSTYLE
  2
STANDARD
  9
$DIMCLRD
 70
     0
  9
$DIMCLRE
 70
     0
  9
$DIMCLRT
 70
     0
  9
$DIMTFAC
 40
1.0
  9
$DIMGAP
 40
0.08
  9
$DIMJUST
 70
     0
  9
$DIMSD1
 70
     0
  9
$DIMSD2
 70
     0
  9
$DIMTOLJ
 70
     1
  9
$DIMTZIN
 70
     0
  9
$DIMALTZ
 70
     0
  9
$DIMALTTZ
 70
     0
  9
$DIMFIT
 70
     3
  9
$DIMUPT
 70
     1
  9
$DIMUNIT
 70
     5
  9
$DIMDEC
 70
     4
  9
$DIMTDEC
 70
     4
  9
$DIMALTU
 70
     2
  9
$DIMALTTD
 70
     1
  9
$DIMTXSTY
  7
ROMANS
  9
$DIMAUNIT
 70
     0
  9
$LUNITS
 70
     2
  9
$LUPREC
 70
     4
  9
$SKETCHINC
 40
0.1
  9
$FILLETRAD
 40
0.0
  9
$AUNITS
 70
     0
  9
$AUPREC
 70
     0
  9
$MENU
  1
.
  9
$ELEVATION
 40
0.0
  9
$PELEVATION
 40
0.0
  9
$THICKNESS
 40
0.0
  9
$LIMCHECK
 70
     0
  9
$BLIPMODE
 70
     0
  9
$CHAMFERA
 40
0.5
  9
$CHAMFERB
 40
0.5
  9
$CHAMFERC
 40
1.0
  9
$CHAMFERD
 40
0.0
  9
$SKPOLY
 70
     0
  9
$TDCREATE
 40
2451681.662295729
  9
$TDUPDATE
 40
2453686.648312789
  9
$TDINDWG
 40
4.4918551852
  9
$TDUSRTIMER
 40
4.4918550694
  9
$USRTIMER
 70
     1
  9
$ANGBASE
 50
0.0
  9
$ANGDIR
 70
     0
  9
$PDMODE
 70
     0
  9
$PDSIZE
 40
0.0
  9
$PLINEWID
 40
0.0
  9
$COORDS
 70
     1
  9
$SPLFRAME
 70
     0
  9
$SPLINETYPE
 70
     6
  9
$SPLINESEGS
 70
     8
  9
$ATTDIA
 70
     0
  9
$ATTREQ
 70
     1
  9
$HANDLING
 70
 22529
  9
$HANDSEED
  5
1B6
  9
$SURFTAB1
 70
     6
  9
$SURFTAB2
 70
     6
  9
$SURFTYPE
 70
     6
  9
$SURFU
 70
     6
  9
$SURFV
 70
     6
  9
$UCSNAME
  2

  9
$UCSORG
 10
0.0
 20
0.0
 30
0.0
  9
$UCSXDIR
 10
1.0
 20
0.0
 30
0.0
  9
$UCSYDIR
 10
0.0
 20
1.0
 30
0.0
  9
$PUCSNAME
  2

  9
$PUCSORG
 10
0.0
 20
0.0
 30
0.0
  9
$PUCSXDIR
 10
1.0
 20
0.0
 30
0.0
  9
$PUCSYDIR
 10
0.0
 20
1.0
 30
0.0
  9
$USERI1
 70
     0
  9
$USERI2
 70
     0
  9
$USERI3
 70
     0
  9
$USERI4
 70
     0
  9
$USERI5
 70
     0
  9
$USERR1
 40
0.0
  9
$USERR2
 40
0.0
  9
$USERR3
 40
0.0
  9
$USERR4
 40
0.0
  9
$USERR5
 40
0.0
  9
$WORLDVIEW
 70
     1
  9
$SHADEDGE
 70
     3
  9
$SHADEDIF
 70
    70
  9
$TILEMODE
 70
     1
  9
$MAXACTVP
 70
    48
  9
$PINSBASE
 10
0.0
 20
0.0
 30
0.0
  9
$PLIMCHECK
 70
     0
  9
$PEXTMIN
 10
1.000000000000000E+20
 20
1.000000000000000E+20
 30
1.000000000000000E+20
  9
$PEXTMAX
 10
-1.000000000000000E+20
 20
-1.000000000000000E+20
 30
-1.000000000000000E+20
  9
$PLIMMIN
 10
-0.5312499849815068
 20
-0.1645829921632301
  9
$PLIMMAX
 10
11.15874981316994
 20
8.10208345022727
  9
$UNITMODE
 70
     0
  9
$VISRETAIN
 70
     1
  9
$PLINEGEN
 70
     0
  9
$PSLTSCALE
 70
     1
  9
$TREEDEPTH
 70
  3020
  9
$PICKSTYLE
 70
     1
  9
$CMLSTYLE
  2
STANDARD
  9
$CMLJUST
 70
     0
  9
$CMLSCALE
 40
1.0
  9
$PROXYGRAPHICS
 70
     1
  9
$MEASUREMENT
 70
     0
  0
ENDSEC
  0
SECTION
  2
CLASSES
  0
CLASS
  1
ACDBDICTIONARYWDFLT
  2
AcDbDictionaryWithDefault
  3
AutoCAD 2000
 90
        0
280
     0
281
     0
  0
CLASS
  1
ACDBPLACEHOLDER
  2
AcDbPlaceHolder
  3
AutoCAD 2000
 90
        0
280
     0
281
     0
  0
CLASS
  1
LAYOUT
  2
AcDbLayout
  3
AutoCAD 2000
 90
        0
280
     0
281
     0
  0
CLASS
  1
DICTIONARYVAR
  2
AcDbDictionaryVar
  3
AutoCAD 2000
 90
        0
280
     0
281
     0
  0
CLASS
  1
RASTERVARIABLES
  2
AcDbRasterVariables
  3
ISM
 90
        0
280
     0
281
     0
  0
CLASS
  1
IMAGEDEF
  2
AcDbRasterImageDef
  3
ISM
 90
        0
280
     0
281
     0
  0
CLASS
  1
IMAGEDEF_REACTOR
  2
AcDbRasterImageDefReactor
  3
ISM
 90
        1
280
     0
281
     0
  0
CLASS
  1
IMAGE
  2
AcDbRasterImage
  3
ISM
 90
      127
280
     0
281
     1
  0
CLASS
  1
LONG_TRANSACTION
  2
AcDbLongTransaction
  3
AutoCAD 2000
 90
        0
280
     0
281
     0
  0
CLASS
  1
LWPOLYLINE
  2
AcDbPolyline
  3
AutoCAD 2000
 90
        0
280
     0
281
     1
  0
CLASS
  1
HATCH
  2
AcDbHatch
  3
AutoCAD 2000
 90
        0
280
     0
281
     1
  0
CLASS
  1
XRECORD
  2
AcDbXrecord
  3
AutoCAD 2000
 90
        0
280
     0
281
     0
  0
CLASS
  1
LONG_TRANSACTION
  2
AcDbLongTransaction
  3
AutoCAD 2000
 90
        0
280
     0
281
     0
  0
CLASS
  1
LWPOLYLINE
  2
AcDbPolyline
  3
AutoCAD 2000
 90
        0
280
     0
281
     1
  0
CLASS
  1
HATCH
  2
AcDbHatch
  3
AutoCAD 2000
 90
        0
280
     0
281
     1
  0
CLASS
  1
XRECORD
  2
AcDbXrecord
  3
AutoCAD 2000
 90
        0
280
     0
281
     0
  0
ENDSEC
  0
SECTION
  2
TABLES
  0
TABLE
  2
VPORT
  5
1D
330
0
100
AcDbSymbolTable
 70
     4
  0
VPORT
  5
192
330
1D
100
AcDbSymbolTableRecord
100
AcDbViewportTableRecord
  2
*ACTIVE
 70
     0
 10
0.0
 20
0.0
 11
1.0
 21
1.0
 12
130.163722390683
 22
-402.9267583517028
 13
0.0
 23
0.0
 14
0.5
 24
0.5
 15
0.5
 25
0.5
 16
0.0
 26
0.0
 36
1.0
 17
0.0
 27
0.0
 37
0.0
 40
26.76812504121523
 41
1.786792452830188
 42
50.0
 43
0.0
 44
0.0
 50
0.0
 51
0.0
 71
     0
 72
 20000
 73
     1
 74
     1
 75
     0
 76
     0
 77
     0
 78
     0
  0
ENDTAB
  0
TABLE
  2
LTYPE
  5
18
330
0
100
AcDbSymbolTable
 70
     4
  0
LTYPE
  5
19
330
18
100
AcDbSymbolTableRecord
100
AcDbLinetypeTableRecord
  2
BYBLOCK
 70
     0
  3

 72
    65
 73
     0
 40
0.0
  0
LTYPE
  5
1A
330
18
100
AcDbSymbolTableRecord
100
AcDbLinetypeTableRecord
  2
BYLAYER
 70
     0
  3

 72
    65
 73
     0
 40
0.0
  0
LTYPE
  5
8
330
18
100
AcDbSymbolTableRecord
100
AcDbLinetypeTableRecord
  2
CONTINUOUS
 70
     0
  3
Solid line
 72
    65
 73
     0
 40
0.0
  0
LTYPE
  5
71
330
18
100
AcDbSymbolTableRecord
100
AcDbLinetypeTableRecord
  2
CENTER
 70
     0
  3
Center ____ _ ____ _ ____ _ ____ _ ____ _ ____
 72
    65
 73
     4
 40
2.0
 49
1.25
 74
     0
 49
-0.25
 74
     0
 49
0.25
 74
     0
 49
-0.25
 74
     0
  0
LTYPE
  5
33
330
18
100
AcDbSymbolTableRecord
100
AcDbLinetypeTableRecord
  2
HIDDEN
 70
     0
  3
- - - - - - - - - - - - - - - - - - - -
 72
    65
 73
     2
 40
0.2
 49
0.1
 74
     0
 49
-0.1
 74
     0
  0
LTYPE
  5
74
330
18
100
AcDbSymbolTableRecord
100
AcDbLinetypeTableRecord
  2
CENTER2
 70
     0
  3
Center (.5x) ___ _ ___ _ ___ _ ___ _ ___ _ ___
 72
    65
 73
     4
 40
28.57499999999999
 49
19.05
 74
     0
 49
-3.174999999999999
 74
     0
 49
3.174999999999999
 74
     0
 49
-3.174999999999999
 74
     0
  0
ENDTAB
  0
TABLE
  2
LAYER
  5
10
102
{ACAD_XDICTIONARY
360
11
102
}
330
0
100
AcDbSymbolTable
 70
     2
  0
LAYER
  5
4
330
10
100
AcDbSymbolTableRecord
100
AcDbLayerTableRecord
  2
0
 70
     0
 62
     7
  6
CONTINUOUS
  0
LAYER
  5
70
330
10
100
AcDbSymbolTableRecord
100
AcDbLayerTableRecord
  2
CENTER
 70
     0
 62
     1
  6
CENTER
  0
ENDTAB
  0
TABLE
  2
STYLE
  5
15
330
0
100
AcDbSymbolTable
 70
     3
  0
STYLE
  5
16
330
15
100
AcDbSymbolTableRecord
100
AcDbTextStyleTableRecord
  2
STANDARD
 70
     0
 40
0.0
 41
1.0
 50
0.0
 71
     0
 42
1.0
  3
txt
  4

  0
STYLE
  5
23
330
15
100
AcDbSymbolTableRecord
100
AcDbTextStyleTableRecord
  2
ROMANS
 70
     0
 40
0.0
 41
1.0
 50
0.0
 71
     0
 42
0.375
  3
TIMESBD.TTF
  4

1001
ACAD
1000
Times New Roman
1071
 33554450
  0
STYLE
  5
30
330
15
100
AcDbSymbolTableRecord
100
AcDbTextStyleTableRecord
  2
TEMPLATE
 70
     0
 40
0.0
 41
1.0
 50
0.0
 71
     0
 42
1.0
  3
TIMESBD.TTF
  4

1001
ACAD
1000
Times New Roman
1071
 33554450
  0
ENDTAB
  0
TABLE
  2
VIEW
  5
1B
330
0
100
AcDbSymbolTable
 70
     0
  0
ENDTAB
  0
TABLE
  2
UCS
  5
1C
330
0
100
AcDbSymbolTable
 70
     0
  0
ENDTAB
  0
TABLE
  2
APPID
  5
1F
330
0
100
AcDbSymbolTable
 70
     3
  0
APPID
  5
20
330
1F
100
AcDbSymbolTableRecord
100
AcDbRegAppTableRecord
  2
ACAD
 70
     0
  0
APPID
  5
AD
330
1F
100
AcDbSymbolTableRecord
100
AcDbRegAppTableRecord
  2
DCO15
 70
     0
  0
ENDTAB
  0
TABLE
  2
DIMSTYLE
  5
21
330
0
100
AcDbSymbolTable
 70
     1
  0
DIMSTYLE
105
22
330
21
100
AcDbSymbolTableRecord
100
AcDbDimStyleTableRecord
  2
STANDARD
 70
     0
  3
\X
  4
cm
  5

  6

  7

 40
16.0
 41
0.1
 42
0.0625
 43
0.25
 44
0.1
 45
0.0
 46
0.0
 47
0.00001
 48
0.00001
140
0.1
141
0.09
142
0.0
143
2.54
144
1.0
145
0.0
146
1.0
147
0.08
 71
     0
 72
     0
 73
     1
 74
     1
 75
     0
 76
     0
 77
     0
 78
     4
170
     1
171
     1
172
     1
173
     0
174
     0
175
     0
176
     0
177
     0
178
     0
270
     5
271
     4
272
     4
273
     2
274
     1
340
23
275
     0
280
     0
281
     0
282
     0
283
     1
284
     0
285
     0
286
     0
287
     3
288
     1
  0
ENDTAB
  0
TABLE
  2
BLOCK_RECORD
  5
1
330
0
100
AcDbSymbolTable
 70
     0
  0
BLOCK_RECORD
  5
2
102
{ACAD_XDICTIONARY
360
B6
102
}
330
1
100
AcDbSymbolTableRecord
100
AcDbBlockTableRecord
  2
*MODEL_SPACE
  0
BLOCK_RECORD
  5
C
102
{ACAD_XDICTIONARY
360
B8
102
}
330
1
100
AcDbSymbolTableRecord
100
AcDbBlockTableRecord
  2
*PAPER_SPACE
  0
ENDTAB
  0
ENDSEC
  0
SECTION
  2
BLOCKS
  0
BLOCK
  5
3
330
2
100
AcDbEntity
  8
0
100
AcDbBlockBegin
  2
*MODEL_SPACE
 70
     0
 10
0.0
 20
0.0
 30
0.0
  3
*MODEL_SPACE
  1

  0
ENDBLK
  5
9
330
2
100
AcDbEntity
  8
0
100
AcDbBlockEnd
  0
BLOCK
  5
D
330
C
100
AcDbEntity
 67
     1
  8
0
100
AcDbBlockBegin
  2
*PAPER_SPACE
 70
     0
 10
0.0
 20
0.0
 30
0.0
  3
*PAPER_SPACE
  1

  0
ENDBLK
  5
E
330
C
100
AcDbEntity
 67
     1
  8
0
100
AcDbBlockEnd
  0
ENDSEC
  0
SECTION
  2
ENTITIES
  0
LINE
  5
32
330
2
100
AcDbEntity
  8
0
  6
HIDDEN
 62
     9
100
AcDbLine
 10
139.9424343815224
 20
-396.1360891455637
 30
-3.509905992184169
 11
139.7855004443341
 21
-400.0317207656677
 31
-0.79757992531307
  0
LINE
  5
34
330
2
100
AcDbEntity
  8
0
  6
HIDDEN
 62
     9
100
AcDbLine
 10
140.9186846669296
 20
-396.9128601095708
 30
-2.818011130432754
 11
140.7930426324577
 21
-400.0317207656681
 31
-0.6465103620296202
  0
ARC
  5
37
330
2
100
AcDbEntity
  8
0
  6
HIDDEN
 62
     9
100
AcDbCircle
 10
184.8479188376893
 20
309.1502392451128
 30
219.2665837865102
 40
1.0
210
-0.0631121713026928
220
-0.5685412912349133
230
-0.8202302445011383
100
AcDbArc
 50
176.6948078481732
 51
266.6948078481749
  0
ARC
  5
38
330
2
100
AcDbEntity
  8
0
  6
HIDDEN
 62
     9
100
AcDbCircle
 10
-184.8479188376894
 20
309.1502392451128
 30
-218.5790837865102
 40
1.5
210
0.0631121713026928
220
0.5685412912349133
230
0.8202302445011383
100
AcDbArc
 50
273.305192151825
 51
3.305192151827421
  0
ARC
  5
39
330
2
100
AcDbEntity
  8
0
  6
HIDDEN
 62
     9
100
AcDbCircle
 10
-184.8479188376892
 20
309.1502392451127
 30
-219.0790837865102
 40
1.0
210
0.0631121713026928
220
0.5685412912349133
230
0.8202302445011383
100
AcDbArc
 50
273.3051921518232
 51
3.305192151827258
  0
ARC
  5
3A
330
2
100
AcDbEntity
  8
0
  6
HIDDEN
 62
     9
100
AcDbCircle
 10
-183.7919277450321
 20
308.2095571456611
 30
-218.5790837865102
 40
0.5000000000000004
210
0.0631121713026928
220
0.5685412912349133
230
0.8202302445011383
100
AcDbArc
 50
273.3051921518266
 51
3.305192151830739
  0
ARC
  5
3B
330
2
100
AcDbEntity
  8
0
  6
HIDDEN
 62
     9
100
AcDbCircle
 10
-156.2813973526838
 20
-225.5399634266308
 30
-318.2933112260469
 40
0.5000000000000001
210
0.0330425412699401
220
0.8202277396845564
230
-0.571081995442325
100
AcDbArc
 50
2.302542382350611
 51
92.30254238234818
  0
ARC
  5
3C
330
2
100
AcDbEntity
  8
0
  6
HIDDEN
 62
     9
100
AcDbCircle
 10
-183.7919277450321
 20
308.2095571456611
 30
-218.5790837865102
 40
0.5000000000000004
210
0.0631121713026928
220
0.5685412912349133
230
0.8202302445011383
100
AcDbArc
 50
273.3051921518266
 51
3.305192151830739
  0
ARC
  5
3D
330
2
100
AcDbEntity
  8
0
  6
HIDDEN
 62
     9
100
AcDbCircle
 10
-156.2813973526838
 20
-225.5399634266308
 30
-318.2933112260469
 40
0.5000000000000001
210
0.0330425412699401
220
0.8202277396845564
230
-0.571081995442325
100
AcDbArc
 50
2.302542382350611
 51
92.30254238234818
  0
ARC
  5
3E
330
2
100
AcDbEntity
  8
0
  6
HIDDEN
 62
     9
100
AcDbCircle
 10
-385.9857812705844
 20
1.791722547759729
 30
166.7165406618152
 40
0.5000000000000001
210
0.9974592945578699
220
-0.0631447164290244
230
-0.0329803045348955
100
AcDbArc
 50
55.15259060886296
 51
145.1525906088638
  0
ARC
  5
3F
330
2
100
AcDbEntity
  8
0
  6
HIDDEN
 62
     9
100
AcDbCircle
 10
-385.9857812705844
 20
1.791722547759729
 30
166.7165406618152
 40
0.5000000000000001
210
0.9974592945578699
220
-0.0631447164290244
230
-0.0329803045348955
100
AcDbArc
 50
55.15259060886296
 51
145.1525906088638
  0
ARC
  5
48
330
2
100
AcDbEntity
  8
0
  6
HIDDEN
 62
     9
100
AcDbCircle
 10
-385.9857812705847
 20
1.791722547760013
 30
165.7165406618136
 40
0.5000000000000001
210
0.9974592945578701
220
-0.0631447164290215
230
-0.0329803045348976
100
AcDbArc
 50
325.1525906088644
 51
1.496288454563243
  0
ARC
  5
49
330
2
100
AcDbEntity
  8
0
  6
HIDDEN
 62
     9
100
AcDbCircle
 10
-385.9857812705847
 20
1.791722547760013
 30
165.7165406618136
 40
0.5000000000000001
210
0.9974592945578701
220
-0.0631447164290215
230
-0.0329803045348976
100
AcDbArc
 50
325.1525906088644
 51
1.496288454563243
  0
LINE
  5
4A
330
2
100
AcDbEntity
  8
0
  6
HIDDEN
 62
     9
100
AcDbLine
 10
140.9729362173502
 20
-395.3790061223082
 30
-4.113968292161391
 11
140.9847697494694
 21
-395.2724046302016
 31
-3.960175121317416
210
0.0330425412699452
220
0.8202277396845561
230
-0.5710819954423254
  0
LINE
  5
4B
330
2
100
AcDbEntity
  8
0
  6
HIDDEN
 62
     9
100
AcDbLine
 10
140.9729362173502
 20
-395.3790061223082
 30
-4.113968292161391
 11
140.9847697494694
 21
-395.2724046302016
 31
-3.960175121317416
  0
LINE
  5
56
330
2
100
AcDbEntity
  8
0
  6
HIDDEN
 62
     9
100
AcDbLine
 10
140.9995853783075
 20
-395.1829810111768
 30
-3.586546915381127
 11
142.3737508335031
 21
-395.2783384855013
 31
-3.631894834116629
210
0.0330425412699452
220
0.8202277396845561
230
-0.5710819954423254
  0
SPLINE
  5
57
330
2
100
AcDbEntity
  8
0
  6
HIDDEN
 62
     9
100
AcDbSpline
 70
     0
 71
     3
 72
     9
 73
     5
 74
     0
 42
0.0000000001
 43
0.0000000001
 40
0.6153765629407717
 40
0.6153765629407717
 40
0.6153765629407717
 40
0.6153765629407717
 40
1.273309223145197
 40
1.94829804941258
 40
1.94829804941258
 40
1.94829804941258
 40
1.94829804941258
 10
139.9487104120273
 20
-396.0795519925408
 30
-3.709671182165712
 10
139.9651185790851
 20
-395.8239796682118
 30
-3.763887161963346
 10
140.1292145672123
 20
-395.2111379893106
 30
-3.76253307006549
 10
140.9507590877659
 20
-395.1649834930155
 30
-3.823782488025446
 10
141.0012671279854
 20
-395.1830977128456
 30
-3.657575228177718
  0
LINE
  5
58
330
2
100
AcDbEntity
  8
0
  6
HIDDEN
 62
     9
100
AcDbLine
 10
139.9424343815224
 20
-396.1360891455637
 30
-3.509905992184169
 11
139.9542679136417
 21
-396.0294876534572
 31
-3.356112821340193
  0
LINE
  5
59
330
2
100
AcDbEntity
  8
0
  6
HIDDEN
 62
     9
100
AcDbLine
 10
139.9424343815224
 20
-396.1360891455637
 30
-3.509905992184169
 11
139.9542679136417
 21
-396.0294876534572
 31
-3.356112821340193
210
-0.9974592945578701
220
0.0631447164290215
230
0.0329803045348976
  0
LINE
  5
5A
330
2
100
AcDbEntity
  8
0
  6
HIDDEN
 62
     9
100
AcDbLine
 10
141.9373529706381
 20
-396.2623785784218
 30
-3.575866601253945
 11
141.9491865027574
 21
-396.1557770863153
 31
-3.422073430409977
210
-0.0330425412699212
220
-0.8202277396845575
230
0.5710819954423246
  0
LINE
  5
5B
330
2
100
AcDbEntity
  8
0
  6
HIDDEN
 62
     9
100
AcDbLine
 10
141.9373529706381
 20
-396.2623785784218
 30
-3.575866601253945
 11
141.9491865027574
 21
-396.1557770863153
 31
-3.422073430409977
  0
LINE
  5
5C
330
2
100
AcDbEntity
  8
0
  6
HIDDEN
 62
     9
100
AcDbLine
 10
141.9373529706381
 20
-396.2623785784218
 30
-3.575866601253945
 11
142.3114002060973
 21
-396.2860578470827
 31
-3.588234215454516
210
-0.0330425412699212
220
-0.8202277396845575
230
0.5710819954423246
  0
LINE
  5
5D
330
2
100
AcDbEntity
  8
0
  6
HIDDEN
 62
     9
100
AcDbLine
 10
141.9373529706381
 20
-396.2623785784218
 30
-3.575866601253945
 11
142.3114002060973
 21
-396.2860578470827
 31
-3.588234215454516
  0
LINE
  5
5E
330
2
100
AcDbEntity
  8
0
  6
HIDDEN
 62
     9
100
AcDbLine
 10
142.3232337382166
 20
-396.1794563549761
 30
-3.434441044610583
 11
141.9491865027574
 21
-396.1557770863153
 31
-3.422073430409977
210
-0.0330425412699212
220
-0.8202277396845575
230
0.5710819954423246
  0
LINE
  5
5F
330
2
100
AcDbEntity
  8
0
  6
HIDDEN
 62
     9
100
AcDbLine
 10
142.3232337382166
 20
-396.1794563549761
 30
-3.434441044610583
 11
141.9491865027574
 21
-396.1557770863153
 31
-3.422073430409977
  0
LINE
  5
60
330
2
100
AcDbEntity
  8
0
  6
HIDDEN
 62
     9
100
AcDbLine
 10
141.9972638590437
 20
-395.4613925708555
 30
-3.29749930588056
 11
140.9998045644858
 21
-395.3982478544265
 31
-3.264519001345686
210
0.0631121713026928
220
0.5685412912349133
230
0.8202302445011383
  0
LINE
  5
61
330
2
100
AcDbEntity
  8
0
  6
HIDDEN
 62
     9
100
AcDbLine
 10
141.9972638590437
 20
-395.4613925708555
 30
-3.29749930588056
 11
140.9998045644858
 21
-395.3982478544265
 31
-3.264519001345686
  0
ARC
  5
62
330
2
100
AcDbEntity
  8
0
  6
HIDDEN
 62
     9
100
AcDbCircle
 10
-156.2813973526838
 20
-225.5399634266308
 30
-319.2933112260469
 40
0.5000000000000001
210
0.0330425412699401
220
0.8202277396845564
230
-0.571081995442325
100
AcDbArc
 50
92.30254238235142
 51
182.302542382351
  0
LINE
  5
63
330
2
100
AcDbEntity
  8
0
  6
HIDDEN
 62
     9
100
AcDbLine
 10
140.4845536465719
 20
-395.7767893660543
 30
-2.962487851357064
 11
140.451511105302
 21
-396.5970171057388
 31
-2.391405855914722
210
0.0631121713026928
220
0.5685412912349133
230
0.8202302445011383
  0
LINE
  5
64
330
2
100
AcDbEntity
  8
0
  6
HIDDEN
 62
     9
100
AcDbLine
 10
140.4845536465719
 20
-395.7767893660543
 30
-2.962487851357064
 11
140.451511105302
 21
-396.5970171057388
 31
-2.391405855914722
  0
ARC
  5
65
330
2
100
AcDbEntity
  8
0
  6
HIDDEN
 62
     9
100
AcDbCircle
 10
-156.2813973526838
 20
-225.5399634266308
 30
-319.2933112260469
 40
0.5000000000000001
210
0.0330425412699401
220
0.8202277396845564
230
-0.571081995442325
100
AcDbArc
 50
92.30254238235142
 51
182.302542382351
  0
LINE
  5
6C
330
2
100
AcDbEntity
  8
0
  6
HIDDEN
100
AcDbLine
 10
140.9068511348103
 20
-397.0194616016773
 30
-2.971804301276723
 11
140.9186846669296
 21
-396.9128601095708
 31
-2.818011130432754
  0
LINE
  5
6D
330
2
100
AcDbEntity
  8
0
  6
HIDDEN
100
AcDbLine
 10
140.9068511348103
 20
-397.0194616016773
 30
-2.971804301276723
 11
140.9186846669296
 21
-396.9128601095708
 31
-2.818011130432754
210
0.9974592945578701
220
-0.0631447164290215
230
-0.0329803045348976
  0
SPLINE
  5
6E
330
2
100
AcDbEntity
  8
0
 48
0.1
100
AcDbSpline
 70
     0
 71
     3
 72
     8
 73
     4
 74
     0
 42
0.0000000001
 43
0.0000000001
 40
1.491347315717336
 40
1.491347315717336
 40
1.491347315717336
 40
1.49134731572848
 40
2.123839678007152
 40
2.123839678007152
 40
2.123839678007152
 40
2.123839678007152
 10
139.7855004443341
 20
-400.0317207656677
 30
-0.79757992531307
 10
139.7375799441279
 20
-400.167820813488
 30
0.0
 10
139.732091824955
 20
-400.4495435321782
 30
0.0
 10
139.7123818069649
 20
-400.6594509787293
 30
0.0
  0
LINE
  5
6F
330
2
100
AcDbEntity
  8
CENTER
 48
0.5
100
AcDbLine
 10
128.911036340159
 20
-407.8582260204444
 30
0.0
 11
128.911036340159
 21
-415.3846154658173
 31
0.0
  0
CIRCLE
  5
72
330
2
100
AcDbEntity
  8
0
 48
0.1
100
AcDbCircle
 10
128.9110363401589
 20
-396.3917560887868
 30
0.0
 40
1.25
  0
LINE
  5
73
330
2
100
AcDbEntity
  8
0
  6
CENTER2
 48
0.1
100
AcDbLine
 10
130.0846038907679
 20
-412.1416037839432
 30
0.0
 11
127.7374687895501
 21
-412.1416037839432
 31
0.0
  0
LINE
  5
75
330
2
100
AcDbEntity
  8
0
100
AcDbLine
 10
128.411036340159
 20
-412.3917560887868
 30
0.0
 11
129.411036340159
 21
-412.3917560887868
 31
0.0
  0
LINE
  5
76
330
2
100
AcDbEntity
  8
CENTER
 48
0.5
100
AcDbLine
 10
132.6742310628455
 20
-396.3917560887868
 30
0.0
 11
125.1478416174725
 21
-396.3917560887868
 31
0.0
  0
LINE
  5
77
330
2
100
AcDbEntity
  8
0
  6
CONTINUOUS
 48
0.5
100
AcDbLine
 10
136.6538094959886
 20
-411.621420743131
 30
0.0
 11
121.1682631843295
 21
-411.621420743131
 31
0.0
  0
LINE
  5
78
330
2
100
AcDbEntity
  8
0
 48
0.1
100
AcDbLine
 10
145.411036340159
 20
-393.6417560887868
 30
0.0
 11
112.411036340159
 21
-393.6417560887868
 31
0.0
  0
LINE
  5
79
330
2
100
AcDbEntity
  8
0
 48
0.1
100
AcDbLine
 10
144.911036340159
 20
-392.1417560887868
 30
0.0
 11
112.911036340159
 21
-392.1417560887868
 31
0.0
  0
LINE
  5
7A
330
2
100
AcDbEntity
  8
0
 48
0.1
100
AcDbLine
 10
116.4577896469106
 20
-400.03172076566
 30
0.0
 11
140.8267724323927
 21
-400.0317207656681
 31
0.0
  0
ARC
  5
7B
330
2
100
AcDbEntity
  8
0
 48
0.5
100
AcDbCircle
 10
121.8396046455858
 20
-408.6214207431309
 30
0.0
 40
3.0
100
AcDbArc
 50
184.9999999999998
 51
270.0
  0
ARC
  5
7C
330
2
100
AcDbEntity
  8
0
 48
0.5
100
AcDbCircle
 10
121.1682631843295
 20
-408.6214207431309
 30
0.0
 40
3.0
100
AcDbArc
 50
184.9999999999998
 51
270.0
  0
LINE
  5
7E
330
2
100
AcDbEntity
  8
0
100
AcDbLine
 10
115.2913701335136
 20
-393.6417560887868
 30
0.0
 11
115.7725577829061
 21
-399.1417560887867
 31
0.0
  0
LINE
  5
7F
330
2
100
AcDbEntity
  8
0
100
AcDbLine
 10
118.1096908733531
 20
-400.6594509787303
 30
0.0
 11
118.8510205513106
 21
-408.8828879713739
 31
0.0
  0
LINE
  5
80
330
2
100
AcDbEntity
  8
0
100
AcDbLine
 10
117.7500183181863
 20
-404.221842876479
 30
0.0
 11
118.1796790900542
 21
-408.8828879713739
 31
0.0
  0
SPLINE
  5
83
330
2
100
AcDbEntity
  8
0
 48
0.1
100
AcDbSpline
210
0.0
220
0.0
230
1.0
 70
     8
 71
     3
 72
    10
 73
     6
 74
     4
 42
0.0000000001
 43
0.0000000001
 44
0.0000000001
 12
0.0902957725541786
 22
-0.9959149930886894
 32
0.0
 13
0.0859596848406924
 23
-0.9962986161699157
 33
0.0
 40
0.0
 40
0.0
 40
0.0
 40
0.0
 40
1.750586719168547
 40
3.521534685101944
 40
5.502475389801759
 40
5.502475389801759
 40
5.502475389801759
 40
5.502475389801759
 10
115.7725577829061
 20
-399.1417560887867
 30
0.0
 10
115.8252479763163
 20
-399.7229012755607
 30
0.0
 10
116.1609255077841
 20
-400.8906549643262
 30
0.0
 10
117.3145981752238
 20
-402.3336710281531
 30
0.0
 10
117.694213170633
 20
-403.5748913529457
 30
0.0
 10
117.7509735168544
 20
-404.2327608472147
 30
0.0
 11
115.7725577829061
 21
-399.1417560887867
 31
0.0
 11
116.2584895747214
 21
-400.8235480363928
 31
0.0
 11
117.179886388718
 21
-402.3359251749401
 31
0.0
 11
117.7509735168544
 21
-404.2327608472147
 31
0.0
  0
ARC
  5
85
330
2
100
AcDbEntity
  8
0
100
AcDbCircle
 10
112.911036340159
 20
-392.6417560887868
 30
0.0
 40
0.5
100
AcDbArc
 50
89.99999999999998
 51
180.0
  0
LINE
  5
86
330
2
100
AcDbEntity
  8
0
100
AcDbLine
 10
112.411036340159
 20
-392.6417560887868
 30
0.0
 11
112.411036340159
 21
-393.6417560887868
 31
0.0
  0
LINE
  5
87
330
2
100
AcDbEntity
  8
0
100
AcDbLine
 10
122.036036340159
 20
-412.3917560887868
 30
0.0
 11
123.036036340159
 21
-412.3917560887868
 31
0.0
  0
ARC
  5
88
330
2
100
AcDbEntity
  8
0
100
AcDbCircle
 10
122.0360363401589
 20
-411.8917560887868
 30
0.0
 40
0.5
100
AcDbArc
 50
191.5298340272651
 51
270.0
  0
ARC
  5
89
330
2
100
AcDbEntity
  8
0
 48
0.1
100
AcDbCircle
 10
120.8112603895357
 20
-412.1416037839432
 30
0.0
 40
0.75
100
AcDbArc
 50
11.52983402726519
 51
43.9139615307539
  0
ARC
  5
8A
330
2
100
AcDbEntity
  8
0
 48
0.1
100
AcDbCircle
 10
124.2608122907822
 20
-412.1416037839432
 30
0.0
 40
0.75
100
AcDbArc
 50
136.086038469246
 51
168.4701659727348
  0
ARC
  5
8B
330
2
100
AcDbEntity
  8
0
 48
0.1
100
AcDbCircle
 10
123.0360363401589
 20
-411.8917560887868
 30
0.0
 40
0.5
100
AcDbArc
 50
270.0
 51
348.4701659727348
  0
ARC
  5
8C
330
2
100
AcDbEntity
  8
0
100
AcDbCircle
 10
128.411036340159
 20
-411.8917560887868
 30
0.0
 40
0.5
100
AcDbArc
 50
209.9798492307283
 51
270.0
  0
ARC
  5
8D
330
2
100
AcDbEntity
  8
0
  6
CENTER2
 48
0.1
100
AcDbCircle
 10
127.7374687895501
 20
-411.8916037839431
 30
0.0
 40
0.25
100
AcDbArc
 50
197.7136489003385
 51
270.0
  0
LINE
  5
8E
330
2
100
AcDbEntity
  8
0
  6
CENTER2
 48
0.1
100
AcDbLine
 10
127.4993215325502
 20
-411.9676687823552
 30
0.0
 11
127.388728797259
 21
-411.621420743131
 31
0.0
  0
ARC
  5
8F
330
2
100
AcDbEntity
  8
0
 48
0.5
100
AcDbCircle
 10
136.6538094959885
 20
-408.6214207431309
 30
0.0
 40
3.0
100
AcDbArc
 50
270.0
 51
355.0000000000001
  0
ARC
  5
90
330
2
100
AcDbEntity
  8
0
 48
0.5
100
AcDbCircle
 10
135.982468034732
 20
-408.6214207431309
 30
0.0
 40
3.0
100
AcDbArc
 50
270.0
 51
355.0000000000001
  0
LINE
  5
91
330
2
100
AcDbEntity
  8
CENTER
 48
0.5
100
AcDbLine
 10
128.911036340159
 20
-392.6285613661003
 30
0.0
 11
128.911036340159
 21
-400.1549508114733
 31
0.0
  0
ARC
  5
92
330
2
100
AcDbEntity
  8
0
  6
CENTER2
 48
0.1
100
AcDbCircle
 10
130.0846038907679
 20
-411.8916037839431
 30
0.0
 40
0.25
100
AcDbArc
 50
270.0
 51
342.2863510996614
  0
ARC
  5
93
330
2
100
AcDbEntity
  8
0
 48
0.1
100
AcDbCircle
 10
129.4110363401589
 20
-411.8917560887868
 30
0.0
 40
0.5
100
AcDbArc
 50
270.0
 51
330.0201507692715
  0
LINE
  5
94
330
2
100
AcDbEntity
  8
0
  6
CENTER2
 48
0.1
100
AcDbLine
 10
130.3227511477679
 20
-411.9676687823552
 30
0.0
 11
130.4333438830591
 21
-411.621420743131
 31
0.0
  0
LINE
  5
95
330
2
100
AcDbEntity
  8
0
100
AcDbLine
 10
135.786036340159
 20
-412.3917560887868
 30
0.0
 11
134.786036340159
 21
-412.3917560887868
 31
0.0
  0
ARC
  5
96
330
2
100
AcDbEntity
  8
0
 48
0.1
100
AcDbCircle
 10
134.7860363401589
 20
-411.8917560887868
 30
0.0
 40
0.5
100
AcDbArc
 50
191.5298340272651
 51
270.0
  0
ARC
  5
97
330
2
100
AcDbEntity
  8
0
 48
0.1
100
AcDbCircle
 10
133.5612603895357
 20
-412.1416037839432
 30
0.0
 40
0.75
100
AcDbArc
 50
11.52983402726519
 51
43.9139615307539
  0
ARC
  5
98
330
2
100
AcDbEntity
  8
0
100
AcDbCircle
 10
135.7860363401589
 20
-411.8917560887868
 30
0.0
 40
0.5
100
AcDbArc
 50
270.0
 51
348.4701659727348
  0
ARC
  5
99
330
2
100
AcDbEntity
  8
0
 48
0.1
100
AcDbCircle
 10
137.0108122907821
 20
-412.1416037839432
 30
0.0
 40
0.75
100
AcDbArc
 50
136.086038469246
 51
168.4701659727348
  0
LINE
  5
9A
330
2
100
AcDbEntity
  8
0
100
AcDbLine
 10
142.5307025468045
 20
-393.6417560887868
 30
0.0
 11
142.0495148974119
 21
-399.1417560887868
 31
0.0
  0
LINE
  5
9B
330
2
100
AcDbEntity
  8
0
100
AcDbLine
 10
141.2905017940647
 20
-393.6417560887868
 30
0.0
 11
140.809314234619
 21
-399.141755060689
 31
0.0
  0
SPLINE
  5
9C
330
2
100
AcDbEntity
  8
0
 48
0.1
100
AcDbSpline
210
0.0
220
0.0
230
1.0
 70
     8
 71
     3
 72
    10
 73
     6
 74
     0
 42
0.0000000001
 43
0.0000000001
 40
0.0
 40
0.0
 40
0.0
 40
0.0
 40
0.7261807570757185
 40
1.103047293837589
 40
1.639158202722391
 40
1.639158202722391
 40
1.639158202722391
 40
1.639158202722391
 10
142.0495149873588
 20
-399.141755060689
 30
0.0
 10
141.9888717024764
 20
-399.456868890272
 30
0.0
 10
141.962055913627
 20
-399.8164447679333
 30
0.0
 10
141.5540897954391
 20
-400.049719972578
 30
0.0
 10
141.3389117295861
 20
-400.03172076566
 30
0.0
 10
140.826772432393
 20
-400.0317207656681
 30
0.0
  0
SPLINE
  5
9D
330
2
100
AcDbEntity
  8
0
 48
0.1
100
AcDbSpline
210
0.0
220
0.0
230
1.0
 70
     8
 71
     3
 72
    10
 73
     6
 74
     4
 42
0.0000000001
 43
0.0000000001
 44
0.0000000001
 12
-0.090295772554179
 22
-0.9959149930886892
 32
0.0
 13
-0.0859596848406929
 23
-0.9962986161699156
 33
0.0
 40
0.0
 40
0.0
 40
0.0
 40
0.0
 40
1.750586719168493
 40
3.521534685101889
 40
5.502475389801705
 40
5.502475389801705
 40
5.502475389801705
 40
5.502475389801705
 10
142.0495148974117
 20
-399.1417560887868
 30
0.0
 10
141.9968247040016
 20
-399.7229012755608
 30
0.0
 10
141.6611471725337
 20
-400.8906549643261
 30
0.0
 10
140.507474505094
 20
-402.3336710281531
 30
0.0
 10
140.1278595096848
 20
-403.5748913529457
 30
0.0
 10
140.0710991634634
 20
-404.2327608472147
 30
0.0
 11
142.0495148974117
 21
-399.1417560887868
 31
0.0
 11
141.5635831055964
 21
-400.8235480363928
 31
0.0
 11
140.6421862915999
 21
-402.3359251749401
 31
0.0
 11
140.0710991634634
 21
-404.2327608472147
 31
0.0
  0
SPLINE
  5
9E
330
2
100
AcDbEntity
  8
0
 48
0.1
100
AcDbSpline
210
0.0
220
0.0
230
1.0
 70
     8
 71
     3
 72
    10
 73
     6
 74
     4
 42
0.0000000001
 43
0.0000000001
 44
0.0000000001
 12
-0.090295772554179
 22
-0.9959149930886892
 32
0.0
 13
-0.0859596848406929
 23
-0.9962986161699156
 33
0.0
 40
0.0
 40
0.0
 40
0.0
 40
0.0
 40
1.750586719168493
 40
3.521534685101889
 40
5.502475389801689
 40
5.502475389801689
 40
5.502475389801689
 40
5.502475389801689
 10
142.0495148974119
 20
-399.1417560887868
 30
0.0
 10
141.9968247040017
 20
-399.7229012755608
 30
0.0
 10
141.6611471725339
 20
-400.8906549643261
 30
0.0
 10
140.5074745050941
 20
-402.3336710281531
 30
0.0
 10
140.127859509685
 20
-403.5748913529457
 30
0.0
 10
140.0710991634637
 20
-404.2327608472147
 30
0.0
 11
142.0495148974119
 21
-399.1417560887868
 31
0.0
 11
141.5635831055966
 21
-400.8235480363928
 31
0.0
 11
140.6421862916
 21
-402.3359251749401
 31
0.0
 11
140.0710991634637
 21
-404.2327608472147
 31
0.0
  0
LINE
  5
9F
330
2
100
AcDbEntity
  8
0
100
AcDbLine
 10
140.0720543621337
 20
-404.2218428764563
 30
0.0
 11
139.6423935902638
 21
-408.882887971374
 31
0.0
  0
LINE
  5
A0
330
2
100
AcDbEntity
  8
0
100
AcDbLine
 10
139.7123818069648
 20
-400.6594509787303
 30
0.0
 11
138.9710521290073
 21
-408.8828879713739
 31
0.0
  0
SPLINE
  5
A1
330
2
100
AcDbEntity
  8
0
 48
0.1
100
AcDbSpline
210
0.0
220
0.0
230
1.0
 70
     8
 71
     3
 72
    10
 73
     6
 74
     0
 42
0.0000000001
 43
0.0000000001
 40
0.0
 40
0.0
 40
0.0
 40
0.0
 40
0.7261807570757185
 40
1.103047293837589
 40
1.639158202722391
 40
1.639158202722391
 40
1.639158202722391
 40
1.639158202722391
 10
140.8100678559413
 20
-399.1331411295581
 30
0.0
 10
140.749424571059
 20
-399.4482549591412
 30
0.0
 10
140.7226087822095
 20
-399.8078308368025
 30
0.0
 10
140.3146426640217
 20
-400.0411060414472
 30
0.0
 10
140.0994645981687
 20
-400.0231068345292
 30
0.0
 10
139.5873253009755
 20
-400.0317207656676
 30
0.0
  0
LINE
  5
A2
330
2
100
AcDbEntity
  8
0
100
AcDbLine
 10
145.411036340159
 20
-392.6417560887868
 30
0.0
 11
145.411036340159
 21
-393.6417560887868
 31
0.0
  0
ARC
  5
A3
330
2
100
AcDbEntity
  8
0
100
AcDbCircle
 10
144.9110363401589
 20
-392.6417560887868
 30
0.0
 40
0.5
100
AcDbArc
 50
0.0
 51
89.99999999999998
  0
LINE
  5
FB
330
2
100
AcDbEntity
  8
0
  6
HIDDEN
 62
     9
100
AcDbLine
 10
116.9033880133885
 20
-396.9128601095708
 30
-2.818011130432754
 11
117.0290300478603
 21
-400.0317207656681
 31
-0.6465103620296202
  0
LINE
  5
FC
330
2
100
AcDbEntity
  8
0
  6
HIDDEN
 62
     9
100
AcDbLine
 10
117.8796382987956
 20
-396.1360891455637
 30
-3.509905992184169
 11
118.0365722359839
 21
-400.0317207656677
 31
-0.79757992531307
  0
ARC
  5
FD
330
2
100
AcDbEntity
  8
0
  6
HIDDEN
 62
     9
100
AcDbCircle
 10
-101.3317265313872
 20
-231.4665610242201
 30
-326.8124077028878
 40
0.5000000000000001
210
-0.0330425412699401
220
0.8202277396845564
230
-0.571081995442325
100
AcDbArc
 50
87.69745761765182
 51
177.6974576176493
  0
ARC
  5
FE
330
2
100
AcDbEntity
  8
0
  6
HIDDEN
 62
     9
100
AcDbCircle
 10
-101.3317265313872
 20
-231.4665610242201
 30
-326.8124077028878
 40
0.5000000000000001
210
-0.0330425412699401
220
0.8202277396845564
230
-0.571081995442325
100
AcDbArc
 50
87.69745761765182
 51
177.6974576176493
  0
ARC
  5
FF
330
2
100
AcDbEntity
  8
0
  6
HIDDEN
 62
     9
100
AcDbCircle
 10
71.40016704028309
 20
332.4820002620384
 30
235.5382946031258
 40
1.0
210
0.0631121713026928
220
-0.5685412912349133
230
-0.8202302445011383
100
AcDbArc
 50
273.305192151825
 51
3.305192151826781
  0
ARC
  5
100
330
2
100
AcDbEntity
  8
0
  6
HIDDEN
 62
     9
100
AcDbCircle
 10
-71.40016704028306
 20
332.4820002620384
 30
-234.8507946031258
 40
1.5
210
-0.0631121713026928
220
0.5685412912349133
230
0.8202302445011383
100
AcDbArc
 50
176.6948078481726
 51
266.6948078481749
  0
ARC
  5
101
330
2
100
AcDbEntity
  8
0
  6
HIDDEN
 62
     9
100
AcDbCircle
 10
-71.40016704028315
 20
332.4820002620384
 30
-235.3507946031257
 40
1.0
210
-0.0631121713026928
220
0.5685412912349133
230
0.8202302445011383
100
AcDbArc
 50
176.6948078481727
 51
266.6948078481767
  0
ARC
  5
102
330
2
100
AcDbEntity
  8
0
  6
HIDDEN
 62
     9
100
AcDbCircle
 10
402.274744105762
 20
-6.69434058160184
 30
-90.45048207534277
 40
0.5000000000000001
210
-0.9974592945578699
220
-0.0631447164290244
230
-0.0329803045348955
100
AcDbArc
 50
34.84740939113612
 51
124.847409391137
  0
ARC
  5
103
330
2
100
AcDbEntity
  8
0
  6
HIDDEN
 62
     9
100
AcDbCircle
 10
402.274744105762
 20
-6.69434058160184
 30
-90.45048207534277
 40
0.5000000000000001
210
-0.9974592945578699
220
-0.0631447164290244
230
-0.0329803045348955
100
AcDbArc
 50
34.84740939113612
 51
124.847409391137
  0
LINE
  5
104
330
2
100
AcDbEntity
  8
0
  6
HIDDEN
 62
     9
100
AcDbLine
 10
116.8224873020105
 20
-395.1829810111768
 30
-3.586546915381127
 11
115.4483218468149
 21
-395.2783384855013
 31
-3.631894834116629
210
-0.0330425412699452
220
0.8202277396845561
230
-0.5710819954423254
  0
LINE
  5
105
330
2
100
AcDbEntity
  8
0
  6
HIDDEN
 62
     9
100
AcDbLine
 10
116.8491364629678
 20
-395.3790061223082
 30
-4.113968292161391
 11
116.8373029308486
 21
-395.2724046302016
 31
-3.960175121317416
210
-0.0330425412699452
220
0.8202277396845561
230
-0.5710819954423254
  0
LINE
  5
106
330
2
100
AcDbEntity
  8
0
  6
HIDDEN
 62
     9
100
AcDbLine
 10
116.8491364629678
 20
-395.3790061223082
 30
-4.113968292161391
 11
116.8373029308486
 21
-395.2724046302016
 31
-3.960175121317416
  0
SPLINE
  5
107
330
2
100
AcDbEntity
  8
0
  6
HIDDEN
 62
     9
100
AcDbSpline
 70
     0
 71
     3
 72
     9
 73
     5
 74
     0
 42
0.0000000001
 43
0.0000000001
 40
0.6153765629407717
 40
0.6153765629407717
 40
0.6153765629407717
 40
0.6153765629407717
 40
1.273309223145197
 40
1.94829804941258
 40
1.94829804941258
 40
1.94829804941258
 40
1.94829804941258
 10
117.8733622682908
 20
-396.0795519925408
 30
-3.709671182165712
 10
117.8569541012329
 20
-395.8239796682118
 30
-3.763887161963346
 10
117.6928581131057
 20
-395.2111379893106
 30
-3.76253307006549
 10
116.8713135925521
 20
-395.1649834930155
 30
-3.823782488025446
 10
116.8208055523326
 20
-395.1830977128456
 30
-3.657575228177718
  0
ARC
  5
108
330
2
100
AcDbEntity
  8
0
  6
HIDDEN
 62
     9
100
AcDbCircle
 10
402.2747441057615
 20
-6.694340581602082
 30
-91.45048207534436
 40
0.5000000000000001
210
-0.9974592945578701
220
-0.0631447164290215
230
-0.0329803045348976
100
AcDbArc
 50
178.5037115454367
 51
214.8474093911356
  0
ARC
  5
109
330
2
100
AcDbEntity
  8
0
  6
HIDDEN
 62
     9
100
AcDbCircle
 10
402.2747441057615
 20
-6.694340581602082
 30
-91.45048207534436
 40
0.5000000000000001
210
-0.9974592945578701
220
-0.0631447164290215
230
-0.0329803045348976
100
AcDbArc
 50
178.5037115454367
 51
214.8474093911356
  0
LINE
  5
10A
330
2
100
AcDbEntity
  8
0
  6
HIDDEN
 62
     9
100
AcDbLine
 10
117.8796382987956
 20
-396.1360891455637
 30
-3.509905992184169
 11
117.8678047666763
 21
-396.0294876534572
 31
-3.356112821340193
  0
LINE
  5
10B
330
2
100
AcDbEntity
  8
0
  6
HIDDEN
 62
     9
100
AcDbLine
 10
117.8796382987956
 20
-396.1360891455637
 30
-3.509905992184169
 11
117.8678047666763
 21
-396.0294876534572
 31
-3.356112821340193
210
0.9974592945578701
220
0.0631447164290215
230
0.0329803045348976
  0
LINE
  5
10C
330
2
100
AcDbEntity
  8
0
  6
HIDDEN
 62
     9
100
AcDbLine
 10
115.8847197096799
 20
-396.2623785784218
 30
-3.575866601253945
 11
115.8728861775606
 21
-396.1557770863153
 31
-3.422073430409977
210
0.0330425412699212
220
-0.8202277396845575
230
0.5710819954423246
  0
LINE
  5
10D
330
2
100
AcDbEntity
  8
0
  6
HIDDEN
 62
     9
100
AcDbLine
 10
115.8847197096799
 20
-396.2623785784218
 30
-3.575866601253945
 11
115.8728861775606
 21
-396.1557770863153
 31
-3.422073430409977
  0
LINE
  5
10E
330
2
100
AcDbEntity
  8
0
  6
HIDDEN
 62
     9
100
AcDbLine
 10
115.8847197096799
 20
-396.2623785784218
 30
-3.575866601253945
 11
115.5106724742207
 21
-396.2860578470827
 31
-3.588234215454516
210
0.0330425412699212
220
-0.8202277396845575
230
0.5710819954423246
  0
LINE
  5
10F
330
2
100
AcDbEntity
  8
0
  6
HIDDEN
 62
     9
100
AcDbLine
 10
115.8847197096799
 20
-396.2623785784218
 30
-3.575866601253945
 11
115.5106724742207
 21
-396.2860578470827
 31
-3.588234215454516
  0
LINE
  5
110
330
2
100
AcDbEntity
  8
0
  6
HIDDEN
 62
     9
100
AcDbLine
 10
115.4988389421014
 20
-396.1794563549761
 30
-3.434441044610583
 11
115.8728861775606
 21
-396.1557770863153
 31
-3.422073430409977
210
0.0330425412699212
220
-0.8202277396845575
230
0.5710819954423246
  0
LINE
  5
111
330
2
100
AcDbEntity
  8
0
  6
HIDDEN
 62
     9
100
AcDbLine
 10
115.4988389421014
 20
-396.1794563549761
 30
-3.434441044610583
 11
115.8728861775606
 21
-396.1557770863153
 31
-3.422073430409977
  0
LINE
  5
112
330
2
100
AcDbEntity
  8
0
  6
HIDDEN
 62
     9
100
AcDbLine
 10
115.8248088212743
 20
-395.4613925708555
 30
-3.29749930588056
 11
116.8222681158322
 21
-395.3982478544265
 31
-3.264519001345686
210
-0.0631121713026928
220
0.5685412912349133
230
0.8202302445011383
  0
LINE
  5
113
330
2
100
AcDbEntity
  8
0
  6
HIDDEN
 62
     9
100
AcDbLine
 10
115.8248088212743
 20
-395.4613925708555
 30
-3.29749930588056
 11
116.8222681158322
 21
-395.3982478544265
 31
-3.264519001345686
  0
ARC
  5
114
330
2
100
AcDbEntity
  8
0
  6
HIDDEN
 62
     9
100
AcDbCircle
 10
-101.3317265313872
 20
-231.4665610242201
 30
-327.8124077028877
 40
0.5000000000000001
210
-0.0330425412699401
220
0.8202277396845564
230
-0.571081995442325
100
AcDbArc
 50
357.6974576176489
 51
87.69745761764859
  0
ARC
  5
115
330
2
100
AcDbEntity
  8
0
  6
HIDDEN
 62
     9
100
AcDbCircle
 10
-101.3317265313872
 20
-231.4665610242201
 30
-327.8124077028877
 40
0.5000000000000001
210
-0.0330425412699401
220
0.8202277396845564
230
-0.571081995442325
100
AcDbArc
 50
357.6974576176489
 51
87.69745761764859
  0
LINE
  5
116
330
2
100
AcDbEntity
  8
0
  6
HIDDEN
 62
     9
100
AcDbLine
 10
117.3375190337461
 20
-395.7767893660543
 30
-2.962487851357064
 11
117.370561575016
 21
-396.5970171057388
 31
-2.391405855914722
210
-0.0631121713026928
220
0.5685412912349133
230
0.8202302445011383
  0
LINE
  5
117
330
2
100
AcDbEntity
  8
0
  6
HIDDEN
 62
     9
100
AcDbLine
 10
117.3375190337461
 20
-395.7767893660543
 30
-2.962487851357064
 11
117.370561575016
 21
-396.5970171057388
 31
-2.391405855914722
  0
ARC
  5
118
330
2
100
AcDbEntity
  8
0
  6
HIDDEN
 62
     9
100
AcDbCircle
 10
-72.45615813294032
 20
331.5413181625867
 30
-234.8507946031258
 40
0.5000000000000004
210
-0.0631121713026928
220
0.5685412912349133
230
0.8202302445011383
100
AcDbArc
 50
176.6948078481692
 51
266.6948078481733
  0
ARC
  5
119
330
2
100
AcDbEntity
  8
0
  6
HIDDEN
 62
     9
100
AcDbCircle
 10
-72.45615813294032
 20
331.5413181625867
 30
-234.8507946031258
 40
0.5000000000000004
210
-0.0631121713026928
220
0.5685412912349133
230
0.8202302445011383
100
AcDbArc
 50
176.6948078481692
 51
266.6948078481733
  0
LINE
  5
11A
330
2
100
AcDbEntity
  8
0
  6
HIDDEN
100
AcDbLine
 10
116.9152215455077
 20
-397.0194616016773
 30
-2.971804301276723
 11
116.9033880133885
 21
-396.9128601095708
 31
-2.818011130432754
210
-0.9974592945578701
220
-0.0631447164290215
230
-0.0329803045348976
  0
LINE
  5
11B
330
2
100
AcDbEntity
  8
0
  6
HIDDEN
100
AcDbLine
 10
116.9152215455077
 20
-397.0194616016773
 30
-2.971804301276723
 11
116.9033880133885
 21
-396.9128601095708
 31
-2.818011130432754
  0
SPLINE
  5
11C
330
2
100
AcDbEntity
  8
0
 48
0.1
100
AcDbSpline
 70
     0
 71
     3
 72
     8
 73
     4
 74
     0
 42
0.0000000001
 43
0.0000000001
 40
1.491347315717336
 40
1.491347315717336
 40
1.491347315717336
 40
1.49134731572848
 40
2.123839678007152
 40
2.123839678007152
 40
2.123839678007152
 40
2.123839678007152
 10
118.0365722359839
 20
-400.0317207656677
 30
-0.79757992531307
 10
118.0844927361901
 20
-400.167820813488
 30
0.0
 10
118.089980855363
 20
-400.4495435321782
 30
0.0
 10
118.1096908733532
 20
-400.6594509787293
 30
0.0
  0
SPLINE
  5
11D
330
2
100
AcDbEntity
  8
0
 48
0.1
100
AcDbSpline
210
0.0
220
0.0
230
1.0
 70
     8
 71
     3
 72
    10
 73
     6
 74
     0
 42
0.0000000001
 43
0.0000000001
 40
0.0
 40
0.0
 40
0.0
 40
0.0
 40
0.7261807570757185
 40
1.103047293837589
 40
1.639158202722391
 40
1.639158202722391
 40
1.639158202722391
 40
1.639158202722391
 10
115.7725576929592
 20
-399.141755060689
 30
0.0
 10
115.8332009778416
 20
-399.456868890272
 30
0.0
 10
115.8600167666911
 20
-399.8164447679333
 30
0.0
 10
116.2679828848789
 20
-400.049719972578
 30
0.0
 10
116.4831609507319
 20
-400.03172076566
 30
0.0
 10
116.9953002479251
 20
-400.0317207656681
 30
0.0
  0
LINE
  5
11E
330
2
100
AcDbEntity
  8
0
100
AcDbLine
 10
116.5315708862533
 20
-393.6417560887868
 30
0.0
 11
117.012758445699
 21
-399.141755060689
 31
0.0
  0
SPLINE
  5
11F
330
2
100
AcDbEntity
  8
0
 48
0.1
100
AcDbSpline
210
0.0
220
0.0
230
1.0
 70
     8
 71
     3
 72
    10
 73
     6
 74
     0
 42
0.0000000001
 43
0.0000000001
 40
0.0
 40
0.0
 40
0.0
 40
0.0
 40
0.7261807570757185
 40
1.103047293837589
 40
1.639158202722391
 40
1.639158202722391
 40
1.639158202722391
 40
1.639158202722391
 10
117.0120048243767
 20
-399.1331411295581
 30
0.0
 10
117.072648109259
 20
-399.4482549591412
 30
0.0
 10
117.0994638981085
 20
-399.8078308368025
 30
0.0
 10
117.5074300162963
 20
-400.0411060414472
 30
0.0
 10
117.7226080821494
 20
-400.0231068345292
 30
0.0
 10
118.2347473793425
 20
-400.0317207656676
 30
0.0
  0
LINE
  5
120
330
2
100
AcDbEntity
  8
0
100
AcDbLine
 10
115.2913701335135
 20
-393.6417560887868
 30
0.0
 11
115.7725577829061
 21
-399.1417560887868
 31
0.0
  0
ENDSEC
  0
SECTION
  2
OBJECTS
  0
DICTIONARY
  5
7
330
0
100
AcDbDictionary
  3
ACAD_GROUP
350
2D
  3
ACAD_LAYOUT
350
B
  3
ACAD_MLINESTYLE
350
2E
  3
ACAD_PLOTSETTINGS
350
2F
  3
ACAD_PLOTSTYLENAME
350
6
  3
ACDBHEADERROUNDTRIPXREC
350
193
  3
ACDBVARIABLEDICTIONARY
350
A4
  0
DICTIONARY
  5
11
330
10
100
AcDbDictionary
280
     1
  3
ACAD_LAYERFILTERS
360
12
  0
DICTIONARY
  5
B6
330
2
100
AcDbDictionary
280
     1
  3
ACAD_LAYOUTSELFREF
360
1B4
  0
DICTIONARY
  5
B8
330
C
100
AcDbDictionary
280
     1
  3
ACAD_LAYOUTSELFREF
360
1B5
  0
DICTIONARY
  5
2D
102
{ACAD_REACTORS
330
7
102
}
330
7
100
AcDbDictionary
  0
DICTIONARY
  5
B
102
{ACAD_REACTORS
330
7
102
}
330
7
100
AcDbDictionary
  0
DICTIONARY
  5
2E
102
{ACAD_REACTORS
330
7
102
}
330
7
100
AcDbDictionary
  3
STANDARD
350
31
  0
DICTIONARY
  5
2F
102
{ACAD_REACTORS
330
7
102
}
330
7
100
AcDbDictionary
  0
ACDBDICTIONARYWDFLT
  5
6
102
{ACAD_REACTORS
330
7
102
}
330
7
100
AcDbDictionary
281
     1
  3
Normal
350
5
100
AcDbDictionaryWithDefault
340
5
  0
DICTIONARY
  5
193
102
{ACAD_REACTORS
330
7
102
}
330
7
100
AcDbDictionary
  3
CEPSNTYPE
350
19D
  3
DIMSTYLEDATA
350
1A1
  3
FINGERPRINTGUID
350
19E
  3
HYPERLINKBASE
350
196
  3
INSUNITS
350
19C
  3
LAYOUTDICT
350
198
  3
LWETCUNION
350
19B
  3
PLOTSETDICT
350
199
  3
PLOTSTYLNAMDICT
350
19A
  3
PSVPSCALE
350
1A0
  3
PUCSBASE
350
1A4
  3
PUCSORGBACK
350
1AA
  3
PUCSORGBOTTOM
350
1A6
  3
PUCSORGFRONT
350
1A9
  3
PUCSORGLEFT
350
1A7
  3
PUCSORGRIGHT
350
1A8
  3
PUCSORGTOP
350
1A5
  3
PUCSORTHOREF
350
1A2
  3
PUCSORTHOVIEW
350
1A3
  3
STYLESHEET
350
197
  3
TSTACKALIGN
350
194
  3
TSTACKSIZE
350
195
  3
UCSBASE
350
1AD
  3
UCSORGBACK
350
1B3
  3
UCSORGBOTTOM
350
1AF
  3
UCSORGFRONT
350
1B2
  3
UCSORGLEFT
350
1B0
  3
UCSORGRIGHT
350
1B1
  3
UCSORGTOP
350
1AE
  3
UCSORTHOREF
350
1AB
  3
UCSORTHOVIEW
350
1AC
  3
VERSIONGUID
350
19F
  0
DICTIONARY
  5
A4
102
{ACAD_REACTORS
330
7
102
}
330
7
100
AcDbDictionary
  3
DIMASSOC
350
A6
  3
HIDETEXT
350
A5
  0
DICTIONARY
  5
12
102
{ACAD_REACTORS
330
11
102
}
330
11
100
AcDbDictionary
280
     1
  3
DIM-1_12
360
13
  3
DIM-1_16
360
14
  0
XRECORD
  5
1B4
102
{ACAD_REACTORS
330
B6
102
}
330
B6
100
AcDbXrecord
340
2
  0
XRECORD
  5
1B5
102
{ACAD_REACTORS
330
B8
102
}
330
B8
100
AcDbXrecord
340
C
  0
MLINESTYLE
  5
31
102
{ACAD_REACTORS
330
2E
102
}
330
2E
100
AcDbMlineStyle
  2
STANDARD
 70
     0
  3

 62
   256
 51
90.0
 52
90.0
 71
     2
 49
0.5
 62
   256
  6
BYLAYER
 49
-0.5
 62
   256
  6
BYLAYER
  0
ACDBPLACEHOLDER
  5
5
102
{ACAD_REACTORS
330
6
102
}
330
6
100
AcDbPlaceHolder
280
     0
  0
XRECORD
  5
19D
102
{ACAD_REACTORS
330
193
102
}
330
193
100
AcDbXrecord
 90
        0
  0
XRECORD
  5
1A1
102
{ACAD_REACTORS
330
193
102
}
330
193
100
AcDbXrecord
1000
DSTYLE
1002
{
1070
    79
 70
     1
1070
   276
 70
     1
1070
   277
 70
     5
1002
}
  0
XRECORD
  5
19E
102
{ACAD_REACTORS
330
193
102
}
330
193
100
AcDbXrecord
  1
{5F719058-2B28-11D4-A9E6-00A083372445}
  0
XRECORD
  5
196
102
{ACAD_REACTORS
330
193
102
}
330
193
100
AcDbXrecord
  1

  0
XRECORD
  5
19C
102
{ACAD_REACTORS
330
193
102
}
330
193
100
AcDbXrecord
 90
        1
  0
XRECORD
  5
198
102
{ACAD_REACTORS
330
193
102
}
330
193
100
AcDbXrecord
340
B
  0
XRECORD
  5
19B
102
{ACAD_REACTORS
330
193
102
}
330
193
100
AcDbXrecord
 90
    10781
  0
XRECORD
  5
199
102
{ACAD_REACTORS
330
193
102
}
330
193
100
AcDbXrecord
340
2F
  0
XRECORD
  5
19A
102
{ACAD_REACTORS
330
193
102
}
330
193
100
AcDbXrecord
340
6
  0
XRECORD
  5
1A0
102
{ACAD_REACTORS
330
193
102
}
330
193
100
AcDbXrecord
 40
0.0
  0
XRECORD
  5
1A4
102
{ACAD_REACTORS
330
193
102
}
330
193
100
AcDbXrecord
340
0
  0
XRECORD
  5
1AA
102
{ACAD_REACTORS
330
193
102
}
330
193
100
AcDbXrecord
 10
0.0
 20
0.0
 30
0.0
  0
XRECORD
  5
1A6
102
{ACAD_REACTORS
330
193
102
}
330
193
100
AcDbXrecord
 10
0.0
 20
0.0
 30
0.0
  0
XRECORD
  5
1A9
102
{ACAD_REACTORS
330
193
102
}
330
193
100
AcDbXrecord
 10
0.0
 20
0.0
 30
0.0
  0
XRECORD
  5
1A7
102
{ACAD_REACTORS
330
193
102
}
330
193
100
AcDbXrecord
 10
0.0
 20
0.0
 30
0.0
  0
XRECORD
  5
1A8
102
{ACAD_REACTORS
330
193
102
}
330
193
100
AcDbXrecord
 10
0.0
 20
0.0
 30
0.0
  0
XRECORD
  5
1A5
102
{ACAD_REACTORS
330
193
102
}
330
193
100
AcDbXrecord
 10
0.0
 20
0.0
 30
0.0
  0
XRECORD
  5
1A2
102
{ACAD_REACTORS
330
193
102
}
330
193
100
AcDbXrecord
340
0
  0
XRECORD
  5
1A3
102
{ACAD_REACTORS
330
193
102
}
330
193
100
AcDbXrecord
 70
     0
  0
XRECORD
  5
197
102
{ACAD_REACTORS
330
193
102
}
330
193
100
AcDbXrecord
  1

  0
XRECORD
  5
194
102
{ACAD_REACTORS
330
193
102
}
330
193
100
AcDbXrecord
 90
        1
  0
XRECORD
  5
195
102
{ACAD_REACTORS
330
193
102
}
330
193
100
AcDbXrecord
 90
       70
  0
XRECORD
  5
1AD
102
{ACAD_REACTORS
330
193
102
}
330
193
100
AcDbXrecord
340
0
  0
XRECORD
  5
1B3
102
{ACAD_REACTORS
330
193
102
}
330
193
100
AcDbXrecord
 10
0.0
 20
0.0
 30
0.0
  0
XRECORD
  5
1AF
102
{ACAD_REACTORS
330
193
102
}
330
193
100
AcDbXrecord
 10
0.0
 20
0.0
 30
0.0
  0
XRECORD
  5
1B2
102
{ACAD_REACTORS
330
193
102
}
330
193
100
AcDbXrecord
 10
0.0
 20
0.0
 30
0.0
  0
XRECORD
  5
1B0
102
{ACAD_REACTORS
330
193
102
}
330
193
100
AcDbXrecord
 10
0.0
 20
0.0
 30
0.0
  0
XRECORD
  5
1B1
102
{ACAD_REACTORS
330
193
102
}
330
193
100
AcDbXrecord
 10
0.0
 20
0.0
 30
0.0
  0
XRECORD
  5
1AE
102
{ACAD_REACTORS
330
193
102
}
330
193
100
AcDbXrecord
 10
0.0
 20
0.0
 30
0.0
  0
XRECORD
  5
1AB
102
{ACAD_REACTORS
330
193
102
}
330
193
100
AcDbXrecord
340
0
  0
XRECORD
  5
1AC
102
{ACAD_REACTORS
330
193
102
}
330
193
100
AcDbXrecord
 70
     0
  0
XRECORD
  5
19F
102
{ACAD_REACTORS
330
193
102
}
330
193
100
AcDbXrecord
  1
{BAC6319A-65E8-4518-8E11-6C9A7862003F}
  0
DICTIONARYVAR
  5
A6
102
{ACAD_REACTORS
330
A4
102
}
330
A4
100
DictionaryVariables
280
     0
  1
1
  0
DICTIONARYVAR
  5
A5
102
{ACAD_REACTORS
330
A4
102
}
330
A4
100
DictionaryVariables
280
     0
  1
1
  0
XRECORD
  5
13
102
{ACAD_REACTORS
330
12
102
}
330
12
100
AcDbXrecord
  1
DIM-1_12
  1
DIM-1_12
  1
*
  1
*
 70
     0
  1
*
  1
*
  0
XRECORD
  5
14
102
{ACAD_REACTORS
330
12
102
}
330
12
100
AcDbXrecord
  1
dim-1_16
  1
*
  1
*
  1
*
 70
     0
  1
*
  1
*
  0
ENDSEC
  0
EOF
