  0
SECTION
  2
HEADER
  9
$ACADVER
  1
AC1014
  9
$ACADMAINTVER
 70
     9
  9
$DWGCODEPAGE
  3
ANSI_1252
  9
$INSBASE
 10
61.01633505236861
 20
104.7949583744191
 30
0.0
  9
$EXTMIN
 10
3.10445728932251
 20
86.76851835719459
 30
-3.74939455859617
  9
$EXTMAX
 10
69.05590529677403
 20
122.822146160133
 30
0.5249273941828215
  9
$LIMMIN
 10
0.0
 20
0.0
  9
$LIMMAX
 10
187.3118571637889
 20
134.3269220688476
  9
$ORTHOMODE
 70
     1
  9
$REGENMODE
 70
     1
  9
$FILLMODE
 70
     1
  9
$QTEXTMODE
 70
     0
  9
$MIRRTEXT
 70
     1
  9
$DRAGMODE
 70
     2
  9
$LTSCALE
 40
2.0
  9
$OSMODE
 70
    55
  9
$ATTMODE
 70
     1
  9
$TEXTSIZE
 40
0.08
  9
$TRACEWID
 40
1.0
  9
$TEXTSTYLE
  7
CARTOUCHE
  9
$CLAYER
  8
0
  9
$CELTYPE
  6
BYLAYER
  9
$CECOLOR
 62
   256
  9
$CELTSCALE
 40
0.1
  9
$DELOBJ
 70
     1
  9
$DISPSILH
 70
     0
  9
$DIMSCALE
 40
16.0
  9
$DIMASZ
 40
0.1
  9
$DIMEXO
 40
0.0625
  9
$DIMDLI
 40
0.25
  9
$DIMRND
 40
0.0
  9
$DIMDLE
 40
0.0
  9
$DIMEXE
 40
0.1
  9
$DIMTP
 40
0.0
  9
$DIMTM
 40
0.0
  9
$DIMTXT
 40
0.1
  9
$DIMCEN
 40
0.0625
  9
$DIMTSZ
 40
0.0
  9
$DIMTOL
 70
     0
  9
$DIMLIM
 70
     0
  9
$DIMTIH
 70
     1
  9
$DIMTOH
 70
     1
  9
$DIMSE1
 70
     0
  9
$DIMSE2
 70
     0
  9
$DIMTAD
 70
     0
  9
$DIMZIN
 70
    12
  9
$DIMBLK
  1

  9
$DIMASO
 70
     1
  9
$DIMSHO
 70
     1
  9
$DIMPOST
  1
\X
  9
$DIMAPOST
  1
cm
  9
$DIMALT
 70
     1
  9
$DIMALTD
 70
     1
  9
$DIMALTF
 40
2.54
  9
$DIMLFAC
 40
1.0
  9
$DIMTOFL
 70
     0
  9
$DIMTVP
 40
0.0
  9
$DIMTIX
 70
     0
  9
$DIMSOXD
 70
     0
  9
$DIMSAH
 70
     0
  9
$DIMBLK1
  1

  9
$DIMBLK2
  1

  9
$DIMSTYLE
  2
STANDARD
  9
$DIMCLRD
 70
     0
  9
$DIMCLRE
 70
     0
  9
$DIMCLRT
 70
     0
  9
$DIMTFAC
 40
1.0
  9
$DIMGAP
 40
0.08
  9
$DIMJUST
 70
     0
  9
$DIMSD1
 70
     0
  9
$DIMSD2
 70
     0
  9
$DIMTOLJ
 70
     1
  9
$DIMTZIN
 70
     4
  9
$DIMALTZ
 70
    12
  9
$DIMALTTZ
 70
     4
  9
$DIMFIT
 70
     3
  9
$DIMUPT
 70
     0
  9
$DIMUNIT
 70
     5
  9
$DIMDEC
 70
     3
  9
$DIMTDEC
 70
     3
  9
$DIMALTU
 70
     2
  9
$DIMALTTD
 70
     1
  9
$DIMTXSTY
  7
ROMANS
  9
$DIMAUNIT
 70
     0
  9
$LUNITS
 70
     2
  9
$LUPREC
 70
     2
  9
$SKETCHINC
 40
1.0
  9
$FILLETRAD
 40
0.125
  9
$AUNITS
 70
     0
  9
$AUPREC
 70
     0
  9
$MENU
  1
.
  9
$ELEVATION
 40
0.0
  9
$PELEVATION
 40
0.0
  9
$THICKNESS
 40
0.0
  9
$LIMCHECK
 70
     0
  9
$BLIPMODE
 70
     0
  9
$CHAMFERA
 40
10.0
  9
$CHAMFERB
 40
10.0
  9
$CHAMFERC
 40
20.0
  9
$CHAMFERD
 40
0.0
  9
$SKPOLY
 70
     0
  9
$TDCREATE
 40
2452053.367185764
  9
$TDUPDATE
 40
2453686.664506910
  9
$TDINDWG
 40
1.5320270486
  9
$TDUSRTIMER
 40
1.5320239236
  9
$USRTIMER
 70
     1
  9
$ANGBASE
 50
0.0
  9
$ANGDIR
 70
     0
  9
$PDMODE
 70
    33
  9
$PDSIZE
 40
0.25
  9
$PLINEWID
 40
0.0
  9
$COORDS
 70
     1
  9
$SPLFRAME
 70
     0
  9
$SPLINETYPE
 70
     6
  9
$SPLINESEGS
 70
     8
  9
$ATTDIA
 70
     0
  9
$ATTREQ
 70
     1
  9
$HANDLING
 70
 22529
  9
$HANDSEED
  5
175
  9
$SURFTAB1
 70
     6
  9
$SURFTAB2
 70
     6
  9
$SURFTYPE
 70
     6
  9
$SURFU
 70
     6
  9
$SURFV
 70
     6
  9
$UCSNAME
  2

  9
$UCSORG
 10
0.0
 20
0.0
 30
0.0
  9
$UCSXDIR
 10
1.0
 20
0.0
 30
0.0
  9
$UCSYDIR
 10
0.0
 20
1.0
 30
0.0
  9
$PUCSNAME
  2

  9
$PUCSORG
 10
0.0
 20
0.0
 30
0.0
  9
$PUCSXDIR
 10
1.0
 20
0.0
 30
0.0
  9
$PUCSYDIR
 10
0.0
 20
1.0
 30
0.0
  9
$USERI1
 70
     0
  9
$USERI2
 70
     0
  9
$USERI3
 70
     0
  9
$USERI4
 70
     0
  9
$USERI5
 70
     0
  9
$USERR1
 40
0.0
  9
$USERR2
 40
0.0
  9
$USERR3
 40
0.0
  9
$USERR4
 40
0.0
  9
$USERR5
 40
0.0
  9
$WORLDVIEW
 70
     1
  9
$SHADEDGE
 70
     3
  9
$SHADEDIF
 70
    70
  9
$TILEMODE
 70
     1
  9
$MAXACTVP
 70
    48
  9
$PINSBASE
 10
0.0
 20
0.0
 30
0.0
  9
$PLIMCHECK
 70
     0
  9
$PEXTMIN
 10
1.100416626517228
 20
0.7937499988736132
 30
0.0
  9
$PEXTMAX
 10
9.903749638655053
 20
7.143749989862516
 30
0.0
  9
$PLIMMIN
 10
-0.5312499849815068
 20
-0.1645829921632301
  9
$PLIMMAX
 10
11.15874981316994
 20
8.10208345022727
  9
$UNITMODE
 70
     0
  9
$VISRETAIN
 70
     1
  9
$PLINEGEN
 70
     0
  9
$PSLTSCALE
 70
     1
  9
$TREEDEPTH
 70
  3020
  9
$PICKSTYLE
 70
     1
  9
$CMLSTYLE
  2
STANDARD
  9
$CMLJUST
 70
     0
  9
$CMLSCALE
 40
20.0
  9
$PROXYGRAPHICS
 70
     1
  9
$MEASUREMENT
 70
     0
  0
ENDSEC
  0
SECTION
  2
CLASSES
  0
CLASS
  1
ACDBDICTIONARYWDFLT
  2
AcDbDictionaryWithDefault
  3
AutoCAD 2000
 90
        0
280
     0
281
     0
  0
CLASS
  1
ACDBPLACEHOLDER
  2
AcDbPlaceHolder
  3
AutoCAD 2000
 90
        0
280
     0
281
     0
  0
CLASS
  1
LAYOUT
  2
AcDbLayout
  3
AutoCAD 2000
 90
        0
280
     0
281
     0
  0
CLASS
  1
DICTIONARYVAR
  2
AcDbDictionaryVar
  3
AutoCAD 2000
 90
        0
280
     0
281
     0
  0
CLASS
  1
IMAGEDEF
  2
AcDbRasterImageDef
  3
ISM
 90
        0
280
     0
281
     0
  0
CLASS
  1
LONG_TRANSACTION
  2
AcDbLongTransaction
  3
AutoCAD 2000
 90
        0
280
     0
281
     0
  0
CLASS
  1
LWPOLYLINE
  2
AcDbPolyline
  3
AutoCAD 2000
 90
        0
280
     0
281
     1
  0
CLASS
  1
HATCH
  2
AcDbHatch
  3
AutoCAD 2000
 90
        0
280
     0
281
     1
  0
CLASS
  1
XRECORD
  2
AcDbXrecord
  3
AutoCAD 2000
 90
        0
280
     0
281
     0
  0
CLASS
  1
LONG_TRANSACTION
  2
AcDbLongTransaction
  3
AutoCAD 2000
 90
        0
280
     0
281
     0
  0
CLASS
  1
LWPOLYLINE
  2
AcDbPolyline
  3
AutoCAD 2000
 90
        0
280
     0
281
     1
  0
CLASS
  1
HATCH
  2
AcDbHatch
  3
AutoCAD 2000
 90
        0
280
     0
281
     1
  0
CLASS
  1
XRECORD
  2
AcDbXrecord
  3
AutoCAD 2000
 90
        0
280
     0
281
     0
  0
ENDSEC
  0
SECTION
  2
TABLES
  0
TABLE
  2
VPORT
  5
1D
330
0
100
AcDbSymbolTable
 70
     3
  0
VPORT
  5
151
330
1D
100
AcDbSymbolTableRecord
100
AcDbViewportTableRecord
  2
*ACTIVE
 70
     0
 10
0.0
 20
0.0
 11
1.0
 21
1.0
 12
36.0801811725226
 22
104.7953322173996
 13
0.0
 23
0.0
 14
10.0
 24
10.0
 15
10.0
 25
10.0
 16
0.0
 26
0.0
 36
1.0
 17
0.0
 27
0.0
 37
0.0
 40
44.94417044051663
 41
1.786792452830188
 42
50.0
 43
0.0
 44
0.0
 50
0.0
 51
0.0
 71
     0
 72
   100
 73
     1
 74
     3
 75
     0
 76
     0
 77
     0
 78
     0
  0
ENDTAB
  0
TABLE
  2
LTYPE
  5
18
330
0
100
AcDbSymbolTable
 70
     2
  0
LTYPE
  5
19
330
18
100
AcDbSymbolTableRecord
100
AcDbLinetypeTableRecord
  2
BYBLOCK
 70
     0
  3

 72
    65
 73
     0
 40
0.0
  0
LTYPE
  5
1A
330
18
100
AcDbSymbolTableRecord
100
AcDbLinetypeTableRecord
  2
BYLAYER
 70
     0
  3

 72
    65
 73
     0
 40
0.0
  0
LTYPE
  5
8
330
18
100
AcDbSymbolTableRecord
100
AcDbLinetypeTableRecord
  2
CONTINUOUS
 70
     0
  3
Solid line
 72
    65
 73
     0
 40
0.0
  0
LTYPE
  5
67
330
18
100
AcDbSymbolTableRecord
100
AcDbLinetypeTableRecord
  2
CENTER
 70
     0
  3
Center ____ _ ____ _ ____ _ ____ _ ____ _ ____
 72
    65
 73
     4
 40
50.8
 49
31.75
 74
     0
 49
-6.349999999999999
 74
     0
 49
6.349999999999999
 74
     0
 49
-6.349999999999999
 74
     0
  0
ENDTAB
  0
TABLE
  2
LAYER
  5
10
102
{ACAD_XDICTIONARY
360
11
102
}
330
0
100
AcDbSymbolTable
 70
     3
  0
LAYER
  5
4
330
10
100
AcDbSymbolTableRecord
100
AcDbLayerTableRecord
  2
0
 70
     0
 62
     7
  6
CONTINUOUS
  0
LAYER
  5
66
330
10
100
AcDbSymbolTableRecord
100
AcDbLayerTableRecord
  2
CENTER
 70
     0
 62
     1
  6
CENTER
  0
LAYER
  5
FB
330
10
100
AcDbSymbolTableRecord
100
AcDbLayerTableRecord
  2
DEFPOINTS
 70
     0
 62
     7
  6
CONTINUOUS
  0
ENDTAB
  0
TABLE
  2
STYLE
  5
15
330
0
100
AcDbSymbolTable
 70
     3
  0
STYLE
  5
16
330
15
100
AcDbSymbolTableRecord
100
AcDbTextStyleTableRecord
  2
STANDARD
 70
     0
 40
0.0
 41
1.0
 50
0.0
 71
     0
 42
0.125
  3
txt
  4

  0
STYLE
  5
2A
330
15
100
AcDbSymbolTableRecord
100
AcDbTextStyleTableRecord
  2
CARTOUCHE
 70
     0
 40
0.0
 41
1.0
 50
0.0
 71
     0
 42
0.08
  3
romans.shx
  4

  0
STYLE
  5
23
330
15
100
AcDbSymbolTableRecord
100
AcDbTextStyleTableRecord
  2
ROMANS
 70
     0
 40
0.0
 41
1.0
 50
0.0
 71
     0
 42
1.0
  3
romans.shx
  4

  0
ENDTAB
  0
TABLE
  2
VIEW
  5
1B
330
0
100
AcDbSymbolTable
 70
     0
  0
ENDTAB
  0
TABLE
  2
UCS
  5
1C
330
0
100
AcDbSymbolTable
 70
     0
  0
ENDTAB
  0
TABLE
  2
APPID
  5
1F
330
0
100
AcDbSymbolTable
 70
     3
  0
APPID
  5
20
330
1F
100
AcDbSymbolTableRecord
100
AcDbRegAppTableRecord
  2
ACAD
 70
     0
  0
APPID
  5
A3
330
1F
100
AcDbSymbolTableRecord
100
AcDbRegAppTableRecord
  2
DCO15
 70
     0
  0
ENDTAB
  0
TABLE
  2
DIMSTYLE
  5
21
330
0
100
AcDbSymbolTable
 70
     1
  0
DIMSTYLE
105
22
330
21
100
AcDbSymbolTableRecord
100
AcDbDimStyleTableRecord
  2
STANDARD
 70
     0
  3
\X
  4
cm
  5

  6

  7

 40
16.0
 41
0.1
 42
0.0625
 43
0.25
 44
0.1
 45
0.0
 46
0.0
 47
0.0
 48
0.0
140
0.1
141
0.0625
142
0.0
143
2.54
144
1.0
145
0.0
146
1.0
147
0.08
 71
     0
 72
     0
 73
     1
 74
     1
 75
     0
 76
     0
 77
     0
 78
    12
170
     1
171
     1
172
     0
173
     0
174
     0
175
     0
176
     0
177
     0
178
     0
270
     5
271
     3
272
     3
273
     2
274
     1
340
23
275
     0
280
     0
281
     0
282
     0
283
     1
284
     4
285
    12
286
     4
287
     3
288
     0
  0
ENDTAB
  0
TABLE
  2
BLOCK_RECORD
  5
1
330
0
100
AcDbSymbolTable
 70
     1
  0
BLOCK_RECORD
  5
2
102
{ACAD_XDICTIONARY
360
AB
102
}
330
1
100
AcDbSymbolTableRecord
100
AcDbBlockTableRecord
  2
*MODEL_SPACE
  0
BLOCK_RECORD
  5
97
102
{ACAD_XDICTIONARY
360
AD
102
}
330
1
100
AcDbSymbolTableRecord
100
AcDbBlockTableRecord
  2
*PAPER_SPACE
  0
ENDTAB
  0
ENDSEC
  0
SECTION
  2
BLOCKS
  0
BLOCK
  5
3
330
2
100
AcDbEntity
  8
0
100
AcDbBlockBegin
  2
*MODEL_SPACE
 70
     0
 10
0.0
 20
0.0
 30
0.0
  3
*MODEL_SPACE
  1

  0
ENDBLK
  5
9
330
2
100
AcDbEntity
  8
0
100
AcDbBlockEnd
  0
BLOCK
  5
99
330
97
100
AcDbEntity
 67
     1
  8
0
 48
0.1
100
AcDbBlockBegin
  2
*PAPER_SPACE
 70
     0
 10
0.0
 20
0.0
 30
0.0
  3
*PAPER_SPACE
  1

  0
ENDBLK
  5
9A
330
97
100
AcDbEntity
 67
     1
  8
0
 48
0.1
100
AcDbBlockEnd
  0
ENDSEC
  0
SECTION
  2
ENTITIES
  0
LINE
  5
2C
330
2
100
AcDbEntity
  8
0
 48
0.1
100
AcDbLine
 10
41.56494721267718
 20
94.93298298171623
 30
-0.4421615457598991
 11
38.13342363004855
 21
94.86036837623425
 31
-3.66191605574677
  0
LINE
  5
2D
330
2
100
AcDbEntity
  8
0
 48
0.1
100
AcDbLine
 10
40.77402807853004
 20
93.90587791607579
 30
-1.037693541017671
 11
37.97593726294365
 21
93.84666740628793
 31
-3.663106220226426
  0
LINE
  5
2E
330
2
100
AcDbEntity
  8
0
 48
0.1
100
AcDbLine
 10
40.77402807853004
 20
93.90587791607579
 30
-1.037693541017671
 11
37.97593726294365
 21
93.84666740628793
 31
-3.663106220226426
210
0.0659609224480378
220
-0.9966756081303714
230
-0.047821426868698
  0
LINE
  5
2F
330
2
100
AcDbEntity
  8
0
 48
0.1
100
AcDbLine
 10
40.77402807853004
 20
115.435937863636
 30
-1.037693541017671
 11
37.97593726294365
 21
115.4951483734239
 31
-3.663106220226426
210
0.0659609224480378
220
0.9966756081303714
230
-0.047821426868698
  0
LINE
  5
30
330
2
100
AcDbEntity
  8
0
 48
0.1
100
AcDbLine
 10
40.77402807853004
 20
115.435937863636
 30
-1.037693541017671
 11
37.97593726294365
 21
115.4951483734239
 31
-3.663106220226426
  0
LINE
  5
31
330
2
100
AcDbEntity
  8
0
 48
0.1
100
AcDbLine
 10
41.56494721267718
 20
114.4088327979956
 30
-0.4421615457598991
 11
38.13342363004855
 21
114.4814474034776
 31
-3.66191605574677
  0
ELLIPSE
  5
32
330
2
100
AcDbEntity
  8
0
 48
0.1
100
AcDbEllipse
 10
37.94295680171964
 20
94.34500521035312
 30
-3.639195506792075
 11
-0.5958594388078185
 21
-0.045400964842551
 31
0.1243500330374837
210
-0.2066028976677759
220
0.0332454588720808
230
-0.9778598990344494
 40
0.8191520442889917
 41
-1.570796326794889
 42
1.570796326794891
  0
ELLIPSE
  5
33
330
2
100
AcDbEntity
  8
0
 48
0.1
100
AcDbEllipse
 10
37.94295680171964
 20
94.34500521035312
 30
-3.639195506792075
 11
-0.5958594388078185
 21
-0.045400964842551
 31
0.1243500330374837
210
-0.2066028976677759
220
0.0332454588720808
230
-0.9778598990344494
 40
0.8191520442889917
 41
-1.570796326794889
 42
1.570796326794891
  0
CIRCLE
  5
34
330
2
100
AcDbEntity
  8
0
 48
0.1
100
AcDbCircle
 10
-99.24329804520482
 20
-23.02817778985607
 30
-1.144000981310361
 40
0.125
210
-0.2066028976677757
220
0.0332454588720807
230
-0.9778598990344493
  0
CIRCLE
  5
35
330
2
100
AcDbEntity
  8
0
 48
0.1
100
AcDbCircle
 10
-99.24329804520487
 20
-23.02817778985604
 30
-1.144000981310363
 40
0.234375
210
-0.2066028976677759
220
0.0332454588720807
230
-0.9778598990344494
  0
LINE
  5
36
330
2
100
AcDbEntity
  8
0
 48
0.1
100
AcDbLine
 10
37.90997634049563
 20
94.84334301441831
 30
-3.615284793357721
 11
38.13342363004855
 21
94.86036837623425
 31
-3.66191605574677
210
-0.2066028976677759
220
0.0332454588720807
230
-0.9778598990344494
  0
ELLIPSE
  5
37
330
2
100
AcDbEntity
  8
0
 48
0.1
100
AcDbEllipse
 10
37.94295680171964
 20
114.9968105693587
 30
-3.639195506792075
 11
-0.5958594388078185
 21
0.045400964842551
 31
0.1243500330374837
210
0.2066028976677759
220
0.0332454588720808
230
0.9778598990344494
 40
0.8191520442889917
 41
-1.570796326794889
 42
1.570796326794891
  0
ELLIPSE
  5
38
330
2
100
AcDbEntity
  8
0
 48
0.1
100
AcDbEllipse
 10
37.94295680171964
 20
114.9968105693587
 30
-3.639195506792075
 11
-0.5958594388078185
 21
0.045400964842551
 31
0.1243500330374837
210
0.2066028976677759
220
0.0332454588720808
230
0.9778598990344494
 40
0.8191520442889917
 41
-1.570796326794889
 42
1.570796326794891
  0
CIRCLE
  5
39
330
2
100
AcDbEntity
  8
0
 48
0.1
100
AcDbCircle
 10
-107.4397387379369
 20
-55.55018890443952
 30
-8.103665708021461
 40
0.125
210
-0.2066028976677757
220
-0.0332454588720807
230
-0.9778598990344493
  0
CIRCLE
  5
3A
330
2
100
AcDbEntity
  8
0
 48
0.1
100
AcDbCircle
 10
-107.4397387379368
 20
-55.55018890443946
 30
-8.103665708021464
 40
0.234375
210
-0.2066028976677759
220
-0.0332454588720807
230
-0.9778598990344494
  0
LINE
  5
3B
330
2
100
AcDbEntity
  8
0
 48
0.1
100
AcDbLine
 10
37.90997634049563
 20
114.4984727652935
 30
-3.615284793357721
 11
38.13342363004855
 21
114.4814474034776
 31
-3.66191605574677
210
-0.2066028976677759
220
-0.0332454588720807
230
-0.9778598990344494
  0
LWPOLYLINE
  5
3C
330
2
100
AcDbEntity
  8
0
 48
0.1
100
AcDbPolyline
 90
        8
 70
     0
 43
0.0
 10
69.01633505236862
 20
122.6699583744191
 10
69.01633505236863
 20
86.91995837441917
 42
-0.4142135623730951
 10
68.89133505236863
 20
86.79495837441917
 10
3.266335052368617
 20
86.79495837441917
 42
-0.4142135623730951
 10
3.141335052368617
 20
86.91995837441918
 10
3.141335052368617
 20
122.6699583744191
 42
-0.4142135623730951
 10
3.266335052368617
 20
122.7949583744191
 10
68.89133505236863
 20
122.7949583744192
  0
SPLINE
  5
3D
330
2
100
AcDbEntity
  8
0
 48
0.1
100
AcDbSpline
210
0.0
220
0.0
230
1.0
 70
     8
 71
     3
 72
    17
 73
    13
 74
    11
 42
0.0000000001
 43
0.0000000001
 44
0.0000000001
 12
0.0
 22
1.0
 32
0.0
 40
0.0
 40
0.0
 40
0.0
 40
0.0
 40
3.893346360423166
 40
11.01934003016835
 40
20.41769664426034
 40
27.20550639206876
 40
36.10056484355906
 40
48.75519900145699
 40
54.45660265473984
 40
58.75898888049452
 40
63.00633860501704
 40
65.69750869231817
 40
65.69750869231817
 40
65.69750869231817
 40
65.69750869231817
 10
14.01696290299714
 20
104.6709078898559
 30
0.0
 10
14.01696290299714
 20
105.968690009997
 30
0.0
 10
14.2270610385517
 20
109.6083119700202
 30
0.0
 10
17.78811893014938
 20
116.452880719865
 30
0.0
 10
26.7714873696635
 20
116.4538888746984
 30
0.0
 10
34.50800579728454
 20
113.8569117343762
 30
0.0
 10
44.25045583351135
 20
113.2822206609831
 30
0.0
 10
52.79400355768845
 20
116.704535298459
 30
0.0
 10
60.80297941162753
 20
115.4888886683441
 30
0.0
 10
63.95897578137833
 20
111.5594570687344
 30
0.0
 10
64.91936219705542
 20
107.8803892704343
 30
0.0
 10
65.0173734053537
 20
105.5678485367139
 30
0.0
 10
65.05538797317882
 20
104.6709078898559
 30
0.0
 11
14.01696290299714
 21
104.6709078898559
 31
0.0
 11
14.37911684863325
 21
108.5473741159284
 31
0.0
 11
18.04002225933555
 21
114.6610928987265
 31
0.0
 11
27.35785594929535
 21
115.8887257314159
 31
0.0
 11
33.96183749941411
 21
114.3197168537692
 31
0.0
 11
42.84670387252805
 21
113.8940240216259
 31
0.0
 11
55.32248444296289
 21
116.0140864802807
 31
0.0
 11
60.86853494951384
 21
114.6922213599099
 31
0.0
 11
63.67667729817895
 21
111.4326410517725
 31
0.0
 11
64.86691007921359
 21
107.3554697763228
 31
0.0
 11
65.05538797317882
 21
104.6709078898559
 31
0.0
  0
SPLINE
  5
3E
330
2
100
AcDbEntity
  8
0
 48
0.1
100
AcDbSpline
210
0.0
220
0.0
230
1.0
 70
     8
 71
     3
 72
    16
 73
    12
 74
     0
 42
0.0000000001
 43
0.0000000001
 40
9.797128753142949
 40
9.797128753166781
 40
9.797128753166781
 40
9.797128753166781
 40
14.26887419394174
 40
17.07010811142692
 40
22.66034253134038
 40
31.66467629738304
 40
39.76174978861712
 40
44.18261776011012
 40
48.78923732368569
 40
53.44876874101091
 40
57.4223560628144
 40
57.4223560628144
 40
57.4223560628144
 40
57.4223560628144
 10
18.85156551867724
 20
118.9783694634064
 30
0.0
 10
25.52927758610673
 20
119.2685881683228
 30
0.0
 10
30.52560692089087
 20
116.6944578572613
 30
0.0
 10
35.3207290526696
 20
114.7520258661859
 30
0.0
 10
39.99647469899315
 20
114.1263525156443
 30
0.0
 10
46.07815814342433
 20
114.7486221922777
 30
0.0
 10
51.6563476169012
 20
116.6880849453343
 30
0.0
 10
59.99895742126653
 20
117.1598884669876
 30
0.0
 10
64.56378160855689
 20
112.8743402153724
 30
0.0
 10
65.6185942320879
 20
108.983844808452
 30
0.0
 10
65.92778802039226
 20
106.8775793979815
 30
0.0
 10
66.00141843122201
 20
104.6709078898558
 30
0.0
  0
SPLINE
  5
3F
330
2
100
AcDbEntity
  8
0
100
AcDbSpline
210
0.0
220
0.0
230
1.0
 70
     8
 71
     3
 72
    11
 73
     7
 74
     0
 42
0.0000000001
 43
0.0000000001
 40
0.0
 40
0.0
 40
0.0
 40
0.0
 40
3.273101061955124
 40
15.62557025507126
 40
31.6692502518434
 40
36.18954223267659
 40
36.18954223267659
 40
36.18954223267659
 40
36.18954223267659
 10
60.30514435294918
 20
117.1134807431875
 30
0.0
 10
58.09439427533601
 20
118.2220244662095
 30
0.0
 10
49.45146091963023
 20
117.7772007667625
 30
0.0
 10
36.5640507194276
 20
115.0753182901929
 30
0.0
 10
32.18752089578976
 20
119.9318437118484
 30
0.0
 10
21.44530947091298
 20
119.4550880588078
 30
0.0
 10
19.95003155346127
 20
119.2113428916601
 30
0.0
  0
SPLINE
  5
40
330
2
100
AcDbEntity
  8
0
100
AcDbSpline
210
0.0
220
0.0
230
1.0
 70
     8
 71
     3
 72
    11
 73
     7
 74
     0
 42
0.0000000001
 43
0.0000000001
 40
0.0
 40
0.0
 40
0.0
 40
0.0
 40
3.273101061955124
 40
15.62557025507126
 40
31.6692502518434
 40
36.18954223267659
 40
36.18954223267659
 40
36.18954223267659
 40
36.18954223267659
 10
60.30514435294918
 20
92.22833503652426
 30
0.0
 10
58.09439427533601
 20
91.1197913135023
 30
0.0
 10
49.45146091963023
 20
91.56461501294932
 30
0.0
 10
36.5640507194276
 20
94.2664974895189
 30
0.0
 10
32.18752089578976
 20
89.40997206786336
 30
0.0
 10
21.44530947091298
 20
89.88672772090405
 30
0.0
 10
19.95003155346127
 20
90.1304728880517
 30
0.0
  0
SPLINE
  5
41
330
2
100
AcDbEntity
  8
0
 48
0.1
100
AcDbSpline
210
0.0
220
0.0
230
1.0
 70
     8
 71
     3
 72
    16
 73
    12
 74
     0
 42
0.0000000001
 43
0.0000000001
 40
9.797128753142949
 40
9.797128753166781
 40
9.797128753166781
 40
9.797128753166781
 40
14.26887419394174
 40
17.07010811142692
 40
22.66034253134038
 40
31.66467629738304
 40
39.76174978861712
 40
44.18261776011012
 40
48.78923732368569
 40
53.44876874101091
 40
57.4223560628144
 40
57.4223560628144
 40
57.4223560628144
 40
57.4223560628144
 10
18.85156551867724
 20
90.36344631630539
 30
0.0
 10
25.52927758610673
 20
90.07322761138905
 30
0.0
 10
30.52560692089087
 20
92.64735792245053
 30
0.0
 10
35.3207290526696
 20
94.58978991352593
 30
0.0
 10
39.99647469899315
 20
95.21546326406747
 30
0.0
 10
46.07815814342433
 20
94.59319358743416
 30
0.0
 10
51.6563476169012
 20
92.65373083437749
 30
0.0
 10
59.99895742126653
 20
92.18192731272417
 30
0.0
 10
64.56378160855689
 20
96.46747556433941
 30
0.0
 10
65.6185942320879
 20
100.3579709712598
 30
0.0
 10
65.92778802039226
 20
102.4642363817303
 30
0.0
 10
66.00141843122201
 20
104.6709078898559
 30
0.0
  0
SPLINE
  5
42
330
2
100
AcDbEntity
  8
0
 48
0.1
100
AcDbSpline
210
0.0
220
0.0
230
1.0
 70
     8
 71
     3
 72
    17
 73
    13
 74
    11
 42
0.0000000001
 43
0.0000000001
 44
0.0000000001
 12
0.0
 22
-1.0
 32
0.0
 40
0.0
 40
0.0
 40
0.0
 40
0.0
 40
3.893346360423166
 40
11.01934003016835
 40
20.41769664426034
 40
27.20550639206876
 40
36.10056484355906
 40
48.75519900145699
 40
54.45660265473984
 40
58.75898888049452
 40
63.00633860501704
 40
65.69750869231817
 40
65.69750869231817
 40
65.69750869231817
 40
65.69750869231817
 10
14.01696290299714
 20
104.6709078898559
 30
0.0
 10
14.01696290299714
 20
103.3731257697148
 30
0.0
 10
14.2270610385517
 20
99.73350380969161
 30
0.0
 10
17.78811893014938
 20
92.88893505984685
 30
0.0
 10
26.7714873696635
 20
92.88792690501345
 30
0.0
 10
34.50800579728454
 20
95.48490404533561
 30
0.0
 10
44.25045583351135
 20
96.05959511872878
 30
0.0
 10
52.79400355768845
 20
92.63728048125283
 30
0.0
 10
60.80297941162753
 20
93.85292711136772
 30
0.0
 10
63.95897578137833
 20
97.78235871097741
 30
0.0
 10
64.91936219705542
 20
101.4614265092775
 30
0.0
 10
65.0173734053537
 20
103.7739672429979
 30
0.0
 10
65.05538797317882
 20
104.6709078898559
 30
0.0
 11
14.01696290299714
 21
104.6709078898559
 31
0.0
 11
14.37911684863325
 21
100.7944416637834
 31
0.0
 11
18.04002225933555
 21
94.68072288098531
 31
0.0
 11
27.35785594929535
 21
93.45309004829598
 31
0.0
 11
33.96183749941411
 21
95.02209892594262
 31
0.0
 11
42.84670387252805
 21
95.44779175808596
 31
0.0
 11
55.32248444296289
 21
93.32772929943111
 31
0.0
 11
60.86853494951384
 21
94.64959441980195
 31
0.0
 11
63.67667729817895
 21
97.90917472793935
 31
0.0
 11
64.86691007921359
 21
101.986346003389
 31
0.0
 11
65.05538797317882
 21
104.6709078898559
 31
0.0
  0
ARC
  5
43
330
2
100
AcDbEntity
  8
0
100
AcDbCircle
 10
22.58537318780102
 20
104.0796369897369
 30
0.0
 40
15.35947749866453
100
AcDbArc
 50
99.87955426075153
 51
177.7938247006034
  0
ARC
  5
44
330
2
100
AcDbEntity
  8
0
100
AcDbCircle
 10
22.58537318780102
 20
105.2621787899749
 30
0.0
 40
15.35947749866453
100
AcDbArc
 50
182.2061752993965
 51
260.1204457392484
  0
SPLINE
  5
45
330
2
100
AcDbEntity
  8
0
 48
0.1
100
AcDbSpline
210
0.0
220
0.0
230
1.0
 70
     8
 71
     3
 72
    10
 73
     6
 74
     4
 42
0.0000000001
 43
0.0000000001
 44
0.0000000001
 12
0.919271772834203
 22
-0.3936234338428818
 32
0.0
 40
0.0
 40
0.0
 40
0.0
 40
0.0
 40
6.52419543622519
 40
10.87343886262775
 40
14.61033907085113
 40
14.61033907085113
 40
14.61033907085113
 40
14.61033907085113
 10
60.30514435294919
 20
117.1134807431876
 30
0.0
 10
62.30431392127437
 20
116.2574553396312
 30
0.0
 10
65.06396069368955
 20
113.3659256537484
 30
0.0
 10
66.37599382644234
 20
108.617902939358
 30
0.0
 10
66.47240691737002
 20
105.9184315240732
 30
0.0
 10
66.51696290299712
 20
104.670907889856
 30
0.0
 11
60.30514435294919
 21
117.1134807431876
 31
0.0
 11
64.97398141727257
 21
112.5563888462799
 31
0.0
 11
66.24880221751567
 21
108.3981740479111
 31
0.0
 11
66.51696290299712
 21
104.670907889856
 31
0.0
  0
SPLINE
  5
46
330
2
100
AcDbEntity
  8
0
 48
0.1
100
AcDbSpline
 70
     0
 71
     3
 72
    10
 73
     6
 74
     4
 42
0.0000000001
 43
0.0000000001
 44
0.0000000001
 12
0.7291639036539274
 22
0.0154298660407209
 32
0.6841651268824885
 13
0.0651820744168896
 23
-0.9953775071558183
 33
0.0705330803451816
 40
0.0
 40
0.0
 40
0.0
 40
0.0
 40
0.7457801560228853
 40
1.284407931689901
 40
1.580778344877183
 40
1.580778344877183
 40
1.580778344877183
 40
1.580778344877183
 10
41.56494721267718
 20
94.93298298171623
 30
-0.4421615457598991
 10
41.74621253595494
 20
94.93681874435067
 30
-0.2720826207359526
 10
42.18008140699244
 20
94.85298430492472
 30
-0.0389577954182678
 10
42.428751645446
 20
94.31473348918519
 30
0.0171067948418023
 10
42.48767299877637
 20
94.07609457000045
 30
-0.1702806645995354
 10
42.49411234488548
 20
93.97776108897607
 30
-0.1633126918777776
 11
41.56494721267718
 21
94.93298298171623
 31
-0.4421615457598991
 11
42.17189995081623
 21
94.72028178761021
 31
-0.0645974891961112
 11
42.43672163682758
 21
94.25125155901284
 31
-0.0645974891961112
 11
42.49411234488548
 21
93.97776108897607
 31
-0.1633126918777776
  0
ARC
  5
47
330
2
100
AcDbEntity
  8
0
 48
0.1
100
AcDbCircle
 10
47.97912689670542
 20
-4.361231255015861
 30
-89.8545814892555
 40
0.5000000000000001
210
0.0659609224480352
220
-0.9966756081303714
230
-0.0478214268687004
100
AcDbArc
 50
175.8744776342288
 51
223.2315788077712
  0
SPLINE
  5
48
330
2
100
AcDbEntity
  8
0
 48
0.1
100
AcDbSpline
 70
     0
 71
     3
 72
     9
 73
     5
 74
     0
 42
0.0000000001
 43
0.0000000001
 40
0.0
 40
0.0
 40
0.0
 40
0.0
 40
1.294423937454767
 40
1.81469413790114
 40
1.81469413790114
 40
1.81469413790114
 40
1.81469413790114
 10
40.77402807853006
 20
93.90587791607577
 30
-1.03769354101766
 10
41.05534479199552
 20
93.87045395141571
 30
-1.362926410569222
 10
41.34972902721119
 20
93.57274929857764
 30
0.0545585667433565
 10
41.43092895074746
 20
92.97232619744827
 30
0.0493612924052574
 10
41.44851865558663
 20
92.79210576591406
 30
0.0098978017790204
  0
ARC
  5
49
330
2
100
AcDbEntity
  8
0
 48
0.1
100
AcDbCircle
 10
93.52115625294594
 20
-29.97318951514736
 30
31.46995086496122
 40
0.5
210
0.7291639036539272
220
0.015429866040716
230
0.6841651268824888
100
AcDbArc
 50
3.759537958545254
 51
93.75953795854345
  0
ARC
  5
4A
330
2
100
AcDbEntity
  8
0
 48
0.1
100
AcDbCircle
 10
93.52115625294594
 20
-29.97318951514736
 30
31.46995086496122
 40
0.5
210
0.7291639036539272
220
0.015429866040716
230
0.6841651268824888
100
AcDbArc
 50
3.759537958545254
 51
93.75953795854345
  0
ARC
  5
4B
330
2
100
AcDbEntity
  8
0
 48
0.1
100
AcDbCircle
 10
88.43913232460472
 20
37.72840652216689
 30
36.04079906885909
 40
1.0
210
0.6811528156867374
220
0.0799978211698284
230
-0.7277576452982887
100
AcDbArc
 50
3.998328294098556
 51
93.99832829409811
  0
ARC
  5
4C
330
2
100
AcDbEntity
  8
0
 48
0.1
100
AcDbCircle
 10
88.43913232460472
 20
37.72840652216689
 30
36.04079906885909
 40
1.0
210
0.6811528156867374
220
0.0799978211698284
230
-0.7277576452982887
100
AcDbArc
 50
3.998328294098556
 51
93.99832829409811
  0
LINE
  5
4D
330
2
100
AcDbEntity
  8
0
 48
0.1
100
AcDbLine
 10
41.12963511311657
 20
94.37964667559681
 30
0.0342611219483251
 11
40.40047120946262
 21
94.36421680955604
 31
-0.649904004934176
210
-0.6811528156867374
220
-0.0799978211698284
230
0.7277576452982887
  0
LINE
  5
4E
330
2
100
AcDbEntity
  8
0
 48
0.1
100
AcDbLine
 10
41.12963511311657
 20
94.37964667559681
 30
0.0342611219483251
 11
40.40047120946262
 21
94.36421680955604
 31
-0.649904004934176
  0
ARC
  5
4F
330
2
100
AcDbEntity
  8
0
 48
0.1
100
AcDbCircle
 10
-88.43913232460467
 20
37.72840652216688
 30
-36.22829906885907
 40
1.0
210
-0.6811528156867374
220
-0.0799978211698284
230
0.7277576452982887
100
AcDbArc
 50
86.00167170590108
 51
176.0016717059014
  0
ARC
  5
50
330
2
100
AcDbEntity
  8
0
 48
0.1
100
AcDbCircle
 10
-88.43913232460467
 20
37.72840652216688
 30
-36.22829906885907
 40
1.0
210
-0.6811528156867374
220
-0.0799978211698284
230
0.7277576452982887
100
AcDbArc
 50
86.00167170590108
 51
176.0016717059014
  0
ARC
  5
51
330
2
100
AcDbEntity
  8
0
 48
0.1
100
AcDbCircle
 10
-87.51129360751619
 20
36.66111306904742
 30
-35.54079906885906
 40
1.5
210
-0.6811528156867374
220
-0.0799978211698284
230
0.7277576452982887
100
AcDbArc
 50
87.33565060072754
 51
176.0016717059019
  0
ARC
  5
52
330
2
100
AcDbEntity
  8
0
 48
0.1
100
AcDbCircle
 10
87.51129360751619
 20
36.66111306904742
 30
35.54079906885906
 40
1.5
210
0.6811528156867374
220
0.0799978211698284
230
-0.7277576452982887
100
AcDbArc
 50
3.998328294098
 51
92.66434939927247
  0
ARC
  5
53
330
2
100
AcDbEntity
  8
0
 48
0.1
100
AcDbCircle
 10
93.52115625294588
 20
-29.97318951514733
 30
30.4699508649612
 40
0.5
210
0.7291639036539272
220
0.015429866040716
230
0.6841651268824888
100
AcDbArc
 50
93.75953795854668
 51
183.7595379585452
  0
ARC
  5
54
330
2
100
AcDbEntity
  8
0
 48
0.1
100
AcDbCircle
 10
93.52115625294588
 20
-29.97318951514733
 30
30.4699508649612
 40
0.5
210
0.7291639036539272
220
0.015429866040716
230
0.6841651268824888
100
AcDbArc
 50
93.75953795854668
 51
183.7595379585452
  0
LINE
  5
55
330
2
100
AcDbEntity
  8
0
 48
0.1
100
AcDbLine
 10
41.56494721267718
 20
94.93298298171623
 30
-0.4421615457598991
 11
41.43723105973592
 21
94.91798339024688
 31
-0.3057069872664728
  0
LINE
  5
56
330
2
100
AcDbEntity
  8
0
 48
0.1
100
AcDbLine
 10
41.59055864322716
 20
92.92714616557322
 30
-0.424220171357276
 11
41.56915290463198
 21
92.92463217398616
 31
-0.4013498410038823
  0
LINE
  5
57
330
2
100
AcDbEntity
  8
0
 48
0.1
100
AcDbLine
 10
41.59055864322716
 20
92.92714616557322
 30
-0.424220171357276
 11
41.56915290463198
 21
92.92463217398616
 31
-0.4013498410038823
210
-0.7291639036539259
220
-0.0154298660407349
230
-0.6841651268824897
  0
ARC
  5
58
330
2
100
AcDbEntity
  8
0
 48
0.1
100
AcDbCircle
 10
-88.43913232460471
 20
37.72840652216689
 30
-35.54079906885907
 40
0.5
210
-0.6811528156867374
220
-0.0799978211698284
230
0.7277576452982887
100
AcDbArc
 50
86.00167170590351
 51
176.0016717059008
  0
ARC
  5
59
330
2
100
AcDbEntity
  8
0
 48
0.1
100
AcDbCircle
 10
-88.43913232460471
 20
37.72840652216689
 30
-35.54079906885907
 40
0.5
210
-0.6811528156867374
220
-0.0799978211698284
230
0.7277576452982887
100
AcDbArc
 50
86.00167170590351
 51
176.0016717059008
  0
LINE
  5
5A
330
2
100
AcDbEntity
  8
0
 48
0.1
100
AcDbLine
 10
42.4471350166289
 20
92.74727538622265
 30
0.0059806832871298
 11
42.36007203877915
 21
93.95173723962654
 31
0.1941821542539008
  0
LINE
  5
5B
330
2
100
AcDbEntity
  8
0
 48
0.1
100
AcDbLine
 10
42.23235588583789
 20
93.93673764815723
 30
0.3306367127473271
 11
42.31430323636186
 21
92.72473888379705
 31
0.0099643770622413
210
0.7291639036539276
220
0.0154298660407108
230
0.6841651268824885
  0
ARC
  5
5C
330
2
100
AcDbEntity
  8
0
 48
0.1
100
AcDbCircle
 10
48.10755479221198
 20
-4.497842109839836
 30
-90.8545814892553
 40
0.5000000000000001
210
0.0659609224480378
220
-0.9966756081303714
230
-0.047821426868698
100
AcDbArc
 50
358.2315788096112
 51
43.23157880777126
  0
LINE
  5
5D
330
2
100
AcDbEntity
  8
0
 48
0.1
100
AcDbLine
 10
42.57955979706583
 20
92.77903870675615
 30
0.0
 11
42.49411234488547
 21
93.977761088976
 31
-0.1633126918777545
  0
ELLIPSE
  5
5E
330
2
100
AcDbEntity
  8
0
 48
0.1
100
AcDbEllipse
 10
42.02956068689139
 20
94.15377328866226
 30
0.0
 11
1.731499934930232
 21
-0.0208431401994494
 31
0.0
210
0.0
220
0.0
230
1.0
 40
0.8360229656173377
 41
4.379099672880541
 42
5.0456782878889
  0
ARC
  5
5F
330
2
100
AcDbEntity
  8
0
 48
0.1
100
AcDbCircle
 10
47.97912689670563
 20
-4.361231255015631
 30
-90.8545814892553
 40
0.5000000000000001
210
0.0659609224480378
220
-0.9966756081303714
230
-0.047821426868698
100
AcDbArc
 50
43.23157880777245
 51
133.2315788077717
  0
ARC
  5
60
330
2
100
AcDbEntity
  8
0
 48
0.1
100
AcDbCircle
 10
47.97912689670563
 20
-4.361231255015631
 30
-90.8545814892553
 40
0.5000000000000001
210
0.0659609224480378
220
-0.9966756081303714
230
-0.047821426868698
100
AcDbArc
 50
43.23157880777245
 51
133.2315788077717
  0
LINE
  5
61
330
2
100
AcDbEntity
  8
0
 48
0.1
100
AcDbLine
 10
41.59085319707243
 20
92.92718075937552
 30
0.3062828440009895
 11
41.52719752616754
 21
93.88902380455196
 31
0.3524329719552233
210
-0.6811528156867374
220
-0.0799978211698284
230
0.7277576452982887
  0
LINE
  5
62
330
2
100
AcDbEntity
  8
0
 48
0.1
100
AcDbLine
 10
41.59085319707243
 20
92.92718075937552
 30
0.3062828440009895
 11
41.52719752616754
 21
93.88902380455196
 31
0.3524329719552233
  0
LINE
  5
63
330
2
100
AcDbEntity
  8
0
 48
0.1
100
AcDbLine
 10
42.36007203877915
 20
93.95173723962654
 30
0.1941821542539008
 11
42.23235588583789
 21
93.93673764815723
 31
0.3306367127473271
210
0.7291639036539276
220
0.0154298660407108
230
0.6841651268824885
  0
LINE
  5
64
330
2
100
AcDbEntity
  8
0
 48
0.1
100
AcDbLine
 10
42.36007203877915
 20
93.95173723962654
 30
0.1941821542539008
 11
42.23235588583789
 21
93.93673764815723
 31
0.3306367127473271
  0
LINE
  5
65
330
2
100
AcDbEntity
  8
CENTER
 48
0.05
100
AcDbLine
 10
61.01633505236861
 20
101.0317636517326
 30
0.0
 11
61.01633505236861
 21
108.5581530971056
 31
0.0
  0
SPLINE
  5
68
330
2
100
AcDbEntity
  8
0
 48
0.1
100
AcDbSpline
210
0.0
220
0.0
230
1.0
 70
     8
 71
     3
 72
    10
 73
     6
 74
     4
 42
0.0000000001
 43
0.0000000001
 44
0.0000000001
 12
0.919271772834203
 22
0.3936234338428818
 32
0.0
 40
0.0
 40
0.0
 40
0.0
 40
0.0
 40
6.52419543622519
 40
10.87343886262775
 40
14.61033907085113
 40
14.61033907085113
 40
14.61033907085113
 40
14.61033907085113
 10
60.30514435294919
 20
92.22833503652426
 30
0.0
 10
62.30431392127437
 20
93.08436044008059
 30
0.0
 10
65.06396069368955
 20
95.97589012596341
 30
0.0
 10
66.37599382644234
 20
100.7239128403538
 30
0.0
 10
66.47240691737002
 20
103.4233842556385
 30
0.0
 10
66.51696290299712
 20
104.6709078898557
 30
0.0
 11
60.30514435294919
 21
92.22833503652426
 31
0.0
 11
64.97398141727257
 21
96.78542693343196
 31
0.0
 11
66.24880221751567
 21
100.9436417318007
 31
0.0
 11
66.51696290299712
 21
104.6709078898557
 31
0.0
  0
CIRCLE
  5
69
330
2
100
AcDbEntity
  8
0
100
AcDbCircle
 10
61.01633505236861
 20
104.7949583744191
 30
0.0
 40
1.0
  0
CIRCLE
  5
6A
330
2
100
AcDbEntity
  8
0
 48
0.1
100
AcDbCircle
 10
61.01633505236861
 20
104.7949583744191
 30
0.0
 40
1.625
  0
LINE
  5
6B
330
2
100
AcDbEntity
  8
CENTER
 48
0.05
100
AcDbLine
 10
64.77952977505509
 20
104.7949583744191
 30
0.0
 11
57.25314032968213
 21
104.7949583744191
 31
0.0
  0
SPLINE
  5
6C
330
2
100
AcDbEntity
  8
0
 48
0.1
100
AcDbSpline
 70
     0
 71
     3
 72
    10
 73
     6
 74
     4
 42
0.0000000001
 43
0.0000000001
 44
0.0000000001
 12
0.7291639036539274
 22
-0.0154298660407209
 32
0.6841651268824885
 13
0.0651820744168896
 23
0.9953775071558183
 33
0.0705330803451816
 40
0.0
 40
0.0
 40
0.0
 40
0.0
 40
0.7457801560228853
 40
1.284407931689901
 40
1.580778344877183
 40
1.580778344877183
 40
1.580778344877183
 40
1.580778344877183
 10
41.56494721267718
 20
114.4088327979956
 30
-0.4421615457598991
 10
41.74621253595494
 20
114.4049970353612
 30
-0.2720826207359526
 10
42.18008140699244
 20
114.4888314747871
 30
-0.0389577954182678
 10
42.428751645446
 20
115.0270822905266
 30
0.0171067948418023
 10
42.48767299877637
 20
115.2657212097114
 30
-0.1702806645995354
 10
42.49411234488548
 20
115.3640546907357
 30
-0.1633126918777776
 11
41.56494721267718
 21
114.4088327979956
 31
-0.4421615457598991
 11
42.17189995081623
 21
114.6215339921016
 31
-0.0645974891961112
 11
42.43672163682758
 21
115.090564220699
 31
-0.0645974891961112
 11
42.49411234488548
 21
115.3640546907357
 31
-0.1633126918777776
  0
ARC
  5
6D
330
2
100
AcDbEntity
  8
0
 48
0.1
100
AcDbCircle
 10
-34.15493137382993
 20
5.627941112219946
 30
118.791300060105
 40
0.5000000000000001
210
0.0659609224480352
220
0.9966756081303714
230
-0.0478214268687004
100
AcDbArc
 50
316.7684211922287
 51
4.125522365771177
  0
ARC
  5
6E
330
2
100
AcDbEntity
  8
0
 48
0.1
100
AcDbCircle
 10
120.4015341235318
 20
18.89053055501227
 30
18.79390992674651
 40
1.5
210
0.6811528156867374
220
-0.0799978211698284
230
-0.7277576452982887
100
AcDbArc
 50
87.33565060072754
 51
176.0016717059019
  0
ARC
  5
6F
330
2
100
AcDbEntity
  8
0
 48
0.1
100
AcDbCircle
 10
-120.4015341235318
 20
18.89053055501227
 30
-18.79390992674651
 40
1.5
210
-0.6811528156867374
220
0.0799978211698284
230
0.7277576452982887
100
AcDbArc
 50
3.998328294098002
 51
92.66434939927247
  0
ARC
  5
70
330
2
100
AcDbEntity
  8
0
 48
0.1
100
AcDbCircle
 10
-119.4736954064433
 20
19.95782400813172
 30
-19.48140992674652
 40
1.0
210
-0.6811528156867374
220
0.0799978211698284
230
0.7277576452982887
100
AcDbArc
 50
3.998328294098559
 51
93.99832829409893
  0
ARC
  5
71
330
2
100
AcDbEntity
  8
0
 48
0.1
100
AcDbCircle
 10
-119.4736954064433
 20
19.95782400813172
 30
-19.48140992674652
 40
1.0
210
-0.6811528156867374
220
0.0799978211698284
230
0.7277576452982887
100
AcDbArc
 50
3.998328294098559
 51
93.99832829409893
  0
LINE
  5
72
330
2
100
AcDbEntity
  8
0
 48
0.1
100
AcDbLine
 10
41.12963511311657
 20
114.962169104115
 30
0.0342611219483251
 11
40.40047120946262
 21
114.9775989701558
 31
-0.649904004934176
  0
LINE
  5
73
330
2
100
AcDbEntity
  8
0
 48
0.1
100
AcDbLine
 10
41.12963511311657
 20
114.962169104115
 30
0.0342611219483251
 11
40.40047120946262
 21
114.9775989701558
 31
-0.649904004934176
210
-0.6811528156867374
220
0.0799978211698284
230
0.7277576452982887
  0
ARC
  5
74
330
2
100
AcDbEntity
  8
0
 48
0.1
100
AcDbCircle
 10
119.4736954064433
 20
19.95782400813173
 30
19.29390992674654
 40
1.0
210
0.6811528156867374
220
-0.0799978211698284
230
-0.7277576452982887
100
AcDbArc
 50
86.00167170590188
 51
176.0016717059014
  0
ARC
  5
75
330
2
100
AcDbEntity
  8
0
 48
0.1
100
AcDbCircle
 10
119.4736954064433
 20
19.95782400813173
 30
19.29390992674654
 40
1.0
210
0.6811528156867374
220
-0.0799978211698284
230
-0.7277576452982887
100
AcDbArc
 50
86.00167170590188
 51
176.0016717059014
  0
ARC
  5
76
330
2
100
AcDbEntity
  8
0
 48
0.1
100
AcDbCircle
 10
115.7738047195545
 20
-26.94309133728853
 30
28.23983469076002
 40
0.5
210
0.7291639036539272
220
-0.015429866040716
230
0.6841651268824888
100
AcDbArc
 50
86.24046204145656
 51
176.2404620414547
  0
ARC
  5
77
330
2
100
AcDbEntity
  8
0
 48
0.1
100
AcDbCircle
 10
115.7738047195545
 20
-26.94309133728853
 30
28.23983469076002
 40
0.5
210
0.7291639036539272
220
-0.015429866040716
230
0.6841651268824888
100
AcDbArc
 50
86.24046204145656
 51
176.2404620414547
  0
SPLINE
  5
78
330
2
100
AcDbEntity
  8
0
 48
0.1
100
AcDbSpline
 70
     0
 71
     3
 72
     9
 73
     5
 74
     0
 42
0.0000000001
 43
0.0000000001
 40
0.0
 40
0.0
 40
0.0
 40
0.0
 40
1.294423937454767
 40
1.81469413790114
 40
1.81469413790114
 40
1.81469413790114
 40
1.81469413790114
 10
40.77402807853006
 20
115.435937863636
 30
-1.03769354101766
 10
41.05534479199552
 20
115.4713618282961
 30
-1.362926410569222
 10
41.34972902721119
 20
115.7690664811342
 30
0.0545585667433565
 10
41.43092895074746
 20
116.3694895822635
 30
0.0493612924052574
 10
41.44851865558663
 20
116.5497100137977
 30
0.0098978017790204
  0
ARC
  5
79
330
2
100
AcDbEntity
  8
0
 48
0.1
100
AcDbCircle
 10
115.7738047195546
 20
-26.94309133728852
 30
27.23983469076
 40
0.5
210
0.7291639036539272
220
-0.015429866040716
230
0.6841651268824888
100
AcDbArc
 50
356.2404620414547
 51
86.24046204145333
  0
ARC
  5
7A
330
2
100
AcDbEntity
  8
0
 48
0.1
100
AcDbCircle
 10
115.7738047195546
 20
-26.94309133728852
 30
27.23983469076
 40
0.5
210
0.7291639036539272
220
-0.015429866040716
230
0.6841651268824888
100
AcDbArc
 50
356.2404620414547
 51
86.24046204145333
  0
LINE
  5
7B
330
2
100
AcDbEntity
  8
0
 48
0.1
100
AcDbLine
 10
41.56494721267718
 20
114.4088327979956
 30
-0.4421615457598991
 11
41.43723105973592
 21
114.4238323894649
 31
-0.3057069872664728
  0
LINE
  5
7C
330
2
100
AcDbEntity
  8
0
 48
0.1
100
AcDbLine
 10
41.59055864322716
 20
116.4146696141386
 30
-0.424220171357276
 11
41.56915290463198
 21
116.4171836057257
 31
-0.4013498410038823
210
-0.7291639036539259
220
0.0154298660407349
230
-0.6841651268824897
  0
LINE
  5
7D
330
2
100
AcDbEntity
  8
0
 48
0.1
100
AcDbLine
 10
41.59055864322716
 20
116.4146696141386
 30
-0.424220171357276
 11
41.56915290463198
 21
116.4171836057257
 31
-0.4013498410038823
  0
LINE
  5
7E
330
2
100
AcDbEntity
  8
0
 48
0.1
100
AcDbLine
 10
42.23235588583789
 20
115.4050781315546
 30
0.3306367127473271
 11
42.31430323636186
 21
116.6170768959148
 31
0.0099643770622413
210
0.7291639036539276
220
-0.0154298660407108
230
0.6841651268824885
  0
LINE
  5
7F
330
2
100
AcDbEntity
  8
0
 48
0.1
100
AcDbLine
 10
42.4471350166289
 20
116.5945403934891
 30
0.0059806832871298
 11
42.36007203877915
 21
115.3900785400852
 31
0.1941821542539008
  0
ARC
  5
80
330
2
100
AcDbEntity
  8
0
 48
0.1
100
AcDbCircle
 10
-119.4736954064433
 20
19.95782400813173
 30
-18.79390992674651
 40
0.5
210
-0.6811528156867374
220
0.0799978211698284
230
0.7277576452982887
100
AcDbArc
 50
3.998328294099115
 51
93.99832829409646
  0
ARC
  5
81
330
2
100
AcDbEntity
  8
0
 48
0.1
100
AcDbCircle
 10
-119.4736954064433
 20
19.95782400813173
 30
-18.79390992674651
 40
0.5
210
-0.6811528156867374
220
0.0799978211698284
230
0.7277576452982887
100
AcDbArc
 50
3.998328294099115
 51
93.99832829409646
  0
ARC
  5
82
330
2
100
AcDbEntity
  8
0
 48
0.1
100
AcDbCircle
 10
-34.28335926933594
 20
5.491330257395464
 30
117.7913000601051
 40
0.5000000000000001
210
0.0659609224480378
220
0.9966756081303714
230
-0.047821426868698
100
AcDbArc
 50
136.7684211922287
 51
181.7684211903886
  0
LINE
  5
83
330
2
100
AcDbEntity
  8
0
 48
0.1
100
AcDbLine
 10
42.57955979706583
 20
116.5627770729557
 30
0.0
 11
42.49411234488547
 21
115.3640546907358
 31
-0.1633126918777545
  0
ELLIPSE
  5
84
330
2
100
AcDbEntity
  8
0
 48
0.1
100
AcDbEllipse
 10
42.02956068689139
 20
115.1880424910495
 30
0.0
 11
1.731499934930232
 21
0.0208431401994494
 31
0.0
210
0.0
220
0.0
230
-1.0
 40
0.8360229656173377
 41
4.379099672880541
 42
5.0456782878889
  0
LINE
  5
85
330
2
100
AcDbEntity
  8
0
 48
0.1
100
AcDbLine
 10
41.59085319707243
 20
116.4146350203363
 30
0.3062828440009895
 11
41.52719752616754
 21
115.4527919751598
 31
0.3524329719552233
  0
LINE
  5
86
330
2
100
AcDbEntity
  8
0
 48
0.1
100
AcDbLine
 10
41.59085319707243
 20
116.4146350203363
 30
0.3062828440009895
 11
41.52719752616754
 21
115.4527919751598
 31
0.3524329719552233
210
-0.6811528156867374
220
0.0799978211698284
230
0.7277576452982887
  0
ARC
  5
87
330
2
100
AcDbEntity
  8
0
 48
0.1
100
AcDbCircle
 10
-34.15493137382958
 20
5.627941112219668
 30
117.7913000601051
 40
0.5000000000000001
210
0.0659609224480378
220
0.9966756081303714
230
-0.047821426868698
100
AcDbArc
 50
46.76842119222828
 51
136.7684211922275
  0
ARC
  5
88
330
2
100
AcDbEntity
  8
0
 48
0.1
100
AcDbCircle
 10
-34.15493137382958
 20
5.627941112219668
 30
117.7913000601051
 40
0.5000000000000001
210
0.0659609224480378
220
0.9966756081303714
230
-0.047821426868698
100
AcDbArc
 50
46.76842119222828
 51
136.7684211922275
  0
LINE
  5
89
330
2
100
AcDbEntity
  8
0
 48
0.1
100
AcDbLine
 10
42.36007203877915
 20
115.3900785400852
 30
0.1941821542539008
 11
42.23235588583789
 21
115.4050781315546
 31
0.3306367127473271
  0
LINE
  5
8A
330
2
100
AcDbEntity
  8
0
 48
0.1
100
AcDbLine
 10
42.36007203877915
 20
115.3900785400852
 30
0.1941821542539008
 11
42.23235588583789
 21
115.4050781315546
 31
0.3306367127473271
210
0.7291639036539276
220
-0.0154298660407108
230
0.6841651268824885
  0
ARC
  5
8B
330
2
100
AcDbEntity
  8
0
 48
0.1
100
AcDbCircle
 10
68.89133505236863
 20
122.6699583744191
 30
0.0
 40
0.125
100
AcDbArc
 50
0.0
 51
90.0
  0
VIEWPORT
  5
9E
330
97
100
AcDbEntity
 67
     1
  8
0
 48
0.1
100
AcDbViewport
 10
5.313749914094218
 20
3.96875022903202
 30
0.0
 40
15.25338497598259
 41
8.746133096049151
 68
     1
 69
     1
1001
ACAD
1000
MVIEW
1002
{
1070
    16
1010
0.0
1020
0.0
1030
0.0
1010
0.0
1020
0.0
1030
1.0
1040
0.0
1040
8.746133096049151
1040
5.313749914094218
1040
3.96875022903202
1040
50.0
1040
0.0
1040
0.0
1070
     0
1070
   100
1070
     1
1070
     1
1070
     0
1070
     0
1070
     0
1070
     0
1040
0.0
1040
0.0
1040
0.0
1040
10.0
1040
10.0
1040
10.0
1040
10.0
1070
     0
1002
{
1002
}
1002
}
  0
ENDSEC
  0
SECTION
  2
OBJECTS
  0
DICTIONARY
  5
7
330
0
100
AcDbDictionary
  3
ACAD_GROUP
350
27
  3
ACAD_LAYOUT
350
B
  3
ACAD_MLINESTYLE
350
28
  3
ACAD_PLOTSETTINGS
350
29
  3
ACAD_PLOTSTYLENAME
350
6
  3
ACDBHEADERROUNDTRIPXREC
350
152
  3
ACDBVARIABLEDICTIONARY
350
8C
  0
DICTIONARY
  5
11
330
10
100
AcDbDictionary
280
     1
  3
ACAD_LAYERFILTERS
360
12
  0
DICTIONARY
  5
AB
330
2
100
AcDbDictionary
280
     1
  3
ACAD_LAYOUTSELFREF
360
173
  0
DICTIONARY
  5
AD
330
97
100
AcDbDictionary
280
     1
  3
ACAD_LAYOUTSELFREF
360
174
  0
DICTIONARY
  5
27
102
{ACAD_REACTORS
330
7
102
}
330
7
100
AcDbDictionary
  0
DICTIONARY
  5
B
102
{ACAD_REACTORS
330
7
102
}
330
7
100
AcDbDictionary
  0
DICTIONARY
  5
28
102
{ACAD_REACTORS
330
7
102
}
330
7
100
AcDbDictionary
  3
STANDARD
350
2B
  0
DICTIONARY
  5
29
102
{ACAD_REACTORS
330
7
102
}
330
7
100
AcDbDictionary
  0
ACDBDICTIONARYWDFLT
  5
6
102
{ACAD_REACTORS
330
7
102
}
330
7
100
AcDbDictionary
281
     1
  3
Normal
350
5
100
AcDbDictionaryWithDefault
340
5
  0
DICTIONARY
  5
152
102
{ACAD_REACTORS
330
7
102
}
330
7
100
AcDbDictionary
  3
CEPSNTYPE
350
15C
  3
DIMSTYLEDATA
350
160
  3
FINGERPRINTGUID
350
15D
  3
HYPERLINKBASE
350
155
  3
INSUNITS
350
15B
  3
LAYOUTDICT
350
157
  3
LWETCUNION
350
15A
  3
PLOTSETDICT
350
158
  3
PLOTSTYLNAMDICT
350
159
  3
PSVPSCALE
350
15F
  3
PUCSBASE
350
163
  3
PUCSORGBACK
350
169
  3
PUCSORGBOTTOM
350
165
  3
PUCSORGFRONT
350
168
  3
PUCSORGLEFT
350
166
  3
PUCSORGRIGHT
350
167
  3
PUCSORGTOP
350
164
  3
PUCSORTHOREF
350
161
  3
PUCSORTHOVIEW
350
162
  3
STYLESHEET
350
156
  3
TSTACKALIGN
350
153
  3
TSTACKSIZE
350
154
  3
UCSBASE
350
16C
  3
UCSORGBACK
350
172
  3
UCSORGBOTTOM
350
16E
  3
UCSORGFRONT
350
171
  3
UCSORGLEFT
350
16F
  3
UCSORGRIGHT
350
170
  3
UCSORGTOP
350
16D
  3
UCSORTHOREF
350
16A
  3
UCSORTHOVIEW
350
16B
  3
VERSIONGUID
350
15E
  0
DICTIONARY
  5
8C
102
{ACAD_REACTORS
330
7
102
}
330
7
100
AcDbDictionary
  3
DIMASSOC
350
8E
  3
HIDETEXT
350
8D
  0
DICTIONARY
  5
12
102
{ACAD_REACTORS
330
11
102
}
330
11
100
AcDbDictionary
280
     1
  3
DIM-1_12
360
13
  3
DIM-1_16
360
14
  0
XRECORD
  5
173
102
{ACAD_REACTORS
330
AB
102
}
330
AB
100
AcDbXrecord
340
2
  0
XRECORD
  5
174
102
{ACAD_REACTORS
330
AD
102
}
330
AD
100
AcDbXrecord
340
97
  0
MLINESTYLE
  5
2B
102
{ACAD_REACTORS
330
28
102
}
330
28
100
AcDbMlineStyle
  2
STANDARD
 70
     0
  3

 62
   256
 51
90.0
 52
90.0
 71
     2
 49
0.5
 62
   256
  6
BYLAYER
 49
-0.5
 62
   256
  6
BYLAYER
  0
ACDBPLACEHOLDER
  5
5
102
{ACAD_REACTORS
330
6
102
}
330
6
100
AcDbPlaceHolder
280
     0
  0
XRECORD
  5
15C
102
{ACAD_REACTORS
330
152
102
}
330
152
100
AcDbXrecord
 90
        0
  0
XRECORD
  5
160
102
{ACAD_REACTORS
330
152
102
}
330
152
100
AcDbXrecord
1000
DSTYLE
1002
{
1070
    79
 70
     1
1070
   276
 70
     1
1070
   277
 70
     5
1002
}
  0
XRECORD
  5
15D
102
{ACAD_REACTORS
330
152
102
}
330
152
100
AcDbXrecord
  1
{6A4AC8E0-4F58-11D5-8420-0003476D26AB}
  0
XRECORD
  5
155
102
{ACAD_REACTORS
330
152
102
}
330
152
100
AcDbXrecord
  1

  0
XRECORD
  5
15B
102
{ACAD_REACTORS
330
152
102
}
330
152
100
AcDbXrecord
 90
        1
  0
XRECORD
  5
157
102
{ACAD_REACTORS
330
152
102
}
330
152
100
AcDbXrecord
340
B
  0
XRECORD
  5
15A
102
{ACAD_REACTORS
330
152
102
}
330
152
100
AcDbXrecord
 90
    10781
  0
XRECORD
  5
158
102
{ACAD_REACTORS
330
152
102
}
330
152
100
AcDbXrecord
340
29
  0
XRECORD
  5
159
102
{ACAD_REACTORS
330
152
102
}
330
152
100
AcDbXrecord
340
6
  0
XRECORD
  5
15F
102
{ACAD_REACTORS
330
152
102
}
330
152
100
AcDbXrecord
 40
0.0
  0
XRECORD
  5
163
102
{ACAD_REACTORS
330
152
102
}
330
152
100
AcDbXrecord
340
0
  0
XRECORD
  5
169
102
{ACAD_REACTORS
330
152
102
}
330
152
100
AcDbXrecord
 10
0.0
 20
0.0
 30
0.0
  0
XRECORD
  5
165
102
{ACAD_REACTORS
330
152
102
}
330
152
100
AcDbXrecord
 10
0.0
 20
0.0
 30
0.0
  0
XRECORD
  5
168
102
{ACAD_REACTORS
330
152
102
}
330
152
100
AcDbXrecord
 10
0.0
 20
0.0
 30
0.0
  0
XRECORD
  5
166
102
{ACAD_REACTORS
330
152
102
}
330
152
100
AcDbXrecord
 10
0.0
 20
0.0
 30
0.0
  0
XRECORD
  5
167
102
{ACAD_REACTORS
330
152
102
}
330
152
100
AcDbXrecord
 10
0.0
 20
0.0
 30
0.0
  0
XRECORD
  5
164
102
{ACAD_REACTORS
330
152
102
}
330
152
100
AcDbXrecord
 10
0.0
 20
0.0
 30
0.0
  0
XRECORD
  5
161
102
{ACAD_REACTORS
330
152
102
}
330
152
100
AcDbXrecord
340
0
  0
XRECORD
  5
162
102
{ACAD_REACTORS
330
152
102
}
330
152
100
AcDbXrecord
 70
     0
  0
XRECORD
  5
156
102
{ACAD_REACTORS
330
152
102
}
330
152
100
AcDbXrecord
  1

  0
XRECORD
  5
153
102
{ACAD_REACTORS
330
152
102
}
330
152
100
AcDbXrecord
 90
        1
  0
XRECORD
  5
154
102
{ACAD_REACTORS
330
152
102
}
330
152
100
AcDbXrecord
 90
       70
  0
XRECORD
  5
16C
102
{ACAD_REACTORS
330
152
102
}
330
152
100
AcDbXrecord
340
0
  0
XRECORD
  5
172
102
{ACAD_REACTORS
330
152
102
}
330
152
100
AcDbXrecord
 10
0.0
 20
0.0
 30
0.0
  0
XRECORD
  5
16E
102
{ACAD_REACTORS
330
152
102
}
330
152
100
AcDbXrecord
 10
0.0
 20
0.0
 30
0.0
  0
XRECORD
  5
171
102
{ACAD_REACTORS
330
152
102
}
330
152
100
AcDbXrecord
 10
0.0
 20
0.0
 30
0.0
  0
XRECORD
  5
16F
102
{ACAD_REACTORS
330
152
102
}
330
152
100
AcDbXrecord
 10
0.0
 20
0.0
 30
0.0
  0
XRECORD
  5
170
102
{ACAD_REACTORS
330
152
102
}
330
152
100
AcDbXrecord
 10
0.0
 20
0.0
 30
0.0
  0
XRECORD
  5
16D
102
{ACAD_REACTORS
330
152
102
}
330
152
100
AcDbXrecord
 10
0.0
 20
0.0
 30
0.0
  0
XRECORD
  5
16A
102
{ACAD_REACTORS
330
152
102
}
330
152
100
AcDbXrecord
340
0
  0
XRECORD
  5
16B
102
{ACAD_REACTORS
330
152
102
}
330
152
100
AcDbXrecord
 70
     0
  0
XRECORD
  5
15E
102
{ACAD_REACTORS
330
152
102
}
330
152
100
AcDbXrecord
  1
{1ED12615-B2FC-4B22-808D-3175A1028C9D}
  0
DICTIONARYVAR
  5
8E
102
{ACAD_REACTORS
330
8C
102
}
330
8C
100
DictionaryVariables
280
     0
  1
1
  0
DICTIONARYVAR
  5
8D
102
{ACAD_REACTORS
330
8C
102
}
330
8C
100
DictionaryVariables
280
     0
  1
1
  0
XRECORD
  5
13
102
{ACAD_REACTORS
330
12
102
}
330
12
100
AcDbXrecord
  1
DIM-1_12
  1
DIM-1_12
  1
*
  1
*
 70
     0
  1
*
  1
*
  0
XRECORD
  5
14
102
{ACAD_REACTORS
330
12
102
}
330
12
100
AcDbXrecord
  1
dim-1_16
  1
*
  1
*
  1
*
 70
     0
  1
*
  1
*
  0
ENDSEC
  0
EOF
