  0
SECTION
  2
HEADER
  9
$ACADVER
  1
AC1014
  9
$ACADMAINTVER
 70
     9
  9
$DWGCODEPAGE
  3
ANSI_1252
  9
$INSBASE
 10
25.80049739389451
 20
-81.27373841722357
 30
0.0
  9
$EXTMIN
 10
14.13621956957803
 20
-81.28185390614261
 30
-0.0000000349181948
  9
$EXTMAX
 10
54.09273873967638
 20
-54.47799801427163
 30
0.0000000814935746
  9
$LIMMIN
 10
0.0
 20
0.0
  9
$LIMMAX
 10
100.5024158491978
 20
51.69854817198938
  9
$ORTHOMODE
 70
     1
  9
$REGENMODE
 70
     1
  9
$FILLMODE
 70
     1
  9
$QTEXTMODE
 70
     0
  9
$MIRRTEXT
 70
     1
  9
$DRAGMODE
 70
     2
  9
$LTSCALE
 40
2.0
  9
$OSMODE
 70
    55
  9
$ATTMODE
 70
     1
  9
$TEXTSIZE
 40
0.1
  9
$TRACEWID
 40
1.0
  9
$TEXTSTYLE
  7
CARTOUCHE
  9
$CLAYER
  8
0
  9
$CELTYPE
  6
BYLAYER
  9
$CECOLOR
 62
   256
  9
$CELTSCALE
 40
10.0
  9
$DELOBJ
 70
     1
  9
$DISPSILH
 70
     0
  9
$DIMSCALE
 40
16.0
  9
$DIMASZ
 40
0.1
  9
$DIMEXO
 40
0.0625
  9
$DIMDLI
 40
0.25
  9
$DIMRND
 40
0.0
  9
$DIMDLE
 40
0.0
  9
$DIMEXE
 40
0.1
  9
$DIMTP
 40
0.0
  9
$DIMTM
 40
0.0
  9
$DIMTXT
 40
0.1
  9
$DIMCEN
 40
0.09
  9
$DIMTSZ
 40
0.0
  9
$DIMTOL
 70
     0
  9
$DIMLIM
 70
     0
  9
$DIMTIH
 70
     1
  9
$DIMTOH
 70
     1
  9
$DIMSE1
 70
     0
  9
$DIMSE2
 70
     0
  9
$DIMTAD
 70
     0
  9
$DIMZIN
 70
     4
  9
$DIMBLK
  1

  9
$DIMASO
 70
     1
  9
$DIMSHO
 70
     1
  9
$DIMPOST
  1
\X
  9
$DIMAPOST
  1
cm
  9
$DIMALT
 70
     1
  9
$DIMALTD
 70
     1
  9
$DIMALTF
 40
2.54
  9
$DIMLFAC
 40
1.0
  9
$DIMTOFL
 70
     0
  9
$DIMTVP
 40
0.0
  9
$DIMTIX
 70
     0
  9
$DIMSOXD
 70
     0
  9
$DIMSAH
 70
     0
  9
$DIMBLK1
  1

  9
$DIMBLK2
  1

  9
$DIMSTYLE
  2
STANDARD
  9
$DIMCLRD
 70
     0
  9
$DIMCLRE
 70
     0
  9
$DIMCLRT
 70
     0
  9
$DIMTFAC
 40
1.0
  9
$DIMGAP
 40
0.08
  9
$DIMJUST
 70
     0
  9
$DIMSD1
 70
     0
  9
$DIMSD2
 70
     0
  9
$DIMTOLJ
 70
     1
  9
$DIMTZIN
 70
     4
  9
$DIMALTZ
 70
     4
  9
$DIMALTTZ
 70
     4
  9
$DIMFIT
 70
     3
  9
$DIMUPT
 70
     0
  9
$DIMUNIT
 70
     5
  9
$DIMDEC
 70
     3
  9
$DIMTDEC
 70
     3
  9
$DIMALTU
 70
     2
  9
$DIMALTTD
 70
     1
  9
$DIMTXSTY
  7
ROMANS
  9
$DIMAUNIT
 70
     0
  9
$LUNITS
 70
     2
  9
$LUPREC
 70
     2
  9
$SKETCHINC
 40
1.0
  9
$FILLETRAD
 40
2.5
  9
$AUNITS
 70
     0
  9
$AUPREC
 70
     0
  9
$MENU
  1
.
  9
$ELEVATION
 40
0.0
  9
$PELEVATION
 40
0.0
  9
$THICKNESS
 40
0.0
  9
$LIMCHECK
 70
     0
  9
$BLIPMODE
 70
     0
  9
$CHAMFERA
 40
0.0
  9
$CHAMFERB
 40
0.0
  9
$CHAMFERC
 40
20.0
  9
$CHAMFERD
 40
0.0
  9
$SKPOLY
 70
     0
  9
$TDCREATE
 40
2452062.343093519
  9
$TDUPDATE
 40
2453686.450201515
  9
$TDINDWG
 40
1.8897739583
  9
$TDUSRTIMER
 40
1.8897739583
  9
$USRTIMER
 70
     1
  9
$ANGBASE
 50
0.0
  9
$ANGDIR
 70
     0
  9
$PDMODE
 70
    34
  9
$PDSIZE
 40
-5.0
  9
$PLINEWID
 40
0.0
  9
$COORDS
 70
     1
  9
$SPLFRAME
 70
     0
  9
$SPLINETYPE
 70
     6
  9
$SPLINESEGS
 70
     8
  9
$ATTDIA
 70
     0
  9
$ATTREQ
 70
     1
  9
$HANDLING
 70
 22529
  9
$HANDSEED
  5
22F
  9
$SURFTAB1
 70
     6
  9
$SURFTAB2
 70
     6
  9
$SURFTYPE
 70
     6
  9
$SURFU
 70
     6
  9
$SURFV
 70
     6
  9
$UCSNAME
  2

  9
$UCSORG
 10
0.0
 20
0.0
 30
0.0
  9
$UCSXDIR
 10
1.0
 20
0.0
 30
0.0
  9
$UCSYDIR
 10
0.0
 20
1.0
 30
0.0
  9
$PUCSNAME
  2

  9
$PUCSORG
 10
0.0
 20
0.0
 30
0.0
  9
$PUCSXDIR
 10
1.0
 20
0.0
 30
0.0
  9
$PUCSYDIR
 10
0.0
 20
1.0
 30
0.0
  9
$USERI1
 70
     0
  9
$USERI2
 70
     0
  9
$USERI3
 70
     0
  9
$USERI4
 70
     0
  9
$USERI5
 70
     0
  9
$USERR1
 40
0.0
  9
$USERR2
 40
0.0
  9
$USERR3
 40
0.0
  9
$USERR4
 40
0.0
  9
$USERR5
 40
0.0
  9
$WORLDVIEW
 70
     1
  9
$SHADEDGE
 70
     3
  9
$SHADEDIF
 70
    70
  9
$TILEMODE
 70
     1
  9
$MAXACTVP
 70
    48
  9
$PINSBASE
 10
0.0
 20
0.0
 30
0.0
  9
$PLIMCHECK
 70
     0
  9
$PEXTMIN
 10
0.0
 20
0.0
 30
0.0
  9
$PEXTMAX
 10
0.0
 20
0.0
 30
0.0
  9
$PLIMMIN
 10
0.0
 20
0.0
  9
$PLIMMAX
 10
12.0
 20
9.0
  9
$UNITMODE
 70
     0
  9
$VISRETAIN
 70
     1
  9
$PLINEGEN
 70
     0
  9
$PSLTSCALE
 70
     1
  9
$TREEDEPTH
 70
  3020
  9
$PICKSTYLE
 70
     1
  9
$CMLSTYLE
  2
STANDARD
  9
$CMLJUST
 70
     0
  9
$CMLSCALE
 40
20.0
  9
$PROXYGRAPHICS
 70
     1
  9
$MEASUREMENT
 70
     0
  0
ENDSEC
  0
SECTION
  2
CLASSES
  0
CLASS
  1
ACDBDICTIONARYWDFLT
  2
AcDbDictionaryWithDefault
  3
AutoCAD 2000
 90
        0
280
     0
281
     0
  0
CLASS
  1
ACDBPLACEHOLDER
  2
AcDbPlaceHolder
  3
AutoCAD 2000
 90
        0
280
     0
281
     0
  0
CLASS
  1
LAYOUT
  2
AcDbLayout
  3
AutoCAD 2000
 90
        0
280
     0
281
     0
  0
CLASS
  1
DICTIONARYVAR
  2
AcDbDictionaryVar
  3
AutoCAD 2000
 90
        0
280
     0
281
     0
  0
CLASS
  1
IMAGEDEF
  2
AcDbRasterImageDef
  3
ISM
 90
        0
280
     0
281
     0
  0
CLASS
  1
LONG_TRANSACTION
  2
AcDbLongTransaction
  3
AutoCAD 2000
 90
        0
280
     0
281
     0
  0
CLASS
  1
LWPOLYLINE
  2
AcDbPolyline
  3
AutoCAD 2000
 90
        0
280
     0
281
     1
  0
CLASS
  1
HATCH
  2
AcDbHatch
  3
AutoCAD 2000
 90
        0
280
     0
281
     1
  0
CLASS
  1
XRECORD
  2
AcDbXrecord
  3
AutoCAD 2000
 90
        0
280
     0
281
     0
  0
CLASS
  1
LONG_TRANSACTION
  2
AcDbLongTransaction
  3
AutoCAD 2000
 90
        0
280
     0
281
     0
  0
CLASS
  1
LWPOLYLINE
  2
AcDbPolyline
  3
AutoCAD 2000
 90
        0
280
     0
281
     1
  0
CLASS
  1
HATCH
  2
AcDbHatch
  3
AutoCAD 2000
 90
        0
280
     0
281
     1
  0
CLASS
  1
XRECORD
  2
AcDbXrecord
  3
AutoCAD 2000
 90
        0
280
     0
281
     0
  0
CLASS
  1
LONG_TRANSACTION
  2
AcDbLongTransaction
  3
AutoCAD 2000
 90
        0
280
     0
281
     0
  0
CLASS
  1
LWPOLYLINE
  2
AcDbPolyline
  3
AutoCAD 2000
 90
        0
280
     0
281
     1
  0
CLASS
  1
HATCH
  2
AcDbHatch
  3
AutoCAD 2000
 90
        0
280
     0
281
     1
  0
CLASS
  1
XRECORD
  2
AcDbXrecord
  3
AutoCAD 2000
 90
        0
280
     0
281
     0
  0
ENDSEC
  0
SECTION
  2
TABLES
  0
TABLE
  2
VPORT
  5
1D
330
0
100
AcDbSymbolTable
 70
     3
  0
VPORT
  5
20B
330
1D
100
AcDbSymbolTableRecord
100
AcDbViewportTableRecord
  2
*ACTIVE
 70
     0
 10
0.0
 20
0.0
 11
1.0
 21
1.0
 12
34.11447912935233
 22
-67.87992601015997
 13
0.0
 23
0.0
 14
10.0
 24
10.0
 15
10.0
 25
10.0
 16
0.0
 26
0.0
 36
1.0
 17
0.0
 27
0.0
 37
0.0
 40
34.69660714059979
 41
1.786792452830188
 42
50.0
 43
0.0
 44
0.0
 50
0.0
 51
0.0
 71
     0
 72
   100
 73
     1
 74
     3
 75
     0
 76
     0
 77
     0
 78
     2
  0
ENDTAB
  0
TABLE
  2
LTYPE
  5
18
330
0
100
AcDbSymbolTable
 70
     3
  0
LTYPE
  5
19
330
18
100
AcDbSymbolTableRecord
100
AcDbLinetypeTableRecord
  2
BYBLOCK
 70
     0
  3

 72
    65
 73
     0
 40
0.0
  0
LTYPE
  5
1A
330
18
100
AcDbSymbolTableRecord
100
AcDbLinetypeTableRecord
  2
BYLAYER
 70
     0
  3

 72
    65
 73
     0
 40
0.0
  0
LTYPE
  5
8
330
18
100
AcDbSymbolTableRecord
100
AcDbLinetypeTableRecord
  2
CONTINUOUS
 70
     0
  3
Solid line
 72
    65
 73
     0
 40
0.0
  0
LTYPE
  5
3C
330
18
100
AcDbSymbolTableRecord
100
AcDbLinetypeTableRecord
  2
CENTER
 70
     0
  3
Center ____ _ ____ _ ____ _ ____ _ ____ _ ____
 72
    65
 73
     4
 40
50.8
 49
31.75
 74
     0
 49
-6.349999999999999
 74
     0
 49
6.349999999999999
 74
     0
 49
-6.349999999999999
 74
     0
  0
LTYPE
  5
2E
330
18
100
AcDbSymbolTableRecord
100
AcDbLinetypeTableRecord
  2
HIDDEN
 70
     0
  3
Hidden __ __ __ __ __ __ __ __ __ __ __ __ __ _
 72
    65
 73
     2
 40
9.524999999999998
 49
6.349999999999999
 74
     0
 49
-3.174999999999999
 74
     0
  0
ENDTAB
  0
TABLE
  2
LAYER
  5
10
102
{ACAD_XDICTIONARY
360
11
102
}
330
0
100
AcDbSymbolTable
 70
     3
  0
LAYER
  5
4
330
10
100
AcDbSymbolTableRecord
100
AcDbLayerTableRecord
  2
0
 70
     0
 62
     7
  6
CONTINUOUS
  0
LAYER
  5
3B
330
10
100
AcDbSymbolTableRecord
100
AcDbLayerTableRecord
  2
CENTER
 70
     0
 62
     1
  6
CENTER
  0
LAYER
  5
106
330
10
100
AcDbSymbolTableRecord
100
AcDbLayerTableRecord
  2
DEFPOINTS
 70
     0
 62
     7
  6
CONTINUOUS
  0
ENDTAB
  0
TABLE
  2
STYLE
  5
15
330
0
100
AcDbSymbolTable
 70
     3
  0
STYLE
  5
16
330
15
100
AcDbSymbolTableRecord
100
AcDbTextStyleTableRecord
  2
STANDARD
 70
     0
 40
0.0
 41
1.0
 50
0.0
 71
     0
 42
0.125
  3
txt
  4

  0
STYLE
  5
2B
330
15
100
AcDbSymbolTableRecord
100
AcDbTextStyleTableRecord
  2
CARTOUCHE
 70
     0
 40
0.0
 41
1.0
 50
0.0
 71
     0
 42
0.1
  3
romans.shx
  4

  0
STYLE
  5
23
330
15
100
AcDbSymbolTableRecord
100
AcDbTextStyleTableRecord
  2
ROMANS
 70
     0
 40
0.0
 41
1.0
 50
0.0
 71
     0
 42
1.0
  3
romans.shx
  4

  0
ENDTAB
  0
TABLE
  2
VIEW
  5
1B
330
0
100
AcDbSymbolTable
 70
     0
  0
ENDTAB
  0
TABLE
  2
UCS
  5
1C
330
0
100
AcDbSymbolTable
 70
     0
  0
ENDTAB
  0
TABLE
  2
APPID
  5
1F
330
0
100
AcDbSymbolTable
 70
     2
  0
APPID
  5
20
330
1F
100
AcDbSymbolTableRecord
100
AcDbRegAppTableRecord
  2
ACAD
 70
     0
  0
APPID
  5
B8
330
1F
100
AcDbSymbolTableRecord
100
AcDbRegAppTableRecord
  2
DCO15
 70
     0
  0
ENDTAB
  0
TABLE
  2
DIMSTYLE
  5
21
330
0
100
AcDbSymbolTable
 70
     1
  0
DIMSTYLE
105
22
330
21
100
AcDbSymbolTableRecord
100
AcDbDimStyleTableRecord
  2
STANDARD
 70
     0
  3
\X
  4
cm
  5

  6

  7

 40
16.0
 41
0.1
 42
0.0625
 43
0.25
 44
0.1
 45
0.0
 46
0.0
 47
0.0
 48
0.0
140
0.1
141
0.09
142
0.0
143
2.54
144
1.0
145
0.0
146
1.0
147
0.08
 71
     0
 72
     0
 73
     1
 74
     1
 75
     0
 76
     0
 77
     0
 78
     4
170
     1
171
     1
172
     0
173
     0
174
     0
175
     0
176
     0
177
     0
178
     0
270
     5
271
     3
272
     3
273
     2
274
     1
340
23
275
     0
280
     0
281
     0
282
     0
283
     1
284
     4
285
     4
286
     4
287
     3
288
     0
  0
ENDTAB
  0
TABLE
  2
BLOCK_RECORD
  5
1
330
0
100
AcDbSymbolTable
 70
     0
  0
BLOCK_RECORD
  5
2
102
{ACAD_XDICTIONARY
360
C0
102
}
330
1
100
AcDbSymbolTableRecord
100
AcDbBlockTableRecord
  2
*MODEL_SPACE
  0
BLOCK_RECORD
  5
B1
102
{ACAD_XDICTIONARY
360
C2
102
}
330
1
100
AcDbSymbolTableRecord
100
AcDbBlockTableRecord
  2
*PAPER_SPACE
  0
ENDTAB
  0
ENDSEC
  0
SECTION
  2
BLOCKS
  0
BLOCK
  5
3
330
2
100
AcDbEntity
  8
0
100
AcDbBlockBegin
  2
*MODEL_SPACE
 70
     0
 10
0.0
 20
0.0
 30
0.0
  3
*MODEL_SPACE
  1

  0
ENDBLK
  5
9
330
2
100
AcDbEntity
  8
0
100
AcDbBlockEnd
  0
BLOCK
  5
B3
330
B1
100
AcDbEntity
 67
     1
  8
0
 48
10.0
100
AcDbBlockBegin
  2
*PAPER_SPACE
 70
     0
 10
0.0
 20
0.0
 30
0.0
  3
*PAPER_SPACE
  1

  0
ENDBLK
  5
B4
330
B1
100
AcDbEntity
 67
     1
  8
0
 48
10.0
100
AcDbBlockEnd
  0
ENDSEC
  0
SECTION
  2
ENTITIES
  0
LINE
  5
2D
330
2
100
AcDbEntity
  8
0
  6
HIDDEN
 62
     9
 48
0.1
100
AcDbLine
 10
18.70481134420541
 20
-54.52373982456947
 30
0.0
 11
21.87152848057482
 21
-72.4830851479334
 31
0.0
  0
SPLINE
  5
2F
330
2
100
AcDbEntity
  8
0
100
AcDbSpline
210
0.0
220
0.0
230
1.0
 70
     8
 71
     3
 72
    10
 73
     6
 74
     0
 42
0.0000000001
 43
0.0000000001
 40
0.0
 40
0.0
 40
0.0
 40
0.0
 40
2.55949364101042
 40
13.04055071808642
 40
16.9584542047577
 40
16.9584542047577
 40
16.9584542047577
 40
16.9584542047577
 10
15.7585987218096
 20
-56.02373982456949
 30
0.0
 10
16.33736514252837
 20
-57.17741930942866
 30
0.0
 10
17.90032100453184
 20
-61.14477017630967
 30
0.0
 10
19.1973450481183
 20
-66.71990023102371
 30
0.0
 10
19.72603439010961
 20
-71.49358022224103
 30
0.0
 10
19.84404257310728
 20
-72.79428586678935
 30
0.0
  0
SPLINE
  5
30
330
2
100
AcDbEntity
  8
0
100
AcDbSpline
210
0.0
220
0.0
230
1.0
 70
     8
 71
     3
 72
    10
 73
     6
 74
     0
 42
0.0000000001
 43
0.0000000001
 40
0.0
 40
0.0
 40
0.0
 40
0.0
 40
2.55949364101042
 40
13.04055071808642
 40
16.95896040810457
 40
16.95896040810457
 40
16.95896040810457
 40
16.95896040810457
 10
52.41824125946239
 20
-56.0237398245695
 30
0.0
 10
51.88862964526066
 20
-57.17741930942867
 30
0.0
 10
49.82982758230055
 20
-61.14477017630969
 30
0.0
 10
48.53276482304437
 20
-66.7200666465153
 30
0.0
 10
48.00407702470353
 20
-71.49391586496104
 30
0.0
 10
47.88606027412456
 20
-72.79479003056282
 30
0.0
  0
LINE
  5
31
330
2
100
AcDbEntity
  8
0
  6
HIDDEN
 62
     9
 48
0.1
100
AcDbLine
 10
49.02533724262699
 20
-54.52373982456948
 30
0.0
 11
45.91747348819686
 21
-72.14931103291816
 31
0.0
  0
LINE
  5
32
330
2
100
AcDbEntity
  8
0
100
AcDbLine
 10
42.44943263265341
 20
-75.5266528418932
 30
0.0
 11
25.28059396788529
 21
-75.52364885853084
 31
0.0
  0
LINE
  5
33
330
2
100
AcDbEntity
  8
0
  6
HIDDEN
 62
     9
 48
0.1
100
AcDbLine
 10
24.37717887919856
 20
-74.54858394165706
 30
0.0
 11
43.49908512175955
 21
-74.21480982664182
 31
0.0
  0
SPLINE
  5
35
330
2
100
AcDbEntity
  8
0
100
AcDbSpline
210
0.0
220
0.0
230
1.0
 70
     8
 71
     3
 72
    11
 73
     7
 74
     5
 42
0.0000000001
 43
0.0000000001
 44
0.0000000001
 40
0.0
 40
0.0
 40
0.0
 40
0.0
 40
0.1758541918603446
 40
0.6156381773281733
 40
1.238867250313194
 40
2.191294601521851
 40
2.191294601521851
 40
2.191294601521851
 40
2.191294601521851
 10
25.20430996200119
 20
-75.36523659380389
 30
0.0
 10
25.24110103538753
 20
-75.42101529259489
 30
0.0
 10
25.36990086166352
 20
-75.61628784250771
 30
0.0
 10
24.78546437797725
 20
-75.79139623296635
 30
0.0
 10
24.5120942425301
 20
-76.38698947451221
 30
0.0
 10
24.00197704745388
 20
-76.60785295288443
 30
0.0
 10
23.69362964287228
 20
-76.74135694173303
 30
0.0
 11
25.20430996200119
 21
-75.36523659380389
 31
0.0
 11
25.28047703252113
 21
-75.5237398245699
 31
0.0
 11
24.93315877801859
 21
-75.79351748110075
 31
0.0
 11
24.51037481681481
 21
-76.25141288352647
 31
0.0
 11
23.69362964287228
 21
-76.74135694173303
 31
0.0
  0
SPLINE
  5
37
330
2
100
AcDbEntity
  8
0
100
AcDbSpline
210
0.0
220
0.0
230
1.0
 70
     8
 71
     3
 72
    11
 73
     7
 74
     5
 42
0.0000000001
 43
0.0000000001
 44
0.0000000001
 40
0.0
 40
0.0
 40
0.0
 40
0.0
 40
0.3787726122680806
 40
1.855347959542815
 40
2.429284885964706
 40
5.162516006796757
 40
5.162516006796757
 40
5.162516006796757
 40
5.162516006796757
 10
21.81240170986819
 20
-81.27373841722357
 30
0.0
 10
21.8078776913467
 20
-81.14806744552808
 30
0.0
 10
21.7857176188892
 20
-80.53249130998633
 30
0.0
 10
21.86395996454369
 20
-79.67548937348786
 30
0.0
 10
22.80583865280403
 20
-78.37303252641638
 30
0.0
 10
23.37912698350164
 20
-77.43428038505808
 30
0.0
 10
23.85292495333072
 20
-76.65844240801947
 30
0.0
 11
21.81240170986819
 21
-81.27373841722357
 31
0.0
 11
21.80224379031395
 21
-80.89510203693938
 31
0.0
 11
22.06813736722338
 21
-79.44266430610966
 31
0.0
 11
22.37834676899811
 21
-78.95978365567813
 31
0.0
 11
23.85292495333072
 21
-76.65844240801947
 31
0.0
  0
SPLINE
  5
38
330
2
100
AcDbEntity
  8
0
100
AcDbSpline
210
0.0
220
0.0
230
1.0
 70
     8
 71
     3
 72
    13
 73
     9
 74
     7
 42
0.0000000001
 43
0.0000000001
 44
0.0000000001
 40
0.0
 40
0.0
 40
0.0
 40
0.0
 40
1.153761307648861
 40
2.834743993687891
 40
3.631229486015688
 40
4.758360558891394
 40
5.169057995590389
 40
5.462937847736933
 40
5.462937847736933
 40
5.462937847736933
 40
5.462937847736933
 10
22.01084885489859
 20
-76.6218437293767
 30
0.0
 10
22.03663245131693
 20
-77.02270650631271
 30
0.0
 10
22.09998168533788
 20
-78.00760983222509
 30
0.0
 10
21.06679501024749
 20
-78.87672976224317
 30
0.0
 10
20.06595031989073
 20
-79.54274139741855
 30
0.0
 10
20.01515278181716
 20
-80.6078584345712
 30
0.0
 10
20.64457882378832
 20
-80.91595315013648
 30
0.0
 10
20.6307278221171
 20
-81.16843005988409
 30
0.0
 10
20.62495055624768
 20
-81.27373841722357
 30
0.0
 11
22.01084885489859
 21
-76.6218437293767
 31
0.0
 11
21.94409423155326
 21
-77.77367226491906
 31
0.0
 11
20.82296681662254
 21
-79.02618019313897
 31
0.0
 11
20.24214865142724
 21
-79.57119340258239
 31
0.0
 11
20.30141601886728
 21
-80.69676518376681
 31
0.0
 11
20.59775158374432
 21
-80.98111992260569
 31
0.0
 11
20.62495055624768
 21
-81.27373841722357
 31
0.0
  0
SPLINE
  5
39
330
2
100
AcDbEntity
  8
0
100
AcDbSpline
210
0.0
220
0.0
230
1.0
 70
     8
 71
     3
 72
    13
 73
     9
 74
     0
 42
0.0000000001
 43
0.0000000001
 40
0.4878700717319635
 40
0.4878700717319635
 40
0.4878700717319635
 40
0.4878700717319635
 40
1.08312367147034
 40
2.0859340797442
 40
3.765122773212139
 40
4.406276593233115
 40
5.158132486197269
 40
5.600336725610043
 40
5.600336725610043
 40
5.600336725610043
 40
5.600336725610043
 10
25.20430996200116
 20
-75.36523659380387
 30
0.0
 10
24.91100463936453
 20
-75.12686578641972
 30
0.0
 10
22.91955012334602
 20
-75.36523659380389
 30
0.0
 10
20.56475826464617
 20
-72.92684473745548
 30
0.0
 10
21.43001982207778
 20
-74.8686979943195
 30
0.0
 10
20.9345694063511
 20
-75.26706737198309
 30
0.0
 10
21.21058145941441
 20
-76.00601402563381
 30
0.0
 10
21.74649095171918
 20
-76.51175049020553
 30
0.0
 10
22.45852808263367
 20
-76.85248519267556
 30
0.0
  0
LINE
  5
3A
330
2
100
AcDbEntity
  8
CENTER
 48
0.05
100
AcDbLine
 10
25.80049739389451
 20
-78.0248264559072
 30
0.0
 11
25.80049739389451
 21
-71.51669090775245
 31
0.0
  0
LINE
  5
3D
330
2
100
AcDbEntity
  8
0
 48
10.0
100
AcDbLine
 10
21.81240170986819
 20
-81.27373841722357
 30
0.0
 11
20.62495055624768
 21
-81.27373841722357
 31
0.0
  0
ARC
  5
3F
330
2
100
AcDbEntity
  8
0
  6
HIDDEN
 62
     9
 48
0.25
100
AcDbCircle
 10
22.83169653274648
 20
-72.52373982456933
 30
0.0
 40
3.0
100
AcDbArc
 50
236.1873449028061
 51
245.9284028849615
  0
ARC
  5
40
330
2
100
AcDbEntity
  8
0
100
AcDbCircle
 10
22.83177139029869
 20
-72.52322034901883
 30
0.0
 40
3.0
100
AcDbArc
 50
185.1840402320893
 51
236.1806234831833
  0
LINE
  5
41
330
2
100
AcDbEntity
  8
0
  6
HIDDEN
 62
     9
 48
0.1
100
AcDbLine
 10
24.52905078448779
 20
-74.95783759810123
 30
0.0
 11
27.07194400330124
 21
-74.95783759810123
 31
0.0
  0
LINE
  5
42
330
2
100
AcDbEntity
  8
0
  6
HIDDEN
 62
     9
 48
0.1
100
AcDbLine
 10
27.07194400330124
 20
-74.95783759810123
 30
0.0
 11
24.52905078448779
 21
-74.95783759810123
 31
0.0
  0
ARC
  5
43
330
2
100
AcDbEntity
  8
0
  6
HIDDEN
 62
     9
 48
0.1
100
AcDbCircle
 10
24.33354786310537
 20
-72.04896470376607
 30
0.0
 40
2.5
100
AcDbArc
 50
189.9999999999998
 51
271.0000000000001
  0
LINE
  5
44
330
2
100
AcDbEntity
  8
0
  6
HIDDEN
 62
     9
 48
0.25
100
AcDbLine
 10
25.28047703253117
 20
-75.52373982456991
 30
0.0
 11
24.67340032990487
 21
-75.52373982456967
 31
0.0
  0
LINE
  5
47
330
2
100
AcDbEntity
  8
0
  6
HIDDEN
 62
     9
 48
0.1
100
AcDbLine
 10
24.35227408919115
 20
-74.88461429339787
 30
0.0
 11
23.99337251512918
 21
-74.52571271933594
 31
0.0
  0
ARC
  5
48
330
2
100
AcDbEntity
  8
0
  6
HIDDEN
 62
     9
 48
0.1
100
AcDbCircle
 10
24.5290507844878
 20
-74.70783759810124
 30
0.0
 40
0.25
100
AcDbArc
 50
225.0000000000005
 51
270.0
  0
LINE
  5
4A
330
2
100
AcDbEntity
  8
0
  6
HIDDEN
 62
     9
 48
0.1
100
AcDbLine
 10
27.24872069859788
 20
-74.88461429339787
 30
0.0
 11
27.51875907186795
 21
-74.61457592012782
 31
0.0
  0
ARC
  5
4B
330
2
100
AcDbEntity
  8
0
  6
HIDDEN
 62
     9
 48
0.1
100
AcDbCircle
 10
27.07194400330124
 20
-74.70783759810124
 30
0.0
 40
0.25
100
AcDbArc
 50
270.0
 51
314.9999999999995
  0
ARC
  5
4C
330
2
100
AcDbEntity
  8
0
  6
HIDDEN
 62
     9
 48
0.1
100
AcDbCircle
 10
27.87231246246121
 20
-74.96812931072108
 30
0.0
 40
0.5
100
AcDbArc
 50
109.6746738800384
 51
134.9999999999988
  0
SPLINE
  5
4E
330
2
100
AcDbEntity
  8
0
100
AcDbSpline
210
0.0
220
0.0
230
1.0
 70
     8
 71
     3
 72
    11
 73
     7
 74
     5
 42
0.0000000001
 43
0.0000000001
 44
0.0000000001
 40
0.0
 40
0.0
 40
0.0
 40
0.0
 40
0.378772612268081
 40
1.855347959542816
 40
2.429284885964707
 40
5.162516006796766
 40
5.162516006796766
 40
5.162516006796766
 40
5.162516006796766
 10
45.9176248906705
 20
-81.27373841722357
 30
0.0
 10
45.92214890919199
 20
-81.14806744552808
 30
0.0
 10
45.94430898164953
 20
-80.53249130998635
 30
0.0
 10
45.866066635995
 20
-79.67548937348786
 30
0.0
 10
44.92418794773469
 20
-78.37303252641641
 30
0.0
 10
44.35089961703706
 20
-77.43428038505808
 30
0.0
 10
43.87710164720796
 20
-76.65844240801947
 30
0.0
 11
45.9176248906705
 21
-81.27373841722357
 31
0.0
 11
45.92778281022475
 21
-80.89510203693938
 31
0.0
 11
45.66188923331532
 21
-79.44266430610966
 31
0.0
 11
45.35167983154059
 21
-78.95978365567813
 31
0.0
 11
43.87710164720796
 21
-76.65844240801947
 31
0.0
  0
SPLINE
  5
4F
330
2
100
AcDbEntity
  8
0
100
AcDbSpline
210
0.0
220
0.0
230
1.0
 70
     8
 71
     3
 72
    13
 73
     9
 74
     0
 42
0.0000000001
 43
0.0000000001
 40
0.4878700717319635
 40
0.4878700717319635
 40
0.4878700717319635
 40
0.4878700717319635
 40
1.08312367147034
 40
2.0859340797442
 40
3.765122773212139
 40
4.406276593233115
 40
5.158132486197269
 40
5.600336725610043
 40
5.600336725610043
 40
5.600336725610043
 40
5.600336725610043
 10
42.52571663853752
 20
-75.36523659380387
 30
0.0
 10
42.81902196117416
 20
-75.12686578641972
 30
0.0
 10
44.81047647719266
 20
-75.36523659380389
 30
0.0
 10
47.16526833589251
 20
-72.92684473745548
 30
0.0
 10
46.30000677846091
 20
-74.8686979943195
 30
0.0
 10
46.79545719418761
 20
-75.26706737198309
 30
0.0
 10
46.51944514112428
 20
-76.00601402563381
 30
0.0
 10
45.98353564881951
 20
-76.51175049020553
 30
0.0
 10
45.27149851790503
 20
-76.85248519267556
 30
0.0
  0
ARC
  5
50
330
2
100
AcDbEntity
  8
0
  6
HIDDEN
 62
     9
 48
0.1
100
AcDbCircle
 10
43.45545410566634
 20
-71.71519058875084
 30
0.0
 40
2.5
100
AcDbArc
 50
271.0000000000001
 51
350.0000000000001
  0
SPLINE
  5
52
330
2
100
AcDbEntity
  8
0
100
AcDbSpline
210
0.0
220
0.0
230
1.0
 70
     8
 71
     3
 72
    11
 73
     7
 74
     5
 42
0.0000000001
 43
0.0000000001
 44
0.0000000001
 40
0.0
 40
0.0
 40
0.0
 40
0.0
 40
0.1758541918603446
 40
0.6156381773281621
 40
1.238867250313183
 40
2.191294601521839
 40
2.191294601521839
 40
2.191294601521839
 40
2.191294601521839
 10
42.52571663853752
 20
-75.36523659380389
 30
0.0
 10
42.48892556515117
 20
-75.42101529259489
 30
0.0
 10
42.36012573887518
 20
-75.61628784250771
 30
0.0
 10
42.94456222256145
 20
-75.79139623296637
 30
0.0
 10
43.21793235800857
 20
-76.38698947451217
 30
0.0
 10
43.7280495530848
 20
-76.60785295288441
 30
0.0
 10
44.03639695766641
 20
-76.74135694173303
 30
0.0
 11
42.52571663853752
 21
-75.36523659380389
 31
0.0
 11
42.44954956801757
 21
-75.5237398245699
 31
0.0
 11
42.79686782252009
 21
-75.79351748110075
 31
0.0
 11
43.21965178372387
 21
-76.25141288352647
 31
0.0
 11
44.03639695766641
 21
-76.74135694173303
 31
0.0
  0
LINE
  5
53
330
2
100
AcDbEntity
  8
CENTER
 48
0.05
100
AcDbLine
 10
30.96473154138138
 20
-78.76049045848532
 30
0.0
 11
30.96473154138138
 21
-71.49899329150585
 31
0.0
  0
LINE
  5
54
330
2
100
AcDbEntity
  8
0
100
AcDbLine
 10
31.96473154138138
 20
-75.77373841722359
 30
0.0
 11
29.96473154138138
 21
-75.77373841722357
 31
0.0
  0
LINE
  5
55
330
2
100
AcDbEntity
  8
0
100
AcDbLine
 10
29.96473154138138
 20
-76.02373841722357
 30
0.0
 11
31.96473154138138
 21
-76.02373841722358
 31
0.0
  0
LINE
  5
56
330
2
100
AcDbEntity
  8
0
100
AcDbLine
 10
29.96473154138138
 20
-75.77373841722357
 30
0.0
 11
29.96473154138138
 21
-76.02373841722357
 31
0.0
  0
LINE
  5
57
330
2
100
AcDbEntity
  8
0
100
AcDbLine
 10
29.83973154138138
 20
-75.52373841722356
 30
0.0
 11
29.96473154138138
 21
-75.77373841722357
 31
0.0
  0
LINE
  5
58
330
2
100
AcDbEntity
  8
0
100
AcDbLine
 10
30.02723154138138
 20
-76.02373841722357
 30
0.0
 11
30.02723154138138
 21
-75.52447936434292
 31
0.0
  0
LINE
  5
59
330
2
100
AcDbEntity
  8
0
  6
HIDDEN
 62
     9
 48
0.1
100
AcDbLine
 10
29.71473154138138
 20
-75.27373841722357
 30
0.0
 11
29.71473154138135
 21
-74.45541661338087
 31
0.0
  0
LINE
  5
5A
330
2
100
AcDbEntity
  8
0
  6
HIDDEN
 62
     9
 48
0.1
100
AcDbLine
 10
29.71473154138138
 20
-75.27373841722357
 30
0.0
 11
29.83973154138138
 21
-75.52373841722356
 31
0.0
  0
LINE
  5
5B
330
2
100
AcDbEntity
  8
0
  6
HIDDEN
 62
     9
 48
0.1
100
AcDbLine
 10
30.02723154138138
 20
-75.52447936434292
 30
0.0
 11
30.02723154138138
 21
-74.44996190559081
 31
0.0
  0
LINE
  5
5C
330
2
100
AcDbEntity
  8
0
100
AcDbLine
 10
32.08918068110392
 20
-75.52484013777849
 30
0.0
 11
31.96473154138138
 21
-75.77373841722359
 31
0.0
  0
LINE
  5
5D
330
2
100
AcDbEntity
  8
0
100
AcDbLine
 10
31.96473154138138
 20
-76.02373841722358
 30
0.0
 11
31.96473154138138
 21
-75.77373841722359
 31
0.0
  0
LINE
  5
5E
330
2
100
AcDbEntity
  8
0
  6
HIDDEN
 62
     9
 48
0.1
100
AcDbLine
 10
32.21473154138135
 20
-75.2737384172236
 30
0.0
 11
32.21473154138135
 21
-74.41177895106033
 31
0.0
  0
LINE
  5
5F
330
2
100
AcDbEntity
  8
0
  6
HIDDEN
 62
     9
 48
0.1
100
AcDbLine
 10
32.21473154138135
 20
-75.2737384172236
 30
0.0
 11
32.08918068110392
 21
-75.52484013777849
 31
0.0
  0
LINE
  5
60
330
2
100
AcDbEntity
  8
0
  6
HIDDEN
 62
     9
 48
0.1
100
AcDbLine
 10
31.90223154138135
 20
-76.02373841722355
 30
0.0
 11
31.90223154138135
 21
-74.41723365885039
 31
0.0
  0
SPLINE
  5
65
330
2
100
AcDbEntity
  8
0
100
AcDbSpline
210
0.0
220
0.0
230
1.0
 70
     8
 71
     3
 72
    13
 73
     9
 74
     7
 42
0.0000000001
 43
0.0000000001
 44
0.0000000001
 40
0.0
 40
0.0
 40
0.0
 40
0.0
 40
1.153761307648861
 40
2.834743993687899
 40
3.631229486015697
 40
4.758360558891403
 40
5.169057995590398
 40
5.462937847736943
 40
5.462937847736943
 40
5.462937847736943
 40
5.462937847736943
 10
45.71917774564011
 20
-76.6218437293767
 30
0.0
 10
45.69339414922176
 20
-77.02270650631271
 30
0.0
 10
45.6300449152008
 20
-78.00760983222509
 30
0.0
 10
46.66323159029123
 20
-78.87672976224315
 30
0.0
 10
47.66407628064795
 20
-79.54274139741857
 30
0.0
 10
47.71487381872156
 20
-80.60785843457118
 30
0.0
 10
47.08544777675038
 20
-80.91595315013648
 30
0.0
 10
47.09929877842158
 20
-81.16843005988405
 30
0.0
 10
47.10507604429101
 20
-81.27373841722357
 30
0.0
 11
45.71917774564011
 21
-76.6218437293767
 31
0.0
 11
45.78593236898543
 21
-77.77367226491906
 31
0.0
 11
46.90705978391616
 21
-79.02618019313897
 31
0.0
 11
47.48787794911146
 21
-79.57119340258239
 31
0.0
 11
47.42861058167142
 21
-80.69676518376681
 31
0.0
 11
47.13227501679438
 21
-80.98111992260569
 31
0.0
 11
47.10507604429101
 21
-81.27373841722357
 31
0.0
  0
LINE
  5
66
330
2
100
AcDbEntity
  8
0
 48
10.0
100
AcDbLine
 10
45.9176248906705
 20
-81.27373841722357
 30
0.0
 11
47.10507604429101
 21
-81.27373841722357
 31
0.0
  0
ARC
  5
67
330
2
100
AcDbEntity
  8
0
100
AcDbCircle
 10
44.89802698823231
 20
-72.5270812196333
 30
0.0
 40
3.0
100
AcDbArc
 50
303.8529766964661
 51
354.8181415668762
  0
LINE
  5
68
330
2
100
AcDbEntity
  8
0
100
AcDbLine
 10
14.17549739389451
 20
-56.02373982456949
 30
0.0
 11
54.05049739389451
 21
-56.0237398245695
 31
0.0
  0
LINE
  5
69
330
2
100
AcDbEntity
  8
0
100
AcDbLine
 10
53.94052161032348
 20
-55.02373982456949
 30
0.0
 11
14.28547317746551
 21
-55.0237398245695
 31
0.0
  0
LINE
  5
6A
330
2
100
AcDbEntity
  8
0
100
AcDbLine
 10
14.91385417508107
 20
-54.52373982456947
 30
0.0
 11
33.86507429341619
 21
-54.52373982456948
 31
0.0
  0
LINE
  5
6B
330
2
100
AcDbEntity
  8
CENTER
 48
0.05
100
AcDbLine
 10
22.00991540062355
 20
-58.58623841722356
 30
0.0
 11
15.67964898031096
 21
-58.58623841722359
 31
0.0
  0
LWPOLYLINE
  5
6C
330
2
100
AcDbEntity
  8
0
  6
HIDDEN
 62
     9
 48
0.1
100
AcDbPolyline
 90
       11
 70
     0
 43
0.0
 10
18.66914029486865
 20
-60.24314575449298
 10
18.67719446075788
 20
-60.15378241367322
 10
18.68657030595768
 20
-60.03971929118113
 10
18.69515310832114
 20
-59.92545201127456
 10
18.70301037813221
 20
-59.81126368717777
 10
18.71020962567483
 20
-59.69743743211503
 10
18.71678596429539
 20
-59.58352781750191
 10
18.72264491959002
 20
-59.46617524751932
 10
18.72765962021737
 20
-59.34129158453952
 10
18.73170319483609
 20
-59.20478869093479
 10
18.7323865872545
 20
-59.16947495462144
  0
LWPOLYLINE
  5
79
330
2
100
AcDbEntity
  8
0
  6
HIDDEN
 62
     9
 48
0.1
100
AcDbPolyline
 90
        5
 70
     0
 43
0.0
 10
18.46888870250247
 20
-63.22480760684831
 10
18.46774020883661
 20
-63.20665476182266
 10
18.45852513695136
 20
-62.81087384390086
 10
18.46302865342492
 20
-62.45453868701622
 10
18.47297416726068
 20
-62.22278121632345
  0
LWPOLYLINE
  5
80
330
2
100
AcDbEntity
  8
0
  6
HIDDEN
 62
     9
 48
0.1
100
AcDbPolyline
 90
        5
 70
     0
 43
0.0
 10
18.73408205219136
 20
-65.18819859091173
 10
18.62384479075812
 20
-64.63265335532611
 10
18.54578525212873
 20
-64.11734639018376
 10
18.49528865269199
 20
-63.64207956813312
 10
18.49448075286226
 20
-63.62931007637072
  0
LWPOLYLINE
  5
87
330
2
100
AcDbEntity
  8
0
  6
HIDDEN
 62
     9
 48
0.1
100
AcDbPolyline
 90
        9
 70
     0
 43
0.0
 10
18.50598268695902
 20
-61.71517015159772
 10
18.51345109349263
 20
-61.61941638232594
 10
18.53191850353409
 20
-61.41321210886747
 10
18.55000894315538
 20
-61.23574143876198
 10
18.56759680838386
 20
-61.08194548419469
 10
18.58455649524686
 20
-60.94676535735082
 10
18.60076239977182
 20
-60.82514217041556
 10
18.61608891798606
 20
-60.71201703557413
 10
18.61620871978159
 20
-60.71109949547084
  0
LINE
  5
92
330
2
100
AcDbEntity
  8
0
100
AcDbLine
 10
14.17549739389451
 20
-56.02373982456949
 30
0.0
 11
14.17549739389451
 21
-55.23084660575602
 31
0.0
  0
ARC
  5
93
330
2
100
AcDbEntity
  8
0
100
AcDbCircle
 10
14.91114694280838
 20
-54.81652747524596
 30
0.0
 40
0.2928001664877247
100
AcDbArc
 50
89.47023529597371
 51
154.485416327928
  0
ARC
  5
94
330
2
100
AcDbEntity
  8
0
100
AcDbCircle
 10
14.17549739389452
 20
-54.52373982456948
 30
0.0
 40
0.5
100
AcDbArc
 50
289.4712206344914
 51
340.5287793655105
  0
ARC
  5
95
330
2
100
AcDbEntity
  8
0
100
AcDbCircle
 10
14.42549739389452
 20
-55.23084660575603
 30
0.0
 40
0.25
100
AcDbArc
 50
109.4712206344888
 51
179.9999999999967
  0
LWPOLYLINE
  5
96
330
2
100
AcDbEntity
  8
0
  6
HIDDEN
 62
     9
 48
0.1
100
AcDbPolyline
 90
        5
 70
     0
 43
0.0
 10
18.68587812589869
 20
-57.27386559646125
 10
18.65616306641838
 20
-56.98670806328941
 10
18.60908461635425
 20
-56.66048264299996
 10
18.54601767234448
 20
-56.33753028661192
 10
18.46456506585077
 20
-56.02373982456948
  0
LWPOLYLINE
  5
9D
330
2
100
AcDbEntity
  8
0
  6
HIDDEN
 62
     9
 48
0.1
100
AcDbPolyline
 90
        6
 70
     0
 43
0.0
 10
18.73673661185494
 20
-58.68565873068561
 10
18.73673844922661
 20
-58.68468325009336
 10
18.73562880639699
 20
-58.46082205771133
 10
18.73253529798573
 20
-58.20656377457759
 10
18.72543913832056
 20
-57.92613440312434
 10
18.71645514228971
 20
-57.7259568544812
  0
LINE
  5
A5
330
2
100
AcDbEntity
  8
0
100
AcDbLine
 10
53.34339061270796
 20
-54.52373982456947
 30
0.0
 11
33.86507429341619
 21
-54.52373982456948
 31
0.0
  0
ARC
  5
A6
330
2
100
AcDbEntity
  8
0
100
AcDbCircle
 10
53.80049739389453
 20
-55.23084660575603
 30
0.0
 40
0.25
100
AcDbArc
 50
0.0000000000032696
 51
70.52877936551118
  0
ARC
  5
A7
330
2
100
AcDbEntity
  8
0
100
AcDbCircle
 10
53.34339061270798
 20
-54.77373982456946
 30
0.0
 40
0.25
100
AcDbArc
 50
19.47122063448991
 51
89.99999999999998
  0
ARC
  5
A8
330
2
100
AcDbEntity
  8
0
100
AcDbCircle
 10
54.05049739389453
 20
-54.52373982456948
 30
0.0
 40
0.5
100
AcDbArc
 50
199.4712206344894
 51
250.5287793655085
  0
LINE
  5
A9
330
2
100
AcDbEntity
  8
0
100
AcDbLine
 10
54.05049739389451
 20
-56.0237398245695
 30
0.0
 11
54.05049739389451
 21
-55.23084660575602
 31
0.0
  0
ARC
  5
1B5
330
2
100
AcDbEntity
  8
0
  6
HIDDEN
 62
     9
 48
0.25
100
AcDbCircle
 10
22.83169653274648
 20
-72.52373982456933
 30
0.0
 40
3.0
100
AcDbArc
 50
256.7956014057504
 51
269.9999999999866
  0
LINE
  5
1B6
330
2
100
AcDbEntity
  8
0
  6
HIDDEN
 62
     9
 48
0.25
100
AcDbLine
 10
24.14603047058939
 20
-75.52373982456955
 30
0.0
 11
23.19017255161834
 21
-75.52373982456938
 31
0.0
  0
ARC
  5
1BA
330
2
100
AcDbEntity
  8
0
  6
HIDDEN
 62
     9
 48
0.25
100
AcDbCircle
 10
44.8983300677922
 20
-72.52373982456933
 30
0.0
 40
3.0
100
AcDbArc
 50
294.0715971150384
 51
303.8126550971937
  0
ARC
  5
1BB
330
2
100
AcDbEntity
  8
0
  6
HIDDEN
 62
     9
 48
0.25
100
AcDbCircle
 10
44.8983300677922
 20
-72.52373982456933
 30
0.0
 40
3.0
100
AcDbArc
 50
270.0000000000132
 51
283.2043985942495
  0
LINE
  5
1BC
330
2
100
AcDbEntity
  8
0
  6
HIDDEN
 62
     9
 48
0.25
100
AcDbLine
 10
43.58399612994929
 20
-75.52373982456955
 30
0.0
 11
44.53985404892034
 21
-75.52373982456938
 31
0.0
  0
LINE
  5
1BD
330
2
100
AcDbEntity
  8
0
  6
HIDDEN
 62
     9
 48
0.25
100
AcDbLine
 10
42.44954956800753
 20
-75.52373982456991
 30
0.0
 11
43.05662627063381
 21
-75.52373982456967
 31
0.0
  0
ENDSEC
  0
SECTION
  2
OBJECTS
  0
DICTIONARY
  5
7
330
0
100
AcDbDictionary
  3
ACAD_GROUP
350
28
  3
ACAD_LAYOUT
350
B
  3
ACAD_MLINESTYLE
350
29
  3
ACAD_PLOTSETTINGS
350
2A
  3
ACAD_PLOTSTYLENAME
350
6
  3
ACDBHEADERROUNDTRIPXREC
350
20C
  3
ACDBVARIABLEDICTIONARY
350
AA
  3
ASE_INDEX_DICTIONARY
350
B7
  0
DICTIONARY
  5
11
330
10
100
AcDbDictionary
280
     1
  3
ACAD_LAYERFILTERS
360
12
  0
DICTIONARY
  5
C0
330
2
100
AcDbDictionary
280
     1
  3
ACAD_LAYOUTSELFREF
360
22D
  0
DICTIONARY
  5
C2
330
B1
100
AcDbDictionary
280
     1
  3
ACAD_LAYOUTSELFREF
360
22E
  0
DICTIONARY
  5
28
102
{ACAD_REACTORS
330
7
102
}
330
7
100
AcDbDictionary
  0
DICTIONARY
  5
B
102
{ACAD_REACTORS
330
7
102
}
330
7
100
AcDbDictionary
  0
DICTIONARY
  5
29
102
{ACAD_REACTORS
330
7
102
}
330
7
100
AcDbDictionary
  3
STANDARD
350
2C
  0
DICTIONARY
  5
2A
102
{ACAD_REACTORS
330
7
102
}
330
7
100
AcDbDictionary
  0
ACDBDICTIONARYWDFLT
  5
6
102
{ACAD_REACTORS
330
7
102
}
330
7
100
AcDbDictionary
281
     1
  3
Normal
350
5
100
AcDbDictionaryWithDefault
340
5
  0
DICTIONARY
  5
20C
102
{ACAD_REACTORS
330
7
102
}
330
7
100
AcDbDictionary
  3
CEPSNTYPE
350
216
  3
DIMSTYLEDATA
350
21A
  3
FINGERPRINTGUID
350
217
  3
HYPERLINKBASE
350
20F
  3
INSUNITS
350
215
  3
LAYOUTDICT
350
211
  3
LWETCUNION
350
214
  3
PLOTSETDICT
350
212
  3
PLOTSTYLNAMDICT
350
213
  3
PSVPSCALE
350
219
  3
PUCSBASE
350
21D
  3
PUCSORGBACK
350
223
  3
PUCSORGBOTTOM
350
21F
  3
PUCSORGFRONT
350
222
  3
PUCSORGLEFT
350
220
  3
PUCSORGRIGHT
350
221
  3
PUCSORGTOP
350
21E
  3
PUCSORTHOREF
350
21B
  3
PUCSORTHOVIEW
350
21C
  3
STYLESHEET
350
210
  3
TSTACKALIGN
350
20D
  3
TSTACKSIZE
350
20E
  3
UCSBASE
350
226
  3
UCSORGBACK
350
22C
  3
UCSORGBOTTOM
350
228
  3
UCSORGFRONT
350
22B
  3
UCSORGLEFT
350
229
  3
UCSORGRIGHT
350
22A
  3
UCSORGTOP
350
227
  3
UCSORTHOREF
350
224
  3
UCSORTHOVIEW
350
225
  3
VERSIONGUID
350
218
  0
DICTIONARY
  5
AA
102
{ACAD_REACTORS
330
7
102
}
330
7
100
AcDbDictionary
  3
DIMASSOC
350
AC
  3
HIDETEXT
350
AB
  0
DICTIONARY
  5
B7
102
{ACAD_REACTORS
330
7
102
}
330
7
100
AcDbDictionary
  3
ASEBLOCKHIERARCHYINDEXRECORD
350
B9
1001
DCO15
1040
1542965932.757
  0
DICTIONARY
  5
12
102
{ACAD_REACTORS
330
11
102
}
330
11
100
AcDbDictionary
280
     1
  3
DIM-1_12
360
13
  3
DIM-1_16
360
14
  0
XRECORD
  5
22D
102
{ACAD_REACTORS
330
C0
102
}
330
C0
100
AcDbXrecord
340
2
  0
XRECORD
  5
22E
102
{ACAD_REACTORS
330
C2
102
}
330
C2
100
AcDbXrecord
340
B1
  0
MLINESTYLE
  5
2C
102
{ACAD_REACTORS
330
29
102
}
330
29
100
AcDbMlineStyle
  2
STANDARD
 70
     0
  3

 62
   256
 51
90.0
 52
90.0
 71
     2
 49
0.5
 62
   256
  6
BYLAYER
 49
-0.5
 62
   256
  6
BYLAYER
  0
ACDBPLACEHOLDER
  5
5
102
{ACAD_REACTORS
330
6
102
}
330
6
100
AcDbPlaceHolder
280
     0
  0
XRECORD
  5
216
102
{ACAD_REACTORS
330
20C
102
}
330
20C
100
AcDbXrecord
 90
        0
  0
XRECORD
  5
21A
102
{ACAD_REACTORS
330
20C
102
}
330
20C
100
AcDbXrecord
1000
DSTYLE
1002
{
1070
    79
 70
     1
1070
   276
 70
     1
1070
   277
 70
     5
1002
}
  0
XRECORD
  5
217
102
{ACAD_REACTORS
330
20C
102
}
330
20C
100
AcDbXrecord
  1
{6A4AC8E0-4F58-11D5-8420-0003476D26AB}
  0
XRECORD
  5
20F
102
{ACAD_REACTORS
330
20C
102
}
330
20C
100
AcDbXrecord
  1

  0
XRECORD
  5
215
102
{ACAD_REACTORS
330
20C
102
}
330
20C
100
AcDbXrecord
 90
        1
  0
XRECORD
  5
211
102
{ACAD_REACTORS
330
20C
102
}
330
20C
100
AcDbXrecord
340
B
  0
XRECORD
  5
214
102
{ACAD_REACTORS
330
20C
102
}
330
20C
100
AcDbXrecord
 90
    10781
  0
XRECORD
  5
212
102
{ACAD_REACTORS
330
20C
102
}
330
20C
100
AcDbXrecord
340
2A
  0
XRECORD
  5
213
102
{ACAD_REACTORS
330
20C
102
}
330
20C
100
AcDbXrecord
340
6
  0
XRECORD
  5
219
102
{ACAD_REACTORS
330
20C
102
}
330
20C
100
AcDbXrecord
 40
0.0
  0
XRECORD
  5
21D
102
{ACAD_REACTORS
330
20C
102
}
330
20C
100
AcDbXrecord
340
0
  0
XRECORD
  5
223
102
{ACAD_REACTORS
330
20C
102
}
330
20C
100
AcDbXrecord
 10
0.0
 20
0.0
 30
0.0
  0
XRECORD
  5
21F
102
{ACAD_REACTORS
330
20C
102
}
330
20C
100
AcDbXrecord
 10
0.0
 20
0.0
 30
0.0
  0
XRECORD
  5
222
102
{ACAD_REACTORS
330
20C
102
}
330
20C
100
AcDbXrecord
 10
0.0
 20
0.0
 30
0.0
  0
XRECORD
  5
220
102
{ACAD_REACTORS
330
20C
102
}
330
20C
100
AcDbXrecord
 10
0.0
 20
0.0
 30
0.0
  0
XRECORD
  5
221
102
{ACAD_REACTORS
330
20C
102
}
330
20C
100
AcDbXrecord
 10
0.0
 20
0.0
 30
0.0
  0
XRECORD
  5
21E
102
{ACAD_REACTORS
330
20C
102
}
330
20C
100
AcDbXrecord
 10
0.0
 20
0.0
 30
0.0
  0
XRECORD
  5
21B
102
{ACAD_REACTORS
330
20C
102
}
330
20C
100
AcDbXrecord
340
0
  0
XRECORD
  5
21C
102
{ACAD_REACTORS
330
20C
102
}
330
20C
100
AcDbXrecord
 70
     0
  0
XRECORD
  5
210
102
{ACAD_REACTORS
330
20C
102
}
330
20C
100
AcDbXrecord
  1

  0
XRECORD
  5
20D
102
{ACAD_REACTORS
330
20C
102
}
330
20C
100
AcDbXrecord
 90
        1
  0
XRECORD
  5
20E
102
{ACAD_REACTORS
330
20C
102
}
330
20C
100
AcDbXrecord
 90
       70
  0
XRECORD
  5
226
102
{ACAD_REACTORS
330
20C
102
}
330
20C
100
AcDbXrecord
340
0
  0
XRECORD
  5
22C
102
{ACAD_REACTORS
330
20C
102
}
330
20C
100
AcDbXrecord
 10
0.0
 20
0.0
 30
0.0
  0
XRECORD
  5
228
102
{ACAD_REACTORS
330
20C
102
}
330
20C
100
AcDbXrecord
 10
0.0
 20
0.0
 30
0.0
  0
XRECORD
  5
22B
102
{ACAD_REACTORS
330
20C
102
}
330
20C
100
AcDbXrecord
 10
0.0
 20
0.0
 30
0.0
  0
XRECORD
  5
229
102
{ACAD_REACTORS
330
20C
102
}
330
20C
100
AcDbXrecord
 10
0.0
 20
0.0
 30
0.0
  0
XRECORD
  5
22A
102
{ACAD_REACTORS
330
20C
102
}
330
20C
100
AcDbXrecord
 10
0.0
 20
0.0
 30
0.0
  0
XRECORD
  5
227
102
{ACAD_REACTORS
330
20C
102
}
330
20C
100
AcDbXrecord
 10
0.0
 20
0.0
 30
0.0
  0
XRECORD
  5
224
102
{ACAD_REACTORS
330
20C
102
}
330
20C
100
AcDbXrecord
340
0
  0
XRECORD
  5
225
102
{ACAD_REACTORS
330
20C
102
}
330
20C
100
AcDbXrecord
 70
     1
  0
XRECORD
  5
218
102
{ACAD_REACTORS
330
20C
102
}
330
20C
100
AcDbXrecord
  1
{0C4512A7-0B47-442C-9E35-3EA560B983EB}
  0
DICTIONARYVAR
  5
AC
102
{ACAD_REACTORS
330
AA
102
}
330
AA
100
DictionaryVariables
280
     0
  1
1
  0
DICTIONARYVAR
  5
AB
102
{ACAD_REACTORS
330
AA
102
}
330
AA
100
DictionaryVariables
280
     0
  1
1
  0
XRECORD
  5
B9
102
{ACAD_REACTORS
330
B7
102
}
330
B7
100
AcDbXrecord
  0
XRECORD
  5
13
102
{ACAD_REACTORS
330
12
102
}
330
12
100
AcDbXrecord
  1
DIM-1_12
  1
DIM-1_12
  1
*
  1
*
 70
     0
  1
*
  1
*
  0
XRECORD
  5
14
102
{ACAD_REACTORS
330
12
102
}
330
12
100
AcDbXrecord
  1
dim-1_16
  1
*
  1
*
  1
*
 70
     0
  1
*
  1
*
  0
ENDSEC
  0
EOF
