  0
SECTION
  2
HEADER
  9
$ACADVER
  1
AC1014
  9
$ACADMAINTVER
 70
     9
  9
$DWGCODEPAGE
  3
ANSI_1252
  9
$INSBASE
 10
425.101934594497
 20
199.4399211590156
 30
0.0
  9
$EXTMIN
 10
413.4537935878983
 20
199.4313394784645
 30
-0.0015258207003583
  9
$EXTMAX
 10
453.3864883905147
 20
226.1968244542532
 30
0.0000000349246037
  9
$LIMMIN
 10
0.0
 20
0.0
  9
$LIMMAX
 10
100.5024158491978
 20
51.69854817198938
  9
$ORTHOMODE
 70
     1
  9
$REGENMODE
 70
     1
  9
$FILLMODE
 70
     1
  9
$QTEXTMODE
 70
     0
  9
$MIRRTEXT
 70
     1
  9
$DRAGMODE
 70
     2
  9
$LTSCALE
 40
2.0
  9
$OSMODE
 70
    55
  9
$ATTMODE
 70
     1
  9
$TEXTSIZE
 40
0.1
  9
$TRACEWID
 40
1.0
  9
$TEXTSTYLE
  7
CARTOUCHE
  9
$CLAYER
  8
0
  9
$CELTYPE
  6
BYLAYER
  9
$CECOLOR
 62
   256
  9
$CELTSCALE
 40
1.0
  9
$DELOBJ
 70
     1
  9
$DISPSILH
 70
     0
  9
$DIMSCALE
 40
16.0
  9
$DIMASZ
 40
0.1
  9
$DIMEXO
 40
0.0625
  9
$DIMDLI
 40
0.25
  9
$DIMRND
 40
0.0
  9
$DIMDLE
 40
0.0
  9
$DIMEXE
 40
0.1
  9
$DIMTP
 40
0.0
  9
$DIMTM
 40
0.0
  9
$DIMTXT
 40
0.1
  9
$DIMCEN
 40
0.09
  9
$DIMTSZ
 40
0.0
  9
$DIMTOL
 70
     0
  9
$DIMLIM
 70
     0
  9
$DIMTIH
 70
     1
  9
$DIMTOH
 70
     1
  9
$DIMSE1
 70
     0
  9
$DIMSE2
 70
     0
  9
$DIMTAD
 70
     0
  9
$DIMZIN
 70
     4
  9
$DIMBLK
  1

  9
$DIMASO
 70
     1
  9
$DIMSHO
 70
     1
  9
$DIMPOST
  1
\X
  9
$DIMAPOST
  1
cm
  9
$DIMALT
 70
     1
  9
$DIMALTD
 70
     1
  9
$DIMALTF
 40
2.54
  9
$DIMLFAC
 40
1.0
  9
$DIMTOFL
 70
     0
  9
$DIMTVP
 40
0.0
  9
$DIMTIX
 70
     0
  9
$DIMSOXD
 70
     0
  9
$DIMSAH
 70
     0
  9
$DIMBLK1
  1

  9
$DIMBLK2
  1

  9
$DIMSTYLE
  2
STANDARD
  9
$DIMCLRD
 70
     0
  9
$DIMCLRE
 70
     0
  9
$DIMCLRT
 70
     0
  9
$DIMTFAC
 40
1.0
  9
$DIMGAP
 40
0.08
  9
$DIMJUST
 70
     0
  9
$DIMSD1
 70
     0
  9
$DIMSD2
 70
     0
  9
$DIMTOLJ
 70
     1
  9
$DIMTZIN
 70
     4
  9
$DIMALTZ
 70
     4
  9
$DIMALTTZ
 70
     4
  9
$DIMFIT
 70
     1
  9
$DIMUPT
 70
     0
  9
$DIMUNIT
 70
     5
  9
$DIMDEC
 70
     3
  9
$DIMTDEC
 70
     3
  9
$DIMALTU
 70
     2
  9
$DIMALTTD
 70
     1
  9
$DIMTXSTY
  7
ROMANS
  9
$DIMAUNIT
 70
     0
  9
$LUNITS
 70
     2
  9
$LUPREC
 70
     2
  9
$SKETCHINC
 40
1.0
  9
$FILLETRAD
 40
3.0
  9
$AUNITS
 70
     0
  9
$AUPREC
 70
     0
  9
$MENU
  1
.
  9
$ELEVATION
 40
0.0
  9
$PELEVATION
 40
0.0
  9
$THICKNESS
 40
0.0
  9
$LIMCHECK
 70
     0
  9
$BLIPMODE
 70
     0
  9
$CHAMFERA
 40
0.0
  9
$CHAMFERB
 40
0.0
  9
$CHAMFERC
 40
20.0
  9
$CHAMFERD
 40
0.0
  9
$SKPOLY
 70
     0
  9
$TDCREATE
 40
2452062.301426851
  9
$TDUPDATE
 40
2453689.451656805
  9
$TDINDWG
 40
2.5203379630
  9
$TDUSRTIMER
 40
2.5203379630
  9
$USRTIMER
 70
     1
  9
$ANGBASE
 50
0.0
  9
$ANGDIR
 70
     0
  9
$PDMODE
 70
    34
  9
$PDSIZE
 40
-5.0
  9
$PLINEWID
 40
0.0
  9
$COORDS
 70
     1
  9
$SPLFRAME
 70
     0
  9
$SPLINETYPE
 70
     6
  9
$SPLINESEGS
 70
     8
  9
$ATTDIA
 70
     0
  9
$ATTREQ
 70
     1
  9
$HANDLING
 70
 22529
  9
$HANDSEED
  5
1ED
  9
$SURFTAB1
 70
     6
  9
$SURFTAB2
 70
     6
  9
$SURFTYPE
 70
     6
  9
$SURFU
 70
     6
  9
$SURFV
 70
     6
  9
$UCSNAME
  2

  9
$UCSORG
 10
-86.61529330307228
 20
17.01116759546271
 30
0.0
  9
$UCSXDIR
 10
1.0
 20
0.0
 30
0.0
  9
$UCSYDIR
 10
0.0
 20
1.0
 30
0.0
  9
$PUCSNAME
  2

  9
$PUCSORG
 10
0.0
 20
0.0
 30
0.0
  9
$PUCSXDIR
 10
1.0
 20
0.0
 30
0.0
  9
$PUCSYDIR
 10
0.0
 20
1.0
 30
0.0
  9
$USERI1
 70
     0
  9
$USERI2
 70
     0
  9
$USERI3
 70
     0
  9
$USERI4
 70
     0
  9
$USERI5
 70
     0
  9
$USERR1
 40
0.0
  9
$USERR2
 40
0.0
  9
$USERR3
 40
0.0
  9
$USERR4
 40
0.0
  9
$USERR5
 40
0.0
  9
$WORLDVIEW
 70
     1
  9
$SHADEDGE
 70
     3
  9
$SHADEDIF
 70
    70
  9
$TILEMODE
 70
     1
  9
$MAXACTVP
 70
    48
  9
$PINSBASE
 10
0.0
 20
0.0
 30
0.0
  9
$PLIMCHECK
 70
     0
  9
$PEXTMIN
 10
0.0
 20
0.0
 30
0.0
  9
$PEXTMAX
 10
0.0
 20
0.0
 30
0.0
  9
$PLIMMIN
 10
0.0
 20
0.0
  9
$PLIMMAX
 10
12.0
 20
9.0
  9
$UNITMODE
 70
     0
  9
$VISRETAIN
 70
     1
  9
$PLINEGEN
 70
     0
  9
$PSLTSCALE
 70
     1
  9
$TREEDEPTH
 70
  3020
  9
$PICKSTYLE
 70
     1
  9
$CMLSTYLE
  2
STANDARD
  9
$CMLJUST
 70
     0
  9
$CMLSCALE
 40
20.0
  9
$PROXYGRAPHICS
 70
     1
  9
$MEASUREMENT
 70
     0
  0
ENDSEC
  0
SECTION
  2
CLASSES
  0
CLASS
  1
ACDBDICTIONARYWDFLT
  2
AcDbDictionaryWithDefault
  3
AutoCAD 2000
 90
        0
280
     0
281
     0
  0
CLASS
  1
ACDBPLACEHOLDER
  2
AcDbPlaceHolder
  3
AutoCAD 2000
 90
        0
280
     0
281
     0
  0
CLASS
  1
LAYOUT
  2
AcDbLayout
  3
AutoCAD 2000
 90
        0
280
     0
281
     0
  0
CLASS
  1
DICTIONARYVAR
  2
AcDbDictionaryVar
  3
AutoCAD 2000
 90
        0
280
     0
281
     0
  0
CLASS
  1
IMAGEDEF
  2
AcDbRasterImageDef
  3
ISM
 90
        0
280
     0
281
     0
  0
CLASS
  1
LONG_TRANSACTION
  2
AcDbLongTransaction
  3
AutoCAD 2000
 90
        0
280
     0
281
     0
  0
CLASS
  1
LWPOLYLINE
  2
AcDbPolyline
  3
AutoCAD 2000
 90
        0
280
     0
281
     1
  0
CLASS
  1
HATCH
  2
AcDbHatch
  3
AutoCAD 2000
 90
        0
280
     0
281
     1
  0
CLASS
  1
XRECORD
  2
AcDbXrecord
  3
AutoCAD 2000
 90
        0
280
     0
281
     0
  0
CLASS
  1
LONG_TRANSACTION
  2
AcDbLongTransaction
  3
AutoCAD 2000
 90
        0
280
     0
281
     0
  0
CLASS
  1
LWPOLYLINE
  2
AcDbPolyline
  3
AutoCAD 2000
 90
        0
280
     0
281
     1
  0
CLASS
  1
HATCH
  2
AcDbHatch
  3
AutoCAD 2000
 90
        0
280
     0
281
     1
  0
CLASS
  1
XRECORD
  2
AcDbXrecord
  3
AutoCAD 2000
 90
        0
280
     0
281
     0
  0
CLASS
  1
LONG_TRANSACTION
  2
AcDbLongTransaction
  3
AutoCAD 2000
 90
        0
280
     0
281
     0
  0
CLASS
  1
LWPOLYLINE
  2
AcDbPolyline
  3
AutoCAD 2000
 90
        0
280
     0
281
     1
  0
CLASS
  1
HATCH
  2
AcDbHatch
  3
AutoCAD 2000
 90
        0
280
     0
281
     1
  0
CLASS
  1
XRECORD
  2
AcDbXrecord
  3
AutoCAD 2000
 90
        0
280
     0
281
     0
  0
ENDSEC
  0
SECTION
  2
TABLES
  0
TABLE
  2
VPORT
  5
1D
330
0
100
AcDbSymbolTable
 70
     3
  0
VPORT
  5
1C9
330
1D
100
AcDbSymbolTableRecord
100
AcDbViewportTableRecord
  2
*ACTIVE
 70
     0
 10
0.0
 20
0.0
 11
1.0
 21
1.0
 12
433.4201409383579
 22
212.8140819642394
 13
0.0
 23
0.0
 14
10.0
 24
10.0
 15
10.0
 25
10.0
 16
0.0
 26
0.0
 36
1.0
 17
0.0
 27
0.0
 37
0.0
 40
33.29354144241768
 41
1.786792452830188
 42
50.0
 43
0.0
 44
0.0
 50
0.0
 51
0.0
 71
     0
 72
 20000
 73
     1
 74
     3
 75
     0
 76
     0
 77
     0
 78
     2
  0
ENDTAB
  0
TABLE
  2
LTYPE
  5
18
330
0
100
AcDbSymbolTable
 70
     3
  0
LTYPE
  5
19
330
18
100
AcDbSymbolTableRecord
100
AcDbLinetypeTableRecord
  2
BYBLOCK
 70
     0
  3

 72
    65
 73
     0
 40
0.0
  0
LTYPE
  5
1A
330
18
100
AcDbSymbolTableRecord
100
AcDbLinetypeTableRecord
  2
BYLAYER
 70
     0
  3

 72
    65
 73
     0
 40
0.0
  0
LTYPE
  5
8
330
18
100
AcDbSymbolTableRecord
100
AcDbLinetypeTableRecord
  2
CONTINUOUS
 70
     0
  3
Solid line
 72
    65
 73
     0
 40
0.0
  0
LTYPE
  5
30
330
18
100
AcDbSymbolTableRecord
100
AcDbLinetypeTableRecord
  2
CENTER
 70
     0
  3
Center ____ _ ____ _ ____ _ ____ _ ____ _ ____
 72
    65
 73
     4
 40
50.8
 49
31.75
 74
     0
 49
-6.349999999999999
 74
     0
 49
6.349999999999999
 74
     0
 49
-6.349999999999999
 74
     0
  0
LTYPE
  5
2B
330
18
100
AcDbSymbolTableRecord
100
AcDbLinetypeTableRecord
  2
HIDDEN
 70
     0
  3
Hidden __ __ __ __ __ __ __ __ __ __ __ __ __ _
 72
    65
 73
     2
 40
9.524999999999998
 49
6.349999999999999
 74
     0
 49
-3.174999999999999
 74
     0
  0
ENDTAB
  0
TABLE
  2
LAYER
  5
10
102
{ACAD_XDICTIONARY
360
11
102
}
330
0
100
AcDbSymbolTable
 70
     2
  0
LAYER
  5
4
330
10
100
AcDbSymbolTableRecord
100
AcDbLayerTableRecord
  2
0
 70
     0
 62
     7
  6
CONTINUOUS
  0
LAYER
  5
2F
330
10
100
AcDbSymbolTableRecord
100
AcDbLayerTableRecord
  2
CENTER
 70
     0
 62
     1
  6
CENTER
  0
ENDTAB
  0
TABLE
  2
STYLE
  5
15
330
0
100
AcDbSymbolTable
 70
     3
  0
STYLE
  5
16
330
15
100
AcDbSymbolTableRecord
100
AcDbTextStyleTableRecord
  2
STANDARD
 70
     0
 40
0.0
 41
1.0
 50
0.0
 71
     0
 42
0.125
  3
txt
  4

  0
STYLE
  5
28
330
15
100
AcDbSymbolTableRecord
100
AcDbTextStyleTableRecord
  2
CARTOUCHE
 70
     0
 40
0.0
 41
1.0
 50
0.0
 71
     0
 42
0.1
  3
romans.shx
  4

  0
STYLE
  5
23
330
15
100
AcDbSymbolTableRecord
100
AcDbTextStyleTableRecord
  2
ROMANS
 70
     0
 40
0.0
 41
1.0
 50
0.0
 71
     0
 42
1.0
  3
romans.shx
  4

  0
ENDTAB
  0
TABLE
  2
VIEW
  5
1B
330
0
100
AcDbSymbolTable
 70
     0
  0
ENDTAB
  0
TABLE
  2
UCS
  5
1C
330
0
100
AcDbSymbolTable
 70
     0
  0
ENDTAB
  0
TABLE
  2
APPID
  5
1F
330
0
100
AcDbSymbolTable
 70
     1
  0
APPID
  5
20
330
1F
100
AcDbSymbolTableRecord
100
AcDbRegAppTableRecord
  2
ACAD
 70
     0
  0
ENDTAB
  0
TABLE
  2
DIMSTYLE
  5
21
330
0
100
AcDbSymbolTable
 70
     1
  0
DIMSTYLE
105
22
330
21
100
AcDbSymbolTableRecord
100
AcDbDimStyleTableRecord
  2
STANDARD
 70
     0
  3
\X
  4
cm
  5

  6

  7

 40
16.0
 41
0.1
 42
0.0625
 43
0.25
 44
0.1
 45
0.0
 46
0.0
 47
0.0
 48
0.0
140
0.1
141
0.09
142
0.0
143
2.54
144
1.0
145
0.0
146
1.0
147
0.08
 71
     0
 72
     0
 73
     1
 74
     1
 75
     0
 76
     0
 77
     0
 78
     4
170
     1
171
     1
172
     0
173
     0
174
     0
175
     0
176
     0
177
     0
178
     0
270
     5
271
     3
272
     3
273
     2
274
     1
340
23
275
     0
280
     0
281
     0
282
     0
283
     1
284
     4
285
     4
286
     4
287
     1
288
     0
  0
ENDTAB
  0
TABLE
  2
BLOCK_RECORD
  5
1
330
0
100
AcDbSymbolTable
 70
     1
  0
BLOCK_RECORD
  5
2
102
{ACAD_XDICTIONARY
360
AE
102
}
330
1
100
AcDbSymbolTableRecord
100
AcDbBlockTableRecord
  2
*MODEL_SPACE
  0
BLOCK_RECORD
  5
C
102
{ACAD_XDICTIONARY
360
B0
102
}
330
1
100
AcDbSymbolTableRecord
100
AcDbBlockTableRecord
  2
*PAPER_SPACE
  0
BLOCK_RECORD
  5
133
330
1
100
AcDbSymbolTableRecord
100
AcDbBlockTableRecord
  2
BALNEO-NAOS-ARR-PRO
1001
ACAD
1000
DesignCenter Data
1002
{
1070
     1
1070
     1
1002
}
  0
ENDTAB
  0
ENDSEC
  0
SECTION
  2
BLOCKS
  0
BLOCK
  5
3
330
2
100
AcDbEntity
  8
0
100
AcDbBlockBegin
  2
*MODEL_SPACE
 70
     0
 10
0.0
 20
0.0
 30
0.0
  3
*MODEL_SPACE
  1

  0
ENDBLK
  5
9
330
2
100
AcDbEntity
  8
0
100
AcDbBlockEnd
  0
BLOCK
  5
D
330
C
100
AcDbEntity
 67
     1
  8
0
100
AcDbBlockBegin
  2
*PAPER_SPACE
 70
     0
 10
0.0
 20
0.0
 30
0.0
  3
*PAPER_SPACE
  1

  0
ENDBLK
  5
E
330
C
100
AcDbEntity
 67
     1
  8
0
100
AcDbBlockEnd
  0
BLOCK
  5
17E
330
133
100
AcDbEntity
  8
0
100
AcDbBlockBegin
  2
BALNEO-NAOS-ARR-PRO
 70
     0
 10
0.0
 20
0.0
 30
0.0
  3
BALNEO-NAOS-ARR-PRO
  1

  0
SPLINE
  5
134
330
133
100
AcDbEntity
  8
0
  6
HIDDEN
 48
0.05
100
AcDbSpline
210
0.0
220
0.0
230
1.0
 70
     8
 71
     3
 72
    18
 73
    14
 74
    12
 42
0.0000000001
 43
0.0000000001
 44
0.0000000001
 40
0.0
 40
0.0
 40
0.0
 40
0.0
 40
0.323712172023761
 40
0.750689793494189
 40
0.8403965421526706
 40
0.9168293982627428
 40
0.9603275184958651
 40
1.003945964525509
 40
1.044130751856542
 40
1.069247814579309
 40
1.314562933486718
 40
1.354843841172601
 40
5.794696206232103
 40
5.794696206232103
 40
5.794696206232103
 40
5.794696206232103
 10
-5.601925647991322
 20
0.0148812693671516
 30
0.0
 10
-5.601961943341905
 20
0.1227928477642308
 30
0.0
 10
-5.602046112401978
 20
0.3730402202868674
 30
0.0
 10
-5.6014847999474
 20
0.6530560868692988
 30
0.0
 10
-5.602208358476218
 20
0.8509117634174288
 30
0.0
 10
-5.575675073531613
 20
0.9197379282940687
 30
0.0
 10
-5.532915500192586
 20
0.9544752037419357
 30
0.0
 10
-5.495261768497869
 20
0.9762324224381018
 30
0.0
 10
-5.48023508222127
 20
1.012039547043144
 30
0.0
 10
-5.478899606049765
 20
1.115534762468939
 30
0.0
 10
-5.474696635651184
 20
1.219086881613634
 30
0.0
 10
-5.477859434638332
 20
2.794250602705744
 30
0.0
 10
-5.478024481452393
 20
4.287621086350526
 30
0.0
 10
-5.478188044329613
 20
5.767564666166663
 30
0.0
 11
-5.601925647991322
 21
0.0148812693671516
 31
0.0
 11
-5.601925647991322
 21
0.3385934413909126
 31
0.0
 11
-5.601925647991322
 21
0.7655710628613406
 31
0.0
 11
-5.596034923386014
 21
0.8550841910521285
 31
0.0
 11
-5.564936441412783
 21
0.9249044310409999
 31
0.0
 11
-5.532201197230392
 21
0.953548632062052
 31
0.0
 11
-5.497829190838956
 21
0.9804025705193453
 31
0.0
 11
-5.481461568747818
 21
1.017102953077596
 31
0.0
 11
-5.479824806538772
 21
1.042166628971017
 31
0.0
 11
-5.474914519911408
 21
1.28743260021406
 31
0.0
 11
-5.474914519911408
 21
1.327713507899943
 31
0.0
 11
-5.478188044329613
 21
5.767564666166663
 31
0.0
  0
ARC
  5
135
330
133
100
AcDbEntity
  8
0
100
AcDbCircle
 10
-10.03153840858328
 20
3.848869396608108
 30
0.0
 40
2.8112306295987
100
AcDbArc
 50
301.9330861120002
 51
340.9999999999994
  0
ARC
  5
136
330
133
100
AcDbEntity
  8
0
100
AcDbCircle
 10
26.35741891469473
 20
3.848869396608108
 30
0.0
 40
2.8112306295987
100
AcDbArc
 50
199.0000000000005
 51
238.0669138879997
  0
LINE
  5
137
330
133
100
AcDbEntity
  8
CENTER
 48
0.05
100
AcDbLine
 10
0.0
 20
2.004707197510128
 30
0.0
 11
0.0
 21
9.434609966042444
 31
0.0
  0
LINE
  5
138
330
133
100
AcDbEntity
  8
0
100
AcDbLine
 10
24.9542752664845
 20
1.338069931446057
 30
0.0
 11
-8.628394760299954
 21
1.338069931877839
 31
0.0
  0
LINE
  5
139
330
133
100
AcDbEntity
  8
0
100
AcDbLine
 10
-8.945422535978593
 20
0.8921066366483501
 30
0.0
 11
25.27130304212568
 21
0.8921066363583349
 31
0.0
  0
LINE
  5
13A
330
133
100
AcDbEntity
  8
0
100
AcDbLine
 10
3.110822481253308
 20
0.0148446482933196
 30
0.0
 11
25.37901071867981
 21
0.0148980104468137
 31
0.0
  0
LINE
  5
13B
330
133
100
AcDbEntity
  8
0
100
AcDbLine
 10
-8.931814132341173
 20
0.0
 30
0.0
 11
25.25769463845262
 21
0.0
 31
0.0
  0
LINE
  5
13C
330
133
100
AcDbEntity
  8
0
100
AcDbLine
 10
3.110822481253308
 20
0.0148446482933196
 30
0.0
 11
-9.05313048700583
 21
0.0148957753330592
 31
0.0
  0
LINE
  5
13D
330
133
100
AcDbEntity
  8
0
100
AcDbLine
 10
-8.931814132341173
 20
0.0
 30
0.0
 11
-9.05313048700583
 21
0.0148957753330592
 31
0.0
  0
LINE
  5
13E
330
133
100
AcDbEntity
  8
0
100
AcDbLine
 10
-9.05313048700583
 20
0.0148957753330592
 30
0.0
 11
-8.945422536533328
 21
0.8921066363661793
 31
0.0
  0
ARC
  5
13F
330
133
100
AcDbEntity
  8
0
100
AcDbCircle
 10
-8.763448004927454
 20
0.8697629737577017
 30
0.0
 40
0.1833411280173065
100
AcDbArc
 50
117.9823259875988
 51
172.9999999999988
  0
ARC
  5
140
330
133
100
AcDbEntity
  8
0
100
AcDbCircle
 10
-9.050193026938472
 20
1.409453477124088
 30
0.0
 40
0.4277959653737153
100
AcDbArc
 50
297.9823259875988
 51
350.3944920933986
  0
ARC
  5
141
330
133
100
AcDbEntity
  8
0
100
AcDbCircle
 10
-8.447624074814598
 20
1.307476983478011
 30
0.0
 40
0.1833411280173065
100
AcDbArc
 50
121.9330861120002
 51
170.3944920933986
  0
ARC
  5
142
330
133
100
AcDbEntity
  8
0
100
AcDbCircle
 10
24.77350458092604
 20
1.307476983478011
 30
0.0
 40
0.1833411280173065
100
AcDbArc
 50
9.605507906599756
 51
58.06691388799973
  0
ARC
  5
143
330
133
100
AcDbEntity
  8
0
100
AcDbCircle
 10
25.37607353304991
 20
1.409453477124088
 30
0.0
 40
0.4277959653737153
100
AcDbArc
 50
189.6055079065997
 51
242.0176740124011
  0
ARC
  5
144
330
133
100
AcDbEntity
  8
0
100
AcDbCircle
 10
25.0893285110389
 20
0.8697629737577017
 30
0.0
 40
0.1833411280173065
100
AcDbArc
 50
7.000000000001153
 51
62.01767401240116
  0
LINE
  5
145
330
133
100
AcDbEntity
  8
0
100
AcDbLine
 10
25.37901099311733
 20
0.0148957753330592
 30
0.0
 11
25.27130304264477
 21
0.8921066363661793
 31
0.0
  0
LINE
  5
146
330
133
100
AcDbEntity
  8
0
100
AcDbLine
 10
25.25769463845262
 20
0.0
 30
0.0
 11
25.37901099311733
 21
0.0148957753330592
 31
0.0
  0
LINE
  5
147
330
133
100
AcDbEntity
  8
0
100
AcDbLine
 10
-11.7499999999996
 20
23.75000000000005
 30
0.0
 11
28.06328066289029
 21
23.75000000000005
 31
0.0
  0
LINE
  5
148
330
133
100
AcDbEntity
  8
0
100
AcDbLine
 10
-9.317131021971988
 20
26.75
 30
0.0
 11
25.63041168486268
 21
26.75
 31
0.0
  0
LINE
  5
149
330
133
100
AcDbEntity
  8
0
100
AcDbLine
 10
-5.155921715132137
 20
6.029765455583287
 30
0.0
 11
21.48180222124358
 21
6.029765455583287
 31
0.0
  0
LINE
  5
14A
330
133
100
AcDbEntity
  8
0
  6
HIDDEN
 48
0.05
100
AcDbLine
 10
19.23452369831341
 20
4.529714328576346
 30
0.0
 11
-2.950806467346524
 21
4.529714328576233
 31
0.0
  0
LINE
  5
14B
330
133
100
AcDbEntity
  8
0
  6
HIDDEN
 48
0.05
100
AcDbLine
 10
-0.9963432122768267
 20
5.54569201234176
 30
0.0
 11
17.441045742092
 21
5.864819918907414
 31
0.0
  0
LINE
  5
14C
330
133
100
AcDbEntity
  8
0
100
AcDbLine
 10
1.271446609406666
 20
5.128985474271189
 30
0.0
 11
-1.27144660940678
 21
5.128985474271189
 31
0.0
  0
LINE
  5
14D
330
133
100
AcDbEntity
  8
0
100
AcDbLine
 10
-1.27144660940678
 20
5.128985474271189
 30
0.0
 11
1.271446609406666
 21
5.128985474271189
 31
0.0
  0
LWPOLYLINE
  5
14E
330
133
100
AcDbEntity
  8
0
100
AcDbPolyline
 90
        5
 70
     0
 43
0.0
 10
-7.061163810901064
 20
14.6082241872773
 10
-7.171401072334333
 20
15.16376942286291
 10
-7.249460610963694
 20
15.67907638800528
 10
-7.299957210400407
 20
16.15434321005591
 10
-7.300765110230145
 20
16.16711270181832
  0
SPLINE
  5
14F
330
133
100
AcDbEntity
  8
0
100
AcDbSpline
210
0.0
220
0.0
230
1.0
 70
     8
 71
     3
 72
    10
 73
     6
 74
     0
 42
0.0000000001
 43
0.0000000001
 40
0.0
 40
0.0
 40
0.0
 40
0.0
 40
2.55949364101042
 40
13.04055071808642
 40
16.95896040810457
 40
16.95896040810457
 40
16.95896040810457
 40
16.95896040810457
 10
-10.2117391160591
 20
23.75
 30
0.0
 10
-9.682127501857337
 20
22.59632051514086
 30
0.0
 10
-7.902108207930496
 20
18.62896964825984
 30
0.0
 10
-6.605045448674331
 20
13.49175642585709
 30
0.0
 10
-6.076357650333477
 20
8.592907207411371
 30
0.0
 10
-5.958340899754489
 20
7.292033041809531
 30
0.0
  0
LINE
  5
150
330
133
100
AcDbEntity
  8
0
  6
HIDDEN
 48
0.05
100
AcDbLine
 10
-6.833067277953716
 20
23.75000000000005
 30
0.0
 11
-4.003123690625329
 21
8.024290564810144
 31
0.0
  0
ARC
  5
151
330
133
100
AcDbEntity
  8
0
100
AcDbCircle
 10
-3.330667664063582
 20
2.953091089262102
 30
0.0
 40
3.816204022357884
100
AcDbArc
 50
139.5036525118999
 51
160.9999999999994
  0
LINE
  5
152
330
133
100
AcDbEntity
  8
0
100
AcDbLine
 10
-7.373467628050889
 20
2.933622228839112
 30
0.0
 11
-6.938959455390033
 21
4.195525590077181
 31
0.0
  0
ARC
  5
153
330
133
100
AcDbEntity
  8
0
  6
HIDDEN
 48
0.05
100
AcDbCircle
 10
-2.950806467346524
 20
7.529714328576346
 30
0.0
 40
3.0
100
AcDbArc
 50
210.0000000005111
 51
270.0
  0
ARC
  5
154
330
133
100
AcDbEntity
  8
0
  6
HIDDEN
 48
0.05
100
AcDbCircle
 10
-1.048700431588713
 20
8.545235097810973
 30
0.0
 40
3.0
100
AcDbArc
 50
190.0000000000002
 51
270.9999999999985
  0
ARC
  5
155
330
133
100
AcDbEntity
  8
0
100
AcDbCircle
 10
-5.339654265380545
 20
5.771782495970796
 30
0.0
 40
0.1385979725615078
100
AcDbArc
 50
114.1461533377609
 51
181.7439011475894
  0
ARC
  5
156
330
133
100
AcDbEntity
  8
0
100
AcDbCircle
 10
-4.891442394184537
 20
4.285946575271623
 30
0.0
 40
1.763761207913477
100
AcDbArc
 50
98.62413833819978
 51
139.5036525118999
  0
ARC
  5
157
330
133
100
AcDbEntity
  8
0
100
AcDbCircle
 10
-2.970307613862246
 20
7.559741852739136
 30
0.0
 40
3.0
100
AcDbArc
 50
185.181858433124
 51
210.6644408678263
  0
ARC
  5
158
330
133
100
AcDbEntity
  8
0
100
AcDbCircle
 10
-1.27144660940678
 20
5.378985474271189
 30
0.0
 40
0.25
100
AcDbArc
 50
225.0
 51
270.0
  0
LINE
  5
159
330
133
100
AcDbEntity
  8
0
100
AcDbLine
 10
-1.44822330470339
 20
5.202208778974522
 30
0.0
 11
-1.910384334112961
 21
5.664369808384094
 31
0.0
  0
LINE
  5
15A
330
133
100
AcDbEntity
  8
CENTER
 48
0.05
100
AcDbLine
 10
-10.90535646591467
 20
21.31250000000005
 30
0.0
 11
-2.105919919117809
 21
21.31250000000005
 31
0.0
  0
LWPOLYLINE
  5
15B
330
133
100
AcDbEntity
  8
0
100
AcDbPolyline
 90
        6
 70
     0
 43
0.0
 10
-7.058509251237467
 20
21.11076404750343
 10
-7.058507413865811
 20
21.11173952809565
 10
-7.059617056695401
 20
21.33560072047771
 10
-7.062710565106726
 20
21.58985900361142
 10
-7.069806724771865
 20
21.87028837506466
 10
-7.078790720802714
 20
22.07046592370784
  0
LWPOLYLINE
  5
15C
330
133
100
AcDbEntity
  8
0
  6
HIDDEN
 48
0.05
100
AcDbPolyline
 90
       11
 70
     0
 43
0.0
 10
-7.126105568223806
 20
19.55327702369606
 10
-7.118051402334572
 20
19.64264036451584
 10
-7.108675557134745
 20
19.75670348700788
 10
-7.100092754771253
 20
19.87097076691446
 10
-7.092235484960212
 20
19.98515909101127
 10
-7.085036237417625
 20
20.09898534607401
 10
-7.078459898797063
 20
20.21289496068709
 10
-7.072600943502379
 20
20.33024753066968
 10
-7.067586242875051
 20
20.45513119364949
 10
-7.063542668256332
 20
20.59163408725424
 10
-7.062859275837922
 20
20.6269478235676
  0
LWPOLYLINE
  5
15D
330
133
100
AcDbEntity
  8
0
100
AcDbPolyline
 90
        9
 70
     0
 43
0.0
 10
-7.289263176133431
 20
18.08125262659132
 10
-7.281794769599798
 20
18.17700639586308
 10
-7.263327359558331
 20
18.38321066932155
 10
-7.245236919937042
 20
18.56068133942704
 10
-7.227649054708535
 20
18.71447729399432
 10
-7.210689367845589
 20
18.84965742083818
 10
-7.19448346332058
 20
18.97128060777345
 10
-7.179156945106342
 20
19.08440574261487
 10
-7.179037143310836
 20
19.0853232827182
  0
LWPOLYLINE
  5
15E
330
133
100
AcDbEntity
  8
0
100
AcDbPolyline
 90
        5
 70
     0
 43
0.0
 10
-7.326357160589964
 20
16.57161517134073
 10
-7.327505654255787
 20
16.5897680163664
 10
-7.336720726141038
 20
16.9855489342882
 10
-7.332217209667533
 20
17.3418840911728
 10
-7.322271695831773
 20
17.5736415618656
  0
SPLINE
  5
15F
330
133
100
AcDbEntity
  8
0
100
AcDbSpline
210
0.0
220
0.0
230
1.0
 70
     8
 71
     3
 72
    11
 73
     7
 74
     0
 42
0.0000000001
 43
0.0000000001
 40
2.905508902230586
 40
2.905508902230918
 40
2.905508902230918
 40
2.905508902230918
 40
4.252032055284468
 40
5.719956877634702
 40
6.429333584659596
 40
7.260754040682666
 40
7.260754040682666
 40
7.260754040682666
 40
7.260754040682666
 10
-9.317131021971988
 20
26.75
 30
0.0
 10
-9.773964950103845
 20
26.74038176263707
 30
0.0
 10
-10.76194918157421
 20
26.58272698396467
 30
0.0
 10
-11.48382501236653
 20
25.51451698574271
 30
0.0
 10
-11.73397948336344
 20
24.54518923654319
 30
0.0
 10
-11.74999999999965
 20
24.02714015200769
 30
0.0
 10
-11.74999999999965
 20
23.75000000000005
 30
0.0
  0
LWPOLYLINE
  5
160
330
133
100
AcDbEntity
  8
0
100
AcDbPolyline
 90
        5
 70
     0
 43
0.0
 10
-7.109367737193736
 20
22.52255718172779
 10
-7.139082796674074
 20
22.80971471489965
 10
-7.186161246738151
 20
23.13594013518906
 10
-7.249228190747942
 20
23.4588924915771
 10
-7.330680797241655
 20
23.77268295361955
  0
LINE
  5
161
330
133
100
AcDbEntity
  8
0
100
AcDbLine
 10
6.164234147486808
 20
4.313084655148827
 30
0.0
 11
4.164234147486808
 21
4.313084655148827
 31
0.0
  0
LINE
  5
162
330
133
100
AcDbEntity
  8
0
100
AcDbLine
 10
4.164234147486808
 20
4.063084655148827
 30
0.0
 11
6.164234147486808
 21
4.063084655148827
 31
0.0
  0
LINE
  5
163
330
133
100
AcDbEntity
  8
0
100
AcDbLine
 10
4.164234147486808
 20
4.313084655148827
 30
0.0
 11
4.164234147486808
 21
4.063084655148827
 31
0.0
  0
LINE
  5
164
330
133
100
AcDbEntity
  8
0
100
AcDbLine
 10
4.039234147486808
 20
4.563084655148827
 30
0.0
 11
4.164234147486808
 21
4.313084655148827
 31
0.0
  0
LINE
  5
165
330
133
100
AcDbEntity
  8
0
100
AcDbLine
 10
4.226734147486808
 20
4.562343708029516
 30
0.0
 11
4.226734147486865
 21
5.636861166781613
 31
0.0
  0
LINE
  5
166
330
133
100
AcDbEntity
  8
0
100
AcDbLine
 10
3.914234147486808
 20
4.813084655148827
 30
0.0
 11
4.039234147486808
 21
4.563084655148827
 31
0.0
  0
LINE
  5
167
330
133
100
AcDbEntity
  8
0
100
AcDbLine
 10
4.226734147486808
 20
4.063084655148827
 30
0.0
 11
4.226734147486808
 21
4.562343708029516
 31
0.0
  0
LINE
  5
168
330
133
100
AcDbEntity
  8
0
100
AcDbLine
 10
3.914234147486808
 20
4.813084655148827
 30
0.0
 11
3.914234147486808
 21
5.631406458991477
 31
0.0
  0
LINE
  5
169
330
133
100
AcDbEntity
  8
0
100
AcDbLine
 10
1.448223304703333
 20
5.202208778974522
 30
0.0
 11
1.718261677973373
 21
5.472247152244563
 31
0.0
  0
ARC
  5
16A
330
133
100
AcDbEntity
  8
0
100
AcDbCircle
 10
1.271446609406666
 20
5.378985474271189
 30
0.0
 40
0.25
100
AcDbArc
 50
270.0
 51
315.0
  0
ARC
  5
16B
330
133
100
AcDbEntity
  8
0
100
AcDbCircle
 10
2.07181506856665
 20
5.118693761651343
 30
0.0
 40
0.5
100
AcDbArc
 50
109.6746738800376
 51
135.0
  0
LINE
  5
16C
330
133
100
AcDbEntity
  8
0
 48
0.75
100
AcDbLine
 10
7.814576899521625
 20
4.563083247802865
 30
0.0
 11
7.814576899521625
 21
5.540610515885759
 31
0.0
  0
LINE
  5
16D
330
133
100
AcDbEntity
  8
0
 48
0.75
100
AcDbLine
 10
8.314576899521625
 20
4.563083247802865
 30
0.0
 11
8.314576899521625
 21
5.540610515885759
 31
0.0
  0
LINE
  5
16E
330
133
100
AcDbEntity
  8
0
100
AcDbLine
 10
7.814576899521625
 20
5.540610515885759
 30
0.0
 11
8.314576899521625
 21
5.540610515885759
 31
0.0
  0
LINE
  5
16F
330
133
100
AcDbEntity
  8
0
100
AcDbLine
 10
6.28868328720938
 20
4.561982934593856
 30
0.0
 11
6.164234147486808
 21
4.313084655148827
 31
0.0
  0
LINE
  5
170
330
133
100
AcDbEntity
  8
0
100
AcDbLine
 10
6.164234147486808
 20
4.063084655148827
 30
0.0
 11
6.164234147486808
 21
4.313084655148827
 31
0.0
  0
LINE
  5
171
330
133
100
AcDbEntity
  8
0
100
AcDbLine
 10
6.414234147486808
 20
4.813084655148827
 30
0.0
 11
6.28868328720938
 21
4.561982934593856
 31
0.0
  0
LINE
  5
172
330
133
100
AcDbEntity
  8
0
100
AcDbLine
 10
6.101734147486808
 20
4.063084655148827
 30
0.0
 11
6.101734147486808
 21
5.669589413521975
 31
0.0
  0
LINE
  5
173
330
133
100
AcDbEntity
  8
0
100
AcDbLine
 10
6.414234147486808
 20
4.813084655148827
 30
0.0
 11
6.414234147486808
 21
5.675044121312112
 31
0.0
  0
LINE
  5
174
330
133
100
AcDbEntity
  8
CENTER
 48
0.05
100
AcDbLine
 10
5.164234147486808
 20
2.983352014026081
 30
0.0
 11
5.164234147486808
 21
7.73898561609144
 31
0.0
  0
LINE
  5
175
330
133
100
AcDbEntity
  8
0
  6
HIDDEN
 48
0.05
100
AcDbLine
 10
23.11681894668561
 20
23.75
 30
0.0
 11
20.34311178181673
 21
8.343418471375798
 31
0.0
  0
SPLINE
  5
176
330
133
100
AcDbEntity
  8
0
100
AcDbSpline
210
0.0
220
0.0
230
1.0
 70
     8
 71
     3
 72
    10
 73
     6
 74
     0
 42
0.0000000001
 43
0.0000000001
 40
0.0
 40
0.0
 40
0.0
 40
0.0
 40
2.55949364101042
 40
13.04055071808642
 40
16.95896040810457
 40
16.95896040810457
 40
16.95896040810457
 40
16.95896040810457
 10
26.49352452845818
 20
23.75
 30
0.0
 10
25.96391291425646
 20
22.59632051514086
 30
0.0
 10
24.18389362032957
 20
18.62896964825984
 30
0.0
 10
22.8868308610734
 20
13.49175642585709
 30
0.0
 10
22.35814306273255
 20
8.592907207411371
 30
0.0
 10
22.24012631215356
 20
7.292033041809531
 30
0.0
  0
ARC
  5
177
330
133
100
AcDbEntity
  8
0
  6
HIDDEN
 48
0.05
100
AcDbCircle
 10
19.23452369831341
 20
7.529714328576346
 30
0.0
 40
3.0
100
AcDbArc
 50
270.0
 51
329.9999999994888
  0
ARC
  5
178
330
133
100
AcDbEntity
  8
0
  6
HIDDEN
 48
0.05
100
AcDbCircle
 10
17.38868852278011
 20
8.864363004376627
 30
0.0
 40
3.0
100
AcDbArc
 50
270.9999999999985
 51
349.9999999999998
  0
ARC
  5
179
330
133
100
AcDbEntity
  8
0
100
AcDbCircle
 10
21.21732290029604
 20
4.285946575271623
 30
0.0
 40
1.763761207913477
100
AcDbArc
 50
40.49634748810007
 51
81.37586166180021
  0
ARC
  5
17A
330
133
100
AcDbEntity
  8
0
100
AcDbCircle
 10
19.65654817017508
 20
2.953091089262102
 30
0.0
 40
3.816204022357884
100
AcDbArc
 50
19.00000000000053
 51
40.49634748810007
  0
LINE
  5
17B
330
133
100
AcDbEntity
  8
0
100
AcDbLine
 10
23.69934813416239
 20
2.933622228839112
 30
0.0
 11
23.26483996150153
 21
4.195525590077181
 31
0.0
  0
ARC
  5
17C
330
133
100
AcDbEntity
  8
0
100
AcDbCircle
 10
19.25209302626132
 20
7.559741852739136
 30
0.0
 40
3.0
100
AcDbArc
 50
329.3355591321736
 51
354.8181415668759
  0
SPLINE
  5
17D
330
133
100
AcDbEntity
  8
0
100
AcDbSpline
210
0.0
220
0.0
230
1.0
 70
     8
 71
     3
 72
    11
 73
     7
 74
     0
 42
0.0000000001
 43
0.0000000001
 40
2.905508902230586
 40
2.905508902230918
 40
2.905508902230918
 40
2.905508902230918
 40
4.252032055284468
 40
5.719956877634702
 40
6.429333584659596
 40
7.260754040682666
 40
7.260754040682666
 40
7.260754040682666
 40
7.260754040682666
 10
25.63041168486268
 20
26.75
 30
0.0
 10
26.08724561299453
 20
26.74038176263707
 30
0.0
 10
27.0752298444649
 20
26.58272698396467
 30
0.0
 10
27.79710567525722
 20
25.51451698574271
 30
0.0
 10
28.04726014625413
 20
24.54518923654319
 30
0.0
 10
28.06328066289035
 20
24.02714015200769
 30
0.0
 10
28.06328066289035
 20
23.75000000000005
 30
0.0
  0
ENDBLK
  5
17F
330
133
100
AcDbEntity
  8
0
100
AcDbBlockEnd
  0
ENDSEC
  0
SECTION
  2
ENTITIES
  0
SPLINE
  5
2A
330
2
100
AcDbEntity
  8
0
  6
HIDDEN
 48
0.05
100
AcDbSpline
210
0.0
220
0.0
230
1.0
 70
     8
 71
     3
 72
    18
 73
    14
 74
    12
 42
0.0000000001
 43
0.0000000001
 44
0.0000000001
 40
0.0
 40
0.0
 40
0.0
 40
0.0
 40
0.323712172023761
 40
0.750689793494189
 40
0.8403965421526706
 40
0.9168293982627428
 40
0.9603275184958651
 40
1.003945964525509
 40
1.044130751856542
 40
1.069247814579309
 40
1.314562933486718
 40
1.354843841172601
 40
5.794696206232103
 40
5.794696206232103
 40
5.794696206232103
 40
5.794696206232103
 10
419.5000089465057
 20
199.4548024283827
 30
0.0
 10
419.4999726511552
 20
199.5627140067798
 30
0.0
 10
419.4998884820951
 20
199.8129613793024
 30
0.0
 10
419.5004497945497
 20
200.0929772458849
 30
0.0
 10
419.4997262360208
 20
200.290832922433
 30
0.0
 10
419.5262595209654
 20
200.3596590873097
 30
0.0
 10
419.5690190943045
 20
200.3943963627575
 30
0.0
 10
419.6066728259991
 20
200.4161535814537
 30
0.0
 10
419.6216995122758
 20
200.4519607060587
 30
0.0
 10
419.6230349884473
 20
200.5554559214845
 30
0.0
 10
419.6272379588458
 20
200.6590080406292
 30
0.0
 10
419.6240751598587
 20
202.2341717617213
 30
0.0
 10
419.6239101130447
 20
203.7275422453661
 30
0.0
 10
419.6237465501674
 20
205.2074858251823
 30
0.0
 11
419.5000089465057
 21
199.4548024283827
 31
0.0
 11
419.5000089465057
 21
199.7785146004065
 31
0.0
 11
419.5000089465057
 21
200.2054922218769
 31
0.0
 11
419.505899671111
 21
200.2950053500677
 31
0.0
 11
419.5369981530843
 21
200.3648255900566
 31
0.0
 11
419.5697333972667
 21
200.3934697910776
 31
0.0
 11
419.6041054036581
 21
200.4203237295349
 31
0.0
 11
419.6204730257492
 21
200.4570241120932
 31
0.0
 11
419.6221097879583
 21
200.4820877879866
 31
0.0
 11
419.6270200745856
 21
200.7273537592296
 31
0.0
 11
419.6270200745856
 21
200.7676346669155
 31
0.0
 11
419.6237465501674
 21
205.2074858251823
 31
0.0
  0
ARC
  5
2C
330
2
100
AcDbEntity
  8
0
100
AcDbCircle
 10
415.1953961859134
 20
203.2887905556237
 30
0.0
 40
2.8112306295987
100
AcDbArc
 50
301.9330861119992
 51
340.9999999999997
  0
ARC
  5
2D
330
2
100
AcDbEntity
  8
0
100
AcDbCircle
 10
451.6460728463015
 20
203.2887905556237
 30
0.0
 40
2.8112306295987
100
AcDbArc
 50
199.0
 51
238.0669138880008
  0
LINE
  5
2E
330
2
100
AcDbEntity
  8
CENTER
 48
0.05
100
AcDbLine
 10
425.101934594497
 20
201.4446283565257
 30
0.0
 11
425.101934594497
 21
208.874531125058
 31
0.0
  0
LINE
  5
31
330
2
100
AcDbEntity
  8
0
100
AcDbLine
 10
450.2429291980913
 20
200.7779910904616
 30
0.0
 11
416.5985398341967
 21
200.7779910908934
 31
0.0
  0
LINE
  5
32
330
2
100
AcDbEntity
  8
0
100
AcDbLine
 10
416.2815120585181
 20
200.3320277956639
 30
0.0
 11
450.5599569737325
 21
200.3320277953739
 31
0.0
  0
LINE
  5
34
330
2
100
AcDbEntity
  8
0
100
AcDbLine
 10
416.1738041074908
 20
199.4399211590156
 30
0.0
 11
450.667664924724
 21
199.4399211590156
 31
0.0
  0
LINE
  5
37
330
2
100
AcDbEntity
  8
0
100
AcDbLine
 10
416.1738041074908
 20
199.4548169343486
 30
0.0
 11
416.2815120579633
 21
200.3320277953818
 31
0.0
  0
ARC
  5
38
330
2
100
AcDbEntity
  8
0
100
AcDbCircle
 10
416.4634865895692
 20
200.3096841327733
 30
0.0
 40
0.1833411280173065
100
AcDbArc
 50
117.9823259876001
 51
172.9999999999997
  0
ARC
  5
39
330
2
100
AcDbEntity
  8
0
100
AcDbCircle
 10
416.1767415675582
 20
200.8493746361397
 30
0.0
 40
0.4277959653737153
100
AcDbArc
 50
297.9823259875992
 51
350.3944920933997
  0
ARC
  5
3A
330
2
100
AcDbEntity
  8
0
100
AcDbCircle
 10
416.779310519682
 20
200.7473981424936
 30
0.0
 40
0.1833411280173065
100
AcDbArc
 50
121.933086112
 51
170.3944920933996
  0
ARC
  5
3B
330
2
100
AcDbEntity
  8
0
100
AcDbCircle
 10
450.0621585125328
 20
200.7473981424936
 30
0.0
 40
0.1833411280173065
100
AcDbArc
 50
9.605507906600287
 51
58.06691388799994
  0
ARC
  5
3C
330
2
100
AcDbEntity
  8
0
100
AcDbCircle
 10
450.6647274646566
 20
200.8493746361397
 30
0.0
 40
0.4277959653737153
100
AcDbArc
 50
189.6055079066003
 51
242.0176740124007
  0
ARC
  5
3D
330
2
100
AcDbEntity
  8
0
100
AcDbCircle
 10
450.3779824426457
 20
200.3096841327733
 30
0.0
 40
0.1833411280173065
100
AcDbArc
 50
7.000000000000247
 51
62.01767401239982
  0
LINE
  5
3E
330
2
100
AcDbEntity
  8
0
100
AcDbLine
 10
450.6676649247241
 20
199.4548169343486
 30
0.0
 11
450.5599569742515
 21
200.3320277953818
 31
0.0
  0
LINE
  5
40
330
2
100
AcDbEntity
  8
0
100
AcDbLine
 10
413.4799206954439
 20
223.4399211590156
 30
0.0
 11
453.3549206954439
 21
223.4399211590156
 31
0.0
  0
LINE
  5
41
330
2
100
AcDbEntity
  8
0
100
AcDbLine
 10
415.9098035725246
 20
226.1899211590156
 30
0.0
 11
450.9190656164695
 21
226.1899211590156
 31
0.0
  0
LINE
  5
42
330
2
100
AcDbEntity
  8
0
100
AcDbLine
 10
419.9460128793649
 20
205.4696866145989
 30
0.0
 11
446.7704561528504
 21
205.4696866145989
 31
0.0
  0
LINE
  5
43
330
2
100
AcDbEntity
  8
0
  6
HIDDEN
 48
0.05
100
AcDbLine
 10
444.5231776299202
 20
203.9696354875919
 30
0.0
 11
422.1511281271506
 21
203.9696354875918
 31
0.0
  0
LINE
  5
44
330
2
100
AcDbEntity
  8
0
  6
HIDDEN
 48
0.05
100
AcDbLine
 10
424.1055913822203
 20
204.9856131713573
 30
0.0
 11
442.7296996736988
 21
205.304741077923
 31
0.0
  0
LINE
  5
45
330
2
100
AcDbEntity
  8
0
100
AcDbLine
 10
426.3733812039038
 20
204.5689066332868
 30
0.0
 11
423.8304879850903
 21
204.5689066332868
 31
0.0
  0
LINE
  5
46
330
2
100
AcDbEntity
  8
0
100
AcDbLine
 10
423.8304879850903
 20
204.5689066332868
 30
0.0
 11
426.3733812039038
 21
204.5689066332868
 31
0.0
  0
LWPOLYLINE
  5
47
330
2
100
AcDbEntity
  8
0
100
AcDbPolyline
 90
        5
 70
     0
 43
0.0
 10
418.2131558593249
 20
214.3003491194284
 10
418.0886382721458
 20
214.8505563679605
 10
417.9804600844798
 20
215.3689975470208
 10
417.9299634850431
 20
215.8442643690714
 10
417.9291555852134
 20
215.8570338608338
  0
SPLINE
  5
4E
330
2
100
AcDbEntity
  8
0
100
AcDbSpline
210
0.0
220
0.0
230
1.0
 70
     8
 71
     3
 72
    10
 73
     6
 74
     0
 42
0.0000000001
 43
0.0000000001
 40
0.0
 40
0.0
 40
0.0
 40
0.0
 40
2.55949364101042
 40
13.04055071808642
 40
16.95896040810457
 40
16.95896040810457
 40
16.95896040810457
 40
16.95896040810457
 10
415.0181815793843
 20
223.4399211590155
 30
0.0
 10
415.5477931935862
 20
222.2862416741564
 30
0.0
 10
417.327812487513
 20
218.3188908072754
 30
0.0
 10
418.6248752467691
 20
213.1816775848726
 30
0.0
 10
419.1505769441632
 20
208.032828366427
 30
0.0
 10
419.2685936947421
 20
206.7319542008251
 30
0.0
  0
LINE
  5
4F
330
2
100
AcDbEntity
  8
0
  6
HIDDEN
 48
0.05
100
AcDbLine
 10
418.3968534174898
 20
223.4399211590156
 30
0.0
 11
421.0988109038718
 21
207.4642117238257
 31
0.0
  0
ARC
  5
50
330
2
100
AcDbEntity
  8
0
100
AcDbCircle
 10
421.8962669304331
 20
202.3930122482777
 30
0.0
 40
3.816204022357884
100
AcDbArc
 50
139.5036525118995
 51
161.0
  0
LINE
  5
51
330
2
100
AcDbEntity
  8
0
100
AcDbLine
 10
417.8534669664458
 20
202.3735433878547
 30
0.0
 11
418.2879751391066
 21
203.6354467490927
 31
0.0
  0
ARC
  5
52
330
2
100
AcDbEntity
  8
0
  6
HIDDEN
 48
0.05
100
AcDbCircle
 10
422.1511281271506
 20
206.9696354875919
 30
0.0
 40
3.0
100
AcDbArc
 50
210.0000000005113
 51
270.0
  0
ARC
  5
53
330
2
100
AcDbEntity
  8
0
  6
HIDDEN
 48
0.05
100
AcDbCircle
 10
424.0532341629084
 20
207.9851562568265
 30
0.0
 40
3.0
100
AcDbArc
 50
189.9999999999998
 51
271.0000000000001
  0
ARC
  5
54
330
2
100
AcDbEntity
  8
0
100
AcDbCircle
 10
419.7622803291165
 20
205.2117036549864
 30
0.0
 40
0.1385979725615078
100
AcDbArc
 50
114.146153337762
 51
181.7439011475892
  0
ARC
  5
55
330
2
100
AcDbEntity
  8
0
100
AcDbCircle
 10
420.1979152714383
 20
204.0129737870503
 30
0.0
 40
1.478332532645118
100
AcDbArc
 50
99.81086150253869
 51
144.5091565410546
  0
ARC
  5
56
330
2
100
AcDbEntity
  8
0
100
AcDbCircle
 10
422.1229767091374
 20
206.7073086640849
 30
0.0
 40
2.854169112723761
100
AcDbArc
 50
179.5703512359688
 51
205.6985922862515
  0
ARC
  5
57
330
2
100
AcDbEntity
  8
0
100
AcDbCircle
 10
423.8304879850903
 20
204.8189066332868
 30
0.0
 40
0.25
100
AcDbArc
 50
225.0000000000006
 51
270.0
  0
LINE
  5
58
330
2
100
AcDbEntity
  8
0
100
AcDbLine
 10
423.6537112897937
 20
204.6421299379901
 30
0.0
 11
423.1915502603841
 21
205.1042909673997
 31
0.0
  0
LINE
  5
59
330
2
100
AcDbEntity
  8
CENTER
 48
0.05
100
AcDbLine
 10
414.3245642295288
 20
221.0024211590156
 30
0.0
 11
422.9990007763261
 21
221.0024211590156
 31
0.0
  0
LWPOLYLINE
  5
5A
330
2
100
AcDbEntity
  8
0
100
AcDbPolyline
 90
        6
 70
     0
 43
0.0
 10
418.171411444206
 20
220.800685206519
 10
418.1714132815777
 20
220.8016606871112
 10
418.1703036387481
 20
221.0255218794932
 10
418.1672101303368
 20
221.2797801626269
 10
418.1601139706716
 20
221.5602095340802
 10
418.1511299746408
 20
221.7603870827234
  0
LWPOLYLINE
  5
62
330
2
100
AcDbEntity
  8
0
  6
HIDDEN
 48
0.05
100
AcDbPolyline
 90
       11
 70
     0
 43
0.0
 10
418.1038151272197
 20
219.2431981827116
 10
418.1118692931089
 20
219.3325615235313
 10
418.1212451383087
 20
219.4466246460234
 10
418.1298279406722
 20
219.56089192593
 10
418.1376852104833
 20
219.6750802500268
 10
418.1448844580258
 20
219.7889065050895
 10
418.1514607966464
 20
219.9028161197026
 10
418.1573197519411
 20
220.0201686896852
 10
418.1623344525684
 20
220.145052352665
 10
418.1663780271872
 20
220.2815552462698
 10
418.1670614196056
 20
220.3168689825831
  0
LWPOLYLINE
  5
6F
330
2
100
AcDbEntity
  8
0
100
AcDbPolyline
 90
        9
 70
     0
 43
0.0
 10
417.9406575193101
 20
217.7711737856069
 10
417.9481259258436
 20
217.8669275548786
 10
417.9665933358852
 20
218.0731318283371
 10
417.9846837755064
 20
218.2506024984426
 10
418.0022716407349
 20
218.4043984530098
 10
418.0192313275979
 20
218.5395785798537
 10
418.0354372321229
 20
218.661201766789
 10
418.0507637503372
 20
218.7743269016304
 10
418.0508835521327
 20
218.7752444417337
  0
LWPOLYLINE
  5
7A
330
2
100
AcDbEntity
  8
0
100
AcDbPolyline
 90
        5
 70
     0
 43
0.0
 10
417.9035635348535
 20
216.2615363303562
 10
417.9024150411877
 20
216.2796891753819
 10
417.8931999693024
 20
216.6754700933037
 10
417.8977034857759
 20
217.0318052501883
 10
417.9076489996117
 20
217.2635627208811
  0
SPLINE
  5
81
330
2
100
AcDbEntity
  8
0
100
AcDbSpline
210
0.0
220
0.0
230
1.0
 70
     8
 71
     3
 72
    11
 73
     7
 74
     0
 42
0.0000000001
 43
0.0000000001
 40
2.905508902230586
 40
2.905508902230918
 40
2.905508902230918
 40
2.905508902230918
 40
4.252032055284468
 40
5.719956877634702
 40
6.429333584659596
 40
7.260754040682666
 40
7.260754040682666
 40
7.260754040682666
 40
7.260754040682666
 10
415.9098035725246
 20
226.1899211590156
 30
0.0
 10
415.4529696443928
 20
226.1803029216526
 30
0.0
 10
414.4649854129225
 20
226.0226481429802
 30
0.0
 10
413.746095683077
 20
225.2044381447583
 30
0.0
 10
413.49594121208
 20
224.2351103955587
 30
0.0
 10
413.4799206954438
 20
223.7170613110232
 30
0.0
 10
413.4799206954438
 20
223.4399211590156
 30
0.0
  0
LWPOLYLINE
  5
82
330
2
100
AcDbEntity
  8
0
100
AcDbPolyline
 90
        5
 70
     0
 43
0.0
 10
418.1205529582498
 20
222.2124783407433
 10
418.0908378987694
 20
222.4996358739152
 10
418.0437594487053
 20
222.8258612942046
 10
417.9806925046955
 20
223.1488136505926
 10
417.8992398982019
 20
223.4626041126351
  0
LINE
  5
89
330
2
100
AcDbEntity
  8
0
100
AcDbLine
 10
431.2661687419839
 20
203.7530058141644
 30
0.0
 11
429.2661687419839
 21
203.7530058141644
 31
0.0
  0
LINE
  5
8A
330
2
100
AcDbEntity
  8
0
100
AcDbLine
 10
429.2661687419839
 20
203.5030058141644
 30
0.0
 11
431.2661687419839
 21
203.5030058141644
 31
0.0
  0
LINE
  5
8B
330
2
100
AcDbEntity
  8
0
100
AcDbLine
 10
429.2661687419839
 20
203.7530058141644
 30
0.0
 11
429.2661687419839
 21
203.5030058141644
 31
0.0
  0
LINE
  5
8C
330
2
100
AcDbEntity
  8
0
100
AcDbLine
 10
429.1411687419839
 20
204.0030058141644
 30
0.0
 11
429.2661687419839
 21
203.7530058141644
 31
0.0
  0
LINE
  5
8D
330
2
100
AcDbEntity
  8
0
100
AcDbLine
 10
429.3286687419839
 20
204.0022648670451
 30
0.0
 11
429.3286687419839
 21
205.0767823257972
 31
0.0
  0
LINE
  5
8E
330
2
100
AcDbEntity
  8
0
100
AcDbLine
 10
429.0161687419838
 20
204.2530058141644
 30
0.0
 11
429.1411687419839
 21
204.0030058141644
 31
0.0
  0
LINE
  5
8F
330
2
100
AcDbEntity
  8
0
100
AcDbLine
 10
429.3286687419839
 20
203.5030058141644
 30
0.0
 11
429.3286687419839
 21
204.0022648670451
 31
0.0
  0
LINE
  5
90
330
2
100
AcDbEntity
  8
0
100
AcDbLine
 10
429.0161687419838
 20
204.2530058141644
 30
0.0
 11
429.0161687419838
 21
205.0713276180071
 31
0.0
  0
LINE
  5
91
330
2
100
AcDbEntity
  8
0
100
AcDbLine
 10
426.5501578992004
 20
204.6421299379901
 30
0.0
 11
426.8201962724704
 21
204.9121683112602
 31
0.0
  0
ARC
  5
92
330
2
100
AcDbEntity
  8
0
100
AcDbCircle
 10
426.3733812039038
 20
204.8189066332868
 30
0.0
 40
0.25
100
AcDbArc
 50
270.0
 51
314.9999999999994
  0
ARC
  5
93
330
2
100
AcDbEntity
  8
0
100
AcDbCircle
 10
427.1737496630637
 20
204.5586149206669
 30
0.0
 40
0.5
100
AcDbArc
 50
109.6746738800386
 51
134.9999999999991
  0
LINE
  5
94
330
2
100
AcDbEntity
  8
0
 48
0.75
100
AcDbLine
 10
432.9165114940187
 20
204.0030044068184
 30
0.0
 11
432.9165114940187
 21
204.9805316749013
 31
0.0
  0
LINE
  5
95
330
2
100
AcDbEntity
  8
0
 48
0.75
100
AcDbLine
 10
433.4165114940187
 20
204.0030044068184
 30
0.0
 11
433.4165114940187
 21
204.9805316749013
 31
0.0
  0
LINE
  5
96
330
2
100
AcDbEntity
  8
0
100
AcDbLine
 10
432.9165114940187
 20
204.9805316749013
 30
0.0
 11
433.4165114940187
 21
204.9805316749013
 31
0.0
  0
LINE
  5
97
330
2
100
AcDbEntity
  8
0
100
AcDbLine
 10
431.3906178817064
 20
204.0019040936094
 30
0.0
 11
431.2661687419839
 21
203.7530058141644
 31
0.0
  0
LINE
  5
98
330
2
100
AcDbEntity
  8
0
100
AcDbLine
 10
431.2661687419839
 20
203.5030058141644
 30
0.0
 11
431.2661687419839
 21
203.7530058141644
 31
0.0
  0
LINE
  5
99
330
2
100
AcDbEntity
  8
0
100
AcDbLine
 10
431.5161687419839
 20
204.2530058141644
 30
0.0
 11
431.3906178817064
 21
204.0019040936094
 31
0.0
  0
LINE
  5
9A
330
2
100
AcDbEntity
  8
0
100
AcDbLine
 10
431.2036687419839
 20
203.5030058141644
 30
0.0
 11
431.2036687419839
 21
205.1095105725376
 31
0.0
  0
LINE
  5
9B
330
2
100
AcDbEntity
  8
0
100
AcDbLine
 10
431.5161687419839
 20
204.2530058141644
 30
0.0
 11
431.5161687419839
 21
205.1149652803277
 31
0.0
  0
LINE
  5
9C
330
2
100
AcDbEntity
  8
CENTER
 48
0.05
100
AcDbLine
 10
430.2661687419838
 20
202.4232731730417
 30
0.0
 11
430.2661687419838
 21
207.178906775107
 31
0.0
  0
LINE
  5
9D
330
2
100
AcDbEntity
  8
0
  6
HIDDEN
 48
0.05
100
AcDbLine
 10
448.4084589792392
 20
223.4399211590155
 30
0.0
 11
445.6317657134235
 21
207.7833396303914
 31
0.0
  0
SPLINE
  5
9E
330
2
100
AcDbEntity
  8
0
100
AcDbSpline
210
0.0
220
0.0
230
1.0
 70
     8
 71
     3
 72
    10
 73
     6
 74
     0
 42
0.0000000001
 43
0.0000000001
 40
0.0
 40
0.0
 40
0.0
 40
0.0
 40
2.55949364101042
 40
13.04055071808642
 40
16.95896040810457
 40
16.95896040810457
 40
16.95896040810457
 40
16.95896040810457
 10
451.7851645610118
 20
223.4399211590155
 30
0.0
 10
451.2555529468101
 20
222.2862416741564
 30
0.0
 10
449.4755336528831
 20
218.3188908072754
 30
0.0
 10
448.178470893627
 20
213.1816775848726
 30
0.0
 10
447.6467969943393
 20
208.032828366427
 30
0.0
 10
447.5287802437604
 20
206.7319542008251
 30
0.0
  0
ARC
  5
9F
330
2
100
AcDbEntity
  8
0
  6
HIDDEN
 48
0.05
100
AcDbCircle
 10
444.5231776299202
 20
206.9696354875919
 30
0.0
 40
3.0
100
AcDbArc
 50
270.0
 51
329.9999999994885
  0
ARC
  5
A0
330
2
100
AcDbEntity
  8
0
  6
HIDDEN
 48
0.05
100
AcDbCircle
 10
442.6773424543869
 20
208.3042841633922
 30
0.0
 40
3.0
100
AcDbArc
 50
271.0000000000001
 51
350.0
  0
ARC
  5
A1
330
2
100
AcDbEntity
  8
0
100
AcDbCircle
 10
446.5059768319028
 20
203.7258677342872
 30
0.0
 40
1.763761207913477
100
AcDbArc
 50
40.49634748810045
 51
81.37586166180012
  0
ARC
  5
A2
330
2
100
AcDbEntity
  8
0
100
AcDbCircle
 10
444.9452021017818
 20
202.3930122482777
 30
0.0
 40
3.816204022357884
100
AcDbArc
 50
18.99999999999999
 51
40.49634748810045
  0
LINE
  5
A3
330
2
100
AcDbEntity
  8
0
100
AcDbLine
 10
448.9880020657691
 20
202.3735433878547
 30
0.0
 11
448.5534938931083
 21
203.6354467490927
 31
0.0
  0
ARC
  5
A4
330
2
100
AcDbEntity
  8
0
100
AcDbCircle
 10
444.5407469578681
 20
206.9996630117547
 30
0.0
 40
3.0
100
AcDbArc
 50
329.3355591321744
 51
354.8181415668762
  0
SPLINE
  5
A5
330
2
100
AcDbEntity
  8
0
100
AcDbSpline
210
0.0
220
0.0
230
1.0
 70
     8
 71
     3
 72
    11
 73
     7
 74
     0
 42
0.0000000001
 43
0.0000000001
 40
2.905508902230586
 40
2.905508902230918
 40
2.905508902230918
 40
2.905508902230918
 40
4.252032055284468
 40
5.719956877634702
 40
6.429333584659596
 40
7.260754040682666
 40
7.260754040682666
 40
7.260754040682666
 40
7.260754040682666
 10
450.9190656164695
 20
226.1899211590156
 30
0.0
 10
451.3758995446013
 20
226.1803029216526
 30
0.0
 10
452.3638837760716
 20
226.0226481429802
 30
0.0
 10
453.0887457078108
 20
225.2044381447583
 30
0.0
 10
453.3389001788077
 20
224.2351103955587
 30
0.0
 10
453.354920695444
 20
223.7170613110232
 30
0.0
 10
453.354920695444
 20
223.4399211590156
 30
0.0
  0
LINE
  5
183
330
2
100
AcDbEntity
  8
0
100
AcDbLine
 10
416.1738041074908
 20
199.4548169343486
 30
0.0
 11
416.1738041074908
 21
199.4399211590156
 31
0.0
  0
LINE
  5
184
330
2
100
AcDbEntity
  8
0
100
AcDbLine
 10
450.667664924724
 20
199.4548169343486
 30
0.0
 11
450.667664924724
 21
199.4399211590156
 31
0.0
  0
ENDSEC
  0
SECTION
  2
OBJECTS
  0
DICTIONARY
  5
7
330
0
100
AcDbDictionary
  3
ACAD_GROUP
350
25
  3
ACAD_LAYOUT
350
B
  3
ACAD_MLINESTYLE
350
26
  3
ACAD_PLOTSETTINGS
350
27
  3
ACAD_PLOTSTYLENAME
350
6
  3
ACDBHEADERROUNDTRIPXREC
350
1CA
  3
ACDBVARIABLEDICTIONARY
350
A6
  0
DICTIONARY
  5
11
330
10
100
AcDbDictionary
280
     1
  3
ACAD_LAYERFILTERS
360
12
  0
DICTIONARY
  5
AE
330
2
100
AcDbDictionary
280
     1
  3
ACAD_LAYOUTSELFREF
360
1EB
  0
DICTIONARY
  5
B0
330
C
100
AcDbDictionary
280
     1
  3
ACAD_LAYOUTSELFREF
360
1EC
  0
DICTIONARY
  5
25
102
{ACAD_REACTORS
330
7
102
}
330
7
100
AcDbDictionary
  0
DICTIONARY
  5
B
102
{ACAD_REACTORS
330
7
102
}
330
7
100
AcDbDictionary
  0
DICTIONARY
  5
26
102
{ACAD_REACTORS
330
7
102
}
330
7
100
AcDbDictionary
  3
STANDARD
350
29
  0
DICTIONARY
  5
27
102
{ACAD_REACTORS
330
7
102
}
330
7
100
AcDbDictionary
  0
ACDBDICTIONARYWDFLT
  5
6
102
{ACAD_REACTORS
330
7
102
}
330
7
100
AcDbDictionary
281
     1
  3
Normal
350
5
100
AcDbDictionaryWithDefault
340
5
  0
DICTIONARY
  5
1CA
102
{ACAD_REACTORS
330
7
102
}
330
7
100
AcDbDictionary
  3
CEPSNTYPE
350
1D4
  3
DIMSTYLEDATA
350
1D8
  3
FINGERPRINTGUID
350
1D5
  3
HYPERLINKBASE
350
1CD
  3
INSUNITS
350
1D3
  3
LAYOUTDICT
350
1CF
  3
LWETCUNION
350
1D2
  3
PLOTSETDICT
350
1D0
  3
PLOTSTYLNAMDICT
350
1D1
  3
PSVPSCALE
350
1D7
  3
PUCSBASE
350
1DB
  3
PUCSORGBACK
350
1E1
  3
PUCSORGBOTTOM
350
1DD
  3
PUCSORGFRONT
350
1E0
  3
PUCSORGLEFT
350
1DE
  3
PUCSORGRIGHT
350
1DF
  3
PUCSORGTOP
350
1DC
  3
PUCSORTHOREF
350
1D9
  3
PUCSORTHOVIEW
350
1DA
  3
STYLESHEET
350
1CE
  3
TSTACKALIGN
350
1CB
  3
TSTACKSIZE
350
1CC
  3
UCSBASE
350
1E4
  3
UCSORGBACK
350
1EA
  3
UCSORGBOTTOM
350
1E6
  3
UCSORGFRONT
350
1E9
  3
UCSORGLEFT
350
1E7
  3
UCSORGRIGHT
350
1E8
  3
UCSORGTOP
350
1E5
  3
UCSORTHOREF
350
1E2
  3
UCSORTHOVIEW
350
1E3
  3
VERSIONGUID
350
1D6
  0
DICTIONARY
  5
A6
102
{ACAD_REACTORS
330
7
102
}
330
7
100
AcDbDictionary
  3
DIMASSOC
350
A8
  3
HIDETEXT
350
A7
  0
DICTIONARY
  5
12
102
{ACAD_REACTORS
330
11
102
}
330
11
100
AcDbDictionary
280
     1
  3
DIM-1_12
360
13
  3
DIM-1_16
360
14
  0
XRECORD
  5
1EB
102
{ACAD_REACTORS
330
AE
102
}
330
AE
100
AcDbXrecord
340
2
  0
XRECORD
  5
1EC
102
{ACAD_REACTORS
330
B0
102
}
330
B0
100
AcDbXrecord
340
C
  0
MLINESTYLE
  5
29
102
{ACAD_REACTORS
330
26
102
}
330
26
100
AcDbMlineStyle
  2
STANDARD
 70
     0
  3

 62
   256
 51
90.0
 52
90.0
 71
     2
 49
0.5
 62
   256
  6
BYLAYER
 49
-0.5
 62
   256
  6
BYLAYER
  0
ACDBPLACEHOLDER
  5
5
102
{ACAD_REACTORS
330
6
102
}
330
6
100
AcDbPlaceHolder
280
     0
  0
XRECORD
  5
1D4
102
{ACAD_REACTORS
330
1CA
102
}
330
1CA
100
AcDbXrecord
 90
        0
  0
XRECORD
  5
1D8
102
{ACAD_REACTORS
330
1CA
102
}
330
1CA
100
AcDbXrecord
1000
DSTYLE
1002
{
1070
    79
 70
     1
1070
   276
 70
     1
1070
   277
 70
     5
1070
   289
 70
     1
1002
}
  0
XRECORD
  5
1D5
102
{ACAD_REACTORS
330
1CA
102
}
330
1CA
100
AcDbXrecord
  1
{6A4AC8E0-4F58-11D5-8420-0003476D26AB}
  0
XRECORD
  5
1CD
102
{ACAD_REACTORS
330
1CA
102
}
330
1CA
100
AcDbXrecord
  1

  0
XRECORD
  5
1D3
102
{ACAD_REACTORS
330
1CA
102
}
330
1CA
100
AcDbXrecord
 90
        1
  0
XRECORD
  5
1CF
102
{ACAD_REACTORS
330
1CA
102
}
330
1CA
100
AcDbXrecord
340
B
  0
XRECORD
  5
1D2
102
{ACAD_REACTORS
330
1CA
102
}
330
1CA
100
AcDbXrecord
 90
    10781
  0
XRECORD
  5
1D0
102
{ACAD_REACTORS
330
1CA
102
}
330
1CA
100
AcDbXrecord
340
27
  0
XRECORD
  5
1D1
102
{ACAD_REACTORS
330
1CA
102
}
330
1CA
100
AcDbXrecord
340
6
  0
XRECORD
  5
1D7
102
{ACAD_REACTORS
330
1CA
102
}
330
1CA
100
AcDbXrecord
 40
0.0
  0
XRECORD
  5
1DB
102
{ACAD_REACTORS
330
1CA
102
}
330
1CA
100
AcDbXrecord
340
0
  0
XRECORD
  5
1E1
102
{ACAD_REACTORS
330
1CA
102
}
330
1CA
100
AcDbXrecord
 10
0.0
 20
0.0
 30
0.0
  0
XRECORD
  5
1DD
102
{ACAD_REACTORS
330
1CA
102
}
330
1CA
100
AcDbXrecord
 10
0.0
 20
0.0
 30
0.0
  0
XRECORD
  5
1E0
102
{ACAD_REACTORS
330
1CA
102
}
330
1CA
100
AcDbXrecord
 10
0.0
 20
0.0
 30
0.0
  0
XRECORD
  5
1DE
102
{ACAD_REACTORS
330
1CA
102
}
330
1CA
100
AcDbXrecord
 10
0.0
 20
0.0
 30
0.0
  0
XRECORD
  5
1DF
102
{ACAD_REACTORS
330
1CA
102
}
330
1CA
100
AcDbXrecord
 10
0.0
 20
0.0
 30
0.0
  0
XRECORD
  5
1DC
102
{ACAD_REACTORS
330
1CA
102
}
330
1CA
100
AcDbXrecord
 10
0.0
 20
0.0
 30
0.0
  0
XRECORD
  5
1D9
102
{ACAD_REACTORS
330
1CA
102
}
330
1CA
100
AcDbXrecord
340
0
  0
XRECORD
  5
1DA
102
{ACAD_REACTORS
330
1CA
102
}
330
1CA
100
AcDbXrecord
 70
     0
  0
XRECORD
  5
1CE
102
{ACAD_REACTORS
330
1CA
102
}
330
1CA
100
AcDbXrecord
  1

  0
XRECORD
  5
1CB
102
{ACAD_REACTORS
330
1CA
102
}
330
1CA
100
AcDbXrecord
 90
        1
  0
XRECORD
  5
1CC
102
{ACAD_REACTORS
330
1CA
102
}
330
1CA
100
AcDbXrecord
 90
       70
  0
XRECORD
  5
1E4
102
{ACAD_REACTORS
330
1CA
102
}
330
1CA
100
AcDbXrecord
340
0
  0
XRECORD
  5
1EA
102
{ACAD_REACTORS
330
1CA
102
}
330
1CA
100
AcDbXrecord
 10
0.0
 20
0.0
 30
0.0
  0
XRECORD
  5
1E6
102
{ACAD_REACTORS
330
1CA
102
}
330
1CA
100
AcDbXrecord
 10
0.0
 20
0.0
 30
0.0
  0
XRECORD
  5
1E9
102
{ACAD_REACTORS
330
1CA
102
}
330
1CA
100
AcDbXrecord
 10
0.0
 20
0.0
 30
0.0
  0
XRECORD
  5
1E7
102
{ACAD_REACTORS
330
1CA
102
}
330
1CA
100
AcDbXrecord
 10
0.0
 20
0.0
 30
0.0
  0
XRECORD
  5
1E8
102
{ACAD_REACTORS
330
1CA
102
}
330
1CA
100
AcDbXrecord
 10
0.0
 20
0.0
 30
0.0
  0
XRECORD
  5
1E5
102
{ACAD_REACTORS
330
1CA
102
}
330
1CA
100
AcDbXrecord
 10
-86.61529330307228
 20
17.01116759546271
 30
0.0
  0
XRECORD
  5
1E2
102
{ACAD_REACTORS
330
1CA
102
}
330
1CA
100
AcDbXrecord
340
0
  0
XRECORD
  5
1E3
102
{ACAD_REACTORS
330
1CA
102
}
330
1CA
100
AcDbXrecord
 70
     1
  0
XRECORD
  5
1D6
102
{ACAD_REACTORS
330
1CA
102
}
330
1CA
100
AcDbXrecord
  1
{43810520-7302-4F42-857F-F00574DA2229}
  0
DICTIONARYVAR
  5
A8
102
{ACAD_REACTORS
330
A6
102
}
330
A6
100
DictionaryVariables
280
     0
  1
1
  0
DICTIONARYVAR
  5
A7
102
{ACAD_REACTORS
330
A6
102
}
330
A6
100
DictionaryVariables
280
     0
  1
1
  0
XRECORD
  5
13
102
{ACAD_REACTORS
330
12
102
}
330
12
100
AcDbXrecord
  1
DIM-1_12
  1
DIM-1_12
  1
*
  1
*
 70
     0
  1
*
  1
*
  0
XRECORD
  5
14
102
{ACAD_REACTORS
330
12
102
}
330
12
100
AcDbXrecord
  1
dim-1_16
  1
*
  1
*
  1
*
 70
     0
  1
*
  1
*
  0
ENDSEC
  0
EOF
