  0
SECTION
  2
HEADER
  9
$ACADVER
  1
AC1014
  9
$ACADMAINTVER
 70
     9
  9
$DWGCODEPAGE
  3
ANSI_1252
  9
$INSBASE
 10
-50.74036765085748
 20
-2.761146930174906
 30
0.0
  9
$EXTMIN
 10
-86.50170573567754
 20
-14.38973803779231
 30
-0.0000000349181948
  9
$EXTMAX
 10
-14.98200251575656
 20
25.49208377804106
 30
0.0000000814935746
  9
$LIMMIN
 10
0.0
 20
0.0
  9
$LIMMAX
 10
100.5024158491978
 20
51.69854817198938
  9
$ORTHOMODE
 70
     1
  9
$REGENMODE
 70
     1
  9
$FILLMODE
 70
     1
  9
$QTEXTMODE
 70
     0
  9
$MIRRTEXT
 70
     1
  9
$DRAGMODE
 70
     2
  9
$LTSCALE
 40
2.0
  9
$OSMODE
 70
    55
  9
$ATTMODE
 70
     1
  9
$TEXTSIZE
 40
0.1
  9
$TRACEWID
 40
1.0
  9
$TEXTSTYLE
  7
CARTOUCHE
  9
$CLAYER
  8
0
  9
$CELTYPE
  6
BYLAYER
  9
$CECOLOR
 62
   256
  9
$CELTSCALE
 40
1.0
  9
$DELOBJ
 70
     1
  9
$DISPSILH
 70
     0
  9
$DIMSCALE
 40
16.0
  9
$DIMASZ
 40
0.1
  9
$DIMEXO
 40
0.0625
  9
$DIMDLI
 40
0.25
  9
$DIMRND
 40
0.0
  9
$DIMDLE
 40
0.0
  9
$DIMEXE
 40
0.1
  9
$DIMTP
 40
0.0
  9
$DIMTM
 40
0.0
  9
$DIMTXT
 40
0.1
  9
$DIMCEN
 40
0.09
  9
$DIMTSZ
 40
0.0
  9
$DIMTOL
 70
     0
  9
$DIMLIM
 70
     0
  9
$DIMTIH
 70
     1
  9
$DIMTOH
 70
     1
  9
$DIMSE1
 70
     0
  9
$DIMSE2
 70
     0
  9
$DIMTAD
 70
     0
  9
$DIMZIN
 70
     4
  9
$DIMBLK
  1

  9
$DIMASO
 70
     1
  9
$DIMSHO
 70
     1
  9
$DIMPOST
  1
\X
  9
$DIMAPOST
  1
cm
  9
$DIMALT
 70
     1
  9
$DIMALTD
 70
     1
  9
$DIMALTF
 40
2.54
  9
$DIMLFAC
 40
1.0
  9
$DIMTOFL
 70
     0
  9
$DIMTVP
 40
0.0
  9
$DIMTIX
 70
     0
  9
$DIMSOXD
 70
     0
  9
$DIMSAH
 70
     0
  9
$DIMBLK1
  1

  9
$DIMBLK2
  1

  9
$DIMSTYLE
  2
STANDARD
  9
$DIMCLRD
 70
     0
  9
$DIMCLRE
 70
     0
  9
$DIMCLRT
 70
     0
  9
$DIMTFAC
 40
1.0
  9
$DIMGAP
 40
0.08
  9
$DIMJUST
 70
     0
  9
$DIMSD1
 70
     0
  9
$DIMSD2
 70
     0
  9
$DIMTOLJ
 70
     1
  9
$DIMTZIN
 70
     4
  9
$DIMALTZ
 70
     4
  9
$DIMALTTZ
 70
     4
  9
$DIMFIT
 70
     1
  9
$DIMUPT
 70
     0
  9
$DIMUNIT
 70
     5
  9
$DIMDEC
 70
     3
  9
$DIMTDEC
 70
     3
  9
$DIMALTU
 70
     2
  9
$DIMALTTD
 70
     1
  9
$DIMTXSTY
  7
ROMANS
  9
$DIMAUNIT
 70
     0
  9
$LUNITS
 70
     2
  9
$LUPREC
 70
     2
  9
$SKETCHINC
 40
1.0
  9
$FILLETRAD
 40
2.0
  9
$AUNITS
 70
     0
  9
$AUPREC
 70
     0
  9
$MENU
  1
.
  9
$ELEVATION
 40
0.0
  9
$PELEVATION
 40
0.0
  9
$THICKNESS
 40
0.0
  9
$LIMCHECK
 70
     0
  9
$BLIPMODE
 70
     0
  9
$CHAMFERA
 40
0.0
  9
$CHAMFERB
 40
0.0
  9
$CHAMFERC
 40
20.0
  9
$CHAMFERD
 40
0.0
  9
$SKPOLY
 70
     0
  9
$TDCREATE
 40
2452062.343093519
  9
$TDUPDATE
 40
2453686.484957164
  9
$TDINDWG
 40
2.2187185417
  9
$TDUSRTIMER
 40
2.2187185417
  9
$USRTIMER
 70
     1
  9
$ANGBASE
 50
0.0
  9
$ANGDIR
 70
     0
  9
$PDMODE
 70
    34
  9
$PDSIZE
 40
-5.0
  9
$PLINEWID
 40
0.0
  9
$COORDS
 70
     1
  9
$SPLFRAME
 70
     0
  9
$SPLINETYPE
 70
     6
  9
$SPLINESEGS
 70
     8
  9
$ATTDIA
 70
     0
  9
$ATTREQ
 70
     1
  9
$HANDLING
 70
 22529
  9
$HANDSEED
  5
11A
  9
$SURFTAB1
 70
     6
  9
$SURFTAB2
 70
     6
  9
$SURFTYPE
 70
     6
  9
$SURFU
 70
     6
  9
$SURFV
 70
     6
  9
$UCSNAME
  2

  9
$UCSORG
 10
0.0
 20
0.0
 30
0.0
  9
$UCSXDIR
 10
1.0
 20
0.0
 30
0.0
  9
$UCSYDIR
 10
0.0
 20
1.0
 30
0.0
  9
$PUCSNAME
  2

  9
$PUCSORG
 10
0.0
 20
0.0
 30
0.0
  9
$PUCSXDIR
 10
1.0
 20
0.0
 30
0.0
  9
$PUCSYDIR
 10
0.0
 20
1.0
 30
0.0
  9
$USERI1
 70
     0
  9
$USERI2
 70
     0
  9
$USERI3
 70
     0
  9
$USERI4
 70
     0
  9
$USERI5
 70
     0
  9
$USERR1
 40
0.0
  9
$USERR2
 40
0.0
  9
$USERR3
 40
0.0
  9
$USERR4
 40
0.0
  9
$USERR5
 40
0.0
  9
$WORLDVIEW
 70
     1
  9
$SHADEDGE
 70
     3
  9
$SHADEDIF
 70
    70
  9
$TILEMODE
 70
     1
  9
$MAXACTVP
 70
    48
  9
$PINSBASE
 10
0.0
 20
0.0
 30
0.0
  9
$PLIMCHECK
 70
     0
  9
$PEXTMIN
 10
0.0
 20
0.0
 30
0.0
  9
$PEXTMAX
 10
0.0
 20
0.0
 30
0.0
  9
$PLIMMIN
 10
0.0
 20
0.0
  9
$PLIMMAX
 10
12.0
 20
9.0
  9
$UNITMODE
 70
     0
  9
$VISRETAIN
 70
     1
  9
$PLINEGEN
 70
     0
  9
$PSLTSCALE
 70
     1
  9
$TREEDEPTH
 70
  3020
  9
$PICKSTYLE
 70
     1
  9
$CMLSTYLE
  2
STANDARD
  9
$CMLJUST
 70
     0
  9
$CMLSCALE
 40
20.0
  9
$PROXYGRAPHICS
 70
     1
  9
$MEASUREMENT
 70
     0
  0
ENDSEC
  0
SECTION
  2
CLASSES
  0
CLASS
  1
ACDBDICTIONARYWDFLT
  2
AcDbDictionaryWithDefault
  3
AutoCAD 2000
 90
        0
280
     0
281
     0
  0
CLASS
  1
ACDBPLACEHOLDER
  2
AcDbPlaceHolder
  3
AutoCAD 2000
 90
        0
280
     0
281
     0
  0
CLASS
  1
LAYOUT
  2
AcDbLayout
  3
AutoCAD 2000
 90
        0
280
     0
281
     0
  0
CLASS
  1
DICTIONARYVAR
  2
AcDbDictionaryVar
  3
AutoCAD 2000
 90
        0
280
     0
281
     0
  0
CLASS
  1
IMAGEDEF
  2
AcDbRasterImageDef
  3
ISM
 90
        0
280
     0
281
     0
  0
CLASS
  1
LONG_TRANSACTION
  2
AcDbLongTransaction
  3
AutoCAD 2000
 90
        0
280
     0
281
     0
  0
CLASS
  1
LWPOLYLINE
  2
AcDbPolyline
  3
AutoCAD 2000
 90
        0
280
     0
281
     1
  0
CLASS
  1
HATCH
  2
AcDbHatch
  3
AutoCAD 2000
 90
        0
280
     0
281
     1
  0
CLASS
  1
XRECORD
  2
AcDbXrecord
  3
AutoCAD 2000
 90
        0
280
     0
281
     0
  0
CLASS
  1
LONG_TRANSACTION
  2
AcDbLongTransaction
  3
AutoCAD 2000
 90
        0
280
     0
281
     0
  0
CLASS
  1
LWPOLYLINE
  2
AcDbPolyline
  3
AutoCAD 2000
 90
        0
280
     0
281
     1
  0
CLASS
  1
HATCH
  2
AcDbHatch
  3
AutoCAD 2000
 90
        0
280
     0
281
     1
  0
CLASS
  1
XRECORD
  2
AcDbXrecord
  3
AutoCAD 2000
 90
        0
280
     0
281
     0
  0
ENDSEC
  0
SECTION
  2
TABLES
  0
TABLE
  2
VPORT
  5
1D
330
0
100
AcDbSymbolTable
 70
     3
  0
VPORT
  5
F6
330
1D
100
AcDbSymbolTableRecord
100
AcDbViewportTableRecord
  2
*ACTIVE
 70
     0
 10
0.0
 20
0.0
 11
1.0
 21
1.0
 12
-50.74185427986534
 22
5.551172782328286
 13
0.0
 23
0.0
 14
10.0
 24
10.0
 15
10.0
 25
10.0
 16
0.0
 26
0.0
 36
1.0
 17
0.0
 27
0.0
 37
0.0
 40
46.78755939255945
 41
1.786792452830188
 42
50.0
 43
0.0
 44
0.0
 50
0.0
 51
0.0
 71
     0
 72
   100
 73
     1
 74
     3
 75
     0
 76
     0
 77
     0
 78
     2
  0
ENDTAB
  0
TABLE
  2
LTYPE
  5
18
330
0
100
AcDbSymbolTable
 70
     3
  0
LTYPE
  5
19
330
18
100
AcDbSymbolTableRecord
100
AcDbLinetypeTableRecord
  2
BYBLOCK
 70
     0
  3

 72
    65
 73
     0
 40
0.0
  0
LTYPE
  5
1A
330
18
100
AcDbSymbolTableRecord
100
AcDbLinetypeTableRecord
  2
BYLAYER
 70
     0
  3

 72
    65
 73
     0
 40
0.0
  0
LTYPE
  5
8
330
18
100
AcDbSymbolTableRecord
100
AcDbLinetypeTableRecord
  2
CONTINUOUS
 70
     0
  3
Solid line
 72
    65
 73
     0
 40
0.0
  0
LTYPE
  5
48
330
18
100
AcDbSymbolTableRecord
100
AcDbLinetypeTableRecord
  2
CENTER
 70
     0
  3
Center ____ _ ____ _ ____ _ ____ _ ____ _ ____
 72
    65
 73
     4
 40
50.8
 49
31.75
 74
     0
 49
-6.349999999999999
 74
     0
 49
6.349999999999999
 74
     0
 49
-6.349999999999999
 74
     0
  0
LTYPE
  5
31
330
18
100
AcDbSymbolTableRecord
100
AcDbLinetypeTableRecord
  2
HIDDEN
 70
     0
  3
Hidden __ __ __ __ __ __ __ __ __ __ __ __ __ _
 72
    65
 73
     2
 40
9.524999999999998
 49
6.349999999999999
 74
     0
 49
-3.174999999999999
 74
     0
  0
ENDTAB
  0
TABLE
  2
LAYER
  5
10
102
{ACAD_XDICTIONARY
360
11
102
}
330
0
100
AcDbSymbolTable
 70
     2
  0
LAYER
  5
4
330
10
100
AcDbSymbolTableRecord
100
AcDbLayerTableRecord
  2
0
 70
     0
 62
     7
  6
CONTINUOUS
  0
LAYER
  5
47
330
10
100
AcDbSymbolTableRecord
100
AcDbLayerTableRecord
  2
CENTER
 70
     0
 62
     1
  6
CENTER
  0
ENDTAB
  0
TABLE
  2
STYLE
  5
15
330
0
100
AcDbSymbolTable
 70
     3
  0
STYLE
  5
16
330
15
100
AcDbSymbolTableRecord
100
AcDbTextStyleTableRecord
  2
STANDARD
 70
     0
 40
0.0
 41
1.0
 50
0.0
 71
     0
 42
0.125
  3
txt
  4

  0
STYLE
  5
29
330
15
100
AcDbSymbolTableRecord
100
AcDbTextStyleTableRecord
  2
CARTOUCHE
 70
     0
 40
0.0
 41
1.0
 50
0.0
 71
     0
 42
0.1
  3
romans.shx
  4

  0
STYLE
  5
23
330
15
100
AcDbSymbolTableRecord
100
AcDbTextStyleTableRecord
  2
ROMANS
 70
     0
 40
0.0
 41
1.0
 50
0.0
 71
     0
 42
1.0
  3
romans.shx
  4

  0
ENDTAB
  0
TABLE
  2
VIEW
  5
1B
330
0
100
AcDbSymbolTable
 70
     0
  0
ENDTAB
  0
TABLE
  2
UCS
  5
1C
330
0
100
AcDbSymbolTable
 70
     0
  0
ENDTAB
  0
TABLE
  2
APPID
  5
1F
330
0
100
AcDbSymbolTable
 70
     2
  0
APPID
  5
20
330
1F
100
AcDbSymbolTableRecord
100
AcDbRegAppTableRecord
  2
ACAD
 70
     0
  0
APPID
  5
5E
330
1F
100
AcDbSymbolTableRecord
100
AcDbRegAppTableRecord
  2
DCO15
 70
     0
  0
ENDTAB
  0
TABLE
  2
DIMSTYLE
  5
21
330
0
100
AcDbSymbolTable
 70
     1
  0
DIMSTYLE
105
22
330
21
100
AcDbSymbolTableRecord
100
AcDbDimStyleTableRecord
  2
STANDARD
 70
     0
  3
\X
  4
cm
  5

  6

  7

 40
16.0
 41
0.1
 42
0.0625
 43
0.25
 44
0.1
 45
0.0
 46
0.0
 47
0.0
 48
0.0
140
0.1
141
0.09
142
0.0
143
2.54
144
1.0
145
0.0
146
1.0
147
0.08
 71
     0
 72
     0
 73
     1
 74
     1
 75
     0
 76
     0
 77
     0
 78
     4
170
     1
171
     1
172
     0
173
     0
174
     0
175
     0
176
     0
177
     0
178
     0
270
     5
271
     3
272
     3
273
     2
274
     1
340
23
275
     0
280
     0
281
     0
282
     0
283
     1
284
     4
285
     4
286
     4
287
     1
288
     0
  0
ENDTAB
  0
TABLE
  2
BLOCK_RECORD
  5
1
330
0
100
AcDbSymbolTable
 70
     0
  0
BLOCK_RECORD
  5
2
102
{ACAD_XDICTIONARY
360
66
102
}
330
1
100
AcDbSymbolTableRecord
100
AcDbBlockTableRecord
  2
*MODEL_SPACE
  0
BLOCK_RECORD
  5
57
102
{ACAD_XDICTIONARY
360
68
102
}
330
1
100
AcDbSymbolTableRecord
100
AcDbBlockTableRecord
  2
*PAPER_SPACE
  0
ENDTAB
  0
ENDSEC
  0
SECTION
  2
BLOCKS
  0
BLOCK
  5
3
330
2
100
AcDbEntity
  8
0
100
AcDbBlockBegin
  2
*MODEL_SPACE
 70
     0
 10
0.0
 20
0.0
 30
0.0
  3
*MODEL_SPACE
  1

  0
ENDBLK
  5
9
330
2
100
AcDbEntity
  8
0
100
AcDbBlockEnd
  0
BLOCK
  5
59
330
57
100
AcDbEntity
 67
     1
  8
0
100
AcDbBlockBegin
  2
*PAPER_SPACE
 70
     0
 10
0.0
 20
0.0
 30
0.0
  3
*PAPER_SPACE
  1

  0
ENDBLK
  5
5A
330
57
100
AcDbEntity
 67
     1
  8
0
100
AcDbBlockEnd
  0
ENDSEC
  0
SECTION
  2
ENTITIES
  0
SPLINE
  5
2B
330
2
100
AcDbEntity
  8
0
 48
0.1
100
AcDbSpline
210
0.0
220
0.0
230
1.0
 70
     8
 71
     3
 72
    13
 73
     9
 74
     7
 42
0.0000000001
 43
0.0000000001
 44
0.0000000001
 40
0.0
 40
0.0
 40
0.0
 40
0.0
 40
0.8372418225556401
 40
9.850117988239928
 40
20.99001342208984
 40
32.90883729964142
 40
44.68217439078778
 40
45.7373383183606
 40
45.7373383183606
 40
45.7373383183606
 40
45.7373383183606
 10
-14.99060325351058
 20
5.363237972912802
 30
0.0
 10
-14.98782528248242
 20
5.084211858789856
 30
0.0
 10
-14.9551425596918
 20
1.801480308756154
 30
0.0
 10
-17.34360747758693
 20
-5.242043575302544
 30
0.0
 10
-26.22492574589048
 20
-12.20765553857281
 30
0.0
 10
-37.88772297038343
 20
-14.20432111961598
 30
0.0
 10
-46.11225186446586
 20
-14.38906873279644
 30
0.0
 10
-50.38877805322027
 20
-14.38636898830881
 30
0.0
 10
-50.74052890572514
 20
-14.38614693017491
 30
0.0
 11
-14.99060325351058
 21
5.363237972912802
 31
0.0
 11
-14.99060325351058
 21
4.525996150357162
 31
0.0
 11
-17.75912276216394
 21
-4.05113836579482
 31
0.0
 11
-26.32087143187338
 21
-11.17811037316504
 31
0.0
 11
-37.9215103619005
 21
-13.91371616333895
 31
0.0
 11
-49.68536497815232
 21
-14.38614693017491
 31
0.0
 11
-50.74052890572514
 21
-14.38614693017491
 31
0.0
  0
SPLINE
  5
2C
330
2
100
AcDbEntity
  8
0
 48
0.1
100
AcDbSpline
210
0.0
220
0.0
230
1.0
 70
     8
 71
     3
 72
    13
 73
     9
 74
     7
 42
0.0000000001
 43
0.0000000001
 44
0.0000000001
 40
0.0
 40
0.0
 40
0.0
 40
0.0
 40
0.8372418225556401
 40
9.850117988239928
 40
20.99001342208984
 40
32.90883729964142
 40
44.68217439078776
 40
45.73733831836058
 40
45.73733831836058
 40
45.73733831836058
 40
45.73733831836058
 10
-86.49029330307227
 20
5.363237972912802
 30
0.0
 10
-86.49307127410045
 20
5.084211858789856
 30
0.0
 10
-86.52575399689096
 20
1.801480308756154
 30
0.0
 10
-84.13728907899598
 20
-5.242043575302544
 30
0.0
 10
-75.25597081069236
 20
-12.20765553857281
 30
0.0
 10
-63.59317358619943
 20
-14.20432111961597
 30
0.0
 10
-55.36864469211701
 20
-14.38906873279647
 30
0.0
 10
-51.0921185033626
 20
-14.38636898830881
 30
0.0
 10
-50.74036765085773
 20
-14.38614693017491
 30
0.0
 11
-86.49029330307227
 21
5.363237972912802
 31
0.0
 11
-86.49029330307227
 21
4.525996150357162
 31
0.0
 11
-83.72177379441891
 21
-4.05113836579482
 31
0.0
 11
-75.16002512470947
 21
-11.17811037316504
 31
0.0
 11
-63.55938619468236
 21
-13.91371616333895
 31
0.0
 11
-51.79553157843055
 21
-14.38614693017491
 31
0.0
 11
-50.74036765085773
 21
-14.38614693017491
 31
0.0
  0
SPLINE
  5
2D
330
2
100
AcDbEntity
  8
0
 48
0.1
100
AcDbSpline
210
0.0
220
0.0
230
1.0
 70
     8
 71
     3
 72
    28
 73
    24
 74
     0
 42
0.0000000001
 43
0.0000000001
 40
0.0
 40
0.0
 40
0.0
 40
0.0
 40
0.7458422934298273
 40
0.7458422934298273
 40
2.237526880289482
 40
2.237526880289482
 40
3.729211467149136
 40
3.729211467149136
 40
6.712580640868445
 40
6.712580640868445
 40
10.19805190813248
 40
10.19805190813248
 40
17.24099178245666
 40
17.24099178245666
 40
21.00408532961859
 40
21.00408532961859
 40
28.53027242394245
 40
28.53027242394245
 40
33.29652586604442
 40
33.29652586604442
 40
45.00490182987316
 40
45.00490182987316
 40
46.03594618862999
 40
46.03594618862999
 40
46.03594618862999
 40
46.03594618862999
 10
-85.99031540503062
 20
5.358536752874044
 30
0.0
 10
-85.99265229971218
 20
5.110006439212074
 30
0.0
 10
-85.99491250545602
 20
4.865212470657411
 30
0.0
 10
-85.98552247761466
 20
4.141374955133962
 30
0.0
 10
-85.955418093189
 20
3.660924308488135
 30
0.0
 10
-85.84832681872379
 20
2.698218822175881
 30
0.0
 10
-85.77151656001868
 20
2.217676628507682
 30
0.0
 10
-85.47423504867376
 20
0.7542127756364981
 30
0.0
 10
-85.18687868347599
 20
-0.1880443087619099
 30
0.0
 10
-84.38840274537156
 20
-1.946238189741912
 30
0.0
 10
-83.84789200414591
 20
-2.967493232270914
 30
0.0
 10
-81.9232255925141
 20
-5.835573094112183
 30
0.0
 10
-80.23588809904925
 20
-7.475100412906813
 30
0.0
 10
-77.30292155167308
 20
-9.511186861877815
 30
0.0
 10
-76.21776726168083
 20
-10.13090231707056
 30
0.0
 10
-72.85501311461061
 20
-11.70672559501041
 30
0.0
 10
-70.46563976715216
 20
-12.37887788493897
 30
0.0
 10
-66.46105233420832
 20
-13.10548637828483
 30
0.0
 10
-64.88355337593912
 20
-13.29607379647951
 30
0.0
 10
-59.42696469981385
 20
-13.77425456487545
 30
0.0
 10
-55.54714437847282
 20
-13.79308370269381
 30
0.0
 10
-51.4277746081264
 20
-13.79417857292364
 30
0.0
 10
-51.08413872647636
 20
-13.79413104909469
 30
0.0
 10
-50.74043681843789
 20
-13.79408350303568
 30
0.0
  0
SPLINE
  5
2E
330
2
100
AcDbEntity
  8
0
 48
0.1
100
AcDbSpline
210
0.0
220
0.0
230
1.0
 70
     8
 71
     3
 72
    28
 73
    24
 74
     0
 42
0.0000000001
 43
0.0000000001
 40
0.0
 40
0.0
 40
0.0
 40
0.0
 40
0.7458422934295662
 40
0.7458422934295662
 40
2.237526880288698
 40
2.237526880288698
 40
3.72921146714783
 40
3.72921146714783
 40
6.712580640866095
 40
6.712580640866095
 40
10.19805190812983
 40
10.19805190812983
 40
17.24099178251915
 40
17.24099178251915
 40
21.00408532968252
 40
21.00408532968252
 40
28.53027242400924
 40
28.53027242400924
 40
33.29652586607721
 40
33.29652586607721
 40
45.00490183091929
 40
45.00490183091929
 40
46.03594618862999
 40
46.03594618862999
 40
46.03594618862999
 40
46.03594618862999
 10
-15.49058115155223
 20
5.358536752874062
 30
0.0
 10
-15.48824425687069
 20
5.11000643921217
 30
0.0
 10
-15.48598405112685
 20
4.865212470657585
 30
0.0
 10
-15.49537407896818
 20
4.141374955134379
 30
0.0
 10
-15.52547846339381
 20
3.660924308488723
 30
0.0
 10
-15.63256973785893
 20
2.698218822176805
 30
0.0
 10
-15.70937999656399
 20
2.217676628508773
 30
0.0
 10
-16.00666150790869
 20
0.7542127756380755
 30
0.0
 10
-16.29401787310625
 20
-0.188044308760027
 30
0.0
 10
-17.09249381121023
 20
-1.946238189739725
 30
0.0
 10
-17.63300455243569
 20
-2.967493232268726
 30
0.0
 10
-19.5576709640789
 20
-5.835573094127971
 30
0.0
 10
-21.24500845756284
 20
-7.475100412935411
 30
0.0
 10
-24.17797500496315
 20
-9.511186861910442
 30
0.0
 10
-25.26312929495749
 20
-10.13090231710034
 30
0.0
 10
-28.62588344203263
 20
-11.70672559503116
 30
0.0
 10
-31.01525678949395
 20
-12.37887788495467
 30
0.0
 10
-35.01984422242941
 20
-13.10548637829211
 30
0.0
 10
-36.59734318068758
 20
-13.29607379648408
 30
0.0
 10
-42.05393185713721
 20
-13.77425456490593
 30
0.0
 10
-45.93375217881513
 20
-13.79308370269713
 30
0.0
 10
-50.05312194915379
 20
-13.79417857292354
 30
0.0
 10
-50.39675783045523
 20
-13.79413104909464
 30
0.0
 10
-50.74045973814496
 20
-13.79408350303568
 30
0.0
  0
SPLINE
  5
2F
330
2
100
AcDbEntity
  8
0
 48
0.1
100
AcDbSpline
210
0.0
220
0.0
230
1.0
 70
     8
 71
     3
 72
    13
 73
     9
 74
     7
 42
0.0000000001
 43
0.0000000001
 44
0.0000000001
 40
0.0
 40
0.0
 40
0.0
 40
0.0
 40
0.8372418225556401
 40
10.3232145909552
 40
21.46311002480512
 40
33.38193390235669
 40
45.15101792834026
 40
46.20618185591307
 40
46.20618185591307
 40
46.20618185591307
 40
46.20618185591307
 10
-86.49029330307227
 20
5.365248829627606
 30
0.0
 10
-86.49267658244596
 20
5.644179363320521
 30
0.0
 10
-86.52206248236387
 20
9.083400479260724
 30
0.0
 10
-84.32319260709068
 20
16.37623214581881
 30
0.0
 10
-75.23853800435194
 20
23.41518242403842
 30
0.0
 10
-63.60137783370871
 20
25.4843310647956
 30
0.0
 10
-55.36704964968492
 20
25.48892575025283
 30
0.0
 10
-51.09210502930893
 20
25.48885859525845
 30
0.0
 10
-50.74036765085773
 20
25.48885306982509
 30
0.0
 11
-86.49029330307227
 21
5.365248829627606
 31
0.0
 11
-86.49029330307227
 21
6.202490652183247
 31
0.0
 11
-83.72177379441891
 21
15.27547136929181
 31
0.0
 11
-75.16002512470947
 21
22.40244337666204
 31
0.0
 11
-63.55938619468236
 21
25.13804916683594
 31
0.0
 11
-51.79553157843055
 21
25.48885306982509
 31
0.0
 11
-50.74036765085773
 21
25.48885306982509
 31
0.0
  0
SPLINE
  5
30
330
2
100
AcDbEntity
  8
0
  6
HIDDEN
 62
     9
 48
0.1
100
AcDbSpline
210
0.0
220
0.0
230
1.0
 70
     8
 71
     3
 72
    11
 73
     7
 74
     5
 42
0.0000000001
 43
0.0000000001
 44
0.0000000001
 40
0.0
 40
0.0
 40
0.0
 40
0.0
 40
1.444490651265923
 40
6.052980153501603
 40
8.927856975016613
 40
16.32707813944506
 40
16.32707813944506
 40
16.32707813944506
 40
16.32707813944506
 10
-50.74036765085755
 20
-10.29225857831874
 30
0.0
 10
-51.22137807144397
 20
-10.28880297493172
 30
0.0
 10
-53.23699965188509
 20
-10.27432264672627
 30
0.0
 10
-56.24774240743512
 20
-10.52145734738632
 30
0.0
 10
-60.87141112909909
 20
-12.50878013989176
 30
0.0
 10
-64.36963380151484
 20
-12.06569022414729
 30
0.0
 10
-66.88899105030063
 20
-11.74658481101937
 30
0.0
 11
-50.74036765085755
 21
-10.29225857831874
 31
0.0
 11
-52.18485830212348
 21
-10.29225857831874
 31
0.0
 11
-56.75700795194223
 21
-10.8698597139467
 31
0.0
 11
-59.48978703649624
 21
-11.76251598256771
 31
0.0
 11
-66.88899105030063
 21
-11.74658481101937
 31
0.0
  0
SPLINE
  5
32
330
2
100
AcDbEntity
  8
0
 48
0.1
100
AcDbSpline
210
0.0
220
0.0
230
1.0
 70
     8
 71
     3
 72
    30
 73
    26
 74
     0
 42
0.0000000001
 43
0.0000000001
 40
0.0
 40
0.0
 40
0.0
 40
0.0
 40
0.65850966288644
 40
0.65850966288644
 40
1.686762086003359
 40
1.686762086003359
 40
2.715014509120279
 40
2.715014509120279
 40
4.771519355354119
 40
4.771519355354119
 40
8.884529047821798
 40
8.884529047821798
 40
12.99753874028947
 40
12.99753874028947
 40
17.07270938001616
 40
17.07270938001616
 40
20.3084671468072
 40
20.3084671468072
 40
23.54422491359824
 40
23.54422491359824
 40
28.25098257418556
 40
28.25098257418556
 40
36.78596721404064
 40
36.78596721404064
 40
38.53625931349068
 40
38.53625931349068
 40
38.53625931349068
 40
38.53625931349068
 10
-82.24045461220772
 20
5.325551846769673
 30
0.0
 10
-82.24351637965545
 20
5.106106274332024
 30
0.0
 10
-82.24669411736313
 20
4.88234116106194
 30
0.0
 10
-82.23971831293678
 20
4.297872698304761
 30
0.0
 10
-82.21802868547253
 20
3.935014469929077
 30
0.0
 10
-82.13843609841319
 20
3.217657420958657
 30
0.0
 10
-82.08109782605601
 20
2.860376064149303
 30
0.0
 10
-81.85975311295228
 20
1.796822630936661
 30
0.0
 10
-81.64645486286699
 20
1.098849597759132
 30
0.0
 10
-80.83436855587445
 20
-0.9611971459209502
 30
0.0
 10
-80.0625948770738
 20
-2.009583488757925
 30
0.0
 10
-78.18718926232361
 20
-4.19799340549844
 30
0.0
 10
-77.08665457324153
 20
-5.128345803809733
 30
0.0
 10
-74.69973774738789
 20
-6.690746302721458
 30
0.0
 10
-73.41496110194609
 20
-7.325811161104516
 30
0.0
 10
-71.040704195436
 20
-8.242913359205703
 30
0.0
 10
-69.96763291413677
 20
-8.569697892085024
 30
0.0
 10
-67.81756938103509
 20
-9.089716412008193
 30
0.0
 10
-66.73702138684493
 20
-9.284491403654078
 30
0.0
 10
-64.07936526887356
 20
-9.650100045848846
 30
0.0
 10
-62.49981875656562
 20
-9.769882002571012
 30
0.0
 10
-58.06830138888524
 20
-10.00013685572953
 30
0.0
 10
-55.2156043130053
 20
-10.03498191210747
 30
0.0
 10
-51.90787690379166
 20
-10.04386667309006
 30
0.0
 10
-51.32376133804287
 20
-10.04412312709006
 30
0.0
 10
-50.74033368778454
 20
-10.04408349709803
 30
0.0
  0
SPLINE
  5
33
330
2
100
AcDbEntity
  8
0
 48
0.1
100
AcDbSpline
210
0.0
220
0.0
230
1.0
 70
     8
 71
     3
 72
    13
 73
     9
 74
     7
 42
0.0000000001
 43
0.0000000001
 44
0.0000000001
 40
0.0
 40
0.0
 40
0.0
 40
0.0
 40
0.8372418225556401
 40
8.104807463703989
 40
18.82968875255661
 40
28.46513643596993
 40
37.8919547614844
 40
38.23753242920782
 40
38.23753242920782
 40
38.23753242920782
 40
38.23753242920782
 10
-81.74050327167661
 20
5.318576382544605
 30
0.0
 10
-81.74465751895182
 20
5.039494295467525
 30
0.0
 10
-81.78487215397741
 20
2.33787748489773
 30
0.0
 10
-79.16500303110183
 20
-3.937752351496667
 30
0.0
 10
-70.49932574330959
 20
-8.601293627046112
 30
0.0
 10
-60.5828284558913
 20
-9.502231513999738
 30
0.0
 10
-54.11302227337239
 20
-9.544345385565662
 30
0.0
 10
-50.85556009526801
 20
-9.544092442968151
 30
0.0
 10
-50.74036765085771
 20
-9.544083498251524
 30
0.0
 11
-81.74050327167661
 21
5.318576382544605
 31
0.0
 11
-81.74050327167661
 21
4.481334559988965
 31
0.0
 11
-79.13372138036089
 21
-2.30263172232026
 31
0.0
 11
-70.04883801946835
 21
-8.002453910683581
 31
0.0
 11
-60.51118918212264
 21
-9.371799270800295
 31
0.0
 11
-51.08594531858113
 21
-9.544083498251524
 31
0.0
 11
-50.74036765085771
 21
-9.544083498251524
 31
0.0
  0
SPLINE
  5
34
330
2
100
AcDbEntity
  8
0
 48
0.1
100
AcDbSpline
210
0.0
220
0.0
230
1.0
 70
     8
 71
     3
 72
    12
 73
     8
 74
     6
 42
0.0000000001
 43
0.0000000001
 44
0.0000000001
 40
0.0
 40
0.0
 40
0.0
 40
0.0
 40
0.0839939960667664
 40
5.520357907081309
 40
18.15084908905565
 40
27.19073981216351
 40
28.36112687881801
 40
28.36112687881801
 40
28.36112687881801
 40
28.36112687881801
 10
-73.24036765085748
 20
5.364243401270204
 30
0.0
 10
-73.24039473609976
 20
5.336254285868283
 30
0.0
 10
-73.24217486608941
 20
3.496718821947956
 30
0.0
 10
-72.0939857480129
 20
-2.930141731555904
 30
0.0
 10
-61.88020529956922
 20
-6.533256783095714
 30
0.0
 10
-54.53932069509779
 20
-6.575784996506897
 30
0.0
 10
-51.13105181262699
 20
-6.575029740535308
 30
0.0
 10
-50.74036765085769
 20
-6.574943166806427
 30
0.0
 11
-73.24036765085748
 21
5.364243401270204
 31
0.0
 11
-73.24036765085748
 21
5.280249405203438
 31
0.0
 11
-72.03617861040823
 21
-0.0210694239034517
 31
0.0
 11
-60.93514017879875
 21
-6.045706611142286
 31
0.0
 11
-51.91075471751219
 21
-6.574943166806427
 31
0.0
 11
-50.74036765085769
 21
-6.574943166806427
 31
0.0
  0
SPLINE
  5
35
330
2
100
AcDbEntity
  8
0
  6
HIDDEN
 62
     9
 48
0.1
100
AcDbSpline
210
0.0
220
0.0
230
1.0
 70
     8
 71
     3
 72
    34
 73
    30
 74
     0
 42
0.0000000001
 43
0.0000000001
 40
0.0
 40
0.0
 40
0.0
 40
0.0
 40
0.7202671860568805
 40
0.7202671860568805
 40
1.407304589324429
 40
1.407304589324429
 40
2.094341992591977
 40
2.094341992591977
 40
3.468416799127075
 40
3.468416799127075
 40
6.21656641219727
 40
6.21656641219727
 40
10.25029881379412
 40
10.25029881379412
 40
14.28403121539098
 40
14.28403121539098
 40
18.79136158017507
 40
18.79136158017507
 40
21.77264554717882
 40
21.77264554717882
 40
24.75392951418257
 40
24.75392951418257
 40
31.63684495707669
 40
31.63684495707669
 40
35.36782643122476
 40
35.36782643122476
 40
39.09880790537283
 40
39.09880790537283
 40
46.03594618862999
 40
46.03594618862999
 40
46.03594618862999
 40
46.03594618862999
 10
-84.7403706599265
 20
5.381703099763257
 30
0.0
 10
-84.74262742194069
 20
5.621711250612325
 30
0.0
 10
-84.74464296147772
 20
5.849525243500583
 30
0.0
 10
-84.73980716629133
 20
6.27129507356032
 30
0.0
 10
-84.73303619463731
 20
6.471009995458253
 30
0.0
 10
-84.70997892507719
 20
6.908132987346352
 30
0.0
 10
-84.69381767731121
 20
7.111408315018117
 30
0.0
 10
-84.6316333032446
 20
7.721564048417967
 30
0.0
 10
-84.57190381041272
 20
8.128777588212454
 30
0.0
 10
-84.33967129675062
 20
9.346088891448584
 30
0.0
 10
-84.1140357359904
 20
10.15186006582518
 30
0.0
 10
-83.39681726411823
 20
12.08793567408094
 30
0.0
 10
-82.83079424271807
 20
13.1921593507263
 30
0.0
 10
-81.4616752811168
 20
15.49744862880696
 30
0.0
 10
-80.65248070171733
 20
16.43176145616626
 30
0.0
 10
-78.73432390493133
 20
18.22658233807816
 30
0.0
 10
-77.60131268838385
 20
19.06514996600626
 30
0.0
 10
-75.59444490620297
 20
20.2562678239912
 30
0.0
 10
-74.7643705731015
 20
20.67634232903349
 30
0.0
 10
-73.06067603492518
 20
21.40770005159265
 30
0.0
 10
-72.1842856311367
 20
21.72112472996496
 30
0.0
 10
-69.21661038417578
 20
22.61228774185923
 30
0.0
 10
-67.03551210867757
 20
22.99819281083409
 30
0.0
 10
-63.60545982681172
 20
23.38897091289698
 30
0.0
 10
-62.38859087378937
 20
23.48893720648697
 30
0.0
 10
-59.95277462613401
 20
23.63702523033207
 30
0.0
 10
-58.73112150543184
 20
23.68450533664503
 30
0.0
 10
-55.22518615148224
 20
23.77127424235593
 30
0.0
 10
-52.92812679257789
 20
23.76873642091373
 30
0.0
 10
-50.74060973738832
 20
23.76841651849304
 30
0.0
  0
SPLINE
  5
36
330
2
100
AcDbEntity
  8
0
 48
0.1
100
AcDbSpline
210
0.0
220
0.0
230
1.0
 70
     8
 71
     3
 72
    28
 73
    24
 74
     0
 42
0.0000000001
 43
0.0000000001
 40
0.0
 40
0.0
 40
0.0
 40
0.0
 40
0.7458422934298273
 40
0.7458422934298273
 40
2.237526880289482
 40
2.237526880289482
 40
3.729211467149136
 40
3.729211467149136
 40
6.712580640868445
 40
6.712580640868445
 40
10.19805190813213
 40
10.19805190813213
 40
17.24099178246525
 40
17.24099178246525
 40
21.00408532962731
 40
21.00408532962731
 40
28.53027242395143
 40
28.53027242395143
 40
33.29652586604916
 40
33.29652586604916
 40
45.00490182986751
 40
45.00490182986751
 40
46.03594618862999
 40
46.03594618862999
 40
46.03594618862999
 40
46.03594618862999
 10
-85.99031540503062
 20
5.369950049666364
 30
0.0
 10
-85.99265229971218
 20
5.618480363328334
 30
0.0
 10
-85.99491250545602
 20
5.863274331882998
 30
0.0
 10
-85.98552247761466
 20
6.587111847406447
 30
0.0
 10
-85.955418093189
 20
7.098812494052275
 30
0.0
 10
-85.84832681872379
 20
8.061517980364527
 30
0.0
 10
-85.77151656001868
 20
8.54206017403273
 30
0.0
 10
-85.47423504867376
 20
9.974274026903913
 30
0.0
 10
-85.18687868347599
 20
10.91653111130231
 30
0.0
 10
-84.38840274537161
 20
12.89178842420558
 30
0.0
 10
-83.84789200414601
 20
13.91304346673448
 30
0.0
 10
-81.92322559251271
 20
17.05990609761135
 30
0.0
 10
-80.23588809904522
 20
18.69943341640773
 30
0.0
 10
-77.30292155166575
 20
20.73551986537927
 30
0.0
 10
-76.21776726167325
 20
21.35523532057162
 30
0.0
 10
-72.85501311460243
 20
22.93105859851021
 30
0.0
 10
-70.46563976714361
 20
23.60321088843809
 30
0.0
 10
-66.46105233420084
 20
24.32981938178283
 30
0.0
 10
-64.88355337593299
 20
24.52040679997715
 30
0.0
 10
-59.42696469981257
 20
24.99858756837229
 30
0.0
 10
-55.54714437847499
 20
25.01741670619079
 30
0.0
 10
-51.42777460813016
 20
25.01851157642064
 30
0.0
 10
-51.08413872647824
 20
25.01846405259168
 30
0.0
 10
-50.74043681843789
 20
25.01841650653266
 30
0.0
  0
SPLINE
  5
37
330
2
100
AcDbEntity
  8
0
 48
0.1
100
AcDbSpline
210
0.0
220
0.0
230
1.0
 70
     8
 71
     3
 72
    30
 73
    26
 74
     0
 42
0.0000000001
 43
0.0000000001
 40
0.0
 40
0.0
 40
0.0
 40
0.0
 40
0.65850966288644
 40
0.65850966288644
 40
1.686762086004357
 40
1.686762086004357
 40
2.715014509122275
 40
2.715014509122275
 40
4.77151935535811
 40
4.77151935535811
 40
8.884529047829779
 40
8.884529047829779
 40
12.99753874030145
 40
12.99753874030145
 40
17.0727093799465
 40
17.0727093799465
 40
20.3084671467517
 40
20.3084671467517
 40
23.5442249135569
 40
23.5442249135569
 40
28.25098257416274
 40
28.25098257416274
 40
36.78596721397433
 40
36.78596721397433
 40
38.53625931349068
 40
38.53625931349068
 40
38.53625931349068
 40
38.53625931349068
 10
-82.24045461220772
 20
5.402934955770735
 30
0.0
 10
-82.24351637965545
 20
5.622380528208385
 30
0.0
 10
-82.24669411736313
 20
5.846145641478468
 30
0.0
 10
-82.23971831293678
 20
6.430614104235992
 30
0.0
 10
-82.21802868547248
 20
6.824722332612026
 30
0.0
 10
-82.13843609841299
 20
7.542079381583139
 30
0.0
 10
-82.08109782605573
 20
7.899360738392832
 30
0.0
 10
-81.85975311295157
 20
8.962914171606474
 30
0.0
 10
-81.64645486286593
 20
9.660887204784639
 30
0.0
 10
-80.83436855587191
 20
11.68968394846643
 30
0.0
 10
-80.06259487706987
 20
12.95513372322764
 30
0.0
 10
-78.1871892623166
 20
15.42232640900222
 30
0.0
 10
-77.08665457323281
 20
16.35267880731366
 30
0.0
 10
-74.69973774740065
 20
17.91507930620888
 30
0.0
 10
-73.41496110198612
 20
18.55014416458129
 30
0.0
 10
-71.04070419550033
 20
19.46724636268162
 30
0.0
 10
-69.96763291419658
 20
19.79403089556525
 30
0.0
 10
-67.81756938108587
 20
20.31404941549517
 30
0.0
 10
-66.73702138689113
 20
20.50882440714353
 30
0.0
 10
-64.07936526890897
 20
20.87443304934268
 30
0.0
 10
-62.49981875659476
 20
20.99421500606612
 30
0.0
 10
-58.06830138892262
 20
21.22446985922525
 30
0.0
 10
-55.21560431305726
 20
21.25931491560389
 30
0.0
 10
-51.9078769038359
 20
21.26819967658703
 30
0.0
 10
-51.32376133806498
 20
21.26845613058705
 30
0.0
 10
-50.74033368778454
 20
21.26841650059502
 30
0.0
  0
SPLINE
  5
38
330
2
100
AcDbEntity
  8
0
 48
0.1
100
AcDbSpline
210
0.0
220
0.0
230
1.0
 70
     8
 71
     3
 72
    13
 73
     9
 74
     7
 42
0.0000000001
 43
0.0000000001
 44
0.0000000001
 40
0.0
 40
0.0
 40
0.0
 40
0.0
 40
0.8372418225556401
 40
8.307832755571533
 40
19.18343953945392
 40
28.81888722286724
 40
38.24570554838171
 40
38.59128321610513
 40
38.59128321610513
 40
38.59128321610513
 40
38.59128321610513
 10
-81.74050327167661
 20
5.409910419995803
 30
0.0
 10
-81.74441531026069
 20
5.688997193491138
 30
0.0
 10
-81.78323391847433
 20
8.458335962801397
 30
0.0
 10
-79.20455610138542
 20
14.84875141492418
 30
0.0
 10
-70.58147807199182
 20
19.88098516173142
 30
0.0
 10
-60.57441477450568
 20
20.7107977895425
 30
0.0
 10
-54.1130749216868
 20
20.76877704880627
 30
0.0
 10
-50.85556189346222
 20
20.76842881617189
 30
0.0
 10
-50.74036765085771
 20
20.76841650174851
 30
0.0
 11
-81.74050327167661
 21
5.409910419995803
 31
0.0
 11
-81.74050327167661
 21
6.247152242551443
 31
0.0
 11
-79.13372138036089
 21
13.24818195678403
 31
0.0
 11
-70.04883801946835
 21
19.22678691418057
 31
0.0
 11
-60.51118918212264
 21
20.59613227429728
 31
0.0
 11
-51.08594531858113
 21
20.76841650174851
 31
0.0
 11
-50.74036765085771
 21
20.76841650174851
 31
0.0
  0
SPLINE
  5
39
330
2
100
AcDbEntity
  8
0
 48
0.1
100
AcDbSpline
210
0.0
220
0.0
230
1.0
 70
     8
 71
     3
 72
    12
 73
     8
 74
     6
 42
0.0000000001
 43
0.0000000001
 44
0.0000000001
 40
0.0
 40
0.0
 40
0.0
 40
0.0
 40
0.0839939960667664
 40
5.520357907081309
 40
18.39474169333698
 40
27.43463241644484
 40
28.60501948309933
 40
28.60501948309933
 40
28.60501948309933
 40
28.60501948309933
 10
-73.24036765085748
 20
5.364243401270204
 30
0.0
 10
-73.24039586006186
 20
5.392234248143275
 30
0.0
 10
-73.24224986048712
 20
7.231883509964744
 30
0.0
 10
-72.03034567073217
 20
13.67071540548792
 30
0.0
 10
-62.02322014466796
 20
17.86285403093301
 30
0.0
 10
-54.53802961365116
 20
17.79800609201605
 30
0.0
 10
-51.13091903786854
 20
17.79914555550894
 30
0.0
 10
-50.74036765085769
 20
17.79927617030342
 30
0.0
 11
-73.24036765085748
 21
5.364243401270204
 31
0.0
 11
-73.24036765085748
 21
5.448237397336971
 31
0.0
 11
-72.03617861040823
 21
10.74955622644386
 31
0.0
 11
-60.93514017879875
 21
17.27003961463927
 31
0.0
 11
-51.91075471751219
 21
17.79927617030342
 31
0.0
 11
-50.74036765085769
 21
17.79927617030342
 31
0.0
  0
SPLINE
  5
3A
330
2
100
AcDbEntity
  8
0
  6
HIDDEN
 62
     9
 48
0.1
100
AcDbSpline
210
0.0
220
0.0
230
1.0
 70
     8
 71
     3
 72
    28
 73
    24
 74
     0
 42
0.0000000001
 43
0.0000000001
 40
0.0
 40
0.0
 40
0.0
 40
0.0
 40
0.7202671860568805
 40
0.7202671860568805
 40
1.407304589324429
 40
1.407304589324429
 40
2.094341992591977
 40
2.094341992591977
 40
3.468416799127075
 40
3.468416799127075
 40
6.21656641219727
 40
6.21656641219727
 40
10.25029881379412
 40
10.25029881379412
 40
14.28403121539098
 40
14.28403121539098
 40
18.79136158017507
 40
18.79136158017507
 40
21.77264554717882
 40
21.77264554717882
 40
24.75392951418257
 40
24.75392951418257
 40
29.47838081446407
 40
29.47838081446407
 40
29.47838081446407
 40
29.47838081446407
 10
-84.7403706599265
 20
5.346783702777152
 30
0.0
 10
-84.74262742194069
 20
5.106775551928084
 30
0.0
 10
-84.74464296147772
 20
4.878961559039826
 30
0.0
 10
-84.73980716629133
 20
4.457191728980088
 30
0.0
 10
-84.73303619463731
 20
4.257476807082156
 30
0.0
 10
-84.70997892507719
 20
3.851603815194057
 30
0.0
 10
-84.69381767731121
 20
3.648328487522292
 30
0.0
 10
-84.6316333032446
 20
3.038172754122442
 30
0.0
 10
-84.57190381041272
 20
2.630959214327955
 30
0.0
 10
-84.33967129675062
 20
1.413647911091825
 30
0.0
 10
-84.1140357359904
 20
0.5766267367152267
 30
0.0
 10
-83.39681726411823
 20
-1.142385439617168
 30
0.0
 10
-82.83079424271807
 20
-2.246609116262522
 30
0.0
 10
-81.4616752811168
 20
-4.273115625309973
 30
0.0
 10
-80.65248070171733
 20
-5.207428452669272
 30
0.0
 10
-78.73432390493133
 20
-7.002249334581176
 30
0.0
 10
-77.60131268838385
 20
-7.840816962509272
 30
0.0
 10
-75.59444490620297
 20
-9.031934820494218
 30
0.0
 10
-74.7643705731015
 20
-9.452009325536501
 30
0.0
 10
-73.06067603492518
 20
-10.18336704809566
 30
0.0
 10
-72.1842856311367
 20
-10.49679172646796
 30
0.0
 10
-69.86599107299849
 20
-11.19295225245686
 30
0.0
 10
-68.39263310553389
 20
-11.50862109724752
 30
0.0
 10
-66.88899105030063
 20
-11.74658481101936
 30
0.0
  0
SPLINE
  5
3B
330
2
100
AcDbEntity
  8
0
 48
0.1
100
AcDbSpline
210
0.0
220
0.0
230
1.0
 70
     8
 71
     3
 72
    13
 73
     9
 74
     7
 42
0.0000000001
 43
0.0000000001
 44
0.0000000001
 40
0.0
 40
0.0
 40
0.0
 40
0.0
 40
0.8372418225556401
 40
10.3232145909552
 40
21.46311002480512
 40
33.38193390235669
 40
45.15101792834028
 40
46.20618185591309
 40
46.20618185591309
 40
46.20618185591309
 40
46.20618185591309
 10
-14.99060325351058
 20
5.365248829627606
 30
0.0
 10
-14.98821997413689
 20
5.644179363320521
 30
0.0
 10
-14.95883407421889
 20
9.083400479260724
 30
0.0
 10
-17.15770394949223
 20
16.37623214581881
 30
0.0
 10
-26.24235855223089
 20
23.41518242403842
 30
0.0
 10
-37.87951872287415
 20
25.48433106479562
 30
0.0
 10
-46.113846906898
 20
25.4889257502528
 30
0.0
 10
-50.38879152727393
 20
25.48885859525846
 30
0.0
 10
-50.74052890572514
 20
25.48885306982509
 30
0.0
 11
-14.99060325351058
 21
5.365248829627606
 31
0.0
 11
-14.99060325351058
 21
6.202490652183247
 31
0.0
 11
-17.75912276216394
 21
15.27547136929181
 31
0.0
 11
-26.32087143187338
 21
22.40244337666204
 31
0.0
 11
-37.9215103619005
 21
25.13804916683594
 31
0.0
 11
-49.68536497815232
 21
25.48885306982509
 31
0.0
 11
-50.74052890572514
 21
25.48885306982509
 31
0.0
  0
SPLINE
  5
3C
330
2
100
AcDbEntity
  8
0
  6
HIDDEN
 62
     9
 48
0.1
100
AcDbSpline
210
0.0
220
0.0
230
1.0
 70
     8
 71
     3
 72
    28
 73
    24
 74
     0
 42
0.0000000001
 43
0.0000000001
 40
0.0
 40
0.0
 40
0.0
 40
0.0
 40
0.7202671860568805
 40
0.7202671860568805
 40
1.407304589324429
 40
1.407304589324429
 40
2.094341992591977
 40
2.094341992591977
 40
3.468416799127075
 40
3.468416799127075
 40
6.21656641219727
 40
6.21656641219727
 40
10.25029881379412
 40
10.25029881379412
 40
14.28403121539098
 40
14.28403121539098
 40
18.79136158017507
 40
18.79136158017507
 40
21.77264554717882
 40
21.77264554717882
 40
24.75392951418257
 40
24.75392951418257
 40
29.48041808508541
 40
29.48041808508541
 40
29.48041808508541
 40
29.48041808508541
 10
-16.74084881485015
 20
5.346783702777152
 30
0.0
 10
-16.73859205283595
 20
5.106775551928084
 30
0.0
 10
-16.73657651329892
 20
4.878961559039826
 30
0.0
 10
-16.74141230848531
 20
4.457191728980088
 30
0.0
 10
-16.74818328013934
 20
4.257476807082156
 30
0.0
 10
-16.77124054969945
 20
3.851603815194057
 30
0.0
 10
-16.78740179746543
 20
3.648328487522292
 30
0.0
 10
-16.84958617153205
 20
3.038172754122442
 30
0.0
 10
-16.90931566436393
 20
2.630959214327955
 30
0.0
 10
-17.14154817802602
 20
1.413647911091825
 30
0.0
 10
-17.36718373878625
 20
0.5766267367152267
 30
0.0
 10
-18.08440221065841
 20
-1.142385439617168
 30
0.0
 10
-18.65042523205858
 20
-2.246609116262522
 30
0.0
 10
-20.01954419365985
 20
-4.273115625309973
 30
0.0
 10
-20.82873877305931
 20
-5.207428452669272
 30
0.0
 10
-22.74689556984532
 20
-7.002249334581176
 30
0.0
 10
-23.87990678639279
 20
-7.840816962509272
 30
0.0
 10
-25.88677456857368
 20
-9.031934820494218
 30
0.0
 10
-26.71684890167515
 20
-9.452009325536501
 30
0.0
 10
-28.42054343985147
 20
-10.18336704809566
 30
0.0
 10
-29.29693384363995
 20
-10.49679172646796
 30
0.0
 10
-31.61584132101701
 20
-11.19313630593627
 30
0.0
 10
-33.08985705722271
 20
-11.50889332104589
 30
0.0
 10
-34.59417363600949
 20
-11.74689261071405
 30
0.0
  0
SPLINE
  5
3D
330
2
100
AcDbEntity
  8
0
 48
0.1
100
AcDbSpline
210
0.0
220
0.0
230
1.0
 70
     8
 71
     3
 72
    30
 73
    26
 74
     0
 42
0.0000000001
 43
0.0000000001
 40
0.0
 40
0.0
 40
0.0
 40
0.0
 40
0.658509662886427
 40
0.658509662886427
 40
1.686762086004126
 40
1.686762086004126
 40
2.715014509121825
 40
2.715014509121825
 40
4.771519355357224
 40
4.771519355357224
 40
8.884529047828021
 40
8.884529047828021
 40
12.99753874029881
 40
12.99753874029881
 40
17.07270937995253
 40
17.07270937995253
 40
20.30846714683451
 40
20.30846714683451
 40
23.5442249137165
 40
23.5442249137165
 40
28.250982574081
 40
28.250982574081
 40
36.78596721345423
 40
36.78596721345423
 40
38.53625931349068
 40
38.53625931349068
 40
38.53625931349068
 40
38.53625931349068
 10
-19.24044194437514
 20
5.32555184676967
 30
0.0
 10
-19.23738017692741
 20
5.106106274332027
 30
0.0
 10
-19.23420243921974
 20
4.882341161061944
 30
0.0
 10
-19.24117824364609
 20
4.2978726983045
 30
0.0
 10
-19.26286787111038
 20
3.935014469928546
 30
0.0
 10
-19.34246045816983
 20
3.217657420957586
 30
0.0
 10
-19.39979873052708
 20
2.860376064147965
 30
0.0
 10
-19.62114344363115
 20
1.796822630934542
 30
0.0
 10
-19.83444169371671
 20
1.098849597756519
 30
0.0
 10
-20.6465280007104
 20
-0.9611971459249026
 30
0.0
 10
-21.41830167951213
 20
-2.009583488762554
 30
0.0
 10
-23.29370729426472
 20
-4.197993405503739
 30
0.0
 10
-24.39424198334813
 20
-5.128345803815142
 30
0.0
 10
-26.7811588091823
 20
-6.690746302712224
 30
0.0
 10
-28.06593545459968
 20
-7.325811161085852
 30
0.0
 10
-30.44019236111343
 20
-8.242913359196238
 30
0.0
 10
-31.51326364244302
 20
-8.569697892085402
 30
0.0
 10
-33.66332717560534
 20
-9.089716412020983
 30
0.0
 10
-34.74387516982607
 20
-9.284491403669573
 30
0.0
 10
-37.40153128775371
 20
-9.650100045850047
 30
0.0
 10
-38.98107779998666
 20
-9.769882002567742
 30
0.0
 10
-43.4125951674317
 20
-10.00013685571876
 30
0.0
 10
-46.26529224315038
 20
-10.0349819121025
 30
0.0
 10
-49.57301965239989
 20
-10.04386667308984
 30
0.0
 10
-50.15713521834456
 20
-10.04412312709007
 30
0.0
 10
-50.74056286879831
 20
-10.04408349709803
 30
0.0
  0
SPLINE
  5
3E
330
2
100
AcDbEntity
  8
0
 48
0.1
100
AcDbSpline
210
0.0
220
0.0
230
1.0
 70
     8
 71
     3
 72
    13
 73
     9
 74
     7
 42
0.0000000001
 43
0.0000000001
 44
0.0000000001
 40
0.0
 40
0.0
 40
0.0
 40
0.0
 40
0.8372418225556401
 40
8.104807463703989
 40
18.82968875255661
 40
28.46513643596993
 40
37.8919547614844
 40
38.23753242920782
 40
38.23753242920782
 40
38.23753242920782
 40
38.23753242920782
 10
-19.74039328490624
 20
5.318576382544605
 30
0.0
 10
-19.73623903763103
 20
5.039494295467525
 30
0.0
 10
-19.69602440260547
 20
2.33787748489773
 30
0.0
 10
-22.31589352548107
 20
-3.937752351496667
 30
0.0
 10
-30.98157081327322
 20
-8.601293627046112
 30
0.0
 10
-40.89806810069158
 20
-9.502231513999738
 30
0.0
 10
-47.36787428321043
 20
-9.544345385565662
 30
0.0
 10
-50.62533646131484
 20
-9.544092442968151
 30
0.0
 10
-50.74052890572516
 20
-9.544083498251524
 30
0.0
 11
-19.74039328490624
 21
5.318576382544605
 31
0.0
 11
-19.74039328490624
 21
4.481334559988965
 31
0.0
 11
-22.34717517622196
 21
-2.30263172232026
 31
0.0
 11
-31.43205853711451
 21
-8.002453910683581
 31
0.0
 11
-40.96970737446022
 21
-9.371799270800295
 31
0.0
 11
-50.39495123800173
 21
-9.544083498251524
 31
0.0
 11
-50.74052890572516
 21
-9.544083498251524
 31
0.0
  0
SPLINE
  5
3F
330
2
100
AcDbEntity
  8
0
 48
0.1
100
AcDbSpline
210
0.0
220
0.0
230
1.0
 70
     8
 71
     3
 72
    12
 73
     8
 74
     6
 42
0.0000000001
 43
0.0000000001
 44
0.0000000001
 40
0.0
 40
0.0
 40
0.0
 40
0.0
 40
0.0839939960667664
 40
5.520357907081309
 40
18.15084908905565
 40
27.19073981216351
 40
28.36112687881801
 40
28.36112687881801
 40
28.36112687881801
 40
28.36112687881801
 10
-28.24052890572538
 20
5.364243401270204
 30
0.0
 10
-28.2405018204831
 20
5.336254285868283
 30
0.0
 10
-28.23872169049328
 20
3.496718821947956
 30
0.0
 10
-29.38691080857015
 20
-2.930141731555904
 30
0.0
 10
-39.60069125701361
 20
-6.533256783095714
 30
0.0
 10
-46.94157586148503
 20
-6.575784996506897
 30
0.0
 10
-50.34984474395589
 20
-6.575029740535308
 30
0.0
 10
-50.74052890572517
 20
-6.574943166806427
 30
0.0
 11
-28.24052890572538
 21
5.364243401270204
 31
0.0
 11
-28.24052890572538
 21
5.280249405203438
 31
0.0
 11
-29.44471794617463
 21
-0.0210694239034517
 31
0.0
 11
-40.54575637778412
 21
-6.045706611142286
 31
0.0
 11
-49.57014183907067
 21
-6.574943166806427
 31
0.0
 11
-50.74052890572517
 21
-6.574943166806427
 31
0.0
  0
SPLINE
  5
40
330
2
100
AcDbEntity
  8
0
  6
HIDDEN
 62
     9
 48
0.1
100
AcDbSpline
210
0.0
220
0.0
230
1.0
 70
     8
 71
     3
 72
    34
 73
    30
 74
     0
 42
0.0000000001
 43
0.0000000001
 40
0.0
 40
0.0
 40
0.0
 40
0.0
 40
0.7202671860568805
 40
0.7202671860568805
 40
1.407304589324429
 40
1.407304589324429
 40
2.094341992591977
 40
2.094341992591977
 40
3.468416799127075
 40
3.468416799127075
 40
6.21656641219727
 40
6.21656641219727
 40
10.25029881379412
 40
10.25029881379412
 40
14.28403121539098
 40
14.28403121539098
 40
18.79136158017507
 40
18.79136158017507
 40
21.77264554717882
 40
21.77264554717882
 40
24.75392951418257
 40
24.75392951418257
 40
31.63684495707669
 40
31.63684495707669
 40
35.36782643122476
 40
35.36782643122476
 40
39.09880790537283
 40
39.09880790537283
 40
46.03594618862999
 40
46.03594618862999
 40
46.03594618862999
 40
46.03594618862999
 10
-16.74084881485015
 20
5.381703099763257
 30
0.0
 10
-16.73859205283595
 20
5.621711250612325
 30
0.0
 10
-16.73657651329892
 20
5.849525243500583
 30
0.0
 10
-16.74141230848531
 20
6.27129507356032
 30
0.0
 10
-16.74818328013934
 20
6.471009995458253
 30
0.0
 10
-16.77124054969945
 20
6.908132987346352
 30
0.0
 10
-16.78740179746543
 20
7.111408315018117
 30
0.0
 10
-16.84958617153205
 20
7.721564048417967
 30
0.0
 10
-16.90931566436393
 20
8.128777588212454
 30
0.0
 10
-17.14154817802602
 20
9.346088891448584
 30
0.0
 10
-17.36718373878625
 20
10.15186006582518
 30
0.0
 10
-18.08440221065841
 20
12.08793567408094
 30
0.0
 10
-18.65042523205858
 20
13.1921593507263
 30
0.0
 10
-20.01954419365985
 20
15.49744862880696
 30
0.0
 10
-20.82873877305931
 20
16.43176145616626
 30
0.0
 10
-22.74689556984532
 20
18.22658233807816
 30
0.0
 10
-23.87990678639279
 20
19.06514996600626
 30
0.0
 10
-25.88677456857368
 20
20.2562678239912
 30
0.0
 10
-26.71684890167515
 20
20.67634232903349
 30
0.0
 10
-28.42054343985147
 20
21.40770005159265
 30
0.0
 10
-29.29693384363995
 20
21.72112472996496
 30
0.0
 10
-32.26460909060087
 20
22.61228774185923
 30
0.0
 10
-34.44570736609908
 20
22.99819281083409
 30
0.0
 10
-37.87575964796493
 20
23.38897091289698
 30
0.0
 10
-39.09262860098728
 20
23.48893720648697
 30
0.0
 10
-41.52844484864263
 20
23.63702523033207
 30
0.0
 10
-42.7500979693448
 20
23.68450533664503
 30
0.0
 10
-46.25603332329441
 20
23.77127424235593
 30
0.0
 10
-48.55309268219876
 20
23.76873642091373
 30
0.0
 10
-50.74060973738832
 20
23.76841651849304
 30
0.0
  0
SPLINE
  5
41
330
2
100
AcDbEntity
  8
0
 48
0.1
100
AcDbSpline
210
0.0
220
0.0
230
1.0
 70
     8
 71
     3
 72
    30
 73
    26
 74
     0
 42
0.0000000001
 43
0.0000000001
 40
0.0
 40
0.0
 40
0.0
 40
0.0
 40
0.65850966288644
 40
0.65850966288644
 40
1.686762086004492
 40
1.686762086004492
 40
2.715014509122544
 40
2.715014509122544
 40
4.771519355358648
 40
4.771519355358648
 40
8.884529047830858
 40
8.884529047830858
 40
12.99753874030306
 40
12.99753874030306
 40
17.07270937996305
 40
17.07270937996305
 40
20.30846714683578
 40
20.30846714683578
 40
23.54422491370852
 40
23.54422491370852
 40
28.25098257408893
 40
28.25098257408893
 40
36.78596721372972
 40
36.78596721372972
 40
38.53625931349068
 40
38.53625931349068
 40
38.53625931349068
 40
38.53625931349068
 10
-19.24044194437514
 20
5.402934955770735
 30
0.0
 10
-19.23738017692741
 20
5.622380528208385
 30
0.0
 10
-19.23420243921973
 20
5.846145641478468
 30
0.0
 10
-19.24117824364608
 20
6.430614104236038
 30
0.0
 10
-19.26286787111038
 20
6.824722332612118
 30
0.0
 10
-19.34246045816989
 20
7.542079381583324
 30
0.0
 10
-19.39979873052718
 20
7.899360738393067
 30
0.0
 10
-19.62114344363139
 20
8.962914171606843
 30
0.0
 10
-19.83444169371709
 20
9.66088720478509
 30
0.0
 10
-20.6465280007113
 20
11.68968394846712
 30
0.0
 10
-21.41830167951352
 20
12.95513372322845
 30
0.0
 10
-23.2937072942672
 20
15.42232640900314
 30
0.0
 10
-24.39424198335124
 20
16.35267880731459
 30
0.0
 10
-26.78115880918806
 20
17.91507930621254
 30
0.0
 10
-28.06593545460771
 20
18.55014416458665
 30
0.0
 10
-30.44019236112085
 20
19.46724636269552
 30
0.0
 10
-31.51326364244736
 20
19.79403089558349
 30
0.0
 10
-33.66332717560352
 20
20.31404941551748
 30
0.0
 10
-34.74387516982114
 20
20.50882440716566
 30
0.0
 10
-37.40153128775097
 20
20.874433049347
 30
0.0
 10
-38.9810777999893
 20
20.99421500606499
 30
0.0
 10
-43.41259516752923
 20
21.22446985922058
 30
0.0
 10
-46.26529224333738
 20
21.25931491560178
 30
0.0
 10
-49.57301965258374
 20
21.26819967658693
 30
0.0
 10
-50.15713521843635
 20
21.26845613058706
 30
0.0
 10
-50.74056286879831
 20
21.26841650059502
 30
0.0
  0
SPLINE
  5
42
330
2
100
AcDbEntity
  8
0
 48
0.1
100
AcDbSpline
210
0.0
220
0.0
230
1.0
 70
     8
 71
     3
 72
    28
 73
    24
 74
     0
 42
0.0000000001
 43
0.0000000001
 40
0.0
 40
0.0
 40
0.0
 40
0.0
 40
0.7458422934298273
 40
0.7458422934298273
 40
2.237526880289482
 40
2.237526880289482
 40
3.729211467149136
 40
3.729211467149136
 40
6.712580640868445
 40
6.712580640868445
 40
10.19805190813185
 40
10.19805190813185
 40
17.2409917824957
 40
17.2409917824957
 40
21.00408532965903
 40
21.00408532965903
 40
28.53027242398571
 40
28.53027242398571
 40
33.29652586606716
 40
33.29652586606716
 40
45.00490183092826
 40
45.00490183092826
 40
46.03594618862999
 40
46.03594618862999
 40
46.03594618862999
 40
46.03594618862999
 10
-15.49058115155223
 20
5.369950049666364
 30
0.0
 10
-15.48824425687068
 20
5.618480363328334
 30
0.0
 10
-15.48598405112684
 20
5.863274331882998
 30
0.0
 10
-15.49537407896819
 20
6.587111847406447
 30
0.0
 10
-15.52547846339384
 20
7.098812494052275
 30
0.0
 10
-15.63256973785907
 20
8.061517980364527
 30
0.0
 10
-15.70937999656419
 20
8.54206017403273
 30
0.0
 10
-16.00666150790911
 20
9.974274026903913
 30
0.0
 10
-16.29401787310687
 20
10.91653111130231
 30
0.0
 10
-17.09249381121122
 20
12.89178842420549
 30
0.0
 10
-17.63300455243675
 20
13.91304346673432
 30
0.0
 10
-19.55767096407558
 20
17.05990609761951
 30
0.0
 10
-21.24500845755215
 20
18.69943341642186
 30
0.0
 10
-24.17797500494327
 20
20.73551986539528
 30
0.0
 10
-25.26312929493697
 20
21.35523532058631
 30
0.0
 10
-28.62588344201076
 20
22.93105859852066
 30
0.0
 10
-31.01525678947135
 20
23.60321088844607
 30
0.0
 10
-35.01984422241056
 20
24.32981938178662
 30
0.0
 10
-36.59734318067313
 20
24.52040679997959
 30
0.0
 10
-42.05393185713353
 20
24.99858756840314
 30
0.0
 10
-45.93375217881778
 20
25.01741670619415
 30
0.0
 10
-50.05312194915979
 20
25.01851157642053
 30
0.0
 10
-50.39675783045822
 20
25.01846405259163
 30
0.0
 10
-50.74045973814496
 20
25.01841650653266
 30
0.0
  0
SPLINE
  5
43
330
2
100
AcDbEntity
  8
0
 48
0.1
100
AcDbSpline
210
0.0
220
0.0
230
1.0
 70
     8
 71
     3
 72
    13
 73
     9
 74
     7
 42
0.0000000001
 43
0.0000000001
 44
0.0000000001
 40
0.0
 40
0.0
 40
0.0
 40
0.0
 40
0.8372418225556401
 40
8.307832755571533
 40
19.18343953945392
 40
28.81888722286724
 40
38.24570554838171
 40
38.59128321610513
 40
38.59128321610513
 40
38.59128321610513
 40
38.59128321610513
 10
-19.74039328490624
 20
5.409910419995803
 30
0.0
 10
-19.73648124632216
 20
5.688997193491138
 30
0.0
 10
-19.6976626381085
 20
8.458335962801397
 30
0.0
 10
-22.27634045519744
 20
14.84875141492418
 30
0.0
 10
-30.89941848459103
 20
19.88098516173142
 30
0.0
 10
-40.90648178207715
 20
20.7107977895425
 30
0.0
 10
-47.36782163489613
 20
20.76877704880627
 30
0.0
 10
-50.62533466312064
 20
20.76842881617189
 30
0.0
 10
-50.74052890572516
 20
20.76841650174851
 30
0.0
 11
-19.74039328490624
 21
5.409910419995803
 31
0.0
 11
-19.74039328490624
 21
6.247152242551443
 31
0.0
 11
-22.34717517622196
 21
13.24818195678403
 31
0.0
 11
-31.43205853711451
 21
19.22678691418057
 31
0.0
 11
-40.96970737446022
 21
20.59613227429728
 31
0.0
 11
-50.39495123800173
 21
20.76841650174851
 31
0.0
 11
-50.74052890572516
 21
20.76841650174851
 31
0.0
  0
SPLINE
  5
44
330
2
100
AcDbEntity
  8
0
 48
0.1
100
AcDbSpline
210
0.0
220
0.0
230
1.0
 70
     8
 71
     3
 72
    12
 73
     8
 74
     6
 42
0.0000000001
 43
0.0000000001
 44
0.0000000001
 40
0.0
 40
0.0
 40
0.0
 40
0.0
 40
0.0839939960667664
 40
5.520357907081309
 40
18.39474169333698
 40
27.43463241644484
 40
28.60501948309933
 40
28.60501948309933
 40
28.60501948309933
 40
28.60501948309933
 10
-28.24052890572538
 20
5.364243401270204
 30
0.0
 10
-28.240500696521
 20
5.392234248143275
 30
0.0
 10
-28.23864669609557
 20
7.231883509964744
 30
0.0
 10
-29.45055088585089
 20
13.67071540548792
 30
0.0
 10
-39.45767641191482
 20
17.86285403093301
 30
0.0
 10
-46.94286694293174
 20
17.79800609201605
 30
0.0
 10
-50.34997751871433
 20
17.79914555550894
 30
0.0
 10
-50.74052890572517
 20
17.79927617030342
 30
0.0
 11
-28.24052890572538
 21
5.364243401270204
 31
0.0
 11
-28.24052890572538
 21
5.448237397336971
 31
0.0
 11
-29.44471794617463
 21
10.74955622644386
 31
0.0
 11
-40.54575637778412
 21
17.27003961463927
 31
0.0
 11
-49.57014183907067
 21
17.79927617030342
 31
0.0
 11
-50.74052890572517
 21
17.79927617030342
 31
0.0
  0
SPLINE
  5
45
330
2
100
AcDbEntity
  8
0
  6
HIDDEN
 62
     9
 48
0.1
100
AcDbSpline
210
0.0
220
0.0
230
1.0
 70
     8
 71
     3
 72
    11
 73
     7
 74
     5
 42
0.0000000001
 43
0.0000000001
 44
0.0000000001
 40
0.0
 40
0.0
 40
0.0
 40
0.0
 40
1.569490651265923
 40
6.053993196672913
 40
8.928870018187922
 40
16.32809118261637
 40
16.32809118261637
 40
16.32809118261637
 40
16.32809118261637
 10
-50.74036765085755
 20
-10.29225857831874
 30
0.0
 10
-50.2177188779121
 20
-10.28779524846995
 30
0.0
 10
-48.20170679583373
 20
-10.27057885503857
 30
0.0
 10
-45.19445613705966
 20
-10.53902029174568
 30
0.0
 10
-40.60933447704146
 20
-12.50816771445566
 30
0.0
 10
-37.11110581431478
 20
-12.0654338223243
 30
0.0
 10
-34.59174425141446
 20
-11.74658481101937
 30
0.0
 11
-50.74036765085755
 21
-10.29225857831874
 31
0.0
 11
-49.17087699959163
 21
-10.29225857831874
 31
0.0
 11
-44.72372734977287
 21
-10.8698597139467
 31
0.0
 11
-41.99094826521886
 21
-11.76251598256771
 31
0.0
 11
-34.59174425141446
 21
-11.74658481101937
 31
0.0
  0
LINE
  5
46
330
2
100
AcDbEntity
  8
CENTER
 48
0.1
100
AcDbLine
 10
-45.36189803236436
 20
-2.761146930174898
 30
0.0
 11
-56.11883726935059
 21
-2.761146930174913
 31
0.0
  0
CIRCLE
  5
49
330
2
100
AcDbEntity
  8
0
 48
0.1
100
AcDbCircle
 10
-50.74036765085748
 20
-2.761146930174906
 30
0.0
 40
1.25
  0
CIRCLE
  5
4A
330
2
100
AcDbEntity
  8
0
 48
0.1
100
AcDbCircle
 10
-50.74036765085748
 20
-2.761146930174906
 30
0.0
 40
1.89014635623478
  0
LINE
  5
4B
330
2
100
AcDbEntity
  8
CENTER
 48
0.1
100
AcDbLine
 10
-50.74036765085737
 20
2.442135825945217
 30
0.0
 11
-50.74036765085757
 21
-7.933179686295028
 31
0.0
  0
LINE
  5
4C
330
2
100
AcDbEntity
  8
0
  6
HIDDEN
 62
     9
 48
0.1
100
AcDbLine
 10
-47.57093211147704
 20
1.155686172064267
 30
0.0
 11
-47.57093211147706
 21
3.650488262559694
 31
0.0
  0
CIRCLE
  5
4D
330
2
100
AcDbEntity
  8
0
  6
HIDDEN
 62
     9
 48
0.1
100
AcDbCircle
 10
-50.74036765085738
 20
2.403087217311981
 30
0.0
 40
1.25
  0
LINE
  5
4E
330
2
100
AcDbEntity
  8
0
  6
HIDDEN
 62
     9
 48
0.1
100
AcDbLine
 10
-47.57093211147704
 20
1.155686172064267
 30
0.0
 11
-50.74036765085738
 21
1.153087217311981
 31
0.0
  0
LINE
  5
4F
330
2
100
AcDbEntity
  8
0
  6
HIDDEN
 62
     9
 48
0.1
100
AcDbLine
 10
-47.57093211147706
 20
3.650488262559694
 30
0.0
 11
-50.74036765085738
 21
3.653087217311981
 31
0.0
  0
ENDSEC
  0
SECTION
  2
OBJECTS
  0
DICTIONARY
  5
7
330
0
100
AcDbDictionary
  3
ACAD_GROUP
350
26
  3
ACAD_LAYOUT
350
B
  3
ACAD_MLINESTYLE
350
27
  3
ACAD_PLOTSETTINGS
350
28
  3
ACAD_PLOTSTYLENAME
350
6
  3
ACDBHEADERROUNDTRIPXREC
350
F7
  3
ACDBVARIABLEDICTIONARY
350
50
  3
ASE_INDEX_DICTIONARY
350
5D
  0
DICTIONARY
  5
11
330
10
100
AcDbDictionary
280
     1
  3
ACAD_LAYERFILTERS
360
12
  0
DICTIONARY
  5
66
330
2
100
AcDbDictionary
280
     1
  3
ACAD_LAYOUTSELFREF
360
118
  0
DICTIONARY
  5
68
330
57
100
AcDbDictionary
280
     1
  3
ACAD_LAYOUTSELFREF
360
119
  0
DICTIONARY
  5
26
102
{ACAD_REACTORS
330
7
102
}
330
7
100
AcDbDictionary
  0
DICTIONARY
  5
B
102
{ACAD_REACTORS
330
7
102
}
330
7
100
AcDbDictionary
  0
DICTIONARY
  5
27
102
{ACAD_REACTORS
330
7
102
}
330
7
100
AcDbDictionary
  3
STANDARD
350
2A
  0
DICTIONARY
  5
28
102
{ACAD_REACTORS
330
7
102
}
330
7
100
AcDbDictionary
  0
ACDBDICTIONARYWDFLT
  5
6
102
{ACAD_REACTORS
330
7
102
}
330
7
100
AcDbDictionary
281
     1
  3
Normal
350
5
100
AcDbDictionaryWithDefault
340
5
  0
DICTIONARY
  5
F7
102
{ACAD_REACTORS
330
7
102
}
330
7
100
AcDbDictionary
  3
CEPSNTYPE
350
101
  3
DIMSTYLEDATA
350
105
  3
FINGERPRINTGUID
350
102
  3
HYPERLINKBASE
350
FA
  3
INSUNITS
350
100
  3
LAYOUTDICT
350
FC
  3
LWETCUNION
350
FF
  3
PLOTSETDICT
350
FD
  3
PLOTSTYLNAMDICT
350
FE
  3
PSVPSCALE
350
104
  3
PUCSBASE
350
108
  3
PUCSORGBACK
350
10E
  3
PUCSORGBOTTOM
350
10A
  3
PUCSORGFRONT
350
10D
  3
PUCSORGLEFT
350
10B
  3
PUCSORGRIGHT
350
10C
  3
PUCSORGTOP
350
109
  3
PUCSORTHOREF
350
106
  3
PUCSORTHOVIEW
350
107
  3
STYLESHEET
350
FB
  3
TSTACKALIGN
350
F8
  3
TSTACKSIZE
350
F9
  3
UCSBASE
350
111
  3
UCSORGBACK
350
117
  3
UCSORGBOTTOM
350
113
  3
UCSORGFRONT
350
116
  3
UCSORGLEFT
350
114
  3
UCSORGRIGHT
350
115
  3
UCSORGTOP
350
112
  3
UCSORTHOREF
350
10F
  3
UCSORTHOVIEW
350
110
  3
VERSIONGUID
350
103
  0
DICTIONARY
  5
50
102
{ACAD_REACTORS
330
7
102
}
330
7
100
AcDbDictionary
  3
DIMASSOC
350
52
  3
HIDETEXT
350
51
  0
DICTIONARY
  5
5D
102
{ACAD_REACTORS
330
7
102
}
330
7
100
AcDbDictionary
  3
ASEBLOCKHIERARCHYINDEXRECORD
350
5F
1001
DCO15
1040
1542963624.828
  0
DICTIONARY
  5
12
102
{ACAD_REACTORS
330
11
102
}
330
11
100
AcDbDictionary
280
     1
  3
DIM-1_12
360
13
  3
DIM-1_16
360
14
  0
XRECORD
  5
118
102
{ACAD_REACTORS
330
66
102
}
330
66
100
AcDbXrecord
340
2
  0
XRECORD
  5
119
102
{ACAD_REACTORS
330
68
102
}
330
68
100
AcDbXrecord
340
57
  0
MLINESTYLE
  5
2A
102
{ACAD_REACTORS
330
27
102
}
330
27
100
AcDbMlineStyle
  2
STANDARD
 70
     0
  3

 62
   256
 51
90.0
 52
90.0
 71
     2
 49
0.5
 62
   256
  6
BYLAYER
 49
-0.5
 62
   256
  6
BYLAYER
  0
ACDBPLACEHOLDER
  5
5
102
{ACAD_REACTORS
330
6
102
}
330
6
100
AcDbPlaceHolder
280
     0
  0
XRECORD
  5
101
102
{ACAD_REACTORS
330
F7
102
}
330
F7
100
AcDbXrecord
 90
        0
  0
XRECORD
  5
105
102
{ACAD_REACTORS
330
F7
102
}
330
F7
100
AcDbXrecord
1000
DSTYLE
1002
{
1070
    79
 70
     1
1070
   276
 70
     1
1070
   277
 70
     5
1070
   289
 70
     1
1002
}
  0
XRECORD
  5
102
102
{ACAD_REACTORS
330
F7
102
}
330
F7
100
AcDbXrecord
  1
{6A4AC8E0-4F58-11D5-8420-0003476D26AB}
  0
XRECORD
  5
FA
102
{ACAD_REACTORS
330
F7
102
}
330
F7
100
AcDbXrecord
  1

  0
XRECORD
  5
100
102
{ACAD_REACTORS
330
F7
102
}
330
F7
100
AcDbXrecord
 90
        1
  0
XRECORD
  5
FC
102
{ACAD_REACTORS
330
F7
102
}
330
F7
100
AcDbXrecord
340
B
  0
XRECORD
  5
FF
102
{ACAD_REACTORS
330
F7
102
}
330
F7
100
AcDbXrecord
 90
    10781
  0
XRECORD
  5
FD
102
{ACAD_REACTORS
330
F7
102
}
330
F7
100
AcDbXrecord
340
28
  0
XRECORD
  5
FE
102
{ACAD_REACTORS
330
F7
102
}
330
F7
100
AcDbXrecord
340
6
  0
XRECORD
  5
104
102
{ACAD_REACTORS
330
F7
102
}
330
F7
100
AcDbXrecord
 40
0.0
  0
XRECORD
  5
108
102
{ACAD_REACTORS
330
F7
102
}
330
F7
100
AcDbXrecord
340
0
  0
XRECORD
  5
10E
102
{ACAD_REACTORS
330
F7
102
}
330
F7
100
AcDbXrecord
 10
0.0
 20
0.0
 30
0.0
  0
XRECORD
  5
10A
102
{ACAD_REACTORS
330
F7
102
}
330
F7
100
AcDbXrecord
 10
0.0
 20
0.0
 30
0.0
  0
XRECORD
  5
10D
102
{ACAD_REACTORS
330
F7
102
}
330
F7
100
AcDbXrecord
 10
0.0
 20
0.0
 30
0.0
  0
XRECORD
  5
10B
102
{ACAD_REACTORS
330
F7
102
}
330
F7
100
AcDbXrecord
 10
0.0
 20
0.0
 30
0.0
  0
XRECORD
  5
10C
102
{ACAD_REACTORS
330
F7
102
}
330
F7
100
AcDbXrecord
 10
0.0
 20
0.0
 30
0.0
  0
XRECORD
  5
109
102
{ACAD_REACTORS
330
F7
102
}
330
F7
100
AcDbXrecord
 10
0.0
 20
0.0
 30
0.0
  0
XRECORD
  5
106
102
{ACAD_REACTORS
330
F7
102
}
330
F7
100
AcDbXrecord
340
0
  0
XRECORD
  5
107
102
{ACAD_REACTORS
330
F7
102
}
330
F7
100
AcDbXrecord
 70
     0
  0
XRECORD
  5
FB
102
{ACAD_REACTORS
330
F7
102
}
330
F7
100
AcDbXrecord
  1

  0
XRECORD
  5
F8
102
{ACAD_REACTORS
330
F7
102
}
330
F7
100
AcDbXrecord
 90
        1
  0
XRECORD
  5
F9
102
{ACAD_REACTORS
330
F7
102
}
330
F7
100
AcDbXrecord
 90
       70
  0
XRECORD
  5
111
102
{ACAD_REACTORS
330
F7
102
}
330
F7
100
AcDbXrecord
340
0
  0
XRECORD
  5
117
102
{ACAD_REACTORS
330
F7
102
}
330
F7
100
AcDbXrecord
 10
0.0
 20
0.0
 30
0.0
  0
XRECORD
  5
113
102
{ACAD_REACTORS
330
F7
102
}
330
F7
100
AcDbXrecord
 10
0.0
 20
0.0
 30
0.0
  0
XRECORD
  5
116
102
{ACAD_REACTORS
330
F7
102
}
330
F7
100
AcDbXrecord
 10
0.0
 20
0.0
 30
0.0
  0
XRECORD
  5
114
102
{ACAD_REACTORS
330
F7
102
}
330
F7
100
AcDbXrecord
 10
0.0
 20
0.0
 30
0.0
  0
XRECORD
  5
115
102
{ACAD_REACTORS
330
F7
102
}
330
F7
100
AcDbXrecord
 10
0.0
 20
0.0
 30
0.0
  0
XRECORD
  5
112
102
{ACAD_REACTORS
330
F7
102
}
330
F7
100
AcDbXrecord
 10
0.0
 20
0.0
 30
0.0
  0
XRECORD
  5
10F
102
{ACAD_REACTORS
330
F7
102
}
330
F7
100
AcDbXrecord
340
0
  0
XRECORD
  5
110
102
{ACAD_REACTORS
330
F7
102
}
330
F7
100
AcDbXrecord
 70
     1
  0
XRECORD
  5
103
102
{ACAD_REACTORS
330
F7
102
}
330
F7
100
AcDbXrecord
  1
{4C8771A5-ADDA-43E9-8F18-EE7E9AE5EB1C}
  0
DICTIONARYVAR
  5
52
102
{ACAD_REACTORS
330
50
102
}
330
50
100
DictionaryVariables
280
     0
  1
1
  0
DICTIONARYVAR
  5
51
102
{ACAD_REACTORS
330
50
102
}
330
50
100
DictionaryVariables
280
     0
  1
1
  0
XRECORD
  5
5F
102
{ACAD_REACTORS
330
5D
102
}
330
5D
100
AcDbXrecord
  0
XRECORD
  5
13
102
{ACAD_REACTORS
330
12
102
}
330
12
100
AcDbXrecord
  1
DIM-1_12
  1
DIM-1_12
  1
*
  1
*
 70
     0
  1
*
  1
*
  0
XRECORD
  5
14
102
{ACAD_REACTORS
330
12
102
}
330
12
100
AcDbXrecord
  1
dim-1_16
  1
*
  1
*
  1
*
 70
     0
  1
*
  1
*
  0
ENDSEC
  0
EOF
