  0
SECTION
  2
HEADER
  9
$ACADVER
  1
AC1014
  9
$ACADMAINTVER
 70
     9
  9
$DWGCODEPAGE
  3
ANSI_1252
  9
$INSBASE
 10
-50.32737631349665
 20
-77.63868604588896
 30
0.0
  9
$EXTMIN
 10
-86.08306984247224
 20
-79.7102910877752
 30
-0.0015258207003583
  9
$EXTMAX
 10
-14.56688987500047
 20
-52.13552858709454
 30
0.0000000349246037
  9
$LIMMIN
 10
0.0
 20
0.0
  9
$LIMMAX
 10
100.5024158491978
 20
51.69854817198938
  9
$ORTHOMODE
 70
     1
  9
$REGENMODE
 70
     1
  9
$FILLMODE
 70
     1
  9
$QTEXTMODE
 70
     0
  9
$MIRRTEXT
 70
     1
  9
$DRAGMODE
 70
     2
  9
$LTSCALE
 40
2.0
  9
$OSMODE
 70
    55
  9
$ATTMODE
 70
     1
  9
$TEXTSIZE
 40
0.1
  9
$TRACEWID
 40
1.0
  9
$TEXTSTYLE
  7
CARTOUCHE
  9
$CLAYER
  8
0
  9
$CELTYPE
  6
BYLAYER
  9
$CECOLOR
 62
   256
  9
$CELTSCALE
 40
1.0
  9
$DELOBJ
 70
     1
  9
$DISPSILH
 70
     0
  9
$DIMSCALE
 40
16.0
  9
$DIMASZ
 40
0.1
  9
$DIMEXO
 40
0.0625
  9
$DIMDLI
 40
0.25
  9
$DIMRND
 40
0.0
  9
$DIMDLE
 40
0.0
  9
$DIMEXE
 40
0.1
  9
$DIMTP
 40
0.0
  9
$DIMTM
 40
0.0
  9
$DIMTXT
 40
0.1
  9
$DIMCEN
 40
0.09
  9
$DIMTSZ
 40
0.0
  9
$DIMTOL
 70
     0
  9
$DIMLIM
 70
     0
  9
$DIMTIH
 70
     1
  9
$DIMTOH
 70
     1
  9
$DIMSE1
 70
     0
  9
$DIMSE2
 70
     0
  9
$DIMTAD
 70
     0
  9
$DIMZIN
 70
     4
  9
$DIMBLK
  1

  9
$DIMASO
 70
     1
  9
$DIMSHO
 70
     1
  9
$DIMPOST
  1
\X
  9
$DIMAPOST
  1
cm
  9
$DIMALT
 70
     1
  9
$DIMALTD
 70
     1
  9
$DIMALTF
 40
2.54
  9
$DIMLFAC
 40
1.0
  9
$DIMTOFL
 70
     0
  9
$DIMTVP
 40
0.0
  9
$DIMTIX
 70
     0
  9
$DIMSOXD
 70
     0
  9
$DIMSAH
 70
     0
  9
$DIMBLK1
  1

  9
$DIMBLK2
  1

  9
$DIMSTYLE
  2
STANDARD
  9
$DIMCLRD
 70
     0
  9
$DIMCLRE
 70
     0
  9
$DIMCLRT
 70
     0
  9
$DIMTFAC
 40
1.0
  9
$DIMGAP
 40
0.08
  9
$DIMJUST
 70
     0
  9
$DIMSD1
 70
     0
  9
$DIMSD2
 70
     0
  9
$DIMTOLJ
 70
     1
  9
$DIMTZIN
 70
     4
  9
$DIMALTZ
 70
     4
  9
$DIMALTTZ
 70
     4
  9
$DIMFIT
 70
     1
  9
$DIMUPT
 70
     0
  9
$DIMUNIT
 70
     5
  9
$DIMDEC
 70
     3
  9
$DIMTDEC
 70
     3
  9
$DIMALTU
 70
     2
  9
$DIMALTTD
 70
     1
  9
$DIMTXSTY
  7
ROMANS
  9
$DIMAUNIT
 70
     0
  9
$LUNITS
 70
     2
  9
$LUPREC
 70
     2
  9
$SKETCHINC
 40
1.0
  9
$FILLETRAD
 40
2.0
  9
$AUNITS
 70
     0
  9
$AUPREC
 70
     0
  9
$MENU
  1
.
  9
$ELEVATION
 40
0.0
  9
$PELEVATION
 40
0.0
  9
$THICKNESS
 40
0.0
  9
$LIMCHECK
 70
     0
  9
$BLIPMODE
 70
     0
  9
$CHAMFERA
 40
0.0
  9
$CHAMFERB
 40
0.0
  9
$CHAMFERC
 40
20.0
  9
$CHAMFERD
 40
0.0
  9
$SKPOLY
 70
     0
  9
$TDCREATE
 40
2452062.301426851
  9
$TDUPDATE
 40
2453686.472055277
  9
$TDINDWG
 40
2.2059157060
  9
$TDUSRTIMER
 40
2.2059157060
  9
$USRTIMER
 70
     1
  9
$ANGBASE
 50
0.0
  9
$ANGDIR
 70
     0
  9
$PDMODE
 70
    34
  9
$PDSIZE
 40
-5.0
  9
$PLINEWID
 40
0.0
  9
$COORDS
 70
     1
  9
$SPLFRAME
 70
     0
  9
$SPLINETYPE
 70
     6
  9
$SPLINESEGS
 70
     8
  9
$ATTDIA
 70
     0
  9
$ATTREQ
 70
     1
  9
$HANDLING
 70
 22529
  9
$HANDSEED
  5
C9
  9
$SURFTAB1
 70
     6
  9
$SURFTAB2
 70
     6
  9
$SURFTYPE
 70
     6
  9
$SURFU
 70
     6
  9
$SURFV
 70
     6
  9
$UCSNAME
  2

  9
$UCSORG
 10
0.0
 20
0.0
 30
0.0
  9
$UCSXDIR
 10
1.0
 20
0.0
 30
0.0
  9
$UCSYDIR
 10
0.0
 20
1.0
 30
0.0
  9
$PUCSNAME
  2

  9
$PUCSORG
 10
0.0
 20
0.0
 30
0.0
  9
$PUCSXDIR
 10
1.0
 20
0.0
 30
0.0
  9
$PUCSYDIR
 10
0.0
 20
1.0
 30
0.0
  9
$USERI1
 70
     0
  9
$USERI2
 70
     0
  9
$USERI3
 70
     0
  9
$USERI4
 70
     0
  9
$USERI5
 70
     0
  9
$USERR1
 40
0.0
  9
$USERR2
 40
0.0
  9
$USERR3
 40
0.0
  9
$USERR4
 40
0.0
  9
$USERR5
 40
0.0
  9
$WORLDVIEW
 70
     1
  9
$SHADEDGE
 70
     3
  9
$SHADEDIF
 70
    70
  9
$TILEMODE
 70
     1
  9
$MAXACTVP
 70
    64
  9
$PINSBASE
 10
0.0
 20
0.0
 30
0.0
  9
$PLIMCHECK
 70
     0
  9
$PEXTMIN
 10
0.0
 20
0.0
 30
0.0
  9
$PEXTMAX
 10
0.0
 20
0.0
 30
0.0
  9
$PLIMMIN
 10
0.0
 20
0.0
  9
$PLIMMAX
 10
12.0
 20
9.0
  9
$UNITMODE
 70
     0
  9
$VISRETAIN
 70
     1
  9
$PLINEGEN
 70
     0
  9
$PSLTSCALE
 70
     1
  9
$TREEDEPTH
 70
  3020
  9
$PICKSTYLE
 70
     1
  9
$CMLSTYLE
  2
STANDARD
  9
$CMLJUST
 70
     0
  9
$CMLSCALE
 40
20.0
  9
$PROXYGRAPHICS
 70
     1
  9
$MEASUREMENT
 70
     0
  0
ENDSEC
  0
SECTION
  2
CLASSES
  0
CLASS
  1
ACDBDICTIONARYWDFLT
  2
AcDbDictionaryWithDefault
  3
AutoCAD 2000
 90
        0
280
     0
281
     0
  0
CLASS
  1
ACDBPLACEHOLDER
  2
AcDbPlaceHolder
  3
AutoCAD 2000
 90
        0
280
     0
281
     0
  0
CLASS
  1
LAYOUT
  2
AcDbLayout
  3
AutoCAD 2000
 90
        0
280
     0
281
     0
  0
CLASS
  1
DICTIONARYVAR
  2
AcDbDictionaryVar
  3
AutoCAD 2000
 90
        0
280
     0
281
     0
  0
CLASS
  1
IMAGEDEF
  2
AcDbRasterImageDef
  3
ISM
 90
        0
280
     0
281
     0
  0
CLASS
  1
LONG_TRANSACTION
  2
AcDbLongTransaction
  3
AutoCAD 2000
 90
        0
280
     0
281
     0
  0
CLASS
  1
LWPOLYLINE
  2
AcDbPolyline
  3
AutoCAD 2000
 90
        0
280
     0
281
     1
  0
CLASS
  1
HATCH
  2
AcDbHatch
  3
AutoCAD 2000
 90
        0
280
     0
281
     1
  0
CLASS
  1
XRECORD
  2
AcDbXrecord
  3
AutoCAD 2000
 90
        0
280
     0
281
     0
  0
ENDSEC
  0
SECTION
  2
TABLES
  0
TABLE
  2
VPORT
  5
1D
330
0
100
AcDbSymbolTable
 70
     3
  0
VPORT
  5
A3
330
1D
100
AcDbSymbolTableRecord
100
AcDbViewportTableRecord
  2
*ACTIVE
 70
     0
 10
0.0
 20
0.0
 11
1.0
 21
1.0
 12
-50.32497998235583
 22
-65.92290989789967
 13
0.0
 23
0.0
 14
10.0
 24
10.0
 15
10.0
 25
10.0
 16
0.0
 26
0.0
 36
1.0
 17
0.0
 27
0.0
 37
0.0
 40
47.12526805245156
 41
1.786792452830188
 42
50.0
 43
0.0
 44
0.0
 50
0.0
 51
0.0
 71
     0
 72
   100
 73
     1
 74
     3
 75
     0
 76
     0
 77
     0
 78
     2
  0
ENDTAB
  0
TABLE
  2
LTYPE
  5
18
330
0
100
AcDbSymbolTable
 70
     3
  0
LTYPE
  5
19
330
18
100
AcDbSymbolTableRecord
100
AcDbLinetypeTableRecord
  2
BYBLOCK
 70
     0
  3

 72
    65
 73
     0
 40
0.0
  0
LTYPE
  5
1A
330
18
100
AcDbSymbolTableRecord
100
AcDbLinetypeTableRecord
  2
BYLAYER
 70
     0
  3

 72
    65
 73
     0
 40
0.0
  0
LTYPE
  5
8
330
18
100
AcDbSymbolTableRecord
100
AcDbLinetypeTableRecord
  2
CONTINUOUS
 70
     0
  3
Solid line
 72
    65
 73
     0
 40
0.0
  0
LTYPE
  5
3C
330
18
100
AcDbSymbolTableRecord
100
AcDbLinetypeTableRecord
  2
CENTER
 70
     0
  3
Center ____ _ ____ _ ____ _ ____ _ ____ _ ____
 72
    65
 73
     4
 40
50.8
 49
31.75
 74
     0
 49
-6.349999999999999
 74
     0
 49
6.349999999999999
 74
     0
 49
-6.349999999999999
 74
     0
  0
LTYPE
  5
2D
330
18
100
AcDbSymbolTableRecord
100
AcDbLinetypeTableRecord
  2
HIDDEN
 70
     0
  3
Hidden __ __ __ __ __ __ __ __ __ __ __ __ __ _
 72
    65
 73
     2
 40
9.524999999999998
 49
6.349999999999999
 74
     0
 49
-3.174999999999999
 74
     0
  0
ENDTAB
  0
TABLE
  2
LAYER
  5
10
102
{ACAD_XDICTIONARY
360
11
102
}
330
0
100
AcDbSymbolTable
 70
     2
  0
LAYER
  5
4
330
10
100
AcDbSymbolTableRecord
100
AcDbLayerTableRecord
  2
0
 70
     0
 62
     7
  6
CONTINUOUS
  0
LAYER
  5
3B
330
10
100
AcDbSymbolTableRecord
100
AcDbLayerTableRecord
  2
CENTER
 70
     0
 62
     1
  6
CENTER
  0
ENDTAB
  0
TABLE
  2
STYLE
  5
15
330
0
100
AcDbSymbolTable
 70
     3
  0
STYLE
  5
16
330
15
100
AcDbSymbolTableRecord
100
AcDbTextStyleTableRecord
  2
STANDARD
 70
     0
 40
0.0
 41
1.0
 50
0.0
 71
     0
 42
0.125
  3
txt
  4

  0
STYLE
  5
29
330
15
100
AcDbSymbolTableRecord
100
AcDbTextStyleTableRecord
  2
CARTOUCHE
 70
     0
 40
0.0
 41
1.0
 50
0.0
 71
     0
 42
0.1
  3
romans.shx
  4

  0
STYLE
  5
23
330
15
100
AcDbSymbolTableRecord
100
AcDbTextStyleTableRecord
  2
ROMANS
 70
     0
 40
0.0
 41
1.0
 50
0.0
 71
     0
 42
1.0
  3
romans.shx
  4

  0
ENDTAB
  0
TABLE
  2
VIEW
  5
1B
330
0
100
AcDbSymbolTable
 70
     0
  0
ENDTAB
  0
TABLE
  2
UCS
  5
1C
330
0
100
AcDbSymbolTable
 70
     0
  0
ENDTAB
  0
TABLE
  2
APPID
  5
1F
330
0
100
AcDbSymbolTable
 70
     1
  0
APPID
  5
20
330
1F
100
AcDbSymbolTableRecord
100
AcDbRegAppTableRecord
  2
ACAD
 70
     0
  0
ENDTAB
  0
TABLE
  2
DIMSTYLE
  5
21
330
0
100
AcDbSymbolTable
 70
     2
  0
DIMSTYLE
105
22
330
21
100
AcDbSymbolTableRecord
100
AcDbDimStyleTableRecord
  2
STANDARD
 70
     0
  3
\X
  4
cm
  5

  6

  7

 40
16.0
 41
0.1
 42
0.0625
 43
0.25
 44
0.1
 45
0.0
 46
0.0
 47
0.0
 48
0.0
140
0.1
141
0.09
142
0.0
143
2.54
144
1.0
145
0.0
146
1.0
147
0.08
 71
     0
 72
     0
 73
     1
 74
     1
 75
     0
 76
     0
 77
     0
 78
     4
170
     1
171
     1
172
     0
173
     0
174
     0
175
     0
176
     0
177
     0
178
     0
270
     5
271
     3
272
     3
273
     2
274
     1
340
23
275
     0
280
     0
281
     0
282
     0
283
     1
284
     4
285
     4
286
     4
287
     1
288
     0
  0
ENDTAB
  0
TABLE
  2
BLOCK_RECORD
  5
1
330
0
100
AcDbSymbolTable
 70
     0
  0
BLOCK_RECORD
  5
2
102
{ACAD_XDICTIONARY
360
C5
102
}
330
1
100
AcDbSymbolTableRecord
100
AcDbBlockTableRecord
  2
*MODEL_SPACE
  0
BLOCK_RECORD
  5
C
102
{ACAD_XDICTIONARY
360
C7
102
}
330
1
100
AcDbSymbolTableRecord
100
AcDbBlockTableRecord
  2
*PAPER_SPACE
  0
ENDTAB
  0
ENDSEC
  0
SECTION
  2
BLOCKS
  0
BLOCK
  5
3
330
2
100
AcDbEntity
  8
0
100
AcDbBlockBegin
  2
*MODEL_SPACE
 70
     0
 10
0.0
 20
0.0
 30
0.0
  3
*MODEL_SPACE
  1

  0
ENDBLK
  5
9
330
2
100
AcDbEntity
  8
0
100
AcDbBlockEnd
  0
BLOCK
  5
D
330
C
100
AcDbEntity
 67
     1
  8
0
100
AcDbBlockBegin
  2
*PAPER_SPACE
 70
     0
 10
0.0
 20
0.0
 30
0.0
  3
*PAPER_SPACE
  1

  0
ENDBLK
  5
E
330
C
100
AcDbEntity
 67
     1
  8
0
100
AcDbBlockEnd
  0
ENDSEC
  0
SECTION
  2
ENTITIES
  0
LINE
  5
2B
330
2
100
AcDbEntity
  8
0
100
AcDbLine
 10
-83.64434608060113
 20
-52.13868604588896
 30
0.0
 11
-17.01024529152432
 21
-52.13868604588873
 31
0.0
  0
LINE
  5
2C
330
2
100
AcDbEntity
  8
0
  6
HIDDEN
 48
0.05
100
AcDbLine
 10
-50.32737631349665
 20
-73.13868604588894
 30
0.0
 11
-70.28919580266531
 21
-72.79025119062011
 31
0.0
  0
LINE
  5
2E
330
2
100
AcDbEntity
  8
0
 48
0.1
100
AcDbLine
 10
-14.57737631349665
 20
-54.88868604588898
 30
0.0
 11
-86.07737631349666
 21
-54.88868604588898
 31
0.0
  0
LINE
  5
2F
330
2
100
AcDbEntity
  8
0
 48
0.1
100
AcDbLine
 10
-25.56089211301719
 20
-77.63868604588896
 30
0.0
 11
-75.09386051397609
 21
-77.63868604588896
 31
0.0
  0
LINE
  5
31
330
2
100
AcDbEntity
  8
0
 48
0.75
100
AcDbLine
 10
-72.70237631349664
 20
-77.63868604588896
 30
0.0
 11
-72.70237631349664
 21
-75.68363150972309
 31
0.0
  0
LINE
  5
32
330
2
100
AcDbEntity
  8
0
 48
0.75
100
AcDbLine
 10
-73.20237631349664
 20
-77.63868604588896
 30
0.0
 11
-73.20237631349664
 21
-75.68363150972309
 31
0.0
  0
ARC
  5
33
330
2
100
AcDbEntity
  8
0
100
AcDbCircle
 10
-74.50980915386182
 20
-76.17615272139516
 30
0.0
 40
1.57483958437239
100
AcDbArc
 50
184.9274796958541
 51
248.2310856769598
  0
SPLINE
  5
34
330
2
100
AcDbEntity
  8
0
100
AcDbSpline
210
0.0
220
0.0
230
1.0
 70
     8
 71
     3
 72
    10
 73
     6
 74
     0
 42
0.0000000001
 43
0.0000000001
 40
0.0
 40
0.0
 40
0.0
 40
0.0
 40
8.768238813899515
 40
21.34600422696484
 40
23.283664963201
 40
23.283664963201
 40
23.283664963201
 40
23.283664963201
 10
-84.32737631349667
 20
-54.88868604588898
 30
0.0
 10
-84.32737631349667
 20
-54.88868604588898
 30
0.0
 10
-77.92537374921824
 20
-63.73455960767177
 30
0.0
 10
-77.10313139911424
 20
-70.92792594969061
 30
0.0
 10
-76.19041403436598
 20
-75.675148970839
 30
0.0
 10
-76.07882846923098
 20
-76.31142320784602
 30
0.0
  0
LINE
  5
35
330
2
100
AcDbEntity
  8
0
  6
HIDDEN
 48
0.05
100
AcDbLine
 10
-81.32758628210103
 20
-53.88868604588896
 30
0.0
 11
-72.93322072225095
 21
-71.10582154551817
 31
0.0
  0
SPLINE
  5
36
330
2
100
AcDbEntity
  8
0
100
AcDbSpline
210
0.0
220
0.0
230
1.0
 70
     8
 71
     3
 72
    11
 73
     7
 74
     0
 42
0.0000000001
 43
0.0000000001
 40
2.905508902230586
 40
2.905508902230918
 40
2.905508902230918
 40
2.905508902230918
 40
4.252032055284468
 40
5.719956877634702
 40
6.429333584659596
 40
7.260754040682666
 40
7.260754040682666
 40
7.260754040682666
 40
7.260754040682666
 10
-83.64434608060113
 20
-52.13868604588896
 30
0.0
 10
-84.10118000873298
 20
-52.1483042832519
 30
0.0
 10
-85.08916424020332
 20
-52.30595906192427
 30
0.0
 10
-85.81104007099566
 20
-53.37416906014627
 30
0.0
 10
-86.06119454199257
 20
-54.09349680934608
 30
0.0
 10
-86.07721505862874
 20
-54.61154589388153
 30
0.0
 10
-86.07721505862874
 20
-54.88868604588923
 30
0.0
  0
LINE
  5
37
330
2
100
AcDbEntity
  8
0
100
AcDbLine
 10
-86.07737631349666
 20
-54.88868604588898
 30
0.0
 11
-86.07737631349669
 21
-54.88868604588896
 31
0.0
  0
LINE
  5
38
330
2
100
AcDbEntity
  8
0
100
AcDbLine
 10
-73.20237631349664
 20
-75.68363150972309
 30
0.0
 11
-72.70237631349664
 21
-75.68363150972309
 31
0.0
  0
ARC
  5
39
330
2
100
AcDbEntity
  8
0
  6
HIDDEN
 48
0.05
100
AcDbCircle
 10
-70.23683858335346
 20
-69.79070810515094
 30
0.0
 40
3.0
100
AcDbArc
 50
206.0
 51
268.9999999999999
  0
LINE
  5
3A
330
2
100
AcDbEntity
  8
CENTER
 48
0.05
100
AcDbLine
 10
-50.32737631349667
 20
-70.81820574526336
 30
0.0
 11
-50.32737631349665
 21
-79.70916634651456
 31
0.0
  0
LINE
  5
3D
330
2
100
AcDbEntity
  8
0
 48
0.75
100
AcDbLine
 10
-27.45237631349664
 20
-77.63868604588896
 30
0.0
 11
-27.45237631349664
 21
-75.68363150972309
 31
0.0
  0
LINE
  5
3F
330
2
100
AcDbEntity
  8
0
 48
0.75
100
AcDbLine
 10
-27.95237631349664
 20
-77.63868604588896
 30
0.0
 11
-27.95237631349664
 21
-75.68363150972309
 31
0.0
  0
LINE
  5
40
330
2
100
AcDbEntity
  8
0
  6
HIDDEN
 48
0.05
100
AcDbLine
 10
-47.18750420603952
 20
-76.51108709113666
 30
0.0
 11
-47.18750420603956
 21
-74.01628500064123
 31
0.0
  0
ARC
  5
41
330
2
100
AcDbEntity
  8
0
  6
HIDDEN
 48
0.05
100
AcDbCircle
 10
-50.43750420603952
 20
-75.26368604588895
 30
0.0
 40
1.25
100
AcDbArc
 50
180.0
 51
273.695364302186
  0
ARC
  5
42
330
2
100
AcDbEntity
  8
0
100
AcDbCircle
 10
-26.14494347313146
 20
-76.17615272139516
 30
0.0
 40
1.574839584372386
100
AcDbArc
 50
291.7689143230401
 51
355.0725203041458
  0
LINE
  5
43
330
2
100
AcDbEntity
  8
0
  6
HIDDEN
 48
0.05
100
AcDbLine
 10
-50.35693974542007
 20
-76.51108709113666
 30
0.0
 11
-47.18750420603952
 21
-76.51108709113666
 31
0.0
  0
LINE
  5
44
330
2
100
AcDbEntity
  8
0
  6
HIDDEN
 48
0.05
100
AcDbLine
 10
-50.32737631349665
 20
-73.13868604588894
 30
0.0
 11
-30.36555682432799
 21
-72.79025119062012
 31
0.0
  0
LINE
  5
45
330
2
100
AcDbEntity
  8
CENTER
 48
0.05
100
AcDbLine
 10
-50.32737631349643
 20
-52.88070574526337
 30
0.0
 11
-50.3273763134964
 21
-61.02166634651457
 31
0.0
  0
CIRCLE
  5
46
330
2
100
AcDbEntity
  8
0
100
AcDbCircle
 10
-50.32737631349665
 20
-56.95118604588897
 30
0.0
 40
1.1875
  0
ARC
  5
47
330
2
100
AcDbEntity
  8
0
  6
HIDDEN
 48
0.05
100
AcDbCircle
 10
-48.47131148072538
 20
-73.60513731230785
 30
0.0
 40
0.4148185677391211
100
AcDbArc
 50
164.1851759009678
 51
262.3719349999902
  0
LINE
  5
48
330
2
100
AcDbEntity
  8
CENTER
 48
0.05
100
AcDbLine
 10
-46.19102287671789
 20
-75.26368604588895
 30
0.0
 11
-54.5819834779691
 21
-75.26368604588897
 31
0.0
  0
ARC
  5
49
330
2
100
AcDbEntity
  8
0
  6
HIDDEN
100
AcDbCircle
 10
-48.24683637075433
 20
-73.57560216056021
 30
0.0
 40
0.5
100
AcDbArc
 50
109.6746738800384
 51
134.9999999999988
  0
ARC
  5
4A
330
2
100
AcDbEntity
  8
0
  6
HIDDEN
 48
0.05
100
AcDbCircle
 10
-51.59009804872776
 20
-73.31531044794035
 30
0.0
 40
0.25
100
AcDbArc
 50
225.0000000000005
 51
270.0
  0
LINE
  5
4B
330
2
100
AcDbEntity
  8
0
  6
HIDDEN
 48
0.05
100
AcDbLine
 10
-51.68750420603952
 20
-75.26368604588896
 30
0.0
 11
-51.69292784541428
 21
-73.54318329167871
 31
0.0
  0
ARC
  5
4C
330
2
100
AcDbEntity
  8
0
100
AcDbCircle
 10
-52.39046650788774
 20
-73.57560216056021
 30
0.0
 40
0.5
100
AcDbArc
 50
45.00000000000115
 51
69.9594794419314
  0
LINE
  5
4D
330
2
100
AcDbEntity
  8
0
100
AcDbLine
 10
-51.7668747440244
 20
-73.49208714323698
 30
0.0
 11
-52.03691311729446
 21
-73.22204876996693
 31
0.0
  0
LINE
  5
4E
330
2
100
AcDbEntity
  8
0
100
AcDbLine
 10
-51.7668747440244
 20
-73.49208714323698
 30
0.0
 11
-52.03691311729446
 21
-73.22204876996692
 31
0.0
  0
LINE
  5
4F
330
2
100
AcDbEntity
  8
0
100
AcDbLine
 10
-49.01542239341431
 20
-73.56328197197107
 30
0.0
 11
-49.01542239341431
 21
-73.56328197197107
 31
0.0
  0
CIRCLE
  5
50
330
2
100
AcDbEntity
  8
0
  6
HIDDEN
 48
0.05
100
AcDbCircle
 10
-50.35693974542007
 20
-75.26368604588896
 30
0.0
 40
0.875
  0
LINE
  5
51
330
2
100
AcDbEntity
  8
0
  6
HIDDEN
 48
0.05
100
AcDbLine
 10
-51.59009804872776
 20
-73.56531044794035
 30
0.0
 11
-49.04720482991431
 21
-73.56531044794035
 31
0.0
  0
ARC
  5
52
330
2
100
AcDbEntity
  8
0
100
AcDbCircle
 10
-49.04720482991431
 20
-73.31531044794035
 30
0.0
 40
0.25
100
AcDbArc
 50
270.0
 51
314.9999999999995
  0
LINE
  5
53
330
2
100
AcDbEntity
  8
0
  6
HIDDEN
 48
0.05
100
AcDbLine
 10
-49.04720482991431
 20
-73.56531044794035
 30
0.0
 11
-51.59009804872776
 21
-73.56531044794035
 31
0.0
  0
LINE
  5
54
330
2
100
AcDbEntity
  8
0
100
AcDbLine
 10
-48.87042813461768
 20
-73.49208714323698
 30
0.0
 11
-48.6003897613476
 21
-73.22204876996693
 31
0.0
  0
LINE
  5
55
330
2
100
AcDbEntity
  8
0
  6
HIDDEN
 48
0.05
100
AcDbLine
 10
-48.52637528480062
 20
-74.01628500064124
 30
0.0
 11
-47.18750420603952
 21
-74.01628500064123
 31
0.0
  0
LINE
  5
56
330
2
100
AcDbEntity
  8
CENTER
 48
0.05
100
AcDbLine
 10
-46.13189601287081
 20
-56.95118604588896
 30
0.0
 11
-54.52285661412202
 21
-56.95118604588898
 31
0.0
  0
LINE
  5
57
330
2
100
AcDbEntity
  8
0
  6
HIDDEN
 48
0.05
100
AcDbLine
 10
-19.20224069267749
 20
-53.88868604588896
 30
0.0
 11
-27.72153190474233
 21
-71.10582154551818
 31
0.0
  0
SPLINE
  5
58
330
2
100
AcDbEntity
  8
0
100
AcDbSpline
210
0.0
220
0.0
230
1.0
 70
     8
 71
     3
 72
    10
 73
     6
 74
     0
 42
0.0000000001
 43
0.0000000001
 40
0.0
 40
0.0
 40
0.0
 40
0.0
 40
8.768238813899515
 40
21.34600422696484
 40
23.283664963201
 40
23.283664963201
 40
23.283664963201
 40
23.283664963201
 10
-16.32721505862875
 20
-54.88868604588898
 30
0.0
 10
-16.32721505862875
 20
-54.88868604588898
 30
0.0
 10
-22.72937887777505
 20
-63.73455960767177
 30
0.0
 10
-23.55162122787903
 20
-70.92792594969061
 30
0.0
 10
-24.4643385926273
 20
-75.675148970839
 30
0.0
 10
-24.5759241577623
 20
-76.31142320784602
 30
0.0
  0
ARC
  5
59
330
2
100
AcDbEntity
  8
0
  6
HIDDEN
 48
0.05
100
AcDbCircle
 10
-30.41791404363985
 20
-69.79070810515096
 30
0.0
 40
3.0
100
AcDbArc
 50
271.0
 51
334.0
  0
LINE
  5
5A
330
2
100
AcDbEntity
  8
0
100
AcDbLine
 10
-27.45237631349664
 20
-75.68363150972309
 30
0.0
 11
-27.95237631349664
 21
-75.68363150972309
 31
0.0
  0
SPLINE
  5
5B
330
2
100
AcDbEntity
  8
0
100
AcDbSpline
210
0.0
220
0.0
230
1.0
 70
     8
 71
     3
 72
    11
 73
     7
 74
     0
 42
0.0000000001
 43
0.0000000001
 40
2.905508902230586
 40
2.905508902230918
 40
2.905508902230918
 40
2.905508902230918
 40
4.252032055284468
 40
5.719956877634702
 40
6.429333584659596
 40
7.260754040682666
 40
7.260754040682666
 40
7.260754040682666
 40
7.260754040682666
 10
-17.01024529152432
 20
-52.13868604588873
 30
0.0
 10
-16.55341136339247
 20
-52.14830428325168
 30
0.0
 10
-15.56542713192213
 20
-52.30595906192404
 30
0.0
 10
-14.84355130112978
 20
-53.37416906014603
 30
0.0
 10
-14.59339683013287
 20
-54.09349680934584
 30
0.0
 10
-14.57737631349668
 20
-54.61154589388129
 30
0.0
 10
-14.57737631349668
 20
-54.88868604588898
 30
0.0
  0
ENDSEC
  0
SECTION
  2
OBJECTS
  0
DICTIONARY
  5
7
330
0
100
AcDbDictionary
  3
ACAD_GROUP
350
26
  3
ACAD_LAYOUT
350
B
  3
ACAD_MLINESTYLE
350
27
  3
ACAD_PLOTSETTINGS
350
28
  3
ACAD_PLOTSTYLENAME
350
6
  3
ACDBHEADERROUNDTRIPXREC
350
A4
  3
ACDBVARIABLEDICTIONARY
350
5C
  0
DICTIONARY
  5
11
330
10
100
AcDbDictionary
280
     1
  3
ACAD_LAYERFILTERS
360
12
  0
DICTIONARY
  5
C5
330
2
100
AcDbDictionary
280
     1
  3
ACAD_LAYOUTSELFREF
360
C6
  0
DICTIONARY
  5
C7
330
C
100
AcDbDictionary
280
     1
  3
ACAD_LAYOUTSELFREF
360
C8
  0
DICTIONARY
  5
26
102
{ACAD_REACTORS
330
7
102
}
330
7
100
AcDbDictionary
  0
DICTIONARY
  5
B
102
{ACAD_REACTORS
330
7
102
}
330
7
100
AcDbDictionary
  0
DICTIONARY
  5
27
102
{ACAD_REACTORS
330
7
102
}
330
7
100
AcDbDictionary
  3
STANDARD
350
2A
  0
DICTIONARY
  5
28
102
{ACAD_REACTORS
330
7
102
}
330
7
100
AcDbDictionary
  0
ACDBDICTIONARYWDFLT
  5
6
102
{ACAD_REACTORS
330
7
102
}
330
7
100
AcDbDictionary
281
     1
  3
Normal
350
5
100
AcDbDictionaryWithDefault
340
5
  0
DICTIONARY
  5
A4
102
{ACAD_REACTORS
330
7
102
}
330
7
100
AcDbDictionary
  3
CEPSNTYPE
350
AE
  3
DIMSTYLEDATA
350
B2
  3
FINGERPRINTGUID
350
AF
  3
HYPERLINKBASE
350
A7
  3
INSUNITS
350
AD
  3
LAYOUTDICT
350
A9
  3
LWETCUNION
350
AC
  3
PLOTSETDICT
350
AA
  3
PLOTSTYLNAMDICT
350
AB
  3
PSVPSCALE
350
B1
  3
PUCSBASE
350
B5
  3
PUCSORGBACK
350
BB
  3
PUCSORGBOTTOM
350
B7
  3
PUCSORGFRONT
350
BA
  3
PUCSORGLEFT
350
B8
  3
PUCSORGRIGHT
350
B9
  3
PUCSORGTOP
350
B6
  3
PUCSORTHOREF
350
B3
  3
PUCSORTHOVIEW
350
B4
  3
STYLESHEET
350
A8
  3
TSTACKALIGN
350
A5
  3
TSTACKSIZE
350
A6
  3
UCSBASE
350
BE
  3
UCSORGBACK
350
C4
  3
UCSORGBOTTOM
350
C0
  3
UCSORGFRONT
350
C3
  3
UCSORGLEFT
350
C1
  3
UCSORGRIGHT
350
C2
  3
UCSORGTOP
350
BF
  3
UCSORTHOREF
350
BC
  3
UCSORTHOVIEW
350
BD
  3
VERSIONGUID
350
B0
  0
DICTIONARY
  5
5C
102
{ACAD_REACTORS
330
7
102
}
330
7
100
AcDbDictionary
  3
DIMASSOC
350
5E
  3
HIDETEXT
350
5D
  0
DICTIONARY
  5
12
102
{ACAD_REACTORS
330
11
102
}
330
11
100
AcDbDictionary
280
     1
  3
DIM-1_12
360
13
  3
DIM-1_16
360
14
  0
XRECORD
  5
C6
102
{ACAD_REACTORS
330
C5
102
}
330
C5
100
AcDbXrecord
340
2
  0
XRECORD
  5
C8
102
{ACAD_REACTORS
330
C7
102
}
330
C7
100
AcDbXrecord
340
C
  0
MLINESTYLE
  5
2A
102
{ACAD_REACTORS
330
27
102
}
330
27
100
AcDbMlineStyle
  2
STANDARD
 70
     0
  3

 62
   256
 51
90.0
 52
90.0
 71
     2
 49
0.5
 62
   256
  6
BYLAYER
 49
-0.5
 62
   256
  6
BYLAYER
  0
ACDBPLACEHOLDER
  5
5
102
{ACAD_REACTORS
330
6
102
}
330
6
100
AcDbPlaceHolder
280
     0
  0
XRECORD
  5
AE
102
{ACAD_REACTORS
330
A4
102
}
330
A4
100
AcDbXrecord
 90
        0
  0
XRECORD
  5
B2
102
{ACAD_REACTORS
330
A4
102
}
330
A4
100
AcDbXrecord
1000
DSTYLE
1002
{
1070
    79
 70
     1
1070
   276
 70
     1
1070
   277
 70
     5
1070
   289
 70
     1
1002
}
  0
XRECORD
  5
AF
102
{ACAD_REACTORS
330
A4
102
}
330
A4
100
AcDbXrecord
  1
{6A4AC8E0-4F58-11D5-8420-0003476D26AB}
  0
XRECORD
  5
A7
102
{ACAD_REACTORS
330
A4
102
}
330
A4
100
AcDbXrecord
  1

  0
XRECORD
  5
AD
102
{ACAD_REACTORS
330
A4
102
}
330
A4
100
AcDbXrecord
 90
        1
  0
XRECORD
  5
A9
102
{ACAD_REACTORS
330
A4
102
}
330
A4
100
AcDbXrecord
340
B
  0
XRECORD
  5
AC
102
{ACAD_REACTORS
330
A4
102
}
330
A4
100
AcDbXrecord
 90
    10781
  0
XRECORD
  5
AA
102
{ACAD_REACTORS
330
A4
102
}
330
A4
100
AcDbXrecord
340
28
  0
XRECORD
  5
AB
102
{ACAD_REACTORS
330
A4
102
}
330
A4
100
AcDbXrecord
340
6
  0
XRECORD
  5
B1
102
{ACAD_REACTORS
330
A4
102
}
330
A4
100
AcDbXrecord
 40
0.0
  0
XRECORD
  5
B5
102
{ACAD_REACTORS
330
A4
102
}
330
A4
100
AcDbXrecord
340
0
  0
XRECORD
  5
BB
102
{ACAD_REACTORS
330
A4
102
}
330
A4
100
AcDbXrecord
 10
0.0
 20
0.0
 30
0.0
  0
XRECORD
  5
B7
102
{ACAD_REACTORS
330
A4
102
}
330
A4
100
AcDbXrecord
 10
0.0
 20
0.0
 30
0.0
  0
XRECORD
  5
BA
102
{ACAD_REACTORS
330
A4
102
}
330
A4
100
AcDbXrecord
 10
0.0
 20
0.0
 30
0.0
  0
XRECORD
  5
B8
102
{ACAD_REACTORS
330
A4
102
}
330
A4
100
AcDbXrecord
 10
0.0
 20
0.0
 30
0.0
  0
XRECORD
  5
B9
102
{ACAD_REACTORS
330
A4
102
}
330
A4
100
AcDbXrecord
 10
0.0
 20
0.0
 30
0.0
  0
XRECORD
  5
B6
102
{ACAD_REACTORS
330
A4
102
}
330
A4
100
AcDbXrecord
 10
0.0
 20
0.0
 30
0.0
  0
XRECORD
  5
B3
102
{ACAD_REACTORS
330
A4
102
}
330
A4
100
AcDbXrecord
340
0
  0
XRECORD
  5
B4
102
{ACAD_REACTORS
330
A4
102
}
330
A4
100
AcDbXrecord
 70
     0
  0
XRECORD
  5
A8
102
{ACAD_REACTORS
330
A4
102
}
330
A4
100
AcDbXrecord
  1

  0
XRECORD
  5
A5
102
{ACAD_REACTORS
330
A4
102
}
330
A4
100
AcDbXrecord
 90
        1
  0
XRECORD
  5
A6
102
{ACAD_REACTORS
330
A4
102
}
330
A4
100
AcDbXrecord
 90
       70
  0
XRECORD
  5
BE
102
{ACAD_REACTORS
330
A4
102
}
330
A4
100
AcDbXrecord
340
0
  0
XRECORD
  5
C4
102
{ACAD_REACTORS
330
A4
102
}
330
A4
100
AcDbXrecord
 10
0.0
 20
0.0
 30
0.0
  0
XRECORD
  5
C0
102
{ACAD_REACTORS
330
A4
102
}
330
A4
100
AcDbXrecord
 10
0.0
 20
0.0
 30
0.0
  0
XRECORD
  5
C3
102
{ACAD_REACTORS
330
A4
102
}
330
A4
100
AcDbXrecord
 10
0.0
 20
0.0
 30
0.0
  0
XRECORD
  5
C1
102
{ACAD_REACTORS
330
A4
102
}
330
A4
100
AcDbXrecord
 10
0.0
 20
0.0
 30
0.0
  0
XRECORD
  5
C2
102
{ACAD_REACTORS
330
A4
102
}
330
A4
100
AcDbXrecord
 10
0.0
 20
0.0
 30
0.0
  0
XRECORD
  5
BF
102
{ACAD_REACTORS
330
A4
102
}
330
A4
100
AcDbXrecord
 10
0.0
 20
0.0
 30
0.0
  0
XRECORD
  5
BC
102
{ACAD_REACTORS
330
A4
102
}
330
A4
100
AcDbXrecord
340
0
  0
XRECORD
  5
BD
102
{ACAD_REACTORS
330
A4
102
}
330
A4
100
AcDbXrecord
 70
     1
  0
XRECORD
  5
B0
102
{ACAD_REACTORS
330
A4
102
}
330
A4
100
AcDbXrecord
  1
{AF4D8239-4D1B-4F24-AA5E-D19F90FDEF98}
  0
DICTIONARYVAR
  5
5E
102
{ACAD_REACTORS
330
5C
102
}
330
5C
100
DictionaryVariables
280
     0
  1
1
  0
DICTIONARYVAR
  5
5D
102
{ACAD_REACTORS
330
5C
102
}
330
5C
100
DictionaryVariables
280
     0
  1
1
  0
XRECORD
  5
13
102
{ACAD_REACTORS
330
12
102
}
330
12
100
AcDbXrecord
  1
DIM-1_12
  1
DIM-1_12
  1
*
  1
*
 70
     0
  1
*
  1
*
  0
XRECORD
  5
14
102
{ACAD_REACTORS
330
12
102
}
330
12
100
AcDbXrecord
  1
dim-1_16
  1
*
  1
*
  1
*
 70
     0
  1
*
  1
*
  0
ENDSEC
  0
EOF
