  0
SECTION
  2
HEADER
  9
$ACADVER
  1
AC1018
  9
$ACADMAINTVER
 70
   104
  9
$DWGCODEPAGE
  3
ANSI_1252
  9
$LASTSAVEDBY
  1
francoisbu
  9
$INSBASE
 10
0.0
 20
0.0
 30
0.0
  9
$EXTMIN
 10
22.57259159430674
 20
18.11490914843801
 30
-0.0015258207003583
  9
$EXTMAX
 10
79.86181671030653
 20
42.83984393645397
 30
0.0000000349246037
  9
$LIMMIN
 10
0.0
 20
0.0
  9
$LIMMAX
 10
181.3333333333
 20
117.3333333333
  9
$ORTHOMODE
 70
     0
  9
$REGENMODE
 70
     1
  9
$FILLMODE
 70
     1
  9
$QTEXTMODE
 70
     0
  9
$MIRRTEXT
 70
     0
  9
$LTSCALE
 40
9.973333333300001
  9
$ATTMODE
 70
     1
  9
$TEXTSIZE
 40
0.2
  9
$TRACEWID
 40
0.05
  9
$TEXTSTYLE
  7
STANDARD
  9
$CLAYER
  8
0
  9
$CELTYPE
  6
BYLAYER
  9
$CECOLOR
 62
   256
  9
$CELTSCALE
 40
1.0
  9
$DISPSILH
 70
     0
  9
$DIMSCALE
 40
1.0
  9
$DIMASZ
 40
2.0
  9
$DIMEXO
 40
0.0625
  9
$DIMDLI
 40
6.890666666699999
  9
$DIMRND
 40
0.0
  9
$DIMDLE
 40
0.0
  9
$DIMEXE
 40
0.125
  9
$DIMTP
 40
0.00001
  9
$DIMTM
 40
0.00001
  9
$DIMTXT
 40
1.333333333299999
  9
$DIMCEN
 40
1.631999999999999
  9
$DIMTSZ
 40
0.0
  9
$DIMTOL
 70
     1
  9
$DIMLIM
 70
     0
  9
$DIMTIH
 70
     1
  9
$DIMTOH
 70
     1
  9
$DIMSE1
 70
     0
  9
$DIMSE2
 70
     0
  9
$DIMTAD
 70
     0
  9
$DIMZIN
 70
     0
  9
$DIMBLK
  1
_FILLED
  9
$DIMASO
 70
     1
  9
$DIMSHO
 70
     1
  9
$DIMPOST
  1

  9
$DIMAPOST
  1

  9
$DIMALT
 70
     0
  9
$DIMALTD
 70
     2
  9
$DIMALTF
 40
25.4
  9
$DIMLFAC
 40
1.0
  9
$DIMTOFL
 70
     0
  9
$DIMTVP
 40
0.0
  9
$DIMTIX
 70
     0
  9
$DIMSOXD
 70
     0
  9
$DIMSAH
 70
     0
  9
$DIMBLK1
  1

  9
$DIMBLK2
  1

  9
$DIMSTYLE
  2
STANDARD
  9
$DIMCLRD
 70
     0
  9
$DIMCLRE
 70
     0
  9
$DIMCLRT
 70
     0
  9
$DIMTFAC
 40
1.0
  9
$DIMGAP
 40
0.09
  9
$DIMJUST
 70
     0
  9
$DIMSD1
 70
     0
  9
$DIMSD2
 70
     0
  9
$DIMTOLJ
 70
     1
  9
$DIMTZIN
 70
     0
  9
$DIMALTZ
 70
     0
  9
$DIMALTTZ
 70
     0
  9
$DIMUPT
 70
     0
  9
$DIMDEC
 70
     4
  9
$DIMTDEC
 70
     4
  9
$DIMALTU
 70
     2
  9
$DIMALTTD
 70
     2
  9
$DIMTXSTY
  7
STANDARD
  9
$DIMAUNIT
 70
     0
  9
$DIMADEC
 70
     0
  9
$DIMALTRND
 40
0.0
  9
$DIMAZIN
 70
     0
  9
$DIMDSEP
 70
    46
  9
$DIMATFIT
 70
     3
  9
$DIMFRAC
 70
     0
  9
$DIMLDRBLK
  1

  9
$DIMLUNIT
 70
     2
  9
$DIMLWD
 70
    -2
  9
$DIMLWE
 70
    -2
  9
$DIMTMOVE
 70
     0
  9
$LUNITS
 70
     2
  9
$LUPREC
 70
     4
  9
$SKETCHINC
 40
0.1
  9
$FILLETRAD
 40
0.0
  9
$AUNITS
 70
     0
  9
$AUPREC
 70
     0
  9
$MENU
  1
.
  9
$ELEVATION
 40
0.0
  9
$PELEVATION
 40
0.0
  9
$THICKNESS
 40
0.0
  9
$LIMCHECK
 70
     0
  9
$CHAMFERA
 40
0.0
  9
$CHAMFERB
 40
0.0
  9
$CHAMFERC
 40
0.0
  9
$CHAMFERD
 40
0.0
  9
$SKPOLY
 70
     0
  9
$TDCREATE
 40
2457281.499855833
  9
$TDUCREATE
 40
2457281.666522500
  9
$TDUPDATE
 40
2457281.551886482
  9
$TDUUPDATE
 40
2457281.718553148
  9
$TDINDWG
 40
0.0005851968
  9
$TDUSRTIMER
 40
0.0005851968
  9
$USRTIMER
 70
     1
  9
$ANGBASE
 50
0.0
  9
$ANGDIR
 70
     0
  9
$PDMODE
 70
     3
  9
$PDSIZE
 40
0.03125
  9
$PLINEWID
 40
0.0
  9
$SPLFRAME
 70
     0
  9
$SPLINETYPE
 70
     6
  9
$SPLINESEGS
 70
     8
  9
$HANDSEED
  5
165D
  9
$SURFTAB1
 70
     6
  9
$SURFTAB2
 70
     6
  9
$SURFTYPE
 70
     6
  9
$SURFU
 70
     6
  9
$SURFV
 70
     6
  9
$UCSBASE
  2

  9
$UCSNAME
  2

  9
$UCSORG
 10
0.0
 20
0.0
 30
0.0
  9
$UCSXDIR
 10
1.0
 20
0.0
 30
0.0
  9
$UCSYDIR
 10
0.0
 20
1.0
 30
0.0
  9
$UCSORTHOREF
  2

  9
$UCSORTHOVIEW
 70
     0
  9
$UCSORGTOP
 10
0.0
 20
0.0
 30
0.0
  9
$UCSORGBOTTOM
 10
0.0
 20
0.0
 30
0.0
  9
$UCSORGLEFT
 10
0.0
 20
0.0
 30
0.0
  9
$UCSORGRIGHT
 10
0.0
 20
0.0
 30
0.0
  9
$UCSORGFRONT
 10
0.0
 20
0.0
 30
0.0
  9
$UCSORGBACK
 10
0.0
 20
0.0
 30
0.0
  9
$PUCSBASE
  2

  9
$PUCSNAME
  2

  9
$PUCSORG
 10
0.0
 20
0.0
 30
0.0
  9
$PUCSXDIR
 10
1.0
 20
0.0
 30
0.0
  9
$PUCSYDIR
 10
0.0
 20
1.0
 30
0.0
  9
$PUCSORTHOREF
  2

  9
$PUCSORTHOVIEW
 70
     0
  9
$PUCSORGTOP
 10
0.0
 20
0.0
 30
0.0
  9
$PUCSORGBOTTOM
 10
0.0
 20
0.0
 30
0.0
  9
$PUCSORGLEFT
 10
0.0
 20
0.0
 30
0.0
  9
$PUCSORGRIGHT
 10
0.0
 20
0.0
 30
0.0
  9
$PUCSORGFRONT
 10
0.0
 20
0.0
 30
0.0
  9
$PUCSORGBACK
 10
0.0
 20
0.0
 30
0.0
  9
$USERI1
 70
     0
  9
$USERI2
 70
     0
  9
$USERI3
 70
     0
  9
$USERI4
 70
     0
  9
$USERI5
 70
     0
  9
$USERR1
 40
0.0
  9
$USERR2
 40
0.0
  9
$USERR3
 40
0.0
  9
$USERR4
 40
0.0
  9
$USERR5
 40
0.0
  9
$WORLDVIEW
 70
     1
  9
$SHADEDGE
 70
     3
  9
$SHADEDIF
 70
    70
  9
$TILEMODE
 70
     1
  9
$MAXACTVP
 70
    64
  9
$PINSBASE
 10
0.0
 20
0.0
 30
0.0
  9
$PLIMCHECK
 70
     0
  9
$PEXTMIN
 10
1.000000000000000E+20
 20
1.000000000000000E+20
 30
1.000000000000000E+20
  9
$PEXTMAX
 10
-1.000000000000000E+20
 20
-1.000000000000000E+20
 30
-1.000000000000000E+20
  9
$PLIMMIN
 10
0.0
 20
0.0
  9
$PLIMMAX
 10
12.0
 20
9.0
  9
$UNITMODE
 70
     0
  9
$VISRETAIN
 70
     1
  9
$PLINEGEN
 70
     0
  9
$PSLTSCALE
 70
     1
  9
$TREEDEPTH
 70
  3020
  9
$CMLSTYLE
  2
Standard
  9
$CMLJUST
 70
     0
  9
$CMLSCALE
 40
1.0
  9
$PROXYGRAPHICS
 70
     1
  9
$MEASUREMENT
 70
     0
  9
$CELWEIGHT
370
    -1
  9
$ENDCAPS
280
     0
  9
$JOINSTYLE
280
     0
  9
$LWDISPLAY
290
     0
  9
$INSUNITS
 70
     1
  9
$HYPERLINKBASE
  1

  9
$STYLESHEET
  1

  9
$XEDIT
290
     1
  9
$CEPSNTYPE
380
     0
  9
$PSTYLEMODE
290
     1
  9
$FINGERPRINTGUID
  2
{04C8AF3E-C299-4F0C-BC9A-39C276E3A2EE}
  9
$VERSIONGUID
  2
{00D7A45D-B929-46A0-895D-73A9CDAD0221}
  9
$EXTNAMES
290
     1
  9
$PSVPSCALE
 40
0.0
  9
$OLESTARTUP
290
     0
  9
$SORTENTS
280
   127
  9
$INDEXCTL
280
     0
  9
$HIDETEXT
280
     0
  9
$XCLIPFRAME
290
     0
  9
$HALOGAP
280
     0
  9
$OBSCOLOR
 70
   257
  9
$OBSLTYPE
280
     0
  9
$INTERSECTIONDISPLAY
280
     0
  9
$INTERSECTIONCOLOR
 70
   257
  9
$DIMASSOC
280
     1
  9
$PROJECTNAME
  1

  0
ENDSEC
  0
SECTION
  2
CLASSES
  0
CLASS
  1
ACDBDICTIONARYWDFLT
  2
AcDbDictionaryWithDefault
  3
ObjectDBX Classes
 90
        0
 91
        1
280
     0
281
     0
  0
CLASS
  1
ACDBPLACEHOLDER
  2
AcDbPlaceHolder
  3
ObjectDBX Classes
 90
        0
 91
        1
280
     0
281
     0
  0
CLASS
  1
LAYOUT
  2
AcDbLayout
  3
ObjectDBX Classes
 90
        0
 91
        2
280
     0
281
     0
  0
CLASS
  1
MATERIAL
  2
AcDbMaterial
  3
ObjectDBX Classes
 90
     1153
 91
        3
280
     0
281
     0
  0
CLASS
  1
VISUALSTYLE
  2
AcDbVisualStyle
  3
ObjectDBX Classes
 90
     4095
 91
       26
280
     0
281
     0
  0
CLASS
  1
TABLESTYLE
  2
AcDbTableStyle
  3
ObjectDBX Classes
 90
     4095
 91
        1
280
     0
281
     0
  0
CLASS
  1
SCALE
  2
AcDbScale
  3
ObjectDBX Classes
 90
     1153
 91
       17
280
     0
281
     0
  0
CLASS
  1
MLEADERSTYLE
  2
AcDbMLeaderStyle
  3
ACDB_MLEADERSTYLE_CLASS
 90
     4095
 91
        1
280
     0
281
     0
  0
CLASS
  1
ACDBSECTIONVIEWSTYLE
  2
AcDbSectionViewStyle
  3
ObjectDBX Classes
 90
     1025
 91
        1
280
     0
281
     0
  0
CLASS
  1
ACDBDETAILVIEWSTYLE
  2
AcDbDetailViewStyle
  3
ObjectDBX Classes
 90
     1025
 91
        1
280
     0
281
     0
  0
CLASS
  1
CELLSTYLEMAP
  2
AcDbCellStyleMap
  3
ObjectDBX Classes
 90
     1152
 91
        3
280
     0
281
     0
  0
CLASS
  1
DICTIONARYVAR
  2
AcDbDictionaryVar
  3
ObjectDBX Classes
 90
        0
 91
        9
280
     0
281
     0
  0
ENDSEC
  0
SECTION
  2
TABLES
  0
TABLE
  2
VPORT
  5
8
102
{ACAD_XDICTIONARY
360
15D9
102
}
330
0
100
AcDbSymbolTable
 70
     1
  0
VPORT
  5
1F4
330
8
100
AcDbSymbolTableRecord
100
AcDbViewportTableRecord
  2
*ACTIVE
 70
     0
 10
0.0
 20
0.0
 11
1.0
 21
1.0
 12
51.21720415230663
 22
30.47737654244599
 13
0.0
 23
0.0
 14
1.0
 24
1.0
 15
0.0
 25
0.0
 16
0.0
 26
0.0
 36
1.0
 17
0.0
 27
0.0
 37
0.0
 40
32.59135224807141
 41
1.765217391304347
 42
50.0
 43
0.0
 44
0.0
 50
0.0
 51
0.0
 71
     0
 72
   100
 73
     1
 74
     1
 75
     0
 76
     0
 77
     0
 78
     0
281
     0
 65
     1
110
0.0
120
0.0
130
0.0
111
1.0
121
0.0
131
0.0
112
0.0
122
1.0
132
0.0
 79
     0
146
0.0
  0
ENDTAB
  0
TABLE
  2
LTYPE
  5
5
330
0
100
AcDbSymbolTable
 70
     7
  0
LTYPE
  5
14
330
5
100
AcDbSymbolTableRecord
100
AcDbLinetypeTableRecord
  2
BYBLOCK
 70
     0
  3

 72
    65
 73
     0
 40
0.0
  0
LTYPE
  5
15
330
5
100
AcDbSymbolTableRecord
100
AcDbLinetypeTableRecord
  2
BYLAYER
 70
     0
  3

 72
    65
 73
     0
 40
0.0
  0
LTYPE
  5
16
330
5
100
AcDbSymbolTableRecord
100
AcDbLinetypeTableRecord
  2
CONTINUOUS
 70
     0
  3
Solid line
 72
    65
 73
     0
 40
0.0
  0
LTYPE
  5
1F5
330
5
100
AcDbSymbolTableRecord
100
AcDbLinetypeTableRecord
  2
CENTER
 70
     0
  3
____ _ ____ _ ____ _ ____ _ ____ _ ____ _ ____
 72
    65
 73
     4
 40
0.6
 49
0.375
 74
     0
 49
-0.075
 74
     0
 49
0.075
 74
     0
 49
-0.075
 74
     0
  0
LTYPE
  5
1F6
330
5
100
AcDbSymbolTableRecord
100
AcDbLinetypeTableRecord
  2
HIDDEN
 70
     0
  3
- - - - - - - - - - - - - - - - - - - -
 72
    65
 73
     2
 40
0.2
 49
0.1
 74
     0
 49
-0.1
 74
     0
  0
LTYPE
  5
1F7
330
5
100
AcDbSymbolTableRecord
100
AcDbLinetypeTableRecord
  2
PHANTOM
 70
     0
  3
_____ _ _ _____ _ _ _____ _ _ _____
 72
    65
 73
     6
 40
0.8
 49
0.45
 74
     0
 49
-0.05
 74
     0
 49
0.1
 74
     0
 49
-0.05
 74
     0
 49
0.1
 74
     0
 49
-0.05
 74
     0
  0
LTYPE
  5
1F8
330
5
100
AcDbSymbolTableRecord
100
AcDbLinetypeTableRecord
  2
DOT
 70
     0
  3
. . . . . . . . . . . . . . . . . . . .
 72
    65
 73
     2
 40
0.2
 49
0.1
 74
     0
 49
-0.1
 74
     0
  0
LTYPE
  5
1F9
330
5
100
AcDbSymbolTableRecord
100
AcDbLinetypeTableRecord
  2
DASHED
 70
     0
  3
- - - - - - - - - - - - - - - - - - - -
 72
    65
 73
     2
 40
0.2
 49
0.1
 74
     0
 49
-0.1
 74
     0
  0
LTYPE
  5
15D2
330
5
100
AcDbSymbolTableRecord
100
AcDbLinetypeTableRecord
  2
PHANTOM2
 70
     0
  3
___ _ _ ___ _ _ ___ _ _ ___ _ _
 72
    65
 73
     6
 40
1.25
 49
0.625
 74
     0
 49
-0.125
 74
     0
 49
0.125
 74
     0
 49
-0.125
 74
     0
 49
0.125
 74
     0
 49
-0.125
 74
     0
  0
ENDTAB
  0
TABLE
  2
LAYER
  5
2
330
0
100
AcDbSymbolTable
 70
    21
  0
LAYER
  5
10
102
{ACAD_XDICTIONARY
360
1628
102
}
330
2
100
AcDbSymbolTableRecord
100
AcDbLayerTableRecord
  2
0
 70
     0
 62
     7
  6
CONTINUOUS
370
    -3
390
F
  0
LAYER
  5
1FA
102
{ACAD_XDICTIONARY
360
162A
102
}
330
2
100
AcDbSymbolTableRecord
100
AcDbLayerTableRecord
  2
DEFAULT_1
 70
     0
 62
     7
  6
CENTER
370
    -3
390
F
  0
LAYER
  5
1FB
102
{ACAD_XDICTIONARY
360
162C
102
}
330
2
100
AcDbSymbolTableRecord
100
AcDbLayerTableRecord
  2
DEFAULT_2
 70
     0
 62
     7
  6
HIDDEN
370
    -3
390
F
  0
LAYER
  5
1FC
102
{ACAD_XDICTIONARY
360
162E
102
}
330
2
100
AcDbSymbolTableRecord
100
AcDbLayerTableRecord
  2
DEFAULT_3
 70
     0
 62
     7
  6
PHANTOM
370
    -3
390
F
  0
LAYER
  5
1FD
102
{ACAD_XDICTIONARY
360
1630
102
}
330
2
100
AcDbSymbolTableRecord
100
AcDbLayerTableRecord
  2
1_CURVES
 70
     0
 62
     7
  6
CONTINUOUS
370
    -3
390
F
  0
LAYER
  5
1FE
102
{ACAD_XDICTIONARY
360
1632
102
}
330
2
100
AcDbSymbolTableRecord
100
AcDbLayerTableRecord
  2
1_CURVES_DOT
 70
     0
 62
     7
  6
CONTINUOUS
370
    -3
390
F
  0
LAYER
  5
1FF
102
{ACAD_XDICTIONARY
360
1634
102
}
330
2
100
AcDbSymbolTableRecord
100
AcDbLayerTableRecord
  2
1_CURVES_JETS
 70
     0
 62
     7
  6
CONTINUOUS
370
    -3
390
F
  0
LAYER
  5
200
102
{ACAD_XDICTIONARY
360
1636
102
}
330
2
100
AcDbSymbolTableRecord
100
AcDbLayerTableRecord
  2
1_CURVES_SPEC_FRONT
 70
     0
 62
     7
  6
CONTINUOUS
370
    -3
390
F
  0
LAYER
  5
201
102
{ACAD_XDICTIONARY
360
1638
102
}
330
2
100
AcDbSymbolTableRecord
100
AcDbLayerTableRecord
  2
1_CURVES_SPEC_RIGHT
 70
     0
 62
     7
  6
CONTINUOUS
370
    -3
390
F
  0
LAYER
  5
202
102
{ACAD_XDICTIONARY
360
163A
102
}
330
2
100
AcDbSymbolTableRecord
100
AcDbLayerTableRecord
  2
2_PLANES
 70
     0
 62
     7
  6
CONTINUOUS
370
    -3
390
F
  0
LAYER
  5
203
102
{ACAD_XDICTIONARY
360
163C
102
}
330
2
100
AcDbSymbolTableRecord
100
AcDbLayerTableRecord
  2
2_PLANES_JETS
 70
     0
 62
     7
  6
CONTINUOUS
370
    -3
390
F
  0
LAYER
  5
204
102
{ACAD_XDICTIONARY
360
163E
102
}
330
2
100
AcDbSymbolTableRecord
100
AcDbLayerTableRecord
  2
3_POINTS
 70
     0
 62
     7
  6
CONTINUOUS
370
    -3
390
F
  0
LAYER
  5
205
102
{ACAD_XDICTIONARY
360
1640
102
}
330
2
100
AcDbSymbolTableRecord
100
AcDbLayerTableRecord
  2
3_POINTS_JETS
 70
     0
 62
     7
  6
CONTINUOUS
370
    -3
390
F
  0
LAYER
  5
206
102
{ACAD_XDICTIONARY
360
1642
102
}
330
2
100
AcDbSymbolTableRecord
100
AcDbLayerTableRecord
  2
4_CSYS
 70
     0
 62
     7
  6
CONTINUOUS
370
    -3
390
F
  0
LAYER
  5
207
102
{ACAD_XDICTIONARY
360
1644
102
}
330
2
100
AcDbSymbolTableRecord
100
AcDbLayerTableRecord
  2
5_AXIS
 70
     0
 62
     7
  6
CONTINUOUS
370
    -3
390
F
  0
LAYER
  5
208
102
{ACAD_XDICTIONARY
360
1646
102
}
330
2
100
AcDbSymbolTableRecord
100
AcDbLayerTableRecord
  2
5_AXIS_JETS
 70
     0
 62
     7
  6
CONTINUOUS
370
    -3
390
F
  0
LAYER
  5
209
102
{ACAD_XDICTIONARY
360
1648
102
}
330
2
100
AcDbSymbolTableRecord
100
AcDbLayerTableRecord
  2
6_SURFACES
 70
     0
 62
     7
  6
CONTINUOUS
370
    -3
390
F
  0
LAYER
  5
20A
102
{ACAD_XDICTIONARY
360
164A
102
}
330
2
100
AcDbSymbolTableRecord
100
AcDbLayerTableRecord
  2
6_SURFACES_OFFSET_FIBRE_ACRYLIQ
 70
     0
 62
     7
  6
CONTINUOUS
370
    -3
390
F
  0
LAYER
  5
20B
102
{ACAD_XDICTIONARY
360
164C
102
}
330
2
100
AcDbSymbolTableRecord
100
AcDbLayerTableRecord
  2
6_SURFACES_TOOLING
 70
     0
 62
     7
  6
CONTINUOUS
370
    -3
390
F
  0
LAYER
  5
20C
102
{ACAD_XDICTIONARY
360
164E
102
}
330
2
100
AcDbSymbolTableRecord
100
AcDbLayerTableRecord
  2
7_NOTES
 70
     0
 62
     7
  6
CONTINUOUS
370
    -3
390
F
  0
LAYER
  5
20D
102
{ACAD_XDICTIONARY
360
1650
102
}
330
2
100
AcDbSymbolTableRecord
100
AcDbLayerTableRecord
  2
XSEC_DATUMS
 70
     0
 62
     7
  6
CONTINUOUS
370
    -3
390
F
  0
ENDTAB
  0
TABLE
  2
STYLE
  5
3
330
0
100
AcDbSymbolTable
 70
     8
  0
STYLE
  5
11
330
3
100
AcDbSymbolTableRecord
100
AcDbTextStyleTableRecord
  2
STANDARD
 70
     0
 40
0.0
 41
0.8
 50
0.0
 71
     0
 42
0.2
  3
txt
  4

  0
STYLE
  5
20E
330
3
100
AcDbSymbolTableRecord
100
AcDbTextStyleTableRecord
  2
TEXTSTYLE_1
 70
     0
 40
0.0
 41
0.8
 50
0.0
 71
     0
 42
0.2
  3
gdt
  4

  0
STYLE
  5
20F
330
3
100
AcDbSymbolTableRecord
100
AcDbTextStyleTableRecord
  2
TEXTSTYLE_2
 70
     0
 40
0.0
 41
1.0
 50
0.0
 71
     0
 42
0.2
  3
trium.ttf
  4

  0
STYLE
  5
210
330
3
100
AcDbSymbolTableRecord
100
AcDbTextStyleTableRecord
  2
TEXTSTYLE_3
 70
     0
 40
0.0
 41
1.0
 50
0.0
 71
     0
 42
0.2
  3
trium.ttf
  4

  0
STYLE
  5
211
330
3
100
AcDbSymbolTableRecord
100
AcDbTextStyleTableRecord
  2
TEXTSTYLE_4
 70
     0
 40
0.0
 41
1.0
 50
0.0
 71
     0
 42
0.2
  3
txt
  4

1001
ACAD
1000
txt
1071
        2
  0
STYLE
  5
212
330
3
100
AcDbSymbolTableRecord
100
AcDbTextStyleTableRecord
  2
TEXTSTYLE_5
 70
     0
 40
0.0
 41
1.0
 50
0.0
 71
     0
 42
0.2
  3
txt
  4

  0
STYLE
  5
213
330
3
100
AcDbSymbolTableRecord
100
AcDbTextStyleTableRecord
  2
TEXTSTYLE_6
 70
     0
 40
0.0
 41
1.0
 50
0.0
 71
     0
 42
0.2
  3
trium.ttf
  4

  0
STYLE
  5
214
330
3
100
AcDbSymbolTableRecord
100
AcDbTextStyleTableRecord
  2
TEXTSTYLE_7
 70
     0
 40
0.0
 41
0.8
 50
0.0
 71
     0
 42
0.2
  3
txt
  4

  0
ENDTAB
  0
TABLE
  2
VIEW
  5
6
330
0
100
AcDbSymbolTable
 70
     0
  0
ENDTAB
  0
TABLE
  2
UCS
  5
7
330
0
100
AcDbSymbolTable
 70
     0
  0
ENDTAB
  0
TABLE
  2
APPID
  5
9
330
0
100
AcDbSymbolTable
 70
     2
  0
APPID
  5
215
330
9
100
AcDbSymbolTableRecord
100
AcDbRegAppTableRecord
  2
ACAD
 70
     0
  0
APPID
  5
1614
330
9
100
AcDbSymbolTableRecord
100
AcDbRegAppTableRecord
  2
ACAD_MLEADERVER
 70
     0
  0
ENDTAB
  0
TABLE
  2
DIMSTYLE
  5
A
330
0
100
AcDbSymbolTable
 70
     5
100
AcDbDimStyleTable
 71
     0
  0
DIMSTYLE
105
22F
330
A
100
AcDbSymbolTableRecord
100
AcDbDimStyleTableRecord
  2
STANDARD
 70
     0
 41
2.0
 44
0.125
 47
0.00001
 48
0.00001
 71
     1
 78
     4
140
1.333333333299999
271
     5
272
     5
284
     4
340
11
341
218
342
218
343
218
344
218
  0
DIMSTYLE
105
230
330
A
100
AcDbSymbolTableRecord
100
AcDbDimStyleTableRecord
  2
DIMSTYLE_1
 70
     0
 41
2.0
 44
0.125
 47
0.00001
 48
0.00001
 78
     4
140
1.333333333299999
147
0.0625
271
     3
272
     3
284
     4
340
11
341
218
342
218
343
218
344
218
  0
DIMSTYLE
105
231
330
A
100
AcDbSymbolTableRecord
100
AcDbDimStyleTableRecord
  2
DIMSTYLE_2
 70
     0
 41
2.0
 44
0.125
 47
1.0
 48
1.0
 78
     4
140
1.333333333299999
147
0.0625
271
     0
272
     0
284
     4
340
11
341
218
342
218
343
218
344
218
  0
DIMSTYLE
105
232
330
A
100
AcDbSymbolTableRecord
100
AcDbDimStyleTableRecord
  2
DIMSTYLE_3
 70
     0
 41
2.0
 44
0.125
 47
0.001
 48
0.001
 78
     4
140
1.333333333299999
147
0.0625
271
     3
272
     3
284
     4
340
11
341
218
342
218
343
218
344
218
  0
DIMSTYLE
105
233
330
A
100
AcDbSymbolTableRecord
100
AcDbDimStyleTableRecord
  2
DIMSTYLE_4
 70
     0
 41
2.0
 44
0.125
 47
0.5
 48
0.5
 78
     4
140
1.333333333299999
147
0.0625
271
     6
272
     6
284
     4
340
11
341
218
342
218
343
218
344
218
  0
ENDTAB
  0
TABLE
  2
BLOCK_RECORD
  5
1
330
0
100
AcDbSymbolTable
 70
    23
  0
BLOCK_RECORD
  5
216
330
1
100
AcDbSymbolTableRecord
100
AcDbBlockTableRecord
  2
*Model_Space
340
1584
  0
BLOCK_RECORD
  5
217
330
1
100
AcDbSymbolTableRecord
100
AcDbBlockTableRecord
  2
*Paper_Space
340
1585
  0
BLOCK_RECORD
  5
218
330
1
100
AcDbSymbolTableRecord
100
AcDbBlockTableRecord
  2
_FILLED
340
0
102
{BLKREFS
331
314
331
315
331
31D
331
31E
331
326
331
327
331
32F
331
330
331
338
331
339
331
341
331
342
331
34A
331
34B
331
354
331
355
331
35D
331
35E
331
36F
331
370
331
378
331
379
331
382
331
383
331
38B
331
38C
331
394
331
395
331
39D
331
39E
102
}
  0
BLOCK_RECORD
  5
219
330
1
100
AcDbSymbolTableRecord
100
AcDbBlockTableRecord
  2
*D1
340
0
  0
BLOCK_RECORD
  5
21A
330
1
100
AcDbSymbolTableRecord
100
AcDbBlockTableRecord
  2
*D2
340
0
  0
BLOCK_RECORD
  5
21B
330
1
100
AcDbSymbolTableRecord
100
AcDbBlockTableRecord
  2
*D3
340
0
  0
BLOCK_RECORD
  5
21C
330
1
100
AcDbSymbolTableRecord
100
AcDbBlockTableRecord
  2
*D4
340
0
  0
BLOCK_RECORD
  5
21D
330
1
100
AcDbSymbolTableRecord
100
AcDbBlockTableRecord
  2
*D5
340
0
  0
BLOCK_RECORD
  5
21E
330
1
100
AcDbSymbolTableRecord
100
AcDbBlockTableRecord
  2
*D6
340
0
  0
BLOCK_RECORD
  5
21F
330
1
100
AcDbSymbolTableRecord
100
AcDbBlockTableRecord
  2
*D7
340
0
  0
BLOCK_RECORD
  5
220
330
1
100
AcDbSymbolTableRecord
100
AcDbBlockTableRecord
  2
*D8
340
0
  0
BLOCK_RECORD
  5
221
330
1
100
AcDbSymbolTableRecord
100
AcDbBlockTableRecord
  2
*D9
340
0
  0
BLOCK_RECORD
  5
222
330
1
100
AcDbSymbolTableRecord
100
AcDbBlockTableRecord
  2
*D10
340
0
  0
BLOCK_RECORD
  5
223
330
1
100
AcDbSymbolTableRecord
100
AcDbBlockTableRecord
  2
*D11
340
0
  0
BLOCK_RECORD
  5
224
330
1
100
AcDbSymbolTableRecord
100
AcDbBlockTableRecord
  2
*D12
340
0
  0
BLOCK_RECORD
  5
225
330
1
100
AcDbSymbolTableRecord
100
AcDbBlockTableRecord
  2
*D13
340
0
  0
BLOCK_RECORD
  5
226
330
1
100
AcDbSymbolTableRecord
100
AcDbBlockTableRecord
  2
*D14
340
0
  0
BLOCK_RECORD
  5
227
330
1
100
AcDbSymbolTableRecord
100
AcDbBlockTableRecord
  2
*D15
340
0
  0
BLOCK_RECORD
  5
228
330
1
100
AcDbSymbolTableRecord
100
AcDbBlockTableRecord
  2
*D16
340
0
  0
BLOCK_RECORD
  5
229
330
1
100
AcDbSymbolTableRecord
100
AcDbBlockTableRecord
  2
*D17
340
0
  0
BLOCK_RECORD
  5
22A
330
1
100
AcDbSymbolTableRecord
100
AcDbBlockTableRecord
  2
*D18
340
0
  0
BLOCK_RECORD
  5
22B
330
1
100
AcDbSymbolTableRecord
100
AcDbBlockTableRecord
  2
L03-USAGE_INTERNE_SEULEM_BL3
340
0
  0
BLOCK_RECORD
  5
22C
330
1
100
AcDbSymbolTableRecord
100
AcDbBlockTableRecord
  2
L03-MOTEUR-CONTROLE-LED_BL2
340
0
  0
BLOCK_RECORD
  5
22D
330
1
100
AcDbSymbolTableRecord
100
AcDbBlockTableRecord
  2
L03-MOTEUR-CONTROLE-LED_BL1
340
0
  0
BLOCK_RECORD
  5
22E
330
1
100
AcDbSymbolTableRecord
100
AcDbBlockTableRecord
  2
L03-NOTE_SPECS_BAINS_BL0
340
0
  0
ENDTAB
  0
ENDSEC
  0
SECTION
  2
BLOCKS
  0
BLOCK
  5
20
330
216
100
AcDbEntity
  8
0
100
AcDbBlockBegin
  2
*Model_Space
 70
     0
 10
0.0
 20
0.0
 30
0.0
  3
*Model_Space
  1

  0
ENDBLK
  5
21
330
216
100
AcDbEntity
  8
0
100
AcDbBlockEnd
  0
BLOCK
  5
1C
330
217
100
AcDbEntity
 67
     1
  8
0
100
AcDbBlockBegin
  2
*Paper_Space
 70
     0
 10
0.0
 20
0.0
 30
0.0
  3
*Paper_Space
  1

  0
ENDBLK
  5
1D
330
217
100
AcDbEntity
 67
     1
  8
0
100
AcDbBlockEnd
  0
BLOCK
  5
30B
330
218
100
AcDbEntity
  8
0
100
AcDbBlockBegin
  2
_FILLED
 70
     0
 10
0.0
 20
0.0
 30
0.0
  3
_FILLED
  1

  0
SOLID
  5
30C
330
218
100
AcDbEntity
  8
0
  6
ByBlock
 62
     0
100
AcDbTrace
 10
0.0
 20
0.0
 30
0.0
 11
-1.0
 21
0.1666666667
 31
0.0
 12
-1.0
 22
-0.1666666667
 32
0.0
 13
-1.0
 23
-0.1666666667
 33
0.0
  0
ENDBLK
  5
30D
330
218
100
AcDbEntity
  8
0
  6
ByBlock
 62
     0
100
AcDbBlockEnd
  0
BLOCK
  5
30E
330
219
100
AcDbEntity
  8
0
  6
Continuous
 62
     7
100
AcDbBlockBegin
  2
*D1
 70
     1
 10
0.0
 20
0.0
 30
0.0
  3
*D1
  1

  0
MTEXT
  5
30F
330
219
100
AcDbEntity
  8
0
  6
Continuous
 62
     7
100
AcDbMText
 10
135.706405734
 20
32.2870225491
 30
0.0
 40
1.333333333299999
 41
4.266666666699999
 71
     2
 72
     1
  1
16\P[41]
 73
     1
 44
0.9
  0
LINE
  5
310
330
219
100
AcDbEntity
  8
0
  6
Continuous
 62
     7
100
AcDbLine
 10
130.6041149574
 20
23.6203558824
 30
0.0
 11
138.106405734
 21
23.6203558824
 31
0.0
  0
LINE
  5
311
330
219
100
AcDbEntity
  8
0
  6
Continuous
 62
     7
100
AcDbLine
 10
131.017781624
 20
39.6203558824
 30
0.0
 11
138.106405734
 21
39.6203558824
 31
0.0
  0
LINE
  5
312
330
219
100
AcDbEntity
  8
0
  6
Continuous
 62
     7
100
AcDbLine
 10
136.7730724006
 20
23.6203558824
 30
0.0
 11
136.7730724006
 21
28.2870225491
 31
0.0
  0
LINE
  5
313
330
219
100
AcDbEntity
  8
0
  6
Continuous
 62
     7
100
AcDbLine
 10
136.7730724006
 20
39.6203558824
 30
0.0
 11
136.7730724006
 21
32.95368921570001
 31
0.0
  0
INSERT
  5
314
330
219
100
AcDbEntity
  8
0
  6
Continuous
 62
     7
100
AcDbBlockReference
  2
_FILLED
 10
136.7730724006
 20
23.6203558824
 30
0.0
 41
2.0
 42
2.0
 43
2.0
 50
270.0
  0
INSERT
  5
315
330
219
100
AcDbEntity
  8
0
  6
Continuous
 62
     7
100
AcDbBlockReference
  2
_FILLED
 10
136.7730724006
 20
39.6203558824
 30
0.0
 41
2.0
 42
2.0
 43
2.0
 50
90.0
  0
ENDBLK
  5
316
330
219
100
AcDbEntity
  8
0
  6
ByBlock
 62
     0
100
AcDbBlockEnd
  0
BLOCK
  5
317
330
21A
100
AcDbEntity
  8
0
  6
Continuous
 62
     7
100
AcDbBlockBegin
  2
*D2
 70
     1
 10
0.0
 20
0.0
 30
0.0
  3
*D2
  1

  0
MTEXT
  5
318
330
21A
100
AcDbEntity
  8
0
  6
Continuous
 62
     7
100
AcDbMText
 10
114.8878125959
 20
13.7818051373
 30
0.0
 40
1.333333333299999
 41
6.4
 71
     2
 72
     1
  1
26-7/8\P[68]
 73
     1
 44
0.9
  0
LINE
  5
319
330
21A
100
AcDbEntity
  8
0
  6
Continuous
 62
     7
100
AcDbLine
 10
128.3198753312
 20
18.9536892157
 30
0.0
 11
128.3198753312
 21
11.7818051373
 31
0.0
  0
LINE
  5
31A
330
21A
100
AcDbEntity
  8
0
  6
Continuous
 62
     7
100
AcDbLine
 10
101.4557498606
 20
18.9536892157
 30
0.0
 11
101.4557498606
 21
11.7818051373
 31
0.0
  0
LINE
  5
31B
330
21A
100
AcDbEntity
  8
0
  6
Continuous
 62
     7
100
AcDbLine
 10
128.3198753312
 20
13.1151384706
 30
0.0
 11
118.7544792626
 21
13.1151384706
 31
0.0
  0
LINE
  5
31C
330
21A
100
AcDbEntity
  8
0
  6
Continuous
 62
     7
100
AcDbLine
 10
101.4557498606
 20
13.1151384706
 30
0.0
 11
111.0211459292
 21
13.1151384706
 31
0.0
  0
INSERT
  5
31D
330
21A
100
AcDbEntity
  8
0
  6
Continuous
 62
     7
100
AcDbBlockReference
  2
_FILLED
 10
128.3198753312
 20
13.1151384706
 30
0.0
 41
2.0
 42
2.0
 43
2.0
  0
INSERT
  5
31E
330
21A
100
AcDbEntity
  8
0
  6
Continuous
 62
     7
100
AcDbBlockReference
  2
_FILLED
 10
101.4557498606
 20
13.1151384706
 30
0.0
 41
2.0
 42
2.0
 43
2.0
 50
180.0
  0
ENDBLK
  5
31F
330
21A
100
AcDbEntity
  8
0
  6
ByBlock
 62
     0
100
AcDbBlockEnd
  0
BLOCK
  5
320
330
21B
100
AcDbEntity
  8
0
  6
Continuous
 62
     7
100
AcDbBlockBegin
  2
*D3
 70
     1
 10
0.0
 20
0.0
 30
0.0
  3
*D3
  1

  0
MTEXT
  5
321
330
21B
100
AcDbEntity
  8
0
  6
Continuous
 62
     7
100
AcDbMText
 10
49.52050463229999
 20
14.0489466005
 30
0.0
 40
1.333333333299999
 41
6.4
 71
     2
 72
     1
  1
47-3/8\P[120]
 73
     1
 44
0.9
  0
LINE
  5
322
330
21B
100
AcDbEntity
  8
0
  6
Continuous
 62
     7
100
AcDbLine
 10
25.8227810142
 20
19.0315397607
 30
0.0
 11
25.8227810142
 21
12.0489466005
 31
0.0
  0
LINE
  5
323
330
21B
100
AcDbEntity
  8
0
  6
Continuous
 62
     7
100
AcDbLine
 10
73.2182282504
 20
18.9536892157
 30
0.0
 11
73.2182282504
 21
12.0489466005
 31
0.0
  0
LINE
  5
324
330
21B
100
AcDbEntity
  8
0
  6
Continuous
 62
     7
100
AcDbLine
 10
25.8227810142
 20
13.3822799338
 30
0.0
 11
45.65383796569999
 21
13.3822799338
 31
0.0
  0
LINE
  5
325
330
21B
100
AcDbEntity
  8
0
  6
Continuous
 62
     7
100
AcDbLine
 10
73.2182282504
 20
13.3822799338
 30
0.0
 11
53.387171299
 21
13.3822799338
 31
0.0
  0
INSERT
  5
326
330
21B
100
AcDbEntity
  8
0
  6
Continuous
 62
     7
100
AcDbBlockReference
  2
_FILLED
 10
25.8227810142
 20
13.3822799338
 30
0.0
 41
2.0
 42
2.0
 43
2.0
 50
180.0
  0
INSERT
  5
327
330
21B
100
AcDbEntity
  8
0
  6
Continuous
 62
     7
100
AcDbBlockReference
  2
_FILLED
 10
73.2182282504
 20
13.3822799338
 30
0.0
 41
2.0
 42
2.0
 43
2.0
  0
ENDBLK
  5
328
330
21B
100
AcDbEntity
  8
0
  6
ByBlock
 62
     0
100
AcDbBlockEnd
  0
BLOCK
  5
329
330
21C
100
AcDbEntity
  8
0
  6
Continuous
 62
     7
100
AcDbBlockBegin
  2
*D4
 70
     1
 10
0.0
 20
0.0
 30
0.0
  3
*D4
  1

  0
MTEXT
  5
32A
330
21C
100
AcDbEntity
  8
0
  6
Continuous
 62
     7
100
AcDbMText
 10
10.9940635765
 20
31.8966146296
 30
0.0
 40
1.333333333299999
 41
6.4
 71
     2
 72
     1
  1
23-1/4\P[59]
 73
     1
 44
0.9
  0
LINE
  5
32B
330
21C
100
AcDbEntity
  8
0
  6
Continuous
 62
     7
100
AcDbLine
 10
25.2121697572
 20
19.6203558824
 30
0.0
 11
9.660730243199999
 21
19.6203558824
 31
0.0
  0
LINE
  5
32C
330
21C
100
AcDbEntity
  8
0
  6
Continuous
 62
     7
100
AcDbLine
 10
21.9757100305
 20
42.83954004339999
 30
0.0
 11
9.660730243199999
 21
42.83954004339999
 31
0.0
  0
LINE
  5
32D
330
21C
100
AcDbEntity
  8
0
  6
Continuous
 62
     7
100
AcDbLine
 10
10.9940635765
 20
19.6203558824
 30
0.0
 11
10.9940635765
 21
27.8966146296
 31
0.0
  0
LINE
  5
32E
330
21C
100
AcDbEntity
  8
0
  6
Continuous
 62
     7
100
AcDbLine
 10
10.9940635765
 20
42.83954004339999
 30
0.0
 11
10.9940635765
 21
32.5632812962
 31
0.0
  0
INSERT
  5
32F
330
21C
100
AcDbEntity
  8
0
  6
Continuous
 62
     7
100
AcDbBlockReference
  2
_FILLED
 10
10.9940635765
 20
19.6203558824
 30
0.0
 41
2.0
 42
2.0
 43
2.0
 50
270.0
  0
INSERT
  5
330
330
21C
100
AcDbEntity
  8
0
  6
Continuous
 62
     7
100
AcDbBlockReference
  2
_FILLED
 10
10.9940635765
 20
42.83954004339999
 30
0.0
 41
2.0
 42
2.0
 43
2.0
 50
90.0
  0
ENDBLK
  5
331
330
21C
100
AcDbEntity
  8
0
  6
ByBlock
 62
     0
100
AcDbBlockEnd
  0
BLOCK
  5
332
330
21D
100
AcDbEntity
  8
0
  6
Continuous
 62
     7
100
AcDbBlockBegin
  2
*D5
 70
     1
 10
0.0
 20
0.0
 30
0.0
  3
*D5
  1

  0
MTEXT
  5
333
330
21D
100
AcDbEntity
  8
0
  6
Continuous
 62
     7
100
AcDbMText
 10
112.649030454
 20
78.4091428249
 30
0.0
 40
1.333333333299999
 41
6.4
 71
     2
 72
     1
  1
35-7/8\P[91]
 73
     1
 44
0.9
  0
LINE
  5
334
330
21D
100
AcDbEntity
  8
0
  6
Continuous
 62
     7
100
AcDbLine
 10
49.05713842029999
 20
95.67457252590001
 30
0.0
 11
113.9823637873
 21
95.67457252590001
 31
0.0
  0
LINE
  5
335
330
21D
100
AcDbEntity
  8
0
  6
Continuous
 62
     7
100
AcDbLine
 10
49.05713841529999
 20
59.8103797906
 30
0.0
 11
113.9823637873
 21
59.8103797906
 31
0.0
  0
LINE
  5
336
330
21D
100
AcDbEntity
  8
0
  6
Continuous
 62
     7
100
AcDbLine
 10
112.649030454
 20
95.67457252590001
 30
0.0
 11
112.649030454
 21
79.07580949159999
 31
0.0
  0
LINE
  5
337
330
21D
100
AcDbEntity
  8
0
  6
Continuous
 62
     7
100
AcDbLine
 10
112.649030454
 20
59.8103797906
 30
0.0
 11
112.649030454
 21
74.4091428249
 31
0.0
  0
INSERT
  5
338
330
21D
100
AcDbEntity
  8
0
  6
Continuous
 62
     7
100
AcDbBlockReference
  2
_FILLED
 10
112.649030454
 20
95.67457252590001
 30
0.0
 41
2.0
 42
2.0
 43
2.0
 50
90.0
  0
INSERT
  5
339
330
21D
100
AcDbEntity
  8
0
  6
Continuous
 62
     7
100
AcDbBlockReference
  2
_FILLED
 10
112.649030454
 20
59.8103797906
 30
0.0
 41
2.0
 42
2.0
 43
2.0
 50
270.0
  0
ENDBLK
  5
33A
330
21D
100
AcDbEntity
  8
0
  6
ByBlock
 62
     0
100
AcDbBlockEnd
  0
BLOCK
  5
33B
330
21E
100
AcDbEntity
  8
0
  6
Continuous
 62
     7
100
AcDbBlockBegin
  2
*D6
 70
     1
 10
0.0
 20
0.0
 30
0.0
  3
*D6
  1

  0
MTEXT
  5
33C
330
21E
100
AcDbEntity
  8
0
  6
Continuous
 62
     7
100
AcDbMText
 10
51.21692283359999
 20
107.4968647272
 30
0.0
 40
1.333333333299999
 41
6.4
 71
     2
 72
     1
  1
57-1/4\P[145]
 73
     1
 44
0.9
  0
LINE
  5
33D
330
21E
100
AcDbEntity
  8
0
  6
Continuous
 62
     7
100
AcDbLine
 10
22.5804849428
 20
78.4091428249
 30
0.0
 11
22.5804849428
 21
108.1635313939
 31
0.0
  0
LINE
  5
33E
330
21E
100
AcDbEntity
  8
0
  6
Continuous
 62
     7
100
AcDbLine
 10
79.8533607243
 20
78.4091428249
 30
0.0
 11
79.8533607243
 21
108.1635313939
 31
0.0
  0
LINE
  5
33F
330
21E
100
AcDbEntity
  8
0
  6
Continuous
 62
     7
100
AcDbLine
 10
22.5804849428
 20
106.8301980605
 30
0.0
 11
47.35025616689999
 21
106.8301980605
 31
0.0
  0
LINE
  5
340
330
21E
100
AcDbEntity
  8
0
  6
Continuous
 62
     7
100
AcDbLine
 10
79.8533607243
 20
106.8301980605
 30
0.0
 11
55.0835895003
 21
106.8301980605
 31
0.0
  0
INSERT
  5
341
330
21E
100
AcDbEntity
  8
0
  6
Continuous
 62
     7
100
AcDbBlockReference
  2
_FILLED
 10
22.5804849428
 20
106.8301980605
 30
0.0
 41
2.0
 42
2.0
 43
2.0
 50
180.0
  0
INSERT
  5
342
330
21E
100
AcDbEntity
  8
0
  6
Continuous
 62
     7
100
AcDbBlockReference
  2
_FILLED
 10
79.8533607243
 20
106.8301980605
 30
0.0
 41
2.0
 42
2.0
 43
2.0
  0
ENDBLK
  5
343
330
21E
100
AcDbEntity
  8
0
  6
ByBlock
 62
     0
100
AcDbBlockEnd
  0
BLOCK
  5
344
330
21F
100
AcDbEntity
  8
0
  6
Continuous
 62
     7
100
AcDbBlockBegin
  2
*D7
 70
     1
 10
0.0
 20
0.0
 30
0.0
  3
*D7
  1

  0
MTEXT
  5
345
330
21F
100
AcDbEntity
  8
0
  6
Continuous
 62
     7
100
AcDbMText
 10
45.4137567589
 20
57.0516708064
 30
0.0
 40
1.333333333299999
 41
5.333333333299999
 71
     1
 72
     1
  1
6-1/2\P[17]
 73
     1
 44
0.9
  0
LINE
  5
346
330
21F
100
AcDbEntity
  8
0
  6
Continuous
 62
     7
100
AcDbLine
 10
33.3904717446
 20
61.3970923036
 30
0.0
 11
33.3904717446
 21
55.0516708064
 31
0.0
  0
LINE
  5
347
330
21F
100
AcDbEntity
  8
0
  6
Continuous
 62
     7
100
AcDbLine
 10
39.8904717446
 20
60.09704489729999
 30
0.0
 11
39.8904717446
 21
55.0516708064
 31
0.0
  0
LINE
  5
348
330
21F
100
AcDbEntity
  8
0
  6
Continuous
 62
     7
100
AcDbLine
 10
33.3904717446
 20
56.3850041397
 30
0.0
 11
28.0571384112
 21
56.3850041397
 31
0.0
  0
LINE
  5
349
330
21F
100
AcDbEntity
  8
0
  6
Continuous
 62
     7
100
AcDbLine
 10
39.8904717446
 20
56.3850041397
 30
0.0
 11
44.7470900922
 21
56.3850041397
 31
0.0
  0
INSERT
  5
34A
330
21F
100
AcDbEntity
  8
0
  6
Continuous
 62
     7
100
AcDbBlockReference
  2
_FILLED
 10
33.3904717446
 20
56.3850041397
 30
0.0
 41
2.0
 42
2.0
 43
2.0
  0
INSERT
  5
34B
330
21F
100
AcDbEntity
  8
0
  6
Continuous
 62
     7
100
AcDbBlockReference
  2
_FILLED
 10
39.8904717446
 20
56.3850041397
 30
0.0
 41
2.0
 42
2.0
 43
2.0
 50
180.0
  0
ENDBLK
  5
34C
330
21F
100
AcDbEntity
  8
0
  6
ByBlock
 62
     0
100
AcDbBlockEnd
  0
BLOCK
  5
34D
330
220
100
AcDbEntity
  8
0
  6
Continuous
 62
     7
100
AcDbBlockBegin
  2
*D8
 70
     1
 10
0.0
 20
0.0
 30
0.0
  3
*D8
  1

  0
MTEXT
  5
34E
330
220
100
AcDbEntity
  8
0
  6
Continuous
 62
     7
100
AcDbMText
 10
87.98121291459999
 20
84.5118273943
 30
0.0
 40
1.333333333299999
 41
5.333333333299999
 71
     1
 72
     1
  1
3-1/2\P[9]
 73
     1
 44
0.9
  0
LINE
  5
34F
330
220
100
AcDbEntity
  8
0
  6
Continuous
 62
     7
100
AcDbLine
 10
80.44776468930001
 20
74.24247615829999
 30
0.0
 11
86.64787958129998
 21
74.24247615829999
 31
0.0
  0
LINE
  5
350
330
220
100
AcDbEntity
  8
0
  6
Continuous
 62
     7
100
AcDbLine
 10
81.03380576970002
 20
77.74247615829999
 30
0.0
 11
86.64787958129998
 21
77.74247615829999
 31
0.0
  0
LINE
  5
351
330
220
100
AcDbEntity
  8
0
  6
Continuous
 62
     7
100
AcDbLine
 10
85.31454624789999
 20
74.24247615829999
 30
0.0
 11
85.31454624789999
 21
68.9091428249
 31
0.0
  0
LINE
  5
352
330
220
100
AcDbEntity
  8
0
  6
Continuous
 62
     7
100
AcDbLine
 10
85.31454624789999
 20
77.74247615829999
 30
0.0
 11
85.31454624789999
 21
83.8451607276
 31
0.0
  0
LINE
  5
353
330
220
100
AcDbEntity
  8
0
  6
Continuous
 62
     7
100
AcDbLine
 10
85.31454624789999
 20
83.8451607276
 30
0.0
 11
87.31454624790002
 21
83.8451607276
 31
0.0
  0
INSERT
  5
354
330
220
100
AcDbEntity
  8
0
  6
Continuous
 62
     7
100
AcDbBlockReference
  2
_FILLED
 10
85.31454624789999
 20
74.24247615829999
 30
0.0
 41
2.0
 42
2.0
 43
2.0
 50
90.0
  0
INSERT
  5
355
330
220
100
AcDbEntity
  8
0
  6
Continuous
 62
     7
100
AcDbBlockReference
  2
_FILLED
 10
85.31454624789999
 20
77.74247615829999
 30
0.0
 41
2.0
 42
2.0
 43
2.0
 50
270.0
  0
ENDBLK
  5
356
330
220
100
AcDbEntity
  8
0
  6
ByBlock
 62
     0
100
AcDbBlockEnd
  0
BLOCK
  5
357
330
221
100
AcDbEntity
  8
0
  6
Continuous
 62
     7
100
AcDbBlockBegin
  2
*D9
 70
     1
 10
0.0
 20
0.0
 30
0.0
  3
*D9
  1

  0
MTEXT
  5
358
330
221
100
AcDbEntity
  8
0
  6
Continuous
 62
     7
100
AcDbMText
 10
101.317689523
 20
78.3276381786
 30
0.0
 40
1.333333333299999
 41
6.4
 71
     2
 72
     1
  1
23-7/8\P[61]
 73
     1
 44
0.9
  0
LINE
  5
359
330
221
100
AcDbEntity
  8
0
  6
Continuous
 62
     7
100
AcDbLine
 10
74.8283285767
 20
65.7389684809
 30
0.0
 11
102.6510222708
 21
65.73896711439999
 31
0.0
  0
LINE
  5
35A
330
221
100
AcDbEntity
  8
0
  6
Continuous
 62
     7
100
AcDbLine
 10
75.0235661041
 20
89.58297713540002
 30
0.0
 11
102.6510234419
 21
89.5829757785
 31
0.0
  0
LINE
  5
35B
330
221
100
AcDbEntity
  8
0
  6
Continuous
 62
     7
100
AcDbLine
 10
101.3176889375
 20
65.7389671799
 30
0.0
 11
101.3176889375
 21
74.32763817859999
 31
0.0
  0
LINE
  5
35C
330
221
100
AcDbEntity
  8
0
  6
Continuous
 62
     7
100
AcDbLine
 10
101.3176901085
 20
89.58297584399998
 30
0.0
 11
101.3176889375
 21
78.99430484529999
 31
0.0
  0
INSERT
  5
35D
330
221
100
AcDbEntity
  8
0
  6
Continuous
 62
     7
100
AcDbBlockReference
  2
_FILLED
 10
101.3176889375
 20
65.7389671799
 30
0.0
 41
2.0
 42
2.0
 43
2.0
 50
270.0
  0
INSERT
  5
35E
330
221
100
AcDbEntity
  8
0
  6
Continuous
 62
     7
100
AcDbBlockReference
  2
_FILLED
 10
101.3176901085
 20
89.58297584399998
 30
0.0
 41
2.0
 42
2.0
 43
2.0
 50
89.99999366350001
  0
ENDBLK
  5
35F
330
221
100
AcDbEntity
  8
0
  6
ByBlock
 62
     0
100
AcDbBlockEnd
  0
BLOCK
  5
360
330
222
100
AcDbEntity
  8
0
  6
Continuous
 62
     7
100
AcDbBlockBegin
  2
*D10
 70
     1
 10
0.0
 20
0.0
 30
0.0
  3
*D10
  1

  0
MTEXT
  5
361
330
222
100
AcDbEntity
  8
0
  6
Continuous
 62
     7
100
AcDbMText
 10
56.43025517299999
 20
30.0534538586
 30
0.0
 40
1.333333333299999
 41
1.955555555599999
 71
     1
 72
     1
  1
2\Fgdt;{\Fgdt;~}
 73
     1
 44
0.9
  0
LINE
  5
362
330
222
100
AcDbEntity
  8
0
  6
Continuous
 62
     7
100
AcDbLine
 10
35.9321384102
 20
23.6203558824
 30
0.0
 11
55.9748741782
 21
23.6203558824
 31
0.0
  0
ARC
  5
363
330
222
100
AcDbEntity
  8
0
  6
Continuous
 62
     7
100
AcDbCircle
 10
35.2654717435
 20
23.6203558824
 30
0.0
 40
19.3760691013
100
AcDbArc
 50
344.2291287701999
 51
360.0
  0
ARC
  5
364
330
222
100
AcDbEntity
  8
0
  6
Continuous
 62
     7
100
AcDbCircle
 10
35.2654717435
 20
23.6203558824
 30
0.0
 40
19.3760691013
100
AcDbArc
 50
1.5382170406
 51
17.3138608937
  0
LINE
  5
365
330
222
100
AcDbEntity
  8
0
  6
Continuous
 62
     7
100
AcDbLine
 10
53.7635885064
 20
29.3867871919
 30
0.0
 11
55.76358850640001
 21
29.3867871919
 31
0.0
  0
SOLID
  5
366
330
222
100
AcDbEntity
  8
0
  6
Continuous
 62
     7
100
AcDbTrace
 10
54.8712560496
 20
21.6058231734
 30
0.0
 11
54.6415408448
 21
23.6203558824
 31
0.0
 12
54.2054770518
 22
21.6402146047
 32
0.0
 13
54.2054770518
 23
21.6402146047
 33
0.0
  0
SOLID
  5
367
330
222
100
AcDbEntity
  8
0
  6
Continuous
 62
     7
100
AcDbTrace
 10
54.1454975018
 20
26.1082039337
 30
0.0
 11
54.6345585278
 21
24.1404817927
 31
0.0
 12
54.81011338670001
 22
26.1604549615
 32
0.0
 13
54.81011338670001
 23
26.1604549615
 33
0.0
  0
ENDBLK
  5
368
330
222
100
AcDbEntity
  8
0
  6
ByBlock
 62
     0
100
AcDbBlockEnd
  0
BLOCK
  5
369
330
223
100
AcDbEntity
  8
0
  6
Continuous
 62
     7
100
AcDbBlockBegin
  2
*D11
 70
     1
 10
0.0
 20
0.0
 30
0.0
  3
*D11
  1

  0
MTEXT
  5
36A
330
223
100
AcDbEntity
  8
0
  6
Continuous
 62
     7
100
AcDbMText
 10
16.8633020347
 20
63.1196994111
 30
0.0
 40
1.333333333299999
 41
5.333333333299999
 71
     3
 72
     1
  1
1-1/8\P[3]
 73
     1
 44
0.9
  0
LINE
  5
36B
330
223
100
AcDbEntity
  8
0
  6
Continuous
 62
     7
100
AcDbLine
 10
22.5804849429
 20
77.0758094916
 30
0.0
 11
22.5804849433
 21
61.1196994113
 31
0.0
  0
LINE
  5
36C
330
223
100
AcDbEntity
  8
0
  6
Continuous
 62
     7
100
AcDbLine
 10
23.7271242692
 20
77.0758094916
 30
0.0
 11
23.7271242697
 21
61.1196994113
 31
0.0
  0
LINE
  5
36D
330
223
100
AcDbEntity
  8
0
  6
Continuous
 62
     7
100
AcDbLine
 10
22.5804849433
 20
62.4530327446
 30
0.0
 11
17.5299687014
 21
62.4530327446
 31
0.0
  0
LINE
  5
36E
330
223
100
AcDbEntity
  8
0
  6
Continuous
 62
     7
100
AcDbLine
 10
23.7271242696
 20
62.4530327446
 30
0.0
 11
29.0604576029
 21
62.4530327448
 31
0.0
  0
INSERT
  5
36F
330
223
100
AcDbEntity
  8
0
  6
Continuous
 62
     7
100
AcDbBlockReference
  2
_FILLED
 10
22.5804849433
 20
62.4530327446
 30
0.0
 41
2.0
 42
2.0
 43
2.0
  0
INSERT
  5
370
330
223
100
AcDbEntity
  8
0
  6
Continuous
 62
     7
100
AcDbBlockReference
  2
_FILLED
 10
23.7271242696
 20
62.4530327446
 30
0.0
 41
2.0
 42
2.0
 43
2.0
 50
180.0000000017
  0
ENDBLK
  5
371
330
223
100
AcDbEntity
  8
0
  6
ByBlock
 62
     0
100
AcDbBlockEnd
  0
BLOCK
  5
372
330
224
100
AcDbEntity
  8
0
  6
Continuous
 62
     7
100
AcDbBlockBegin
  2
*D12
 70
     1
 10
0.0
 20
0.0
 30
0.0
  3
*D12
  1

  0
MTEXT
  5
373
330
224
100
AcDbEntity
  8
0
  6
Continuous
 62
     7
100
AcDbMText
 10
47.97420490959999
 20
51.49379851199999
 30
0.0
 40
1.333333333299999
 41
7.466666666699999
 71
     2
 72
     1
  1
41-1/2\P[105,4]
 73
     1
 44
0.9
  0
LINE
  5
374
330
224
100
AcDbEntity
  8
0
  6
Continuous
 62
     7
100
AcDbLine
 10
69.2480241801
 20
61.6704461038
 30
0.0
 11
69.2480241801
 21
49.49379851199999
 31
0.0
  0
LINE
  5
375
330
224
100
AcDbEntity
  8
0
  6
Continuous
 62
     7
100
AcDbLine
 10
27.7670523057
 20
64.41595641060001
 30
0.0
 11
27.7670523057
 21
49.49379851199999
 31
0.0
  0
LINE
  5
376
330
224
100
AcDbEntity
  8
0
  6
Continuous
 62
     7
100
AcDbLine
 10
69.2480241801
 20
50.8271318453
 30
0.0
 11
52.9075382429
 21
50.8271318453
 31
0.0
  0
LINE
  5
377
330
224
100
AcDbEntity
  8
0
  6
Continuous
 62
     7
100
AcDbLine
 10
27.7670523057
 20
50.8271318453
 30
0.0
 11
44.1075382429
 21
50.8271318453
 31
0.0
  0
INSERT
  5
378
330
224
100
AcDbEntity
  8
0
  6
Continuous
 62
     7
100
AcDbBlockReference
  2
_FILLED
 10
69.2480241801
 20
50.8271318453
 30
0.0
 41
2.0
 42
2.0
 43
2.0
  0
INSERT
  5
379
330
224
100
AcDbEntity
  8
0
  6
Continuous
 62
     7
100
AcDbBlockReference
  2
_FILLED
 10
27.7670523057
 20
50.8271318453
 30
0.0
 41
2.0
 42
2.0
 43
2.0
 50
180.0
  0
ENDBLK
  5
37A
330
224
100
AcDbEntity
  8
0
  6
ByBlock
 62
     0
100
AcDbBlockEnd
  0
BLOCK
  5
37B
330
225
100
AcDbEntity
  8
0
  6
Continuous
 62
     7
100
AcDbBlockBegin
  2
*D13
 70
     1
 10
0.0
 20
0.0
 30
0.0
  3
*D13
  1

  0
MTEXT
  5
37C
330
225
100
AcDbEntity
  8
0
  6
Continuous
 62
     7
100
AcDbMText
 10
84.3814935634
 20
55.0385399145
 30
0.0
 40
1.333333333299999
 41
5.333333333299999
 71
     1
 72
     1
  1
1-1/8\P[3]
 73
     1
 44
0.9
  0
LINE
  5
37D
330
225
100
AcDbEntity
  8
0
  6
Continuous
 62
     7
100
AcDbLine
 10
49.0571384177
 20
59.81151444079999
 30
0.0
 11
83.0482716
 21
59.8108184268
 31
0.0
  0
LINE
  5
37E
330
225
100
AcDbEntity
  8
0
  6
Continuous
 62
     7
100
AcDbLine
 10
49.0571610501
 20
60.9168107621
 30
0.0
 11
83.04829423239999
 21
60.91611474810001
 31
0.0
  0
LINE
  5
37F
330
225
100
AcDbEntity
  8
0
  6
Continuous
 62
     7
100
AcDbLine
 10
81.71493826689999
 20
59.81084572859999
 30
0.0
 11
81.7148268967
 21
54.37187324789999
 31
0.0
  0
LINE
  5
380
330
225
100
AcDbEntity
  8
0
  6
Continuous
 62
     7
100
AcDbLine
 10
81.7148268967
 20
54.37187324789999
 30
0.0
 11
83.71482689670001
 21
54.37187324789999
 31
0.0
  0
LINE
  5
381
330
225
100
AcDbEntity
  8
0
  6
Continuous
 62
     7
100
AcDbLine
 10
81.7149608993
 20
60.91614204989999
 30
0.0
 11
81.7150701065
 21
66.2494753821
 31
0.0
  0
INSERT
  5
382
330
225
100
AcDbEntity
  8
0
  6
Continuous
 62
     7
100
AcDbBlockReference
  2
_FILLED
 10
81.71493826689999
 20
59.81084572859999
 30
0.0
 41
2.0
 42
2.0
 43
2.0
 50
89.99882679219998
  0
INSERT
  5
383
330
225
100
AcDbEntity
  8
0
  6
Continuous
 62
     7
100
AcDbBlockReference
  2
_FILLED
 10
81.7149608993
 20
60.91614204989999
 30
0.0
 41
2.0
 42
2.0
 43
2.0
 50
269.9988267922
  0
ENDBLK
  5
384
330
225
100
AcDbEntity
  8
0
  6
ByBlock
 62
     0
100
AcDbBlockEnd
  0
BLOCK
  5
385
330
226
100
AcDbEntity
  8
0
  6
Continuous
 62
     7
100
AcDbBlockBegin
  2
*D14
 70
     1
 10
0.0
 20
0.0
 30
0.0
  3
*D14
  1

  0
MTEXT
  5
386
330
226
100
AcDbEntity
  8
0
  6
Continuous
 62
     7
100
AcDbMText
 10
84.46134045189999
 20
93.90835827249999
 30
0.0
 40
1.333333333299999
 41
5.333333333299999
 71
     1
 72
     1
  1
2-5/8\P[7]
 73
     1
 44
0.9
  0
LINE
  5
387
330
226
100
AcDbEntity
  8
0
  6
Continuous
 62
     7
100
AcDbLine
 10
79.8557818683
 20
78.40914282479999
 30
0.0
 11
79.8557818683
 21
94.5750249391
 31
0.0
  0
LINE
  5
388
330
226
100
AcDbEntity
  8
0
  6
Continuous
 62
     7
100
AcDbLine
 10
77.28990481939999
 20
87.1032587963
 30
0.0
 11
77.28990481939999
 21
94.5750249391
 31
0.0
  0
LINE
  5
389
330
226
100
AcDbEntity
  8
0
  6
Continuous
 62
     7
100
AcDbLine
 10
79.8557818683
 20
93.2416916058
 30
0.0
 11
83.79467378520001
 21
93.2416916058
 31
0.0
  0
LINE
  5
38A
330
226
100
AcDbEntity
  8
0
  6
Continuous
 62
     7
100
AcDbLine
 10
77.28990481939999
 20
93.2416916058
 30
0.0
 11
71.9565714861
 21
93.2416916058
 31
0.0
  0
INSERT
  5
38B
330
226
100
AcDbEntity
  8
0
  6
Continuous
 62
     7
100
AcDbBlockReference
  2
_FILLED
 10
79.8557818683
 20
93.2416916058
 30
0.0
 41
2.0
 42
2.0
 43
2.0
 50
180.0
  0
INSERT
  5
38C
330
226
100
AcDbEntity
  8
0
  6
Continuous
 62
     7
100
AcDbBlockReference
  2
_FILLED
 10
77.28990481939999
 20
93.2416916058
 30
0.0
 41
2.0
 42
2.0
 43
2.0
  0
ENDBLK
  5
38D
330
226
100
AcDbEntity
  8
0
  6
ByBlock
 62
     0
100
AcDbBlockEnd
  0
BLOCK
  5
38E
330
227
100
AcDbEntity
  8
0
  6
Continuous
 62
     7
100
AcDbBlockBegin
  2
*D15
 70
     1
 10
0.0
 20
0.0
 30
0.0
  3
*D15
  1

  0
MTEXT
  5
38F
330
227
100
AcDbEntity
  8
0
  6
Continuous
 62
     7
100
AcDbMText
 10
42.3740279241
 20
99.6690766132
 30
0.0
 40
1.333333333299999
 41
5.333333333299999
 71
     1
 72
     1
  1
4-1/4\P[11]
 73
     1
 44
0.9
  0
LINE
  5
390
330
227
100
AcDbEntity
  8
0
  6
Continuous
 62
     7
100
AcDbLine
 10
33.3904717446
 20
93.93533166260001
 30
0.0
 11
33.3904717446
 21
100.3357432799
 31
0.0
  0
LINE
  5
391
330
227
100
AcDbEntity
  8
0
  6
Continuous
 62
     7
100
AcDbLine
 10
37.6179717446
 20
95.2435311275
 30
0.0
 11
37.6179717446
 21
100.3357432799
 31
0.0
  0
LINE
  5
392
330
227
100
AcDbEntity
  8
0
  6
Continuous
 62
     7
100
AcDbLine
 10
33.3904717446
 20
99.00240994649999
 30
0.0
 11
28.0571384112
 21
99.00240994649999
 31
0.0
  0
LINE
  5
393
330
227
100
AcDbEntity
  8
0
  6
Continuous
 62
     7
100
AcDbLine
 10
37.6179717446
 20
99.00240994649999
 30
0.0
 11
41.70736125749999
 21
99.00240994649999
 31
0.0
  0
INSERT
  5
394
330
227
100
AcDbEntity
  8
0
  6
Continuous
 62
     7
100
AcDbBlockReference
  2
_FILLED
 10
33.3904717446
 20
99.00240994649999
 30
0.0
 41
2.0
 42
2.0
 43
2.0
  0
INSERT
  5
395
330
227
100
AcDbEntity
  8
0
  6
Continuous
 62
     7
100
AcDbBlockReference
  2
_FILLED
 10
37.6179717446
 20
99.00240994649999
 30
0.0
 41
2.0
 42
2.0
 43
2.0
 50
180.0
  0
ENDBLK
  5
396
330
227
100
AcDbEntity
  8
0
  6
ByBlock
 62
     0
100
AcDbBlockEnd
  0
BLOCK
  5
397
330
228
100
AcDbEntity
  8
0
  6
Continuous
 62
     7
100
AcDbBlockBegin
  2
*D16
 70
     1
 10
0.0
 20
0.0
 30
0.0
  3
*D16
  1

  0
MTEXT
  5
398
330
228
100
AcDbEntity
  8
0
  6
Continuous
 62
     7
100
AcDbMText
 10
27.98517422090001
 20
104.3781261099
 30
0.0
 40
1.333333333299999
 41
6.4
 71
     2
 72
     1
  1
10-3/4\P[27]
 73
     1
 44
0.9
  0
LINE
  5
399
330
228
100
AcDbEntity
  8
0
  6
Continuous
 62
     7
100
AcDbLine
 10
33.3904717446
 20
93.78280331219999
 30
0.0
 11
33.3904717446
 21
105.0447927766
 31
0.0
  0
LINE
  5
39A
330
228
100
AcDbEntity
  8
0
  6
Continuous
 62
     7
100
AcDbLine
 10
22.5798766971
 20
78.409142825
 30
0.0
 11
22.5798766971
 21
105.0447927766
 31
0.0
  0
LINE
  5
39B
330
228
100
AcDbEntity
  8
0
  6
Continuous
 62
     7
100
AcDbLine
 10
33.3904717446
 20
103.7114594433
 30
0.0
 11
38.7238050779
 21
103.7114594433
 31
0.0
  0
LINE
  5
39C
330
228
100
AcDbEntity
  8
0
  6
Continuous
 62
     7
100
AcDbLine
 10
22.5798766971
 20
103.7114594433
 30
0.0
 11
17.2465433638
 21
103.7114594433
 31
0.0
  0
INSERT
  5
39D
330
228
100
AcDbEntity
  8
0
  6
Continuous
 62
     7
100
AcDbBlockReference
  2
_FILLED
 10
33.3904717446
 20
103.7114594433
 30
0.0
 41
2.0
 42
2.0
 43
2.0
 50
180.0
  0
INSERT
  5
39E
330
228
100
AcDbEntity
  8
0
  6
Continuous
 62
     7
100
AcDbBlockReference
  2
_FILLED
 10
22.5798766971
 20
103.7114594433
 30
0.0
 41
2.0
 42
2.0
 43
2.0
  0
ENDBLK
  5
39F
330
228
100
AcDbEntity
  8
0
  6
ByBlock
 62
     0
100
AcDbBlockEnd
  0
BLOCK
  5
3A0
330
229
100
AcDbEntity
  8
0
  6
Continuous
 62
     7
100
AcDbBlockBegin
  2
*D17
 70
     1
 10
0.0
 20
0.0
 30
0.0
  3
*D17
  1

  0
MTEXT
  5
3A1
330
229
100
AcDbEntity
  8
0
  6
Continuous
 62
     7
100
AcDbMText
 10
88.02515468629998
 20
33.1723603193
 30
0.0
 40
1.333333333299999
 41
3.0222222222
 71
     2
 72
     1
  1
31\Fgdt;{\Fgdt;~}
 73
     1
 44
0.9
  0
LINE
  5
3A2
330
229
100
AcDbEntity
  8
0
  6
Continuous
 62
     7
100
AcDbLine
 10
74.9004207178
 20
38.8554183477
 30
0.0
 11
70.7507348994
 21
31.949181382
 31
0.0
  0
LINE
  5
3A3
330
229
100
AcDbEntity
  8
0
  6
Continuous
 62
     7
100
AcDbLine
 10
80.2607653221
 20
41.5833307828
 30
0.0
 11
80.2607653221
 21
29.311816531
 31
0.0
  0
ARC
  5
3A4
330
229
100
AcDbEntity
  8
0
  6
Continuous
 62
     7
100
AcDbCircle
 10
80.2607653221
 20
47.776529891
 30
0.0
 40
17.1313800267
100
AcDbArc
 50
221.162704332
 51
239.0
  0
ARC
  5
3A5
330
229
100
AcDbEntity
  8
0
  6
Continuous
 62
     7
100
AcDbCircle
 10
80.2607653221
 20
47.776529891
 30
0.0
 40
17.1313800267
100
AcDbArc
 50
270.0
 51
296.9508593742
  0
SOLID
  5
3A6
330
229
100
AcDbEntity
  8
0
  6
Continuous
 62
     7
100
AcDbTrace
 10
69.5980756573
 20
33.9451857378
 30
0.0
 11
71.4374523326
 21
33.0920711162
 31
0.0
 12
69.9741872468
 22
34.4956260313
 32
0.0
 13
69.9741872468
 23
34.4956260313
 33
0.0
  0
SOLID
  5
3A7
330
229
100
AcDbEntity
  8
0
  6
Continuous
 62
     7
100
AcDbTrace
 10
82.2379125275
 20
31.0945940094
 30
0.0
 11
80.2607653221
 21
30.6451498643
 31
0.0
 12
82.27680537419999
 22
30.4290627998
 32
0.0
 13
82.27680537419999
 23
30.4290627998
 33
0.0
  0
ENDBLK
  5
3A8
330
229
100
AcDbEntity
  8
0
  6
ByBlock
 62
     0
100
AcDbBlockEnd
  0
BLOCK
  5
3A9
330
22A
100
AcDbEntity
  8
0
  6
Continuous
 62
     7
100
AcDbBlockBegin
  2
*D18
 70
     1
 10
0.0
 20
0.0
 30
0.0
  3
*D18
  1

  0
MTEXT
  5
3AA
330
22A
100
AcDbEntity
  8
0
  6
Continuous
 62
     7
100
AcDbMText
 10
16.9326627945
 20
37.76050247940001
 30
0.0
 40
1.333333333299999
 41
3.0222222222
 71
     2
 72
     1
  1
12\Fgdt;{\Fgdt;~}
 73
     1
 44
0.9
  0
LINE
  5
3AB
330
22A
100
AcDbEntity
  8
0
  6
Continuous
 62
     7
100
AcDbLine
 10
23.4452265304
 20
35.0312202915
 30
0.0
 11
23.4452265304
 21
33.1851763487
 31
0.0
  0
LINE
  5
3AC
330
22A
100
AcDbEntity
  8
0
  6
Continuous
 62
     7
100
AcDbLine
 10
25.1817973405
 20
35.8708349245
 30
0.0
 11
25.7022289172
 21
33.4223968585
 31
0.0
  0
ARC
  5
3AD
330
22A
100
AcDbEntity
  8
0
  6
Continuous
 62
     7
100
AcDbCircle
 10
23.4452265304
 20
44.0407582447
 30
0.0
 40
9.522248562699999
100
AcDbArc
 50
226.8483830389
 51
270.0
  0
ARC
  5
3AE
330
22A
100
AcDbEntity
  8
0
  6
Continuous
 62
     7
100
AcDbCircle
 10
23.4452265304
 20
44.0407582447
 30
0.0
 40
9.522248562699999
100
AcDbArc
 50
282.0
 51
314.0908962545
  0
SOLID
  5
3AF
330
22A
100
AcDbEntity
  8
0
  6
Continuous
 62
     7
100
AcDbTrace
 10
21.4213035844
 20
34.3966613353
 30
0.0
 11
23.4452265304
 21
34.518509682
 31
0.0
 12
21.491186442
 22
35.0596551744
 32
0.0
 13
21.491186442
 23
35.0596551744
 33
0.0
  0
SOLID
  5
3B0
330
22A
100
AcDbEntity
  8
0
  6
Continuous
 62
     7
100
AcDbTrace
 10
27.2238424794
 20
35.6621816033
 30
0.0
 11
25.4250133295
 21
34.7265936595
 31
0.0
 12
27.430042399
 22
35.0282052333
 32
0.0
 13
27.430042399
 23
35.0282052333
 33
0.0
  0
ENDBLK
  5
3B1
330
22A
100
AcDbEntity
  8
0
  6
ByBlock
 62
     0
100
AcDbBlockEnd
  0
BLOCK
  5
234
330
22B
100
AcDbEntity
  8
0
  6
Continuous
 62
     7
100
AcDbBlockBegin
  2
L03-USAGE_INTERNE_SEULEM_BL3
 70
     0
 10
120.2457648498
 20
51.10482573199999
 30
0.0
  3
L03-USAGE_INTERNE_SEULEM_BL3
  1

  0
TEXT
  5
235
330
22B
100
AcDbEntity
  8
0
  6
Continuous
 62
     7
100
AcDbText
 10
113.931704548
 20
53.3498597178
 30
0.0
 40
1.1626666667
  1
INTERNAL USE 
 50
10.0
  7
TEXTSTYLE_3
100
AcDbText
  0
TEXT
  5
236
330
22B
100
AcDbEntity
  8
0
  6
Continuous
 62
     7
100
AcDbText
 10
113.188020344
 20
51.3483385401
 30
0.0
 40
1.1626666667
  1
DOCUMENT ONLY
 50
10.0
  7
TEXTSTYLE_3
100
AcDbText
  0
TEXT
  5
237
330
22B
100
AcDbEntity
  8
0
  6
Continuous
 62
     7
100
AcDbText
 10
118.9727479073
 20
51.0999104896
 30
0.0
 40
1.1626666667
  1
 
 50
10.0
  7
TEXTSTYLE_5
100
AcDbText
  0
TEXT
  5
238
330
22B
100
AcDbEntity
  8
0
  6
Continuous
 62
     7
100
AcDbText
 10
110.5281000243
 20
46.9228160833
 30
0.0
 40
1.1626666667
  1
DOCUMENT POUR USAGE
 50
10.0
  7
TEXTSTYLE_3
100
AcDbText
  0
TEXT
  5
239
330
22B
100
AcDbEntity
  8
0
  6
Continuous
 62
     7
100
AcDbText
 10
110.9571994703
 20
44.90606762289999
 30
0.0
 40
1.1626666667
  1
A L'INTERNE SEULEMENT
 50
10.0
  7
TEXTSTYLE_3
100
AcDbText
  0
LINE
  5
23A
330
22B
100
AcDbEntity
  8
0
  6
Continuous
 62
     7
100
AcDbLine
 10
134.1023165731
 20
46.76129211399999
 30
0.0
 11
134.1090755058
 21
46.7680510467
 31
0.0
  0
LINE
  5
23B
330
22B
100
AcDbEntity
  8
0
  6
Continuous
 62
     7
100
AcDbLine
 10
133.3697470067
 20
46.6321203342
 30
0.0
 11
134.0186284518
 21
47.2810017793
 31
0.0
  0
LINE
  5
23C
330
22B
100
AcDbEntity
  8
0
  6
Continuous
 62
     7
100
AcDbLine
 10
132.6371774403
 20
46.50294855439999
 30
0.0
 11
133.9281813979
 21
47.79395251199999
 31
0.0
  0
LINE
  5
23D
330
22B
100
AcDbEntity
  8
0
  6
Continuous
 62
     7
100
AcDbLine
 10
131.9046078739
 20
46.3737767746
 30
0.0
 11
133.8377343439
 21
48.3069032447
 31
0.0
  0
LINE
  5
23E
330
22B
100
AcDbEntity
  8
0
  6
Continuous
 62
     7
100
AcDbLine
 10
131.1720383074
 20
46.24460499479999
 30
0.0
 11
133.74728729
 21
48.81985397729999
 31
0.0
  0
LINE
  5
23F
330
22B
100
AcDbEntity
  8
0
  6
Continuous
 62
     7
100
AcDbLine
 10
130.439468741
 20
46.115433215
 30
0.0
 11
131.9804725558
 21
47.65643702979999
 31
0.0
  0
LINE
  5
240
330
22B
100
AcDbEntity
  8
0
  6
Continuous
 62
     7
100
AcDbLine
 10
132.5778177485
 20
48.2537822225
 30
0.0
 11
133.656840236
 21
49.33280470999999
 31
0.0
  0
LINE
  5
241
330
22B
100
AcDbEntity
  8
0
  6
Continuous
 62
     7
100
AcDbLine
 10
129.7068991746
 20
45.9862614352
 30
0.0
 11
131.2479029894
 21
47.52726524999999
 31
0.0
  0
LINE
  5
242
330
22B
100
AcDbEntity
  8
0
  6
Continuous
 62
     7
100
AcDbLine
 10
132.4873706946
 20
48.7667329552
 30
0.0
 11
133.5663931821
 21
49.84575544270001
 31
0.0
  0
LINE
  5
243
330
22B
100
AcDbEntity
  8
0
  6
Continuous
 62
     7
100
AcDbLine
 10
128.9743296082
 20
45.8570896554
 30
0.0
 11
130.515333423
 21
47.3980934701
 31
0.0
  0
LINE
  5
244
330
22B
100
AcDbEntity
  8
0
  6
Continuous
 62
     7
100
AcDbLine
 10
132.3969236406
 20
49.2796836878
 30
0.0
 11
133.4759461282
 21
50.3587061753
 31
0.0
  0
LINE
  5
245
330
22B
100
AcDbEntity
  8
0
  6
Continuous
 62
     7
100
AcDbLine
 10
128.2417600418
 20
45.7279178756
 30
0.0
 11
129.7827638565
 21
47.2689216903
 31
0.0
  0
LINE
  5
246
330
22B
100
AcDbEntity
  8
0
  6
Continuous
 62
     7
100
AcDbLine
 10
132.3064765867
 20
49.7926344205
 30
0.0
 11
133.3854990742
 21
50.871656908
 31
0.0
  0
LINE
  5
247
330
22B
100
AcDbEntity
  8
0
  6
Continuous
 62
     7
100
AcDbLine
 10
127.5091904754
 20
45.59874609579999
 30
0.0
 11
129.0501942901
 21
47.1397499105
 31
0.0
  0
LINE
  5
248
330
22B
100
AcDbEntity
  8
0
  6
Continuous
 62
     7
100
AcDbLine
 10
132.2160295328
 20
50.3055851532
 30
0.0
 11
133.2950520203
 21
51.3846076407
 31
0.0
  0
LINE
  5
249
330
22B
100
AcDbEntity
  8
0
  6
Continuous
 62
     7
100
AcDbLine
 10
126.7766209089
 20
45.469574316
 30
0.0
 11
128.3176247237
 21
47.0105781307
 31
0.0
  0
LINE
  5
24A
330
22B
100
AcDbEntity
  8
0
  6
Continuous
 62
     7
100
AcDbLine
 10
132.1255824788
 20
50.81853588579999
 30
0.0
 11
133.2046049663
 21
51.8975583733
 31
0.0
  0
LINE
  5
24B
330
22B
100
AcDbEntity
  8
0
  6
Continuous
 62
     7
100
AcDbLine
 10
126.0440513425
 20
45.34040253609999
 30
0.0
 11
127.5850551573
 21
46.88140635089999
 31
0.0
  0
LINE
  5
24C
330
22B
100
AcDbEntity
  8
0
  6
Continuous
 62
     7
100
AcDbLine
 10
132.0351354249
 20
51.3314866185
 30
0.0
 11
133.1141579124
 21
52.41050910600001
 31
0.0
  0
LINE
  5
24D
330
22B
100
AcDbEntity
  8
0
  6
Continuous
 62
     7
100
AcDbLine
 10
125.3114817761
 20
45.2112307563
 30
0.0
 11
126.8524855909
 21
46.75223457109999
 31
0.0
  0
LINE
  5
24E
330
22B
100
AcDbEntity
  8
0
  6
Continuous
 62
     7
100
AcDbLine
 10
131.9446883709
 20
51.8444373512
 30
0.0
 11
133.0237108584
 21
52.92345983869999
 31
0.0
  0
LINE
  5
24F
330
22B
100
AcDbEntity
  8
0
  6
Continuous
 62
     7
100
AcDbLine
 10
124.5789122097
 20
45.08205897649999
 30
0.0
 11
126.1199160245
 21
46.6230627913
 31
0.0
  0
LINE
  5
250
330
22B
100
AcDbEntity
  8
0
  6
Continuous
 62
     7
100
AcDbLine
 10
131.854241317
 20
52.3573880838
 30
0.0
 11
132.9332638045
 21
53.4364105713
 31
0.0
  0
LINE
  5
251
330
22B
100
AcDbEntity
  8
0
  6
Continuous
 62
     7
100
AcDbLine
 10
123.8463426433
 20
44.95288719669999
 30
0.0
 11
125.387346458
 21
46.49389101149999
 31
0.0
  0
LINE
  5
252
330
22B
100
AcDbEntity
  8
0
  6
Continuous
 62
     7
100
AcDbLine
 10
131.5513617172
 20
52.6579062706
 30
0.0
 11
132.8428167506
 21
53.94936130399999
 31
0.0
  0
LINE
  5
253
330
22B
100
AcDbEntity
  8
0
  6
Continuous
 62
     7
100
AcDbLine
 10
123.1137730768
 20
44.82371541689999
 30
0.0
 11
124.6547768916
 21
46.3647192317
 31
0.0
  0
LINE
  5
254
330
22B
100
AcDbEntity
  8
0
  6
Continuous
 62
     7
100
AcDbLine
 10
130.8187921507
 20
52.52873449079999
 30
0.0
 11
132.7523696966
 21
54.4623120367
 31
0.0
  0
LINE
  5
255
330
22B
100
AcDbEntity
  8
0
  6
Continuous
 62
     7
100
AcDbLine
 10
122.3812035104
 20
44.69454363709999
 30
0.0
 11
123.9222073252
 21
46.23554745189999
 31
0.0
  0
LINE
  5
256
330
22B
100
AcDbEntity
  8
0
  6
Continuous
 62
     7
100
AcDbLine
 10
130.0862225843
 20
52.399562711
 30
0.0
 11
131.1135648826
 21
53.4269050093
 31
0.0
  0
LINE
  5
257
330
22B
100
AcDbEntity
  8
0
  6
Continuous
 62
     7
100
AcDbLine
 10
131.5829001551
 20
53.8962402818
 30
0.0
 11
132.6619226427
 21
54.9752627694
 31
0.0
  0
LINE
  5
258
330
22B
100
AcDbEntity
  8
0
  6
Continuous
 62
     7
100
AcDbLine
 10
121.648633944
 20
44.56537185729999
 30
0.0
 11
123.1896377588
 21
46.1063756721
 31
0.0
  0
LINE
  5
259
330
22B
100
AcDbEntity
  8
0
  6
Continuous
 62
     7
100
AcDbLine
 10
129.3536530179
 20
52.2703909312
 30
0.0
 11
130.3809951065
 21
53.2977330199
 31
0.0
  0
LINE
  5
25A
330
22B
100
AcDbEntity
  8
0
  6
Continuous
 62
     7
100
AcDbLine
 10
131.4924531012
 20
54.40919101449999
 30
0.0
 11
132.5714755887
 21
55.488213502
 31
0.0
  0
LINE
  5
25B
330
22B
100
AcDbEntity
  8
0
  6
Continuous
 62
     7
100
AcDbLine
 10
120.9160643776
 20
44.43620007749999
 30
0.0
 11
122.4570681924
 21
45.9772038923
 31
0.0
  0
LINE
  5
25C
330
22B
100
AcDbEntity
  8
0
  6
Continuous
 62
     7
100
AcDbLine
 10
128.6210834515
 20
52.1412191514
 30
0.0
 11
129.6484253305
 21
53.1685610304
 31
0.0
  0
LINE
  5
25D
330
22B
100
AcDbEntity
  8
0
  6
Continuous
 62
     7
100
AcDbLine
 10
131.4020060473
 20
54.9221417472
 30
0.0
 11
132.4810285348
 21
56.0011642347
 31
0.0
  0
LINE
  5
25E
330
22B
100
AcDbEntity
  8
0
  6
Continuous
 62
     7
100
AcDbLine
 10
120.1834948112
 20
44.30702829770001
 30
0.0
 11
121.724498626
 21
45.8480321125
 31
0.0
  0
LINE
  5
25F
330
22B
100
AcDbEntity
  8
0
  6
Continuous
 62
     7
100
AcDbLine
 10
127.8885138851
 20
52.0120473716
 30
0.0
 11
128.9158555545
 21
53.039389041
 31
0.0
  0
LINE
  5
260
330
22B
100
AcDbEntity
  8
0
  6
Continuous
 62
     7
100
AcDbLine
 10
131.3115589933
 20
55.4350924798
 30
0.0
 11
132.3905814808
 21
56.51411496739999
 31
0.0
  0
LINE
  5
261
330
22B
100
AcDbEntity
  8
0
  6
Continuous
 62
     7
100
AcDbLine
 10
119.4509252448
 20
44.1778565179
 30
0.0
 11
120.9919290595
 21
45.7188603327
 31
0.0
  0
LINE
  5
262
330
22B
100
AcDbEntity
  8
0
  6
Continuous
 62
     7
100
AcDbLine
 10
127.1559443186
 20
51.8828755918
 30
0.0
 11
128.1832857785
 21
52.9102170516
 31
0.0
  0
LINE
  5
263
330
22B
100
AcDbEntity
  8
0
  6
Continuous
 62
     7
100
AcDbLine
 10
131.2211119394
 20
55.94804321249999
 30
0.0
 11
132.3001344269
 21
57.0270657
 31
0.0
  0
LINE
  5
264
330
22B
100
AcDbEntity
  8
0
  6
Continuous
 62
     7
100
AcDbLine
 10
118.7183556783
 20
44.0486847381
 30
0.0
 11
120.2593594931
 21
45.58968855289999
 31
0.0
  0
LINE
  5
265
330
22B
100
AcDbEntity
  8
0
  6
Continuous
 62
     7
100
AcDbLine
 10
126.4233747522
 20
51.753703812
 30
0.0
 11
127.4507160024
 21
52.7810450622
 31
0.0
  0
LINE
  5
266
330
22B
100
AcDbEntity
  8
0
  6
Continuous
 62
     7
100
AcDbLine
 10
131.1306648854
 20
56.4609939452
 30
0.0
 11
132.2096873729
 21
57.54001643270001
 31
0.0
  0
LINE
  5
267
330
22B
100
AcDbEntity
  8
0
  6
Continuous
 62
     7
100
AcDbLine
 10
117.9857861119
 20
43.9195129583
 30
0.0
 11
119.5267899267
 21
45.4605167731
 31
0.0
  0
LINE
  5
268
330
22B
100
AcDbEntity
  8
0
  6
Continuous
 62
     7
100
AcDbLine
 10
125.6908051858
 20
51.6245320322
 30
0.0
 11
126.7181462264
 21
52.6518730728
 31
0.0
  0
LINE
  5
269
330
22B
100
AcDbEntity
  8
0
  6
Continuous
 62
     7
100
AcDbLine
 10
131.0402178315
 20
56.9739446779
 30
0.0
 11
132.119240319
 21
58.0529671654
 31
0.0
  0
LINE
  5
26A
330
22B
100
AcDbEntity
  8
0
  6
Continuous
 62
     7
100
AcDbLine
 10
117.2532165455
 20
43.79034117849999
 30
0.0
 11
118.7942203603
 21
45.3313449933
 31
0.0
  0
LINE
  5
26B
330
22B
100
AcDbEntity
  8
0
  6
Continuous
 62
     7
100
AcDbLine
 10
124.9582356194
 20
51.49536025239999
 30
0.0
 11
125.9855764504
 21
52.5227010834
 31
0.0
  0
LINE
  5
26C
330
22B
100
AcDbEntity
  8
0
  6
Continuous
 62
     7
100
AcDbLine
 10
130.9497707775
 20
57.4868954105
 30
0.0
 11
132.0287932651
 21
58.565917898
 31
0.0
  0
LINE
  5
26D
330
22B
100
AcDbEntity
  8
0
  6
Continuous
 62
     7
100
AcDbLine
 10
116.5206469791
 20
43.66116939869999
 30
0.0
 11
118.0616507939
 21
45.2021732135
 31
0.0
  0
LINE
  5
26E
330
22B
100
AcDbEntity
  8
0
  6
Continuous
 62
     7
100
AcDbLine
 10
124.225666053
 20
51.3661884726
 30
0.0
 11
125.2530066743
 21
52.3935290939
 31
0.0
  0
LINE
  5
26F
330
22B
100
AcDbEntity
  8
0
  6
Continuous
 62
     7
100
AcDbLine
 10
130.8593237236
 20
57.99984614319999
 30
0.0
 11
131.9383462111
 21
59.07886863069999
 31
0.0
  0
LINE
  5
270
330
22B
100
AcDbEntity
  8
0
  6
Continuous
 62
     7
100
AcDbLine
 10
115.7880774127
 20
43.5319976189
 30
0.0
 11
117.3290812274
 21
45.0730014337
 31
0.0
  0
LINE
  5
271
330
22B
100
AcDbEntity
  8
0
  6
Continuous
 62
     7
100
AcDbLine
 10
123.4930964866
 20
51.23701669279999
 30
0.0
 11
124.5204368983
 21
52.2643571045
 31
0.0
  0
LINE
  5
272
330
22B
100
AcDbEntity
  8
0
  6
Continuous
 62
     7
100
AcDbLine
 10
130.6844476222
 20
58.4283678284
 30
0.0
 11
131.8478991572
 21
59.5918193634
 31
0.0
  0
LINE
  5
273
330
22B
100
AcDbEntity
  8
0
  6
Continuous
 62
     7
100
AcDbLine
 10
115.0555078463
 20
43.40282583909999
 30
0.0
 11
116.596511661
 21
44.9438296538
 31
0.0
  0
LINE
  5
274
330
22B
100
AcDbEntity
  8
0
  6
Continuous
 62
     7
100
AcDbLine
 10
122.7605269201
 20
51.107844913
 30
0.0
 11
123.7878671223
 21
52.1351851151
 31
0.0
  0
LINE
  5
275
330
22B
100
AcDbEntity
  8
0
  6
Continuous
 62
     7
100
AcDbLine
 10
129.9518780558
 20
58.29919604859999
 30
0.0
 11
131.4928818705
 21
59.8401998634
 31
0.0
  0
LINE
  5
276
330
22B
100
AcDbEntity
  8
0
  6
Continuous
 62
     7
100
AcDbLine
 10
114.3229382798
 20
43.2736540593
 30
0.0
 11
115.8639420946
 21
44.814657874
 31
0.0
  0
LINE
  5
277
330
22B
100
AcDbEntity
  8
0
  6
Continuous
 62
     7
100
AcDbLine
 10
122.0279573537
 20
50.9786731331
 30
0.0
 11
123.0552973463
 21
52.00601312569999
 31
0.0
  0
LINE
  5
278
330
22B
100
AcDbEntity
  8
0
  6
Continuous
 62
     7
100
AcDbLine
 10
129.2193084893
 20
58.1700242688
 30
0.0
 11
130.7603123041
 21
59.7110280836
 31
0.0
  0
LINE
  5
279
330
22B
100
AcDbEntity
  8
0
  6
Continuous
 62
     7
100
AcDbLine
 10
113.5903687134
 20
43.14448227949999
 30
0.0
 11
115.1313725282
 21
44.68548609419999
 31
0.0
  0
LINE
  5
27A
330
22B
100
AcDbEntity
  8
0
  6
Continuous
 62
     7
100
AcDbLine
 10
121.2953877873
 20
50.8495013533
 30
0.0
 11
122.3227275702
 21
51.8768411363
 31
0.0
  0
LINE
  5
27B
330
22B
100
AcDbEntity
  8
0
  6
Continuous
 62
     7
100
AcDbLine
 10
128.4867389229
 20
58.04085248899999
 30
0.0
 11
130.0277427377
 21
59.5818563037
 31
0.0
  0
LINE
  5
27C
330
22B
100
AcDbEntity
  8
0
  6
Continuous
 62
     7
100
AcDbLine
 10
112.857799147
 20
43.0153104997
 30
0.0
 11
114.3988029618
 21
44.55631431439999
 31
0.0
  0
LINE
  5
27D
330
22B
100
AcDbEntity
  8
0
  6
Continuous
 62
     7
100
AcDbLine
 10
120.5628182209
 20
50.7203295735
 30
0.0
 11
121.5901577942
 21
51.7476691469
 31
0.0
  0
LINE
  5
27E
330
22B
100
AcDbEntity
  8
0
  6
Continuous
 62
     7
100
AcDbLine
 10
127.7541693565
 20
57.9116807092
 30
0.0
 11
129.2951731712999
 21
59.4526845239
 31
0.0
  0
LINE
  5
27F
330
22B
100
AcDbEntity
  8
0
  6
Continuous
 62
     7
100
AcDbLine
 10
112.1252295806
 20
42.88613871979999
 30
0.0
 11
113.6662333954
 21
44.4271425346
 31
0.0
  0
LINE
  5
280
330
22B
100
AcDbEntity
  8
0
  6
Continuous
 62
     7
100
AcDbLine
 10
119.8302486545
 20
50.59115779369999
 30
0.0
 11
120.8575880182
 21
51.6184971574
 31
0.0
  0
LINE
  5
281
330
22B
100
AcDbEntity
  8
0
  6
Continuous
 62
     7
100
AcDbLine
 10
127.0215997901
 20
57.7825089294
 30
0.0
 11
128.5626036049
 21
59.3235127441
 31
0.0
  0
LINE
  5
282
330
22B
100
AcDbEntity
  8
0
  6
Continuous
 62
     7
100
AcDbLine
 10
111.3926600142
 20
42.75696693999999
 30
0.0
 11
112.9336638289
 21
44.29797075479999
 31
0.0
  0
LINE
  5
283
330
22B
100
AcDbEntity
  8
0
  6
Continuous
 62
     7
100
AcDbLine
 10
119.097679088
 20
50.4619860139
 30
0.0
 11
120.1250182421
 21
51.489325168
 31
0.0
  0
LINE
  5
284
330
22B
100
AcDbEntity
  8
0
  6
Continuous
 62
     7
100
AcDbLine
 10
126.2890302237
 20
57.6533371496
 30
0.0
 11
127.8300340384
 21
59.1943409643
 31
0.0
  0
LINE
  5
285
330
22B
100
AcDbEntity
  8
0
  6
Continuous
 62
     7
100
AcDbLine
 10
110.6600904477
 20
42.6277951602
 30
0.0
 11
112.2010942625
 21
44.168798975
 31
0.0
  0
LINE
  5
286
330
22B
100
AcDbEntity
  8
0
  6
Continuous
 62
     7
100
AcDbLine
 10
118.3651095216
 20
50.3328142341
 30
0.0
 11
119.3924484661
 21
51.3601531786
 31
0.0
  0
LINE
  5
287
330
22B
100
AcDbEntity
  8
0
  6
Continuous
 62
     7
100
AcDbLine
 10
125.5564606573
 20
57.5241653697
 30
0.0
 11
127.097464472
 21
59.0651691845
 31
0.0
  0
LINE
  5
288
330
22B
100
AcDbEntity
  8
0
  6
Continuous
 62
     7
100
AcDbLine
 10
109.9275208813
 20
42.49862338039999
 30
0.0
 11
111.4685246961
 21
44.0396271952
 31
0.0
  0
LINE
  5
289
330
22B
100
AcDbEntity
  8
0
  6
Continuous
 62
     7
100
AcDbLine
 10
117.6325399552
 20
50.2036424543
 30
0.0
 11
118.6598786901
 21
51.2309811892
 31
0.0
  0
LINE
  5
28A
330
22B
100
AcDbEntity
  8
0
  6
Continuous
 62
     7
100
AcDbLine
 10
124.8238910908
 20
57.39499358989999
 30
0.0
 11
126.3648949056
 21
58.9359974047
 31
0.0
  0
LINE
  5
28B
330
22B
100
AcDbEntity
  8
0
  6
Continuous
 62
     7
100
AcDbLine
 10
109.1949513149
 20
42.3694516006
 30
0.0
 11
110.7359551297
 21
43.9104554154
 31
0.0
  0
LINE
  5
28C
330
22B
100
AcDbEntity
  8
0
  6
Continuous
 62
     7
100
AcDbLine
 10
116.8999703888
 20
50.0744706745
 30
0.0
 11
117.9273089141
 21
51.10180919979999
 31
0.0
  0
LINE
  5
28D
330
22B
100
AcDbEntity
  8
0
  6
Continuous
 62
     7
100
AcDbLine
 10
124.0913215244
 20
57.2658218101
 30
0.0
 11
125.6323253392
 21
58.8068256249
 31
0.0
  0
LINE
  5
28E
330
22B
100
AcDbEntity
  8
0
  6
Continuous
 62
     7
100
AcDbLine
 10
108.6436305424
 20
42.42152861469999
 30
0.0
 11
110.0033855633
 21
43.78128363560001
 31
0.0
  0
LINE
  5
28F
330
22B
100
AcDbEntity
  8
0
  6
Continuous
 62
     7
100
AcDbLine
 10
116.1674008224
 20
49.9452988947
 30
0.0
 11
117.194739138
 21
50.9726372104
 31
0.0
  0
LINE
  5
290
330
22B
100
AcDbEntity
  8
0
  6
Continuous
 62
     7
100
AcDbLine
 10
123.358751958
 20
57.1366500303
 30
0.0
 11
124.8997557728
 21
58.67765384510001
 31
0.0
  0
LINE
  5
291
330
22B
100
AcDbEntity
  8
0
  6
Continuous
 62
     7
100
AcDbLine
 10
108.5531834884
 20
42.9344793474
 30
0.0
 11
109.632205976
 21
44.01350183489999
 31
0.0
  0
LINE
  5
292
330
22B
100
AcDbEntity
  8
0
  6
Continuous
 62
     7
100
AcDbLine
 10
115.434831256
 20
49.8161271149
 30
0.0
 11
116.462169362
 21
50.8434652209
 31
0.0
  0
LINE
  5
293
330
22B
100
AcDbEntity
  8
0
  6
Continuous
 62
     7
100
AcDbLine
 10
122.6261823916
 20
57.0074782505
 30
0.0
 11
124.1671862064
 21
58.5484820653
 31
0.0
  0
LINE
  5
294
330
22B
100
AcDbEntity
  8
0
  6
Continuous
 62
     7
100
AcDbLine
 10
108.4627364345
 20
43.4474300801
 30
0.0
 11
109.541758922
 21
44.5264525676
 31
0.0
  0
LINE
  5
295
330
22B
100
AcDbEntity
  8
0
  6
Continuous
 62
     7
100
AcDbLine
 10
114.7022616895
 20
49.6869553351
 30
0.0
 11
115.729599586
 21
50.71429323149999
 31
0.0
  0
LINE
  5
296
330
22B
100
AcDbEntity
  8
0
  6
Continuous
 62
     7
100
AcDbLine
 10
121.8936128252
 20
56.8783064707
 30
0.0
 11
123.4346166399
 21
58.4193102855
 31
0.0
  0
LINE
  5
297
330
22B
100
AcDbEntity
  8
0
  6
Continuous
 62
     7
100
AcDbLine
 10
108.3722893806
 20
43.9603808127
 30
0.0
 11
109.4513118681
 21
45.0394033002
 31
0.0
  0
LINE
  5
298
330
22B
100
AcDbEntity
  8
0
  6
Continuous
 62
     7
100
AcDbLine
 10
113.9696921231
 20
49.5577835553
 30
0.0
 11
114.9970298099
 21
50.5851212421
 31
0.0
  0
LINE
  5
299
330
22B
100
AcDbEntity
  8
0
  6
Continuous
 62
     7
100
AcDbLine
 10
121.1610432587
 20
56.7491346909
 30
0.0
 11
122.7020470735
 21
58.29013850569999
 31
0.0
  0
LINE
  5
29A
330
22B
100
AcDbEntity
  8
0
  6
Continuous
 62
     7
100
AcDbLine
 10
108.2818423266
 20
44.47333154539999
 30
0.0
 11
109.3608648141
 21
45.5523540329
 31
0.0
  0
LINE
  5
29B
330
22B
100
AcDbEntity
  8
0
  6
Continuous
 62
     7
100
AcDbLine
 10
113.2371225567
 20
49.4286117755
 30
0.0
 11
114.2644600339
 21
50.4559492527
 31
0.0
  0
LINE
  5
29C
330
22B
100
AcDbEntity
  8
0
  6
Continuous
 62
     7
100
AcDbLine
 10
120.4284736923
 20
56.6199629111
 30
0.0
 11
121.9694775071
 21
58.1609667259
 31
0.0
  0
LINE
  5
29D
330
22B
100
AcDbEntity
  8
0
  6
Continuous
 62
     7
100
AcDbLine
 10
108.1913952727
 20
44.98628227810001
 30
0.0
 11
109.2704177602
 21
46.0653047656
 31
0.0
  0
LINE
  5
29E
330
22B
100
AcDbEntity
  8
0
  6
Continuous
 62
     7
100
AcDbLine
 10
112.5045529903
 20
49.29943999569999
 30
0.0
 11
113.5318902579
 21
50.3267772633
 31
0.0
  0
LINE
  5
29F
330
22B
100
AcDbEntity
  8
0
  6
Continuous
 62
     7
100
AcDbLine
 10
119.6959041259
 20
56.49079113129999
 30
0.0
 11
121.2369079407
 21
58.0317949461
 31
0.0
  0
LINE
  5
2A0
330
22B
100
AcDbEntity
  8
0
  6
Continuous
 62
     7
100
AcDbLine
 10
108.1009482187
 20
45.49923301069999
 30
0.0
 11
109.1799707062
 21
46.57825549819999
 31
0.0
  0
LINE
  5
2A1
330
22B
100
AcDbEntity
  8
0
  6
Continuous
 62
     7
100
AcDbLine
 10
111.7719834239
 20
49.1702682159
 30
0.0
 11
112.7993204819
 21
50.1976052739
 31
0.0
  0
LINE
  5
2A2
330
22B
100
AcDbEntity
  8
0
  6
Continuous
 62
     7
100
AcDbLine
 10
118.9633345595
 20
56.36161935149999
 30
0.0
 11
120.5043383743
 21
57.9026231663
 31
0.0
  0
LINE
  5
2A3
330
22B
100
AcDbEntity
  8
0
  6
Continuous
 62
     7
100
AcDbLine
 10
108.0105011648
 20
46.0121837434
 30
0.0
 11
109.0895236523
 21
47.0912062309
 31
0.0
  0
LINE
  5
2A4
330
22B
100
AcDbEntity
  8
0
  6
Continuous
 62
     7
100
AcDbLine
 10
111.0394138574
 20
49.0410964361
 30
0.0
 11
112.0667507058
 21
50.06843328449999
 31
0.0
  0
LINE
  5
2A5
330
22B
100
AcDbEntity
  8
0
  6
Continuous
 62
     7
100
AcDbLine
 10
118.2307649931
 20
56.2324475717
 30
0.0
 11
119.7717688079
 21
57.7734513865
 31
0.0
  0
LINE
  5
2A6
330
22B
100
AcDbEntity
  8
0
  6
Continuous
 62
     7
100
AcDbLine
 10
107.9200541108
 20
46.5251344761
 30
0.0
 11
108.9990765984
 21
47.60415696359999
 31
0.0
  0
LINE
  5
2A7
330
22B
100
AcDbEntity
  8
0
  6
Continuous
 62
     7
100
AcDbLine
 10
110.306844291
 20
48.9119246563
 30
0.0
 11
111.3341809298
 21
49.939261295
 31
0.0
  0
LINE
  5
2A8
330
22B
100
AcDbEntity
  8
0
  6
Continuous
 62
     7
100
AcDbLine
 10
117.4981954267
 20
56.10327579189999
 30
0.0
 11
119.0391992414
 21
57.6442796067
 31
0.0
  0
LINE
  5
2A9
330
22B
100
AcDbEntity
  8
0
  6
Continuous
 62
     7
100
AcDbLine
 10
107.8296070569
 20
47.0380852087
 30
0.0
 11
108.9086295444
 21
48.1171076963
 31
0.0
  0
LINE
  5
2AA
330
22B
100
AcDbEntity
  8
0
  6
Continuous
 62
     7
100
AcDbLine
 10
109.5742747246
 20
48.7827528765
 30
0.0
 11
110.6016111538
 21
49.8100893056
 31
0.0
  0
LINE
  5
2AB
330
22B
100
AcDbEntity
  8
0
  6
Continuous
 62
     7
100
AcDbLine
 10
116.7656258602
 20
55.9741040121
 30
0.0
 11
118.306629675
 21
57.51510782689999
 31
0.0
  0
LINE
  5
2AC
330
22B
100
AcDbEntity
  8
0
  6
Continuous
 62
     7
100
AcDbLine
 10
107.7391600029
 20
47.5510359414
 30
0.0
 11
108.8181824905
 21
48.6300584289
 31
0.0
  0
LINE
  5
2AD
330
22B
100
AcDbEntity
  8
0
  6
Continuous
 62
     7
100
AcDbLine
 10
108.8417051582
 20
48.6535810967
 30
0.0
 11
109.8690413777
 21
49.6809173162
 31
0.0
  0
LINE
  5
2AE
330
22B
100
AcDbEntity
  8
0
  6
Continuous
 62
     7
100
AcDbLine
 10
116.0330562938
 20
55.84493223229999
 30
0.0
 11
117.5740601086
 21
57.38593604710001
 31
0.0
  0
LINE
  5
2AF
330
22B
100
AcDbEntity
  8
0
  6
Continuous
 62
     7
100
AcDbLine
 10
107.648712949
 20
48.0639866741
 30
0.0
 11
109.1364716017
 21
49.5517453268
 31
0.0
  0
LINE
  5
2B0
330
22B
100
AcDbEntity
  8
0
  6
Continuous
 62
     7
100
AcDbLine
 10
115.3004867274
 20
55.7157604525
 30
0.0
 11
116.8414905422
 21
57.2567642672
 31
0.0
  0
LINE
  5
2B1
330
22B
100
AcDbEntity
  8
0
  6
Continuous
 62
     7
100
AcDbLine
 10
107.5582658951
 20
48.5769374067
 30
0.0
 11
108.6372883826
 21
49.6559598943
 31
0.0
  0
LINE
  5
2B2
330
22B
100
AcDbEntity
  8
0
  6
Continuous
 62
     7
100
AcDbLine
 10
114.567917161
 20
55.58658867270001
 30
0.0
 11
116.1089209758
 21
57.1275924874
 31
0.0
  0
LINE
  5
2B3
330
22B
100
AcDbEntity
  8
0
  6
Continuous
 62
     7
100
AcDbLine
 10
107.4678188411
 20
49.08988813939999
 30
0.0
 11
108.5468413286
 21
50.1689106269
 31
0.0
  0
LINE
  5
2B4
330
22B
100
AcDbEntity
  8
0
  6
Continuous
 62
     7
100
AcDbLine
 10
113.8353475946
 20
55.4574168929
 30
0.0
 11
115.3763514093
 21
56.9984207076
 31
0.0
  0
LINE
  5
2B5
330
22B
100
AcDbEntity
  8
0
  6
Continuous
 62
     7
100
AcDbLine
 10
107.3773717872
 20
49.6028388721
 30
0.0
 11
108.4563942747
 21
50.6818613596
 31
0.0
  0
LINE
  5
2B6
330
22B
100
AcDbEntity
  8
0
  6
Continuous
 62
     7
100
AcDbLine
 10
113.1027780282
 20
55.3282451131
 30
0.0
 11
114.6437818429
 21
56.86924892779999
 31
0.0
  0
LINE
  5
2B7
330
22B
100
AcDbEntity
  8
0
  6
Continuous
 62
     7
100
AcDbLine
 10
107.2869247332
 20
50.1157896047
 30
0.0
 11
108.3659472207
 21
51.19481209229999
 31
0.0
  0
LINE
  5
2B8
330
22B
100
AcDbEntity
  8
0
  6
Continuous
 62
     7
100
AcDbLine
 10
112.3702084617
 20
55.19907333329999
 30
0.0
 11
113.9112122765
 21
56.740077148
 31
0.0
  0
LINE
  5
2B9
330
22B
100
AcDbEntity
  8
0
  6
Continuous
 62
     7
100
AcDbLine
 10
107.1964776793
 20
50.6287403374
 30
0.0
 11
108.2755001668
 21
51.70776282489999
 31
0.0
  0
LINE
  5
2BA
330
22B
100
AcDbEntity
  8
0
  6
Continuous
 62
     7
100
AcDbLine
 10
111.6376388953
 20
55.0699015534
 30
0.0
 11
113.1786427101
 21
56.61090536819999
 31
0.0
  0
LINE
  5
2BB
330
22B
100
AcDbEntity
  8
0
  6
Continuous
 62
     7
100
AcDbLine
 10
107.1060306253
 20
51.1416910701
 30
0.0
 11
108.1850531129
 21
52.2207135576
 31
0.0
  0
LINE
  5
2BC
330
22B
100
AcDbEntity
  8
0
  6
Continuous
 62
     7
100
AcDbLine
 10
110.9050693289
 20
54.9407297736
 30
0.0
 11
112.4460731437
 21
56.48173358840001
 31
0.0
  0
LINE
  5
2BD
330
22B
100
AcDbEntity
  8
0
  6
Continuous
 62
     7
100
AcDbLine
 10
107.0155835714
 20
51.6546418028
 30
0.0
 11
108.0946060589
 21
52.7336642903
 31
0.0
  0
LINE
  5
2BE
330
22B
100
AcDbEntity
  8
0
  6
Continuous
 62
     7
100
AcDbLine
 10
110.1724997625
 20
54.8115579938
 30
0.0
 11
111.7135035773
 21
56.35256180859999
 31
0.0
  0
LINE
  5
2BF
330
22B
100
AcDbEntity
  8
0
  6
Continuous
 62
     7
100
AcDbLine
 10
106.9251365175
 20
52.1675925354
 30
0.0
 11
108.004159005
 21
53.2466150229
 31
0.0
  0
LINE
  5
2C0
330
22B
100
AcDbEntity
  8
0
  6
Continuous
 62
     7
100
AcDbLine
 10
109.4399301961
 20
54.682386214
 30
0.0
 11
110.9809340108
 21
56.2233900288
 31
0.0
  0
LINE
  5
2C1
330
22B
100
AcDbEntity
  8
0
  6
Continuous
 62
     7
100
AcDbLine
 10
106.8346894635
 20
52.6805432681
 30
0.0
 11
107.913711951
 21
53.7595657556
 31
0.0
  0
LINE
  5
2C2
330
22B
100
AcDbEntity
  8
0
  6
Continuous
 62
     7
100
AcDbLine
 10
108.7073606296
 20
54.5532144342
 30
0.0
 11
110.2483644444
 21
56.094218249
 31
0.0
  0
LINE
  5
2C3
330
22B
100
AcDbEntity
  8
0
  6
Continuous
 62
     7
100
AcDbLine
 10
106.7442424096
 20
53.1934940008
 30
0.0
 11
107.8232648971
 21
54.2725164883
 31
0.0
  0
LINE
  5
2C4
330
22B
100
AcDbEntity
  8
0
  6
Continuous
 62
     7
100
AcDbLine
 10
107.9747910632
 20
54.4240426544
 30
0.0
 11
109.515794878
 21
55.9650464692
 31
0.0
  0
LINE
  5
2C5
330
22B
100
AcDbEntity
  8
0
  6
Continuous
 62
     7
100
AcDbLine
 10
106.6537953556
 20
53.7064447334
 30
0.0
 11
108.7832253116
 21
55.83587468939999
 31
0.0
  0
LINE
  5
2C6
330
22B
100
AcDbEntity
  8
0
  6
Continuous
 62
     7
100
AcDbLine
 10
106.5633483017
 20
54.21939546609999
 30
0.0
 11
108.0506557452
 21
55.70670290959999
 31
0.0
  0
LINE
  5
2C7
330
22B
100
AcDbEntity
  8
0
  6
Continuous
 62
     7
100
AcDbLine
 10
106.4729012477
 20
54.7323461988
 30
0.0
 11
107.3180861787
 21
55.57753112979999
 31
0.0
  0
LINE
  5
2C8
330
22B
100
AcDbEntity
  8
0
  6
Continuous
 62
     7
100
AcDbLine
 10
106.3824541938
 20
55.2452969314
 30
0.0
 11
106.5855166123
 21
55.44835935
 31
0.0
  0
ENDBLK
  5
2C9
330
22B
100
AcDbEntity
  8
0
  6
ByBlock
 62
     0
100
AcDbBlockEnd
  0
BLOCK
  5
2CA
330
22C
100
AcDbEntity
  8
0
  6
Continuous
 62
     7
100
AcDbBlockBegin
  2
L03-MOTEUR-CONTROLE-LED_BL2
 70
     0
 10
58.8348320292
 20
90.25271866999998
 30
0.0
  3
L03-MOTEUR-CONTROLE-LED_BL2
  1

  0
TEXT
  5
2CB
330
22C
100
AcDbEntity
  8
0
  6
Continuous
 62
     7
100
AcDbText
 10
58.10240349319999
 20
89.7766745218
 30
0.0
 40
1.333333852099999
  1
L
 50
342.0
  7
TEXTSTYLE_2
100
AcDbText
  0
TEXT
  5
2CC
330
22C
100
AcDbEntity
  8
0
  6
Continuous
 62
     7
100
AcDbText
 10
54.1158931183
 20
91.0850197787
 30
0.0
 40
1.333333852099999
  1
12
 50
342.0
  7
TEXTSTYLE_2
100
AcDbText
  0
TEXT
  5
2CD
330
22C
100
AcDbEntity
  8
0
  6
Continuous
 62
     7
100
AcDbText
 10
61.19736515319999
 20
88.7841100362
 30
0.0
 40
1.333333852099999
  1
13
 50
342.0
  7
TEXTSTYLE_2
100
AcDbText
  0
ELLIPSE
  5
2CE
330
22C
100
AcDbEntity
  8
0
  6
Continuous
 62
     7
100
AcDbEllipse
 10
58.81094866499999
 20
90.2474293286
 30
0.0
 11
-1.847795881899999
 21
0.6003852765999999
 31
0.0
210
0.0
220
0.0
230
1.0
 40
0.6606458385
 41
0.0
 42
6.283185307179586
  0
ENDBLK
  5
2CF
330
22C
100
AcDbEntity
  8
0
  6
ByBlock
 62
     0
100
AcDbBlockEnd
  0
BLOCK
  5
2D0
330
22D
100
AcDbEntity
  8
0
  6
Continuous
 62
     7
100
AcDbBlockBegin
  2
L03-MOTEUR-CONTROLE-LED_BL1
 70
     0
 10
43.43950357689999
 20
64.8604187712
 30
0.0
  3
L03-MOTEUR-CONTROLE-LED_BL1
  1

  0
TEXT
  5
2D1
330
22D
100
AcDbEntity
  8
0
  6
Continuous
 62
     7
100
AcDbText
 10
42.5577145398
 20
64.28451134140001
 30
0.0
 40
1.333333852099999
  1
L
 50
353.0
  7
TEXTSTYLE_2
100
AcDbText
  0
TEXT
  5
2D2
330
22D
100
AcDbEntity
  8
0
  6
Continuous
 62
     7
100
AcDbText
 10
38.9021051084
 20
64.7458677715
 30
0.0
 40
1.333333852099999
  1
9
 50
353.0
  7
TEXTSTYLE_2
100
AcDbText
  0
TEXT
  5
2D3
330
22D
100
AcDbEntity
  8
0
  6
Continuous
 62
     7
100
AcDbText
 10
45.78520326939999
 20
63.9007295862
 30
0.0
 40
1.333333852099999
  1
10
 50
353.0
  7
TEXTSTYLE_2
100
AcDbText
  0
ELLIPSE
  5
2D4
330
22D
100
AcDbEntity
  8
0
  6
Continuous
 62
     7
100
AcDbEllipse
 10
43.1634174895
 20
64.88181384899999
 30
0.0
 11
-1.928405578599999
 21
0.2367784322
 31
0.0
210
0.0
220
0.0
230
1.0
 40
0.6606458385
 41
0.0
 42
6.283185307179586
  0
ENDBLK
  5
2D5
330
22D
100
AcDbEntity
  8
0
  6
ByBlock
 62
     0
100
AcDbBlockEnd
  0
BLOCK
  5
2D6
330
22E
100
AcDbEntity
  8
0
  6
Continuous
 62
     7
100
AcDbBlockBegin
  2
L03-NOTE_SPECS_BAINS_BL0
 70
     0
 10
160.6669938391
 20
55.3336716871
 30
0.0
  3
L03-NOTE_SPECS_BAINS_BL0
  1

  0
TEXT
  5
2D7
330
22E
100
AcDbEntity
  8
0
  6
Continuous
 62
     7
100
AcDbText
 10
144.4192087629
 20
63.1071050782
 30
0.0
 40
0.5
  1
Infomations Techniques/Technical Infomations
  7
TEXTSTYLE_2
100
AcDbText
  0
TEXT
  5
2D8
330
22E
100
AcDbEntity
  8
0
  6
Continuous
 62
     7
100
AcDbText
 10
144.6669938391
 20
61.6670050204
 30
0.0
 40
0.6666666667
  1
NOMBRE DE JETS:     
  7
TEXTSTYLE_2
100
AcDbText
  0
TEXT
  5
2D9
330
22E
100
AcDbEntity
  8
0
  6
Continuous
 62
     7
100
AcDbText
 10
154.5114382835
 20
61.6670050204
 30
0.0
 40
0.6666666667
  1
35
  7
TEXTSTYLE_2
100
AcDbText
  0
TEXT
  5
2DA
330
22E
100
AcDbEntity
  8
0
  6
Continuous
 62
     7
100
AcDbText
 10
144.6669938391
 20
60.66700502039999
 30
0.0
 40
0.6666666667
  1
 
  7
TEXTSTYLE_2
100
AcDbText
  0
TEXT
  5
2DB
330
22E
100
AcDbEntity
  8
0
  6
Continuous
 62
     7
100
AcDbText
 10
144.6669938391
 20
59.6670050204
 30
0.0
 40
0.6666666667
  1
NIVEAU D'EAU              GALLONS(US)        LITRES        GALLONS(UK)
  7
TEXTSTYLE_2
100
AcDbText
  0
TEXT
  5
2DC
330
22E
100
AcDbEntity
  8
0
  6
Continuous
 62
     7
100
AcDbText
 10
144.6669938391
 20
58.6670050204
 30
0.0
 40
0.6666666667
  1
PLEIN
  7
TEXTSTYLE_2
100
AcDbText
  0
TEXT
  5
2DD
330
22E
100
AcDbEntity
  8
0
  6
Continuous
 62
     7
100
AcDbText
 10
144.6669938391
 20
57.66700502039999
 30
0.0
 40
0.6666666667
  1
HAUT T.PLEIN
  7
TEXTSTYLE_2
100
AcDbText
  0
TEXT
  5
2DE
330
22E
100
AcDbEntity
  8
0
  6
Continuous
 62
     7
100
AcDbText
 10
144.6669938391
 20
56.6670050204
 30
0.0
 40
0.6666666667
  1
MILIEU T.PLEIN
  7
TEXTSTYLE_2
100
AcDbText
  0
TEXT
  5
2DF
330
22E
100
AcDbEntity
  8
0
  6
Continuous
 62
     7
100
AcDbText
 10
144.6669938391
 20
55.66700502039999
 30
0.0
 40
0.6666666667
  1
BAS T.PLEIN
  7
TEXTSTYLE_2
100
AcDbText
  0
TEXT
  5
2E0
330
22E
100
AcDbEntity
  8
0
  6
Continuous
 62
     7
100
AcDbText
 10
144.6669938391
 20
54.6670050204
 30
0.0
 40
0.6666666667
  1
3" EN BAS T.PLEIN
  7
TEXTSTYLE_2
100
AcDbText
  0
TEXT
  5
2E1
330
22E
100
AcDbEntity
  8
0
  6
Continuous
 62
     7
100
AcDbText
 10
144.6669938391
 20
53.6670050204
 30
0.0
 40
0.6666666667
  1
 
  7
TEXTSTYLE_2
100
AcDbText
  0
TEXT
  5
2E2
330
22E
100
AcDbEntity
  8
0
  6
Continuous
 62
     7
100
AcDbText
 10
144.4668323335
 20
53.1202180956
 30
0.0
 40
0.5
  1
Legende/Legend
  7
TEXTSTYLE_2
100
AcDbText
  0
TEXT
  5
2E3
330
22E
100
AcDbEntity
  8
0
  6
Continuous
 62
     7
100
AcDbText
 10
150.9956672775
 20
51.6089531179
 30
0.0
 40
0.6666666667
  1
ZONE DE ROBINETTERIE
  7
TEXTSTYLE_2
100
AcDbText
  0
TEXT
  5
2E4
330
22E
100
AcDbEntity
  8
0
  6
Continuous
 62
     7
100
AcDbText
 10
145.9159427106
 20
50.1137086035
 30
0.0
 40
0.6666666667
  1
L   :  SYSTEME LED       DC   :  DOUBLE DOSSIER CHAUFFANT
  7
TEXTSTYLE_2
100
AcDbText
  0
TEXT
  5
2E5
330
22E
100
AcDbEntity
  8
0
  6
Continuous
 62
     7
100
AcDbText
 10
145.9159427106
 20
48.7803752702
 30
0.0
 40
0.6666666667
  1
C   :  CONTROLE
  7
TEXTSTYLE_2
100
AcDbText
  0
TEXT
  5
2E6
330
22E
100
AcDbEntity
  8
0
  6
Continuous
 62
     7
100
AcDbText
 10
145.9159427106
 20
47.44704193689999
 30
0.0
 40
0.6666666667
  1
T   :  MOTEUR
  7
TEXTSTYLE_2
100
AcDbText
  0
TEXT
  5
2E7
330
22E
100
AcDbEntity
  8
0
  6
Continuous
 62
     7
100
AcDbText
 10
157.4996905384
 20
58.6670050204
 30
0.0
 40
0.6666666667
  1
85
  7
TEXTSTYLE_2
100
AcDbText
  0
TEXT
  5
2E8
330
22E
100
AcDbEntity
  8
0
  6
Continuous
 62
     7
100
AcDbText
 10
157.4996905384
 20
57.66700502039999
 30
0.0
 40
0.6666666667
  1
66
  7
TEXTSTYLE_2
100
AcDbText
  0
TEXT
  5
2E9
330
22E
100
AcDbEntity
  8
0
  6
Continuous
 62
     7
100
AcDbText
 10
157.4996905384
 20
56.6670050204
 30
0.0
 40
0.6666666667
  1
65
  7
TEXTSTYLE_2
100
AcDbText
  0
TEXT
  5
2EA
330
22E
100
AcDbEntity
  8
0
  6
Continuous
 62
     7
100
AcDbText
 10
157.4996905384
 20
55.66700502039999
 30
0.0
 40
0.6666666667
  1
64
  7
TEXTSTYLE_2
100
AcDbText
  0
TEXT
  5
2EB
330
22E
100
AcDbEntity
  8
0
  6
Continuous
 62
     7
100
AcDbText
 10
157.4996905384
 20
54.6670050204
 30
0.0
 40
0.6666666667
  1
49
  7
TEXTSTYLE_2
100
AcDbText
  0
TEXT
  5
2EC
330
22E
100
AcDbEntity
  8
0
  6
Continuous
 62
     7
100
AcDbText
 10
164.4198964821
 20
58.6840844226
 30
0.0
 40
0.6666666667
  1
322
  7
TEXTSTYLE_2
100
AcDbText
  0
TEXT
  5
2ED
330
22E
100
AcDbEntity
  8
0
  6
Continuous
 62
     7
100
AcDbText
 10
164.4198964821
 20
57.6840844226
 30
0.0
 40
0.6666666667
  1
248
  7
TEXTSTYLE_2
100
AcDbText
  0
TEXT
  5
2EE
330
22E
100
AcDbEntity
  8
0
  6
Continuous
 62
     7
100
AcDbText
 10
164.4198964821
 20
56.6840844226
 30
0.0
 40
0.6666666667
  1
244
  7
TEXTSTYLE_2
100
AcDbText
  0
TEXT
  5
2EF
330
22E
100
AcDbEntity
  8
0
  6
Continuous
 62
     7
100
AcDbText
 10
164.4198964821
 20
55.6840844226
 30
0.0
 40
0.6666666667
  1
241
  7
TEXTSTYLE_2
100
AcDbText
  0
TEXT
  5
2F0
330
22E
100
AcDbEntity
  8
0
  6
Continuous
 62
     7
100
AcDbText
 10
164.4198964821
 20
54.6840844226
 30
0.0
 40
0.6666666667
  1
186
  7
TEXTSTYLE_2
100
AcDbText
  0
TEXT
  5
2F1
330
22E
100
AcDbEntity
  8
0
  6
Continuous
 62
     7
100
AcDbText
 10
171.3645354196
 20
58.6670050204
 30
0.0
 40
0.6666666667
  1
71
  7
TEXTSTYLE_2
100
AcDbText
  0
TEXT
  5
2F2
330
22E
100
AcDbEntity
  8
0
  6
Continuous
 62
     7
100
AcDbText
 10
171.3645354196
 20
57.66700502039999
 30
0.0
 40
0.6666666667
  1
55
  7
TEXTSTYLE_2
100
AcDbText
  0
TEXT
  5
2F3
330
22E
100
AcDbEntity
  8
0
  6
Continuous
 62
     7
100
AcDbText
 10
171.3645354196
 20
56.6670050204
 30
0.0
 40
0.6666666667
  1
54
  7
TEXTSTYLE_2
100
AcDbText
  0
TEXT
  5
2F4
330
22E
100
AcDbEntity
  8
0
  6
Continuous
 62
     7
100
AcDbText
 10
171.3645354196
 20
55.66700502039999
 30
0.0
 40
0.6666666667
  1
53
  7
TEXTSTYLE_2
100
AcDbText
  0
TEXT
  5
2F5
330
22E
100
AcDbEntity
  8
0
  6
Continuous
 62
     7
100
AcDbText
 10
171.3645354196
 20
54.6670050204
 30
0.0
 40
0.6666666667
  1
41
  7
TEXTSTYLE_2
100
AcDbText
  0
LINE
  5
2F6
330
22E
100
AcDbEntity
  8
0
  6
Continuous
 62
     7
100
AcDbLine
 10
144.0003271724
 20
64.0003383538
 30
0.0
 11
144.0003271724
 21
46.6670050204
 31
0.0
  0
LINE
  5
2F7
330
22E
100
AcDbEntity
  8
0
  6
Continuous
 62
     7
100
AcDbLine
 10
144.0003271724
 20
64.0003383538
 30
0.0
 11
177.3336605057
 21
64.0003383538
 31
0.0
  0
LINE
  5
2F8
330
22E
100
AcDbEntity
  8
0
  6
Continuous
 62
     7
100
AcDbLine
 10
177.3336605057
 20
64.0003383538
 30
0.0
 11
177.3336605057
 21
46.6670050204
 31
0.0
  0
LINE
  5
2F9
330
22E
100
AcDbEntity
  8
0
  6
Continuous
 62
     7
100
AcDbLine
 10
144.0003271724
 20
46.6670050204
 30
0.0
 11
177.3336605057
 21
46.6670050204
 31
0.0
  0
LINE
  5
2FA
330
22E
100
AcDbEntity
  8
0
  6
Continuous
 62
     7
100
AcDbLine
 10
145.3336605057
 20
54.0003383538
 30
0.0
 11
176.0003271724
 21
54.0003383538
 31
0.0
  0
LINE
  5
2FB
330
22E
100
AcDbEntity
  8
0
  6
Continuous
 62
     7
100
AcDbLine
 10
145.3336605057
 20
61.0003383538
 30
0.0
 11
176.0003271724
 21
61.0003383538
 31
0.0
  0
LINE
  5
2FC
330
22E
100
AcDbEntity
  8
0
  6
Continuous
 62
     7
100
AcDbLine
 10
144.8092337317
 20
52.37850285810001
 30
0.0
 11
144.4402129893
 21
52.0094821158
 31
0.0
  0
LINE
  5
2FD
330
22E
100
AcDbEntity
  8
0
  6
Continuous
 62
     7
100
AcDbLine
 10
145.4759003983
 20
52.37850285810001
 30
0.0
 11
144.6778846079
 21
51.5804870677
 31
0.0
  0
LINE
  5
2FE
330
22E
100
AcDbEntity
  8
0
  6
Continuous
 62
     7
100
AcDbLine
 10
146.142567065
 20
52.37850285810001
 30
0.0
 11
145.3445512745999
 21
51.5804870677
 31
0.0
  0
LINE
  5
2FF
330
22E
100
AcDbEntity
  8
0
  6
Continuous
 62
     7
100
AcDbLine
 10
146.8092337317
 20
52.37850285810001
 30
0.0
 11
146.0112179412
 21
51.5804870677
 31
0.0
  0
LINE
  5
300
330
22E
100
AcDbEntity
  8
0
  6
Continuous
 62
     7
100
AcDbLine
 10
147.4759003983
 20
52.37850285810001
 30
0.0
 11
146.6778846079
 21
51.5804870677
 31
0.0
  0
LINE
  5
301
330
22E
100
AcDbEntity
  8
0
  6
Continuous
 62
     7
100
AcDbLine
 10
148.142567065
 20
52.37850285810001
 30
0.0
 11
147.3445512746
 21
51.5804870677
 31
0.0
  0
LINE
  5
302
330
22E
100
AcDbEntity
  8
0
  6
Continuous
 62
     7
100
AcDbLine
 10
148.8092337317
 20
52.37850285810001
 30
0.0
 11
148.0112179412
 21
51.5804870677
 31
0.0
  0
LINE
  5
303
330
22E
100
AcDbEntity
  8
0
  6
Continuous
 62
     7
100
AcDbLine
 10
149.4759003983
 20
52.37850285810001
 30
0.0
 11
148.6778846079
 21
51.5804870677
 31
0.0
  0
LINE
  5
304
330
22E
100
AcDbEntity
  8
0
  6
Continuous
 62
     7
100
AcDbLine
 10
150.142567065
 20
52.37850285810001
 30
0.0
 11
149.3445512745999
 21
51.5804870677
 31
0.0
  0
LINE
  5
305
330
22E
100
AcDbEntity
  8
0
  6
Continuous
 62
     7
100
AcDbLine
 10
150.5860544992
 20
52.15532362560001
 30
0.0
 11
150.0112179412
 21
51.5804870677
 31
0.0
  0
ELLIPSE
  5
306
330
22E
100
AcDbEntity
  8
0
  6
Continuous
 62
     7
100
AcDbEllipse
 10
146.1457296546
 20
50.43128606069999
 30
0.0
 11
1.0473539356
 21
0.0
 31
0.0
210
0.0
220
0.0
230
1.0
 40
0.4938647983
 41
0.0
 42
6.283185307179586
  0
ELLIPSE
  5
307
330
22E
100
AcDbEntity
  8
0
  6
Continuous
 62
     7
100
AcDbEllipse
 10
146.1457296546
 20
49.0979527274
 30
0.0
 11
1.0473539356
 21
0.0
 31
0.0
210
0.0
220
0.0
230
1.0
 40
0.4938647983
 41
0.0
 42
6.283185307179586
  0
ELLIPSE
  5
308
330
22E
100
AcDbEntity
  8
0
  6
Continuous
 62
     7
100
AcDbEllipse
 10
146.1457296546
 20
47.76461939409999
 30
0.0
 11
1.0473539356
 21
0.0
 31
0.0
210
0.0
220
0.0
230
1.0
 40
0.4938647983
 41
0.0
 42
6.283185307179586
  0
ELLIPSE
  5
309
330
22E
100
AcDbEntity
  8
0
  6
Continuous
 62
     7
100
AcDbEllipse
 10
157.1643652357
 20
50.4508074178
 30
0.0
 11
1.0473539356
 21
0.0
 31
0.0
210
0.0
220
0.0
230
1.0
 40
0.4938647983
 41
0.0
 42
6.283185307179586
  0
ENDBLK
  5
30A
330
22E
100
AcDbEntity
  8
0
  6
ByBlock
 62
     0
100
AcDbBlockEnd
  0
ENDSEC
  0
SECTION
  2
ENTITIES
  0
LWPOLYLINE
  5
43E
330
216
100
AcDbEntity
  8
DEFAULT_2
  6
HIDDEN
 62
     7
100
AcDbPolyline
 90
       15
 70
     0
 43
0.0
 10
23.711086208
 20
42.7900385813
 10
23.7654001038
 20
42.5345214678
 10
24.0094402146
 20
41.3955974623
 10
24.2623763134
 20
40.25877982559999
 10
24.524661337
 20
39.1241448752
 10
24.7947881549
 20
37.9913281421
 10
25.0718303311
 20
36.8601156079
 10
25.3549688674
 20
35.7303210391
 10
25.6432338241
 20
34.6017188914
 10
26.0338397078
 20
33.0983691862
 10
26.4294982613
 20
31.5961935643
 10
26.8279399399
 20
30.0946646883
 10
27.226892145
 20
28.5932544869
 10
27.6240700622
 20
27.091431953
 10
28.0171858234
 20
25.588665346
  0
LINE
  5
440
330
216
100
AcDbEntity
  8
DEFAULT_2
  6
HIDDEN
 62
     7
100
AcDbLine
 10
31.9422484399
 20
23.1935791871
 30
0.0
 11
31.5795263274
 21
23.5563012996
 31
0.0
  0
LWPOLYLINE
  5
446
330
216
100
AcDbEntity
  8
DEFAULT_2
  6
HIDDEN
 62
     7
100
AcDbPolyline
 90
       50
 70
     0
 43
0.0
 10
46.8912005428
 20
39.6302828896
 10
46.8916098342
 20
39.6265529509
 10
46.8921093302
 20
39.6228340587
 10
46.8926993975
 20
39.6191237629
 10
46.8933789113
 20
39.6154287608
 10
46.8941472647
 20
39.6117511966
 10
46.89500504939999
 20
39.60808819
 10
46.8959504841
 20
39.6044468311
 10
46.8969827445
 20
39.6008291313
 10
46.89810428899999
 20
39.59722686590001
 10
46.8993113038
 20
39.5936523273
 10
46.9006027664
 20
39.5901074244
 10
46.9027031394
 20
39.5848326125
 10
46.9049884156
 20
39.57963523340001
 10
46.9074614604
 20
39.5745073446
 10
46.9101118449
 20
39.5694688223
 10
46.91294845449999
 20
39.5645024093
 10
46.91595456569999
 20
39.55963671550001
 10
46.919140907
 20
39.5548539177
 10
46.9224881702
 20
39.5501823216
 10
46.92600510520001
 20
39.54560869
 10
46.92967347329999
 20
39.5411555929
 10
46.9335104156
 20
39.53680206619999
 10
46.93748939079999
 20
39.5325779502
 10
46.9416285684
 20
39.528463723
 10
46.945899947
 20
39.52448691
 10
46.9503175021
 20
39.5206337998
 10
46.9548568489
 20
39.5169249398
 10
46.95954073310001
 20
39.5133417324
 10
46.96433623369999
 20
39.5099093283
 10
46.96926562429999
 20
39.5066117179
 10
46.9742962417
 20
39.50347068780001
 10
46.9794437613
 20
39.50047599280001
 10
46.98468178529999
 20
39.4976425649
 10
46.99003311819999
 20
39.4949581234
 10
46.9954644537
 20
39.4924394637
 10
47.00099642659999
 20
39.4900770392
 10
47.0065978102
 20
39.487884252
 10
47.01228110739999
 20
39.4858559247
 10
47.018023064
 20
39.4840001342
 10
47.02384002499999
 20
39.4823116557
 10
47.0297050201
 20
39.4807984362
 10
47.0356307096
 20
39.47945724610001
 10
47.0415937925
 20
39.4782934669
 10
47.0475992638
 20
39.4773059778
 10
47.0536313755
 20
39.4764972861
 10
47.059694879
 20
39.4758667803
 10
47.0657745509
 20
39.4754161671
 10
47.0718707593
 20
39.47514544150001
 10
47.0779717446
 20
39.4750551862
  0
LWPOLYLINE
  5
447
330
216
100
AcDbEntity
  8
DEFAULT_2
  6
HIDDEN
 62
     7
100
AcDbPolyline
 90
       51
 70
     0
 43
0.0
 10
46.89087319649999
 20
39.633976761
 10
46.8905721693
 20
39.6396173096
 10
46.89047174459999
 20
39.6452649918
 10
46.8905721693
 20
39.6509126741
 10
46.89087319649999
 20
39.6565532226
 10
46.89137479609999
 20
39.66218383800001
 10
46.89207583299999
 20
39.66779311550001
 10
46.8929766056
 20
39.6733825045
 10
46.8940745045
 20
39.6789365395
 10
46.8953707245
 20
39.6844606899
 10
46.8968606521
 20
39.6899357767
 10
46.8985468809
 20
39.6953709304
 10
46.9004223452
 20
39.7007437268
 10
46.9024914491
 20
39.7060664867
 10
46.9047443321
 20
39.7113141084
 10
46.9071875099
 20
39.7165015447
 10
46.90980810529999
 20
39.7216016576
 10
46.91261492419999
 20
39.7266314125
 10
46.91559198109999
 20
39.7315623214
 10
46.9187504208
 20
39.7364127115
 10
46.92207119189999
 20
39.7411534469
 10
46.9255676977
 20
39.7458035619
 10
46.9292179929
 20
39.7503339632
 10
46.9330375355
 20
39.7547637614
 10
46.93700178020001
 20
39.7590645581
 10
46.9411279241
 20
39.7632549568
 10
46.94538922249999
 20
39.7673078458
 10
46.9498041999
 20
39.7712408069
 10
46.95434440359999
 20
39.7750285273
 10
46.9590291952
 20
39.7786871373
 10
46.9638289759
 20
39.7821935414
 10
46.9687633975
 20
39.78556208550001
 10
46.973802325
 20
39.7887722064
 10
46.9789651184
 20
39.7918362368
 10
46.9842217436
 20
39.7947363515
 10
46.98959067239999
 20
39.7974827489
 10
46.9950426142
 20
39.8000604373
 10
47.00059456369999
 20
39.8024774661
 10
47.0062186
 20
39.8047216653
 10
47.01192967899999
 20
39.8067990223
 10
47.0177018434
 20
39.8087000752
 10
47.0235474945
 20
39.8104289318
 10
47.029443172
 20
39.811978631
 10
47.0353982649
 20
39.8133516681
 10
47.0413923079
 20
39.8145432936
 10
47.0474313033
 20
39.8155547296
 10
47.0534980827
 20
39.8163830805
 10
47.0595949412
 20
39.8170286932
 10
47.06570865739999
 20
39.8174901134
 10
47.07183771149999
 20
39.81776725440001
 10
47.0779717446
 20
39.8178596519
  0
LWPOLYLINE
  5
448
330
216
100
AcDbEntity
  8
DEFAULT_2
  6
HIDDEN
 62
     7
100
AcDbPolyline
 90
        5
 70
     0
 43
0.0
 10
46.89047174459999
 20
39.6452649918
 10
46.89051735109999
 20
39.6415147281
 10
46.8906540871
 20
39.63776612570001
 10
46.8908818276
 20
39.6340218037
 10
46.89137479609999
 20
39.6283461457
  0
LWPOLYLINE
  5
449
330
216
100
AcDbEntity
  8
DEFAULT_2
  6
HIDDEN
 62
     7
100
AcDbPolyline
 90
       61
 70
     0
 43
0.0
 10
46.39047174459999
 20
39.62963574670001
 10
46.39061931439999
 20
39.6402435775
 10
46.39106181459999
 20
39.6508440696
 10
46.39179943
 20
39.6614350476
 10
46.3928311248
 20
39.6720012014
 10
46.394157373
 20
39.6825455368
 10
46.3957758114
 20
39.6930490575
 10
46.3976880474
 20
39.7035202018
 10
46.3998896883
 20
39.7139343271
 10
46.4023857521
 20
39.7243120609
 10
46.4051679143
 20
39.7346167896
 10
46.4082399104
 20
39.7448616625
 10
46.4115931354
 20
39.7550179659
 10
46.4152331513
 20
39.765101993
 10
46.419148618
 20
39.7750823
 10
46.4233507118
 20
39.7849859254
 10
46.42782205
 20
39.7947709468
 10
46.4325796501
 20
39.8044726684
 10
46.4375997738
 20
39.8140411914
 10
46.44289443569999
 20
39.8234991344
 10
46.44844331699999
 20
39.8328102099
 10
46.454260556
 20
39.8419979419
 10
46.46032298419999
 20
39.8510257752
 10
46.46665718869999
 20
39.8599318952
 10
46.4732276404
 20
39.8686651899
 10
46.48006088529999
 20
39.877259977
 10
46.4871205734
 20
39.8856697644
 10
46.49442635959999
 20
39.893917949
 10
46.5019476547
 20
39.901970108
 10
46.5097053988
 20
39.9098486893
 10
46.5176672401
 20
39.9175209677
 10
46.5258745988
 20
39.92502550010001
 10
46.5342751163
 20
39.9323131744
 10
46.5428959913
 20
39.939407378
 10
46.5516979383
 20
39.9462756408
 10
46.5607035221
 20
39.952935706
 10
46.56987757229999
 20
39.9593617386
 10
46.5792443599
 20
39.9655707834
 10
46.58876682289999
 20
39.9715383434
 10
46.598489116
 20
39.9772910842
 10
46.6083546585
 20
39.9827945563
 10
46.618383798
 20
39.9880602977
 10
46.62854285649999
 20
39.9930708127
 10
46.63885055979999
 20
39.9978355313
 10
46.6492747277
 20
40.0023397614
 10
46.6598395435
 20
40.0065938207
 10
46.6705074146
 20
40.0105824252
 10
46.6813052158
 20
40.0143152906
 10
46.6921926232
 20
40.017778124
 10
46.7031814228
 20
40.0209748577
 10
46.7142460897
 20
40.02389821699999
 10
46.7253954951
 20
40.02655071689999
 10
46.7366069954
 20
40.0289271052
 10
46.7478938661
 20
40.03103006189999
 10
46.75922912479999
 20
40.03285438299999
 10
46.7706185328
 20
40.03440100579999
 10
46.78204246069999
 20
40.03566724179999
 10
46.79349955449999
 20
40.0366530699
 10
46.8049775829
 20
40.0373574953
 10
46.8164715734
 20
40.03778031889999
 10
46.8279717446
 20
40.0379212803
  0
LWPOLYLINE
  5
44C
330
216
100
AcDbEntity
  8
DEFAULT_2
  6
HIDDEN
 62
     7
100
AcDbPolyline
 90
       61
 70
     0
 43
0.0
 10
50.3904717446
 20
39.62963574670001
 10
50.39032417479999
 20
39.6402435775
 10
50.3898816745
 20
39.6508440696
 10
50.38914405919999
 20
39.6614350476
 10
50.38811236439999
 20
39.6720012014
 10
50.38678611619999
 20
39.6825455368
 10
50.3851676778
 20
39.6930490575
 10
50.3832554417
 20
39.7035202018
 10
50.3810538009
 20
39.7139343271
 10
50.378557737
 20
39.7243120609
 10
50.37577557479999
 20
39.7346167896
 10
50.37270357869999
 20
39.7448616625
 10
50.36935035369999
 20
39.7550179659
 10
50.3657103379
 20
39.765101993
 10
50.3617948712
 20
39.7750823
 10
50.3575927773
 20
39.7849859254
 10
50.3531214392
 20
39.7947709468
 10
50.3483638391
 20
39.8044726684
 10
50.34334371539999
 20
39.8140411914
 10
50.3380490535
 20
39.8234991344
 10
50.3325001722
 20
39.8328102099
 10
50.3266829332
 20
39.8419979419
 10
50.320620505
 20
39.8510257752
 10
50.3142863004
 20
39.8599318952
 10
50.3077158488
 20
39.8686651899
 10
50.30088260390001
 20
39.877259977
 10
50.2938229157
 20
39.8856697644
 10
50.2865171296
 20
39.893917949
 10
50.27899583449999
 20
39.901970108
 10
50.27123809039999
 20
39.9098486893
 10
50.26327624909999
 20
39.9175209677
 10
50.25506889039999
 20
39.92502550010001
 10
50.24666837289999
 20
39.9323131744
 10
50.2380474978
 20
39.939407378
 10
50.2292455509
 20
39.9462756408
 10
50.2202399671
 20
39.952935706
 10
50.21106591689999
 20
39.9593617386
 10
50.20169912930001
 20
39.9655707834
 10
50.1921766663
 20
39.9715383434
 10
50.1824543731
 20
39.9772910842
 10
50.17258883069999
 20
39.9827945563
 10
50.1625596912
 20
39.9880602977
 10
50.1524006326
 20
39.9930708127
 10
50.14209292930001
 20
39.9978355313
 10
50.1316687614
 20
40.0023397614
 10
50.1211039457
 20
40.0065938207
 10
50.1104360745
 20
40.0105824252
 10
50.0996382734
 20
40.0143152906
 10
50.088750866
 20
40.017778124
 10
50.0777620663
 20
40.0209748577
 10
50.0666973995
 20
40.02389821699999
 10
50.05554799399999
 20
40.02655071689999
 10
50.04433649380001
 20
40.0289271052
 10
50.0330496231
 20
40.03103006189999
 10
50.0217143644
 20
40.03285438299999
 10
50.0103249563
 20
40.03440100579999
 10
49.9989010284
 20
40.03566724179999
 10
49.9874439346
 20
40.0366530699
 10
49.9759659063
 20
40.0373574953
 10
49.96447191569999
 20
40.03778031889999
 10
49.9529717446
 20
40.0379212803
  0
LINE
  5
475
330
216
100
AcDbEntity
  8
DEFAULT_2
  6
HIDDEN
 62
     7
100
AcDbLine
 10
30.2332051643
 20
23.7252139048
 30
0.0
 11
31.423980761
 21
23.6278376056
 31
0.0
  0
LINE
  5
4E6
330
216
100
AcDbEntity
  8
DEFAULT_2
  6
HIDDEN
 62
     7
100
AcDbLine
 10
35.3650790891
 20
23.6230306787
 30
0.0
 11
66.3767754153
 21
24.4558002854
 31
0.0
  0
LINE
  5
4E8
330
216
100
AcDbEntity
  8
DEFAULT_2
  6
HIDDEN
 62
     7
100
AcDbLine
 10
34.661918354
 20
23.1203558824
 30
0.0
 11
32.1190251352
 21
23.1203558824
 31
0.0
  0
LWPOLYLINE
  5
559
330
216
100
AcDbEntity
  8
DEFAULT_2
  6
HIDDEN
 62
     7
100
AcDbPolyline
 90
      121
 70
     0
 43
0.0
 10
49.9529717446
 20
39.217635009
 10
49.96442320919999
 20
39.217773
 10
49.9758687254
 20
39.218186924
 10
49.9872959068
 20
39.2188763367
 10
49.99870294729999
 20
39.2198411561
 10
50.01007398439999
 20
39.2210799883
 10
50.021411823
 20
39.2225931712
 10
50.0326957408
 20
39.2243779191
 10
50.04393310930001
 20
39.2264354263
 10
50.0550989953
 20
39.2287610965
 10
50.0662050768
 20
39.23135739
 10
50.0772224078
 20
39.2342175153
 10
50.0881666796
 20
39.2373455715
 10
50.09900533909999
 20
39.2407322306
 10
50.1097577225
 20
39.2443835577
 10
50.12038809909999
 20
39.2482873987
 10
50.1309190259
 20
39.2524520578
 10
50.1413120882
 20
39.2568623259
 10
50.15159258819999
 20
39.2615289568
 10
50.1617199633
 20
39.2664335248
 10
50.1717217446
 20
39.2715893754
 10
50.1815557937
 20
39.2769747786
 10
50.1912513224
 20
39.2826057388
 10
50.2007652138
 20
39.2884572125
 10
50.21012779239999
 20
39.2945478518
 10
50.2192955725
 20
39.30084937260001
 10
50.2282994157
 20
39.307382982
 10
50.23709607709999
 20
39.3141173121
 10
50.2457163849
 20
39.3210759492
 10
50.25411793239999
 20
39.328224683
 10
50.2623309613
 20
39.3355892219
 10
50.27031447449999
 20
39.3431328363
 10
50.2780976057
 20
39.3508830202
 10
50.2856412987
 20
39.3588009269
 10
50.2929731027
 20
39.3669154249
 10
50.3000563811
 20
39.3751860249
 10
50.3069166796
 20
39.3836424922
 10
50.3135201945
 20
39.3922432331
 10
50.319890118
 20
39.4010183745
 10
50.3259958165
 20
39.4099258097
 10
50.33185785869999
 20
39.4189954457
 10
50.3374490314
 20
39.42818529530001
 10
50.3427870989
 20
39.4375244318
 10
50.3478484246
 20
39.4469716461
 10
50.3526478823
 20
39.4565545463
 10
50.35716546909999
 20
39.4662333702
 10
50.3614131812
 20
39.47603362880001
 10
50.3653746043
 20
39.4859176689
 10
50.3690589705
 20
39.4959082885
 10
50.37245330720001
 20
39.5059705811
 10
50.3755642936
 20
39.51612405050001
 10
50.3783821543
 20
39.5263371316
 10
50.3809113199
 20
39.5366255047
 10
50.3831448762
 20
39.5469614816
 10
50.38508539359999
 20
39.557356458
 10
50.38672840229999
 20
39.5677870827
 10
50.3880750738
 20
39.5782600884
 10
50.3891228979
 20
39.5887568319
 10
50.389872166
 20
39.5992791004
 10
50.39032179100001
 20
39.6098132291
 10
50.3904717446
 20
39.6203558824
 10
50.39032179100001
 20
39.6308985356
 10
50.389872166
 20
39.6414326644
 10
50.3891228979
 20
39.6519549329
 10
50.3880750738
 20
39.6624516764
 10
50.38672840229999
 20
39.67292468210001
 10
50.38508539359999
 20
39.6833553068
 10
50.3831448762
 20
39.6937502832
 10
50.3809113199
 20
39.70408626010001
 10
50.3783821543
 20
39.7143746332
 10
50.3755642936
 20
39.7245877143
 10
50.37245330720001
 20
39.73474118369999
 10
50.3690589705
 20
39.7448034763
 10
50.3653746043
 20
39.75479409590001
 10
50.3614131812
 20
39.764678136
 10
50.35716546909999
 20
39.7744783946
 10
50.3526478823
 20
39.7841572185
 10
50.3478484246
 20
39.7937401187
 10
50.3427870989
 20
39.80318733300001
 10
50.3374490314
 20
39.8125264695
 10
50.33185785869999
 20
39.8217163191
 10
50.3259958165
 20
39.83078595510001
 10
50.319890118
 20
39.8396933903
 10
50.3135201945
 20
39.8484685317
 10
50.3069166796
 20
39.8570692726
 10
50.3000563811
 20
39.8655257399
 10
50.2929731027
 20
39.8737963399
 10
50.2856412987
 20
39.8819108379
 10
50.2780976057
 20
39.8898287446
 10
50.27031447449999
 20
39.8975789284
 10
50.2623309613
 20
39.9051225429
 10
50.25411793239999
 20
39.9124870818
 10
50.2457163849
 20
39.9196358156
 10
50.23709607709999
 20
39.9265944527
 10
50.2282994157
 20
39.9333287827
 10
50.2192955725
 20
39.9398623922
 10
50.21012779239999
 20
39.946163913
 10
50.2007652138
 20
39.9522545523
 10
50.1912513224
 20
39.958106026
 10
50.1815557937
 20
39.9637369862
 10
50.1717217446
 20
39.9691223894
 10
50.1617199633
 20
39.9742782399
 10
50.15159258819999
 20
39.979182808
 10
50.1413120882
 20
39.9838494388
 10
50.1309190259
 20
39.988259707
 10
50.12038809909999
 20
39.9924243661
 10
50.1097577225
 20
39.9963282071
 10
50.09900533909999
 20
39.9999795342
 10
50.0881666796
 20
40.00336619329999
 10
50.0772224078
 20
40.0064942495
 10
50.0662050768
 20
40.00935437479999
 10
50.0550989953
 20
40.0119506683
 10
50.04393310930001
 20
40.01427633849999
 10
50.0326957408
 20
40.0163338457
 10
50.021411823
 20
40.0181185936
 10
50.01007398439999
 20
40.0196317765
 10
49.99870294729999
 20
40.0208706087
 10
49.9872959068
 20
40.021835428
 10
49.9758687254
 20
40.0225248408
 10
49.96442320919999
 20
40.0229387648
 10
49.9529717446
 20
40.0230767558
  0
LINE
  5
57D
330
216
100
AcDbEntity
  8
DEFAULT_2
  6
HIDDEN
 62
     7
100
AcDbLine
 10
49.9529717446
 20
39.217635009
 30
0.0
 11
46.8279717446
 21
39.217635009
 31
0.0
  0
LINE
  5
57E
330
216
100
AcDbEntity
  8
DEFAULT_2
  6
HIDDEN
 62
     7
100
AcDbLine
 10
49.7029717446
 20
39.4750551862
 30
0.0
 11
47.0779717446
 21
39.4750551862
 31
0.0
  0
LINE
  5
57F
330
216
100
AcDbEntity
  8
DEFAULT_2
  6
HIDDEN
 62
     7
100
AcDbLine
 10
47.0779717446
 20
39.8178596519
 30
0.0
 11
49.7029717446
 21
39.8178596519
 31
0.0
  0
LINE
  5
580
330
216
100
AcDbEntity
  8
DEFAULT_2
  6
HIDDEN
 62
     7
100
AcDbLine
 10
46.8279717446
 20
40.0230767558
 30
0.0
 11
49.9529717446
 21
40.0230767558
 31
0.0
  0
LINE
  5
581
330
216
100
AcDbEntity
  8
DEFAULT_2
  6
HIDDEN
 62
     7
100
AcDbLine
 10
46.8279717446
 20
40.0379212803
 30
0.0
 11
49.9529717446
 21
40.0379212803
 31
0.0
  0
LWPOLYLINE
  5
591
330
216
100
AcDbEntity
  8
DEFAULT_2
  6
HIDDEN
 62
     7
100
AcDbPolyline
 90
      121
 70
     0
 43
0.0
 10
46.8279717446
 20
39.217635009
 10
46.8165202799
 20
39.217773
 10
46.80507476369999
 20
39.218186924
 10
46.7936475824
 20
39.2188763367
 10
46.78224054189999
 20
39.2198411561
 10
46.77086950479999
 20
39.2210799883
 10
46.75953166609999
 20
39.2225931712
 10
46.7482477483
 20
39.2243779191
 10
46.73701037979999
 20
39.2264354263
 10
46.7258444938
 20
39.2287610965
 10
46.71473841229999
 20
39.23135739
 10
46.7037210813
 20
39.2342175153
 10
46.69277680949999
 20
39.2373455715
 10
46.68193815
 20
39.2407322306
 10
46.6711857666
 20
39.2443835577
 10
46.66055539
 20
39.2482873987
 10
46.65002446319999
 20
39.2524520578
 10
46.639631401
 20
39.2568623259
 10
46.6293509009
 20
39.2615289568
 10
46.6192235258
 20
39.2664335248
 10
46.6092217446
 20
39.2715893754
 10
46.5993876955
 20
39.2769747786
 10
46.5896921668
 20
39.2826057388
 10
46.5801782754
 20
39.2884572125
 10
46.5708156967
 20
39.2945478518
 10
46.5616479167
 20
39.30084937260001
 10
46.5526440735
 20
39.307382982
 10
46.543847412
 20
39.3141173121
 10
46.5352271043
 20
39.3210759492
 10
46.5268255567
 20
39.328224683
 10
46.51861252779999
 20
39.3355892219
 10
46.5106290146
 20
39.3431328363
 10
46.50284588339999
 20
39.3508830202
 10
46.49530219039999
 20
39.3588009269
 10
46.4879703864
 20
39.3669154249
 10
46.480887108
 20
39.3751860249
 10
46.47402680949999
 20
39.3836424922
 10
46.4674232947
 20
39.3922432331
 10
46.46105337109999
 20
39.4010183745
 10
46.4549476727
 20
39.4099258097
 10
46.4490856304
 20
39.4189954457
 10
46.4434944577
 20
39.42818529530001
 10
46.4381563902
 20
39.4375244318
 10
46.4330950645
 20
39.4469716461
 10
46.42829560689999
 20
39.4565545463
 10
46.4237780201
 20
39.4662333702
 10
46.41953030799999
 20
39.47603362880001
 10
46.41556888479999
 20
39.4859176689
 10
46.41188451869999
 20
39.4959082885
 10
46.40849018199999
 20
39.5059705811
 10
46.4053791956
 20
39.51612405050001
 10
46.4025613348
 20
39.5263371316
 10
46.4000321693
 20
39.5366255047
 10
46.397798613
 20
39.5469614816
 10
46.3958580956
 20
39.557356458
 10
46.3942150868
 20
39.5677870827
 10
46.3928684153
 20
39.5782600884
 10
46.3918205912
 20
39.5887568319
 10
46.39107132310001
 20
39.5992791004
 10
46.39062169819999
 20
39.6098132291
 10
46.39047174459999
 20
39.6203558824
 10
46.39062169819999
 20
39.6308985356
 10
46.39107132310001
 20
39.6414326644
 10
46.3918205912
 20
39.6519549329
 10
46.3928684153
 20
39.6624516764
 10
46.3942150868
 20
39.67292468210001
 10
46.3958580956
 20
39.6833553068
 10
46.397798613
 20
39.6937502832
 10
46.4000321693
 20
39.70408626010001
 10
46.4025613348
 20
39.7143746332
 10
46.4053791956
 20
39.7245877143
 10
46.40849018199999
 20
39.73474118369999
 10
46.41188451869999
 20
39.7448034763
 10
46.41556888479999
 20
39.75479409590001
 10
46.41953030799999
 20
39.764678136
 10
46.4237780201
 20
39.7744783946
 10
46.42829560689999
 20
39.7841572185
 10
46.4330950645
 20
39.7937401187
 10
46.4381563902
 20
39.80318733300001
 10
46.4434944577
 20
39.8125264695
 10
46.4490856304
 20
39.8217163191
 10
46.4549476727
 20
39.83078595510001
 10
46.46105337109999
 20
39.8396933903
 10
46.4674232947
 20
39.8484685317
 10
46.47402680949999
 20
39.8570692726
 10
46.480887108
 20
39.8655257399
 10
46.4879703864
 20
39.8737963399
 10
46.49530219039999
 20
39.8819108379
 10
46.50284588339999
 20
39.8898287446
 10
46.5106290146
 20
39.8975789284
 10
46.51861252779999
 20
39.9051225429
 10
46.5268255567
 20
39.9124870818
 10
46.5352271043
 20
39.9196358156
 10
46.543847412
 20
39.9265944527
 10
46.5526440735
 20
39.9333287827
 10
46.5616479167
 20
39.9398623922
 10
46.5708156967
 20
39.946163913
 10
46.5801782754
 20
39.9522545523
 10
46.5896921668
 20
39.958106026
 10
46.5993876955
 20
39.9637369862
 10
46.6092217446
 20
39.9691223894
 10
46.6192235258
 20
39.9742782399
 10
46.6293509009
 20
39.979182808
 10
46.639631401
 20
39.9838494388
 10
46.65002446319999
 20
39.988259707
 10
46.66055539
 20
39.9924243661
 10
46.6711857666
 20
39.9963282071
 10
46.68193815
 20
39.9999795342
 10
46.69277680949999
 20
40.00336619329999
 10
46.7037210813
 20
40.0064942495
 10
46.71473841229999
 20
40.00935437479999
 10
46.7258444938
 20
40.0119506683
 10
46.73701037979999
 20
40.01427633849999
 10
46.7482477483
 20
40.0163338457
 10
46.75953166609999
 20
40.0181185936
 10
46.77086950479999
 20
40.0196317765
 10
46.78224054189999
 20
40.0208706087
 10
46.7936475824
 20
40.021835428
 10
46.80507476369999
 20
40.0225248408
 10
46.8165202799
 20
40.0229387648
 10
46.8279717446
 20
40.0230767558
  0
LWPOLYLINE
  5
594
330
216
100
AcDbEntity
  8
DEFAULT_2
  6
HIDDEN
 62
     7
100
AcDbPolyline
 90
       46
 70
     0
 43
0.0
 10
47.0779717446
 20
39.4726703318
 10
47.07183771149999
 20
39.4727627293
 10
47.06570865739999
 20
39.4730398703
 10
47.0595949412
 20
39.47350129050001
 10
47.0534980827
 20
39.4741469032
 10
47.0474313033
 20
39.4749752541
 10
47.0413923079
 20
39.47598669
 10
47.0353982649
 20
39.4771783156
 10
47.029443172
 20
39.4785513527
 10
47.0235474945
 20
39.4801010519
 10
47.0177018434
 20
39.4818299085
 10
47.01192967899999
 20
39.4837309614
 10
47.0062186
 20
39.48580831840001
 10
47.00059456369999
 20
39.48805251760001
 10
46.9950426142
 20
39.4904695463
 10
46.98959067239999
 20
39.4930472348
 10
46.9842217436
 20
39.4957936322
 10
46.9789651184
 20
39.4986937469
 10
46.973802325
 20
39.5017577773
 10
46.9687633975
 20
39.5049678982
 10
46.9638289759
 20
39.5083364423
 10
46.9590291952
 20
39.5118428464
 10
46.95434440359999
 20
39.5155014564
 10
46.9498041999
 20
39.5192891767
 10
46.94538922249999
 20
39.5232221379
 10
46.9411279241
 20
39.5272750268
 10
46.93700178020001
 20
39.5314654256
 10
46.9330375355
 20
39.5357662222
 10
46.9292179929
 20
39.5401960204
 10
46.9255676977
 20
39.5447264218
 10
46.92207119189999
 20
39.5493765368
 10
46.9187504208
 20
39.5541172721
 10
46.91559198109999
 20
39.5589676622
 10
46.91261492419999
 20
39.5638985711
 10
46.90980810529999
 20
39.5689283261
 10
46.9071875099
 20
39.5740284389
 10
46.9047443321
 20
39.5792158753
 10
46.9024914491
 20
39.584463497
 10
46.9004223452
 20
39.5897862569
 10
46.8985468809
 20
39.5951590533
 10
46.8968606521
 20
39.600594207
 10
46.8953707245
 20
39.60606929380001
 10
46.8940745045
 20
39.6115934442
 10
46.8929766056
 20
39.6171474792
 10
46.89207583299999
 20
39.6227368682
 10
46.89137479609999
 20
39.6283461457
  0
LWPOLYLINE
  5
595
330
216
100
AcDbEntity
  8
DEFAULT_2
  6
HIDDEN
 62
     7
100
AcDbPolyline
 90
       97
 70
     0
 43
0.0
 10
49.7029717446
 20
39.8178596519
 10
49.7091057776
 20
39.81776725440001
 10
49.7152348317
 20
39.8174901134
 10
49.7213485479
 20
39.8170286932
 10
49.72744540649999
 20
39.8163830805
 10
49.7335121858
 20
39.8155547296
 10
49.7395511812
 20
39.8145432936
 10
49.7455452242
 20
39.8133516681
 10
49.75150031720001
 20
39.811978631
 10
49.7573959946
 20
39.8104289318
 10
49.7632416457
 20
39.8087000752
 10
49.7690138101
 20
39.8067990223
 10
49.7747248891
 20
39.8047216653
 10
49.7803489254
 20
39.8024774661
 10
49.7859008749
 20
39.8000604373
 10
49.7913528167
 20
39.7974827489
 10
49.7967217455
 20
39.7947363515
 10
49.8019783708
 20
39.7918362368
 10
49.80714116409999
 20
39.7887722064
 10
49.8121800917
 20
39.78556208550001
 10
49.81711451319999
 20
39.7821935414
 10
49.8219142939
 20
39.7786871373
 10
49.8265990855
 20
39.7750285273
 10
49.8311392893
 20
39.7712408069
 10
49.8355542666
 20
39.7673078458
 10
49.8398155651
 20
39.7632549568
 10
49.84394170899999
 20
39.7590645581
 10
49.84790595359999
 20
39.7547637614
 10
49.8517254963
 20
39.7503339632
 10
49.8553757914
 20
39.7458035619
 10
49.8588722972
 20
39.7411534469
 10
49.8621930683
 20
39.7364127115
 10
49.865351508
 20
39.7315623214
 10
49.868328565
 20
39.7266314125
 10
49.8711353838
 20
39.7216016576
 10
49.8737559793
 20
39.7165015447
 10
49.8761991571
 20
39.7113141084
 10
49.8784520401
 20
39.7060664867
 10
49.880521144
 20
39.7007437268
 10
49.8823966083
 20
39.6953709304
 10
49.88408283710001
 20
39.6899357767
 10
49.88557276459999
 20
39.6844606899
 10
49.8868689847
 20
39.6789365395
 10
49.8879668835
 20
39.6733825045
 10
49.8888676561
 20
39.66779311550001
 10
49.889568693
 20
39.66218383800001
 10
49.8900702927
 20
39.6565532226
 10
49.89037131989999
 20
39.6509126741
 10
49.8904717446
 20
39.6452649918
 10
49.89037131989999
 20
39.6396173096
 10
49.8900702927
 20
39.633976761
 10
49.889568693
 20
39.6283461457
 10
49.8888676561
 20
39.6227368682
 10
49.8879668835
 20
39.6171474792
 10
49.8868689847
 20
39.6115934442
 10
49.88557276459999
 20
39.60606929380001
 10
49.88408283710001
 20
39.600594207
 10
49.8823966083
 20
39.5951590533
 10
49.880521144
 20
39.5897862569
 10
49.8784520401
 20
39.584463497
 10
49.8761991571
 20
39.5792158753
 10
49.8737559793
 20
39.5740284389
 10
49.8711353838
 20
39.5689283261
 10
49.868328565
 20
39.5638985711
 10
49.865351508
 20
39.5589676622
 10
49.8621930683
 20
39.5541172721
 10
49.8588722972
 20
39.5493765368
 10
49.8553757914
 20
39.5447264218
 10
49.8517254963
 20
39.5401960204
 10
49.84790595359999
 20
39.5357662222
 10
49.84394170899999
 20
39.5314654256
 10
49.8398155651
 20
39.5272750268
 10
49.8355542666
 20
39.5232221379
 10
49.8311392893
 20
39.5192891767
 10
49.8265990855
 20
39.5155014564
 10
49.8219142939
 20
39.5118428464
 10
49.81711451319999
 20
39.5083364423
 10
49.8121800917
 20
39.5049678982
 10
49.80714116409999
 20
39.5017577773
 10
49.8019783708
 20
39.4986937469
 10
49.7967217455
 20
39.4957936322
 10
49.7913528167
 20
39.4930472348
 10
49.7859008749
 20
39.4904695463
 10
49.7803489254
 20
39.48805251760001
 10
49.7747248891
 20
39.48580831840001
 10
49.7690138101
 20
39.4837309614
 10
49.7632416457
 20
39.4818299085
 10
49.7573959946
 20
39.4801010519
 10
49.75150031720001
 20
39.4785513527
 10
49.7455452242
 20
39.4771783156
 10
49.7395511812
 20
39.47598669
 10
49.7335121858
 20
39.4749752541
 10
49.72744540649999
 20
39.4741469032
 10
49.7213485479
 20
39.47350129050001
 10
49.7152348317
 20
39.4730398703
 10
49.7091057776
 20
39.4727627293
 10
49.7029717446
 20
39.4726703318
  0
LINE
  5
5D9
330
216
100
AcDbEntity
  8
DEFAULT_2
  6
HIDDEN
 62
     7
100
AcDbLine
 10
34.8386950493
 20
23.1935791871
 30
0.0
 11
35.2014171617
 21
23.5563012996
 31
0.0
  0
LINE
  5
69F
330
216
100
AcDbEntity
  8
DEFAULT_2
  6
HIDDEN
 62
     7
100
AcDbLine
 10
69.2237381858
 20
27.1582088129
 30
0.0
 11
69.2124948821
 21
27.1358478411
 31
0.0
  0
LINE
  5
6A0
330
216
100
AcDbEntity
  8
DEFAULT_2
  6
HIDDEN
 62
     7
100
AcDbLine
 10
69.23347443459999
 20
27.1774678483
 30
0.0
 11
69.2237381858
 21
27.1582088129
 31
0.0
  0
LWPOLYLINE
  5
6A1
330
216
100
AcDbEntity
  8
DEFAULT_2
  6
HIDDEN
 62
     7
100
AcDbPolyline
 90
       13
 70
     0
 43
0.0
 10
69.2835410548
 20
27.2750114278
 10
69.9022958269
 20
28.4916638206
 10
70.51854970429999
 20
29.7097258518
 10
72.06076209009999
 20
32.7667134864
 10
72.8343178031
 20
34.2938266335
 10
73.61251843969999
 20
35.81832164170001
 10
74.3976229446
 20
37.3389252296
 10
75.1918902288
 20
38.8543641582
 10
75.59316579859999
 20
39.6097490136
 10
75.99757902100001
 20
40.3633653767
 10
76.4054122503
 20
41.1150541009
 10
76.81694832949999
 20
41.8646555361
 10
77.3421537869
 20
42.8076462912
  0
LINE
  5
6A2
330
216
100
AcDbEntity
  8
DEFAULT_2
  6
HIDDEN
 62
     7
100
AcDbLine
 10
69.24475741880001
 20
27.199666266
 30
0.0
 11
69.23347443459999
 21
27.1774678483
 31
0.0
  0
LINE
  5
6A3
330
216
100
AcDbEntity
  8
DEFAULT_2
  6
HIDDEN
 62
     7
100
AcDbLine
 10
69.25649112399999
 20
27.2226164318
 30
0.0
 11
69.24475741880001
 21
27.199666266
 31
0.0
  0
LINE
  5
6A4
330
216
100
AcDbEntity
  8
DEFAULT_2
  6
HIDDEN
 62
     7
100
AcDbLine
 10
69.2672392056
 20
27.2435198085
 30
0.0
 11
69.25649112399999
 21
27.2226164318
 31
0.0
  0
LWPOLYLINE
  5
6A5
330
216
100
AcDbEntity
  8
DEFAULT_2
  6
HIDDEN
 62
     7
100
AcDbPolyline
 90
        4
 70
     0
 43
0.0
 10
68.5314614333
 20
25.8087643698
 10
68.7499186899
 20
26.2329950222
 10
68.9678100248
 20
26.6575446588
 10
69.2124948821
 20
27.1358478411
  0
LINE
  5
6A6
330
216
100
AcDbEntity
  8
DEFAULT_2
  6
HIDDEN
 62
     7
100
AcDbLine
 10
69.2835410548
 20
27.2750114278
 30
0.0
 11
69.2672392056
 21
27.2435198085
 31
0.0
  0
LINE
  5
6A7
330
216
100
AcDbEntity
  8
DEFAULT_2
  6
HIDDEN
 62
     7
100
AcDbLine
 10
77.3421537869
 20
42.8076462912
 30
0.0
 11
77.28990481939999
 21
42.71454004339999
 31
0.0
  0
LINE
  5
14CB
330
216
100
AcDbEntity
  8
0
  6
Continuous
 62
     7
100
AcDbLine
 10
25.7774222762
 20
20.0209506185
 30
0.0
 11
22.5804849428
 21
42.7683417246
 31
0.0
  0
LINE
  5
14CC
330
216
100
AcDbEntity
  8
0
  6
Continuous
 62
     7
100
AcDbLine
 10
38.7311122533
 20
19.6947153737
 30
0.0
 11
38.7429717446
 21
19.6828558824
 31
0.0
  0
LWPOLYLINE
  5
14CD
330
216
100
AcDbEntity
  8
0
  6
Continuous
 62
     7
100
AcDbPolyline
 90
        4
 70
     0
 43
0.0
 10
40.80165258
 20
19.1876554424
 10
40.8764357252
 20
19.1129173016
 10
40.948980409
 20
19.0717064992
 10
41.0233564784
 20
19.0578558824
  0
LINE
  5
14CE
330
216
100
AcDbEntity
  8
0
  6
Continuous
 62
     7
100
AcDbLine
 10
41.0154717446
 20
18.9328558824
 30
0.0
 11
40.8279717446
 21
19.1203558824
 31
0.0
  0
LINE
  5
14CF
330
216
100
AcDbEntity
  8
0
  6
Continuous
 62
     7
100
AcDbLine
 10
40.6686705196
 20
19.3535221824
 30
0.0
 11
40.80165258
 21
19.1876554424
 31
0.0
  0
LINE
  5
14D0
330
216
100
AcDbEntity
  8
0
  6
Continuous
 62
     7
100
AcDbLine
 10
36.4929717446
 20
19.6828558824
 30
0.0
 11
36.4929717446
 21
18.9028558824
 31
0.0
  0
LINE
  5
14D1
330
216
100
AcDbEntity
  8
0
  6
Continuous
 62
     7
100
AcDbLine
 10
26.1496337067
 20
19.6981415198
 30
0.0
 11
26.1777304773
 21
19.6982130982
 31
0.0
  0
LWPOLYLINE
  5
14D2
330
216
100
AcDbEntity
  8
0
  6
Continuous
 62
     7
100
AcDbPolyline
 90
       23
 70
     0
 43
0.0
 10
26.1635693843
 20
19.6981947588
 10
26.2023564089
 20
19.6982449903
 10
26.2671169697
 20
19.6982155065
 10
26.3568297448
 20
19.6981653424
 10
26.4703863974
 20
19.6981741546
 10
26.6075752628
 20
19.6981824093
 10
26.7689378165
 20
19.6981613335
 10
26.9551335756
 20
19.6981446603
 10
27.1667627254
 20
19.6981299763
 10
27.4047660266
 20
19.6980750725
 10
27.6702345459
 20
19.6979951382
 10
27.9642752964
 20
19.6979154886
 10
28.2883601768
 20
19.6978232597
 10
28.644199329
 20
19.697747676
 10
29.0335239933
 20
19.6976903305
 10
29.4585516686
 20
19.6975880312
 10
29.922146141
 20
19.6974080099
 10
30.4273893322
 20
19.6971643359
 10
30.976885978
 20
19.6969257124
 10
31.5718657795
 20
19.6967276345
 10
32.21328774070001
 20
19.6965218593
 10
32.9016163635
 20
19.6962866306
 10
33.6368723299
 20
19.6960424627
  0
LINE
  5
14D3
330
216
100
AcDbEntity
  8
0
  6
Continuous
 62
     7
100
AcDbLine
 10
38.76547222860001
 20
18.1203558824
 30
0.0
 11
41.01547126049999
 21
18.1203558824
 31
0.0
  0
LINE
  5
14D4
330
216
100
AcDbEntity
  8
0
  6
Continuous
 62
     7
100
AcDbLine
 10
36.4929717446
 20
18.9028558824
 30
0.0
 11
38.7429717446
 21
18.9028558824
 31
0.0
  0
LINE
  5
14D5
330
216
100
AcDbEntity
  8
0
  6
Continuous
 62
     7
100
AcDbLine
 10
38.7654717446
 20
18.9328558824
 30
0.0
 11
41.0154717446
 21
18.9328558824
 31
0.0
  0
LINE
  5
14D6
330
216
100
AcDbEntity
  8
0
  6
Continuous
 62
     7
100
AcDbLine
 10
41.7597315553
 20
19.0578558824
 30
0.0
 11
41.0233564784
 21
19.0578558824
 31
0.0
  0
LINE
  5
14D7
330
216
100
AcDbEntity
  8
0
  6
Continuous
 62
     7
100
AcDbLine
 10
38.9529717446
 20
19.1203558824
 30
0.0
 11
40.8279717446
 21
19.1203558824
 31
0.0
  0
LINE
  5
14D8
330
216
100
AcDbEntity
  8
0
  6
Continuous
 62
     7
100
AcDbLine
 10
36.4929717446
 20
19.6828558824
 30
0.0
 11
38.7429717446
 21
19.6828558824
 31
0.0
  0
LINE
  5
14D9
330
216
100
AcDbEntity
  8
0
  6
Continuous
 62
     7
100
AcDbLine
 10
48.3904717465
 20
19.6937248556
 30
0.0
 11
53.1349477555
 21
19.6936626036
 31
0.0
  0
LWPOLYLINE
  5
14DA
330
216
100
AcDbEntity
  8
0
  6
Continuous
 62
     7
100
AcDbPolyline
 90
       22
 70
     0
 43
0.0
 10
53.1349477555
 20
19.6936626036
 10
54.59612447529999
 20
19.693608692
 10
55.9937365959
 20
19.6935363611
 10
57.3268035593
 20
19.6934441669
 10
58.59440608739999
 20
19.6933298724
 10
59.7944620215
 20
19.6931933299
 10
60.92050305869999
 20
19.6930353846
 10
61.9672527379
 20
19.6928576301
 10
62.9404435341
 20
19.6926611726
 10
63.8494719511
 20
19.6924453099
 10
64.7012493317
 20
19.692210842
 10
65.4997516687
 20
19.6919574046
 10
66.2485274255
 20
19.6916868215
 10
66.9491696008
 20
19.6913993975
 10
67.6018170621
 20
19.6910995587
 10
68.20675965959999
 20
19.6907889154
 10
68.76443507659999
 20
19.6904722314
 10
69.27565657789999
 20
19.6901547292
 10
69.7416725698
 20
19.6898381295
 10
70.16561922520001
 20
19.6895283839
 10
70.5512264135
 20
19.6892269935
 10
70.9015885907
 20
19.6889330942
  0
LWPOLYLINE
  5
14DB
330
216
100
AcDbEntity
  8
0
  6
Continuous
 62
     7
100
AcDbPolyline
 90
        7
 70
     0
 43
0.0
 10
40.2284724578
 20
19.6944155448
 10
41.42971196749999
 20
19.694227098
 10
42.70215562359999
 20
19.6940572821
 10
44.04078821319999
 20
19.6939164462
 10
45.44036371549999
 20
19.6938298065
 10
46.89549287609999
 20
19.693755077
 10
48.3904717465
 20
19.6937248556
  0
LWPOLYLINE
  5
14DC
330
216
100
AcDbEntity
  8
0
  6
Continuous
 62
     7
100
AcDbPolyline
 90
        5
 70
     0
 43
0.0
 10
33.6368723299
 20
19.6960424627
 10
35.2480315938
 20
19.6955772548
 10
36.1270441009
 20
19.6953216795
 10
37.0592660314
 20
19.6950790963
 10
40.2284724578
 20
19.6944155448
  0
LWPOLYLINE
  5
14DD
330
216
100
AcDbEntity
  8
0
  6
Continuous
 62
     7
100
AcDbPolyline
 90
        6
 70
     0
 43
0.0
 10
70.9015885907
 20
19.6889330942
 10
71.505439474
 20
19.6883884103
 10
71.7627285649
 20
19.688140222
 10
71.9922967448
 20
19.6879099474
 10
72.19541160840001
 20
19.687700744
 10
72.37315870260001
 20
19.6875120292
  0
LWPOLYLINE
  5
14DE
330
216
100
AcDbEntity
  8
0
  6
Continuous
 62
     7
100
AcDbPolyline
 90
        4
 70
     0
 43
0.0
 10
72.37315870260001
 20
19.6875120292
 10
72.65600223079999
 20
19.6872032577
 10
72.76227472069999
 20
19.687085003
 10
72.9054733983
 20
19.6869228184
  0
LWPOLYLINE
  5
14DF
330
216
100
AcDbEntity
  8
0
  6
Continuous
 62
     7
100
AcDbPolyline
 90
        3
 70
     0
 43
0.0
 10
72.9054733983
 20
19.6869228184
 10
72.9419887497
 20
19.6868808504
 10
72.9541653463
 20
19.6868666954
  0
LWPOLYLINE
  5
14E0
330
216
100
AcDbEntity
  8
0
  6
Continuous
 62
     7
100
AcDbPolyline
 90
        5
 70
     0
 43
0.0
 10
40.5166848494
 20
19.6943703309
 10
40.5328874972
 20
19.6318072084
 10
40.5732647945
 20
19.519943275
 10
40.6205405355
 20
19.4244024502
 10
40.6686705196
 20
19.3535221824
  0
LINE
  5
14E1
330
216
100
AcDbEntity
  8
0
  6
Continuous
 62
     7
100
AcDbLine
 10
38.7429717446
 20
19.6828558824
 30
0.0
 11
38.7429717446
 21
18.9028558824
 31
0.0
  0
LINE
  5
14E2
330
216
100
AcDbEntity
  8
0
  6
Continuous
 62
     7
100
AcDbLine
 10
38.7654717446
 20
18.1203558824
 30
0.0
 11
38.7654717446
 21
18.9328558824
 31
0.0
  0
LWPOLYLINE
  5
14E3
330
216
100
AcDbEntity
  8
0
  6
Continuous
 62
     7
100
AcDbPolyline
 90
        8
 70
     0
 43
0.0
 10
41.7597315553
 20
19.2453558824
 10
41.8217116132
 20
19.2568980631
 10
41.8821655163
 20
19.2912403984
 10
41.9396046889
 20
19.347537266
 10
41.9926147881
 20
19.4244024502
 10
42.03989052909999
 20
19.519943275
 10
42.0802678265
 20
19.6318072084
 10
42.09641033679999
 20
19.6941381228
  0
LWPOLYLINE
  5
14E4
330
216
100
AcDbEntity
  8
0
  6
Continuous
 62
     7
100
AcDbPolyline
 90
        8
 70
     0
 43
0.0
 10
41.4230294595
 20
19.6942281463
 10
41.4391952842
 20
19.6318072084
 10
41.47957258149999
 20
19.519943275
 10
41.5268483226
 20
19.4244024502
 10
41.5798584217
 20
19.347537266
 10
41.6372975944
 20
19.2912403984
 10
41.6977514975
 20
19.2568980631
 10
41.7597315553
 20
19.2453558824
  0
LWPOLYLINE
  5
14E5
330
216
100
AcDbEntity
  8
0
  6
Continuous
 62
     7
100
AcDbPolyline
 90
        6
 70
     0
 43
0.0
 10
40.5958379554
 20
19.6943579136
 10
40.59973139639999
 20
19.6721165702
 10
40.638712953
 20
19.5215974736
 10
40.6871657098
 20
19.3873607536
 10
40.74389659909999
 20
19.2727117637
 10
40.80165258
 20
19.1876554424
  0
LWPOLYLINE
  5
14E6
330
216
100
AcDbEntity
  8
0
  6
Continuous
 62
     7
100
AcDbPolyline
 90
        9
 70
     0
 43
0.0
 10
41.3322332553
 20
19.6942423901
 10
41.3361064733
 20
19.6721165702
 10
41.37508803
 20
19.5215974736
 10
41.42354078679999
 20
19.3873607536
 10
41.480271676
 20
19.2727117637
 10
41.543883795
 20
19.1804735427
 10
41.61281080219999
 20
19.1129173016
 10
41.6853554859
 20
19.0717064992
 10
41.7597315553
 20
19.0578558824
  0
LINE
  5
14E7
330
216
100
AcDbEntity
  8
0
  6
Continuous
 62
     7
100
AcDbLine
 10
41.0154717446
 20
18.1203558824
 30
0.0
 11
41.0154717446
 21
18.9328558824
 31
0.0
  0
LWPOLYLINE
  5
14E8
330
216
100
AcDbEntity
  8
0
  6
Continuous
 62
     7
100
AcDbPolyline
 90
        3
 70
     0
 43
0.0
 10
40.8313996608
 20
19.1579262633
 10
40.82939379099999
 20
19.1461177737
 10
40.8279717446
 20
19.1203558824
  0
LWPOLYLINE
  5
14E9
330
216
100
AcDbEntity
  8
0
  6
Continuous
 62
     7
100
AcDbPolyline
 90
        9
 70
     0
 43
0.0
 10
42.1872094817
 20
19.694126005
 10
42.1833566373
 20
19.6721165702
 10
42.1443750807
 20
19.5215974736
 10
42.0959223239
 20
19.3873607536
 10
42.0391914346
 20
19.2727117637
 10
41.9755793157
 20
19.1804735427
 10
41.9066523085
 20
19.1129173016
 10
41.83410762469999
 20
19.0717064992
 10
41.7597315553
 20
19.0578558824
  0
LWPOLYLINE
  5
14EA
330
216
100
AcDbEntity
  8
0
  6
Continuous
 62
     7
100
AcDbPolyline
 90
        4
 70
     0
 43
0.0
 10
39.0356700201
 20
19.6946507898
 10
39.0188435061
 20
19.6429416142
 10
38.9695007886
 20
19.383872581
 10
38.9529717446
 20
19.1203558824
  0
LINE
  5
14EB
330
216
100
AcDbEntity
  8
0
  6
Continuous
 62
     7
100
AcDbLine
 10
41.4304522925
 20
19.6942269992
 30
0.0
 11
41.42674100519999
 21
19.6798967919
 31
0.0
  0
LINE
  5
14EC
330
216
100
AcDbEntity
  8
0
  6
Continuous
 62
     7
100
AcDbLine
 10
36.5053391016
 20
19.6952232394
 30
0.0
 11
36.4929717446
 21
19.6828558824
 31
0.0
  0
LINE
  5
14ED
330
216
100
AcDbEntity
  8
0
  6
Continuous
 62
     7
100
AcDbLine
 10
38.7654717446
 20
18.9328558824
 30
0.0
 11
38.9529717446
 21
19.1203558824
 31
0.0
  0
LINE
  5
14EE
330
216
100
AcDbEntity
  8
0
  6
Continuous
 62
     7
100
AcDbLine
 10
79.8403789964
 20
42.71454004339999
 30
0.0
 11
22.588046276
 21
42.71454004339999
 31
0.0
  0
LINE
  5
14EF
330
216
100
AcDbEntity
  8
0
  6
Continuous
 62
     7
100
AcDbLine
 10
79.7932818683
 20
42.83954004339999
 30
0.0
 11
22.6423766971
 21
42.83954004339999
 31
0.0
  0
LINE
  5
14F0
330
216
100
AcDbEntity
  8
0
  6
Continuous
 62
     7
100
AcDbLine
 10
79.8533607243
 20
42.7598127087
 30
0.0
 11
73.31519016999999
 21
19.9585022812
 31
0.0
  0
ARC
  5
156A
330
216
100
AcDbEntity
  8
DEFAULT_2
  6
HIDDEN
 62
     7
100
AcDbCircle
 10
66.3096660976
 20
26.95489939090001
 30
0.0
 40
2.5
100
AcDbArc
 50
271.5382170393
 51
332.7126075961
  0
ARC
  5
156B
330
216
100
AcDbEntity
  8
DEFAULT_2
  6
HIDDEN
 62
     7
100
AcDbCircle
 10
30.43696382
 20
26.2168965512
 30
0.0
 40
2.5
100
AcDbArc
 50
194.5540077961999
 51
265.3250099728
  0
ARC
  5
1573
330
216
100
AcDbEntity
  8
DEFAULT_2
  6
HIDDEN
 62
     7
100
AcDbCircle
 10
35.3717900209
 20
23.3731207681
 30
0.0
 40
0.25
100
AcDbArc
 50
91.53821704059998
 51
135.0
  0
ARC
  5
1574
330
216
100
AcDbEntity
  8
DEFAULT_2
  6
HIDDEN
 62
     7
100
AcDbCircle
 10
34.661918354
 20
23.3703558824
 30
0.0
 40
0.25
100
AcDbArc
 50
270.0
 51
315.0
  0
ARC
  5
1575
330
216
100
AcDbEntity
  8
DEFAULT_2
  6
HIDDEN
 62
     7
100
AcDbCircle
 10
32.1190251352
 20
23.3703558824
 30
0.0
 40
0.25
100
AcDbArc
 50
225.0
 51
270.0
  0
ARC
  5
1576
330
216
100
AcDbEntity
  8
DEFAULT_2
  6
HIDDEN
 62
     7
100
AcDbCircle
 10
31.4036048954
 20
23.378669341
 30
0.0
 40
0.25
100
AcDbArc
 50
45.0
 51
85.3250099715
  0
ARC
  5
1579
330
216
100
AcDbEntity
  8
DEFAULT_2
  6
HIDDEN
 62
     7
100
AcDbCircle
 10
77.3966469754
 20
42.7770400434
 30
0.0
 40
0.0625
100
AcDbArc
 50
90.0
 51
150.6791369538
  0
ARC
  5
157A
330
216
100
AcDbEntity
  8
DEFAULT_2
  6
HIDDEN
 62
     7
100
AcDbCircle
 10
23.6499342911
 20
42.7770400434
 30
0.0
 40
0.0625
100
AcDbArc
 50
12.000265895
 51
90.0
  0
ARC
  5
157B
330
216
100
AcDbEntity
  8
0
  6
Continuous
 62
     7
100
AcDbCircle
 10
72.95471703379999
 20
20.0618662896
 30
0.0
 40
0.375
100
AcDbArc
 50
269.9157074849
 51
344.0000000086
  0
ARC
  5
157C
330
216
100
AcDbEntity
  8
0
  6
Continuous
 62
     7
100
AcDbCircle
 10
26.1487728032
 20
20.0731405316
 30
0.0
 40
0.375
100
AcDbArc
 50
188.000000009
 51
270.1314501737
  0
ARC
  5
157D
330
216
100
AcDbEntity
  8
0
  6
Continuous
 62
     7
100
AcDbCircle
 10
22.6423766971
 20
42.7770400434
 30
0.0
 40
0.0625
100
AcDbArc
 50
90.0
 51
188.0
  0
ARC
  5
157E
330
216
100
AcDbEntity
  8
0
  6
Continuous
 62
     7
100
AcDbCircle
 10
79.7932818683
 20
42.7770400434
 30
0.0
 40
0.0625
100
AcDbArc
 50
344.0
 51
90.0
  0
ENDSEC
  0
SECTION
  2
OBJECTS
  0
DICTIONARY
  5
C
330
0
100
AcDbDictionary
281
     1
  3
ACAD_COLOR
350
15BA
  3
ACAD_DETAILVIEWSTYLE
350
15D4
  3
ACAD_GROUP
350
D
  3
ACAD_LAYOUT
350
1A
  3
ACAD_MATERIAL
350
1588
  3
ACAD_MLEADERSTYLE
350
15CF
  3
ACAD_MLINESTYLE
350
17
  3
ACAD_PLOTSETTINGS
350
19
  3
ACAD_PLOTSTYLENAME
350
E
  3
ACAD_SCALELIST
350
15BD
  3
ACAD_SECTIONVIEWSTYLE
350
15D1
  3
ACAD_TABLESTYLE
350
15BB
  3
ACAD_VISUALSTYLE
350
15A1
  3
ACDB_RECOMPOSE_DATA
350
15D8
  3
AcDbVariableDictionary
350
1615
  0
DICTIONARY
  5
15D9
330
8
100
AcDbDictionary
280
     1
281
     1
  0
DICTIONARY
  5
1628
330
10
100
AcDbDictionary
280
     1
281
     1
  3
ADSK_XREC_LAYER_RECONCILED
360
1629
  0
DICTIONARY
  5
162A
330
1FA
100
AcDbDictionary
280
     1
281
     1
  3
ADSK_XREC_LAYER_RECONCILED
360
162B
  0
DICTIONARY
  5
162C
330
1FB
100
AcDbDictionary
280
     1
281
     1
  3
ADSK_XREC_LAYER_RECONCILED
360
162D
  0
DICTIONARY
  5
162E
330
1FC
100
AcDbDictionary
280
     1
281
     1
  3
ADSK_XREC_LAYER_RECONCILED
360
162F
  0
DICTIONARY
  5
1630
330
1FD
100
AcDbDictionary
280
     1
281
     1
  3
ADSK_XREC_LAYER_RECONCILED
360
1631
  0
DICTIONARY
  5
1632
330
1FE
100
AcDbDictionary
280
     1
281
     1
  3
ADSK_XREC_LAYER_RECONCILED
360
1633
  0
DICTIONARY
  5
1634
330
1FF
100
AcDbDictionary
280
     1
281
     1
  3
ADSK_XREC_LAYER_RECONCILED
360
1635
  0
DICTIONARY
  5
1636
330
200
100
AcDbDictionary
280
     1
281
     1
  3
ADSK_XREC_LAYER_RECONCILED
360
1637
  0
DICTIONARY
  5
1638
330
201
100
AcDbDictionary
280
     1
281
     1
  3
ADSK_XREC_LAYER_RECONCILED
360
1639
  0
DICTIONARY
  5
163A
330
202
100
AcDbDictionary
280
     1
281
     1
  3
ADSK_XREC_LAYER_RECONCILED
360
163B
  0
DICTIONARY
  5
163C
330
203
100
AcDbDictionary
280
     1
281
     1
  3
ADSK_XREC_LAYER_RECONCILED
360
163D
  0
DICTIONARY
  5
163E
330
204
100
AcDbDictionary
280
     1
281
     1
  3
ADSK_XREC_LAYER_RECONCILED
360
163F
  0
DICTIONARY
  5
1640
330
205
100
AcDbDictionary
280
     1
281
     1
  3
ADSK_XREC_LAYER_RECONCILED
360
1641
  0
DICTIONARY
  5
1642
330
206
100
AcDbDictionary
280
     1
281
     1
  3
ADSK_XREC_LAYER_RECONCILED
360
1643
  0
DICTIONARY
  5
1644
330
207
100
AcDbDictionary
280
     1
281
     1
  3
ADSK_XREC_LAYER_RECONCILED
360
1645
  0
DICTIONARY
  5
1646
330
208
100
AcDbDictionary
280
     1
281
     1
  3
ADSK_XREC_LAYER_RECONCILED
360
1647
  0
DICTIONARY
  5
1648
330
209
100
AcDbDictionary
280
     1
281
     1
  3
ADSK_XREC_LAYER_RECONCILED
360
1649
  0
DICTIONARY
  5
164A
330
20A
100
AcDbDictionary
280
     1
281
     1
  3
ADSK_XREC_LAYER_RECONCILED
360
164B
  0
DICTIONARY
  5
164C
330
20B
100
AcDbDictionary
280
     1
281
     1
  3
ADSK_XREC_LAYER_RECONCILED
360
164D
  0
DICTIONARY
  5
164E
330
20C
100
AcDbDictionary
280
     1
281
     1
  3
ADSK_XREC_LAYER_RECONCILED
360
164F
  0
DICTIONARY
  5
1650
330
20D
100
AcDbDictionary
280
     1
281
     1
  3
ADSK_XREC_LAYER_RECONCILED
360
1651
  0
DICTIONARY
  5
15BA
102
{ACAD_REACTORS
330
C
102
}
330
C
100
AcDbDictionary
281
     1
  0
DICTIONARY
  5
15D4
102
{ACAD_REACTORS
330
C
102
}
330
C
100
AcDbDictionary
281
     1
  3
Imperial24
350
15D5
  0
DICTIONARY
  5
D
102
{ACAD_REACTORS
330
C
102
}
330
C
100
AcDbDictionary
281
     1
  0
DICTIONARY
  5
1A
102
{ACAD_REACTORS
330
C
102
}
330
C
100
AcDbDictionary
281
     1
  3
Layout1
350
1585
  3
Model
350
1584
  0
DICTIONARY
  5
1588
102
{ACAD_REACTORS
330
C
102
}
330
C
100
AcDbDictionary
281
     1
  3
ByBlock
350
1591
  3
ByLayer
350
1589
  3
Global
350
1599
  0
DICTIONARY
  5
15CF
102
{ACAD_REACTORS
330
C
102
}
330
C
100
AcDbDictionary
281
     1
  3
Standard
350
15D0
  0
DICTIONARY
  5
17
102
{ACAD_REACTORS
330
C
102
}
330
C
100
AcDbDictionary
281
     1
  3
Standard
350
18
  0
DICTIONARY
  5
19
102
{ACAD_REACTORS
330
C
102
}
330
C
100
AcDbDictionary
281
     1
  0
ACDBDICTIONARYWDFLT
  5
E
102
{ACAD_REACTORS
330
C
102
}
330
C
100
AcDbDictionary
281
     1
  3
Normal
350
F
100
AcDbDictionaryWithDefault
340
F
  0
DICTIONARY
  5
15BD
102
{ACAD_REACTORS
330
C
102
}
330
C
100
AcDbDictionary
281
     1
  3
A0
350
15BE
  3
A1
350
15BF
  3
A2
350
15C0
  3
A3
350
15C1
  3
A4
350
15C2
  3
A5
350
15C3
  3
A6
350
15C4
  3
A7
350
15C5
  3
A8
350
15C6
  3
A9
350
15C7
  3
B0
350
15C8
  3
B1
350
15C9
  3
B2
350
15CA
  3
B3
350
15CB
  3
B4
350
15CC
  3
B5
350
15CD
  3
B6
350
15CE
  0
DICTIONARY
  5
15D1
102
{ACAD_REACTORS
330
C
102
}
330
C
100
AcDbDictionary
281
     1
  3
Imperial24
350
15D3
  0
DICTIONARY
  5
15BB
102
{ACAD_REACTORS
330
C
102
}
330
C
100
AcDbDictionary
281
     1
  3
Standard
350
15BC
  0
DICTIONARY
  5
15A1
102
{ACAD_REACTORS
330
C
102
}
330
C
100
AcDbDictionary
281
     1
  3
2dWireframe
350
15A7
  3
3D Hidden
350
1621
  3
3dWireframe
350
1620
  3
Basic
350
15A6
  3
Brighten
350
15AD
  3
ColorChange
350
15B1
  3
Conceptual
350
15AA
  3
Dim
350
15AC
  3
EdgeColorOff
350
15B9
  3
Facepattern
350
15B0
  3
Flat
350
15A2
  3
FlatWithEdges
350
15A3
  3
Gouraud
350
15A4
  3
GouraudWithEdges
350
15A5
  3
Hidden
350
15A9
  3
JitterOff
350
15B7
  3
Linepattern
350
15AF
  3
OverhangOff
350
15B8
  3
Realistic
350
15AB
  3
Shaded
350
15B6
  3
Shaded with edges
350
15B5
  3
Shades of Gray
350
15B2
  3
Sketchy
350
15B3
  3
Thicken
350
15AE
  3
Wireframe
350
15A8
  3
X-Ray
350
15B4
  0
XRECORD
  5
15D8
102
{ACAD_REACTORS
330
C
102
}
330
C
100
AcDbXrecord
280
     1
 90
        1
330
15BC
  0
DICTIONARY
  5
1615
102
{ACAD_REACTORS
330
C
102
}
330
C
100
AcDbDictionary
281
     1
  3
CANNOSCALE
350
161A
  3
CMLEADERSTYLE
350
1617
  3
CTABLESTYLE
350
1616
  3
CVIEWDETAILSTYLE
350
1618
  3
CVIEWSECTIONSTYLE
350
1619
  3
DIMASSOC
350
161D
  3
INDEXCTL
350
161C
  3
SORTENTS
350
161B
  3
XCLIPFRAME
350
161E
  0
XRECORD
  5
1629
102
{ACAD_REACTORS
330
1628
102
}
330
1628
100
AcDbXrecord
280
     1
290
     1
  0
XRECORD
  5
162B
102
{ACAD_REACTORS
330
162A
102
}
330
162A
100
AcDbXrecord
280
     1
290
     1
  0
XRECORD
  5
162D
102
{ACAD_REACTORS
330
162C
102
}
330
162C
100
AcDbXrecord
280
     1
290
     1
  0
XRECORD
  5
162F
102
{ACAD_REACTORS
330
162E
102
}
330
162E
100
AcDbXrecord
280
     1
290
     1
  0
XRECORD
  5
1631
102
{ACAD_REACTORS
330
1630
102
}
330
1630
100
AcDbXrecord
280
     1
290
     1
  0
XRECORD
  5
1633
102
{ACAD_REACTORS
330
1632
102
}
330
1632
100
AcDbXrecord
280
     1
290
     1
  0
XRECORD
  5
1635
102
{ACAD_REACTORS
330
1634
102
}
330
1634
100
AcDbXrecord
280
     1
290
     1
  0
XRECORD
  5
1637
102
{ACAD_REACTORS
330
1636
102
}
330
1636
100
AcDbXrecord
280
     1
290
     1
  0
XRECORD
  5
1639
102
{ACAD_REACTORS
330
1638
102
}
330
1638
100
AcDbXrecord
280
     1
290
     1
  0
XRECORD
  5
163B
102
{ACAD_REACTORS
330
163A
102
}
330
163A
100
AcDbXrecord
280
     1
290
     1
  0
XRECORD
  5
163D
102
{ACAD_REACTORS
330
163C
102
}
330
163C
100
AcDbXrecord
280
     1
290
     1
  0
XRECORD
  5
163F
102
{ACAD_REACTORS
330
163E
102
}
330
163E
100
AcDbXrecord
280
     1
290
     1
  0
XRECORD
  5
1641
102
{ACAD_REACTORS
330
1640
102
}
330
1640
100
AcDbXrecord
280
     1
290
     1
  0
XRECORD
  5
1643
102
{ACAD_REACTORS
330
1642
102
}
330
1642
100
AcDbXrecord
280
     1
290
     1
  0
XRECORD
  5
1645
102
{ACAD_REACTORS
330
1644
102
}
330
1644
100
AcDbXrecord
280
     1
290
     1
  0
XRECORD
  5
1647
102
{ACAD_REACTORS
330
1646
102
}
330
1646
100
AcDbXrecord
280
     1
290
     1
  0
XRECORD
  5
1649
102
{ACAD_REACTORS
330
1648
102
}
330
1648
100
AcDbXrecord
280
     1
290
     1
  0
XRECORD
  5
164B
102
{ACAD_REACTORS
330
164A
102
}
330
164A
100
AcDbXrecord
280
     1
290
     1
  0
XRECORD
  5
164D
102
{ACAD_REACTORS
330
164C
102
}
330
164C
100
AcDbXrecord
280
     1
290
     1
  0
XRECORD
  5
164F
102
{ACAD_REACTORS
330
164E
102
}
330
164E
100
AcDbXrecord
280
     1
290
     1
  0
XRECORD
  5
1651
102
{ACAD_REACTORS
330
1650
102
}
330
1650
100
AcDbXrecord
280
     1
290
     1
  0
ACAD_PROXY_OBJECT
  5
15D5
102
{ACAD_REACTORS
330
15D4
102
}
330
15D4
100
AcDbProxyObject
 90
      499
 91
      509
 95
   983063
 70
     0
 93
     1261
310
90B496D70657269616C323400481E5C0F42F5A8DC671FC056BD1B81E856B9F81E5C0F42F5A8DC671FA33E5C0F42F5A8DC671FA02000000000000741FA02AD929E2E20B1AB30B9102B34B2BBAA3CB832902E33101112BA3198911F1290129E2E20B1AB30B9102B34B2BBA232BA30B4B624B21F12AE2829A1A0A62290129E2E2
310
0B1AB30B9102B34B2BBA9B1B0B632902E33101112B9B7111F1280233A33804
340
11
340
0
340
16
340
11
340
16
340
16
 94
        0
  0
LAYOUT
  5
1585
102
{ACAD_REACTORS
330
1A
102
}
330
1A
100
AcDbPlotSettings
  1

  2
none_device
  4
ANSI_B_(17.00_x_11.00_Inches)
  6

 40
0.0
 41
0.0
 42
0.0
 43
0.0
 44
431.8
 45
279.4
 46
0.0
 47
0.0
 48
0.0
 49
0.0
140
0.0
141
0.0
142
1.0
143
1.0
 70
     0
 72
     0
 73
     0
 74
     0
  7

 75
     0
147
1.0
 76
     0
 77
     2
 78
   300
148
0.0
149
0.0
100
AcDbLayout
  1
Layout1
 70
     1
 71
     1
 10
0.0
 20
0.0
 11
12.0
 21
9.0
 12
0.0
 22
0.0
 32
0.0
 14
1.000000000000000E+20
 24
1.000000000000000E+20
 34
1.000000000000000E+20
 15
-1.000000000000000E+20
 25
-1.000000000000000E+20
 35
-1.000000000000000E+20
146
0.0
 13
0.0
 23
0.0
 33
0.0
 16
1.0
 26
0.0
 36
0.0
 17
0.0
 27
1.0
 37
0.0
 76
     0
330
217
  0
LAYOUT
  5
1584
102
{ACAD_REACTORS
330
1A
102
}
330
1A
100
AcDbPlotSettings
  1

  2
none_device
  4
ANSI_B_(17.00_x_11.00_Inches)
  6

 40
0.0
 41
0.0
 42
0.0
 43
0.0
 44
431.8
 45
279.4
 46
0.0
 47
0.0
 48
0.0
 49
0.0
140
0.0
141
0.0
142
1.0
143
1.0
 70
  1024
 72
     0
 73
     0
 74
     0
  7

 75
     0
147
1.0
 76
     0
 77
     2
 78
   300
148
0.0
149
0.0
100
AcDbLayout
  1
Model
 70
     0
 71
     0
 10
0.0
 20
0.0
 11
17.0
 21
11.0
 12
0.0
 22
0.0
 32
0.0
 14
0.0
 24
0.0
 34
0.0
 15
0.0
 25
0.0
 35
0.0
146
0.0
 13
0.0
 23
0.0
 33
0.0
 16
1.0
 26
0.0
 36
0.0
 17
0.0
 27
1.0
 37
0.0
 76
     0
330
216
331
1F4
  0
MATERIAL
  5
1591
102
{ACAD_XDICTIONARY
360
1592
102
}
102
{ACAD_REACTORS
330
1588
102
}
330
1588
100
AcDbMaterial
  1
ByBlock
 72
     0
 43
0.0208333333333333
 43
0.0
 43
0.0
 43
0.0
 43
0.0
 43
0.0208333333333333
 43
0.0
 43
0.0
 43
0.0
 43
0.0
 43
1.0
 43
0.0
 43
0.0
 43
0.0
 43
0.0
 43
1.0
 77
     0
 47
0.0208333333333333
 47
0.0
 47
0.0
 47
0.0
 47
0.0
 47
0.0208333333333333
 47
0.0
 47
0.0
 47
0.0
 47
0.0
 47
1.0
 47
0.0
 47
0.0
 47
0.0
 47
0.0
 47
1.0
171
     0
 49
0.0208333333333333
 49
0.0
 49
0.0
 49
0.0
 49
0.0
 49
0.0208333333333333
 49
0.0
 49
0.0
 49
0.0
 49
0.0
 49
1.0
 49
0.0
 49
0.0
 49
0.0
 49
0.0
 49
1.0
175
     0
142
0.0208333333333333
142
0.0
142
0.0
142
0.0
142
0.0
142
0.0208333333333333
142
0.0
142
0.0
142
0.0
142
0.0
142
1.0
142
0.0
142
0.0
142
0.0
142
0.0
142
1.0
179
     0
144
0.0208333333333333
144
0.0
144
0.0
144
0.0
144
0.0
144
0.0208333333333333
144
0.0
144
0.0
144
0.0
144
0.0
144
1.0
144
0.0
144
0.0
144
0.0
144
0.0
144
1.0
147
0.0208333333333333
147
0.0
147
0.0
147
0.0
147
0.0
147
0.0208333333333333
147
0.0
147
0.0
147
0.0
147
0.0
147
1.0
147
0.0
147
0.0
147
0.0
147
0.0
147
1.0
  0
MATERIAL
  5
1589
102
{ACAD_XDICTIONARY
360
158A
102
}
102
{ACAD_REACTORS
330
1588
102
}
330
1588
100
AcDbMaterial
  1
ByLayer
 72
     0
 43
0.0208333333333333
 43
0.0
 43
0.0
 43
0.0
 43
0.0
 43
0.0208333333333333
 43
0.0
 43
0.0
 43
0.0
 43
0.0
 43
1.0
 43
0.0
 43
0.0
 43
0.0
 43
0.0
 43
1.0
 77
     0
 47
0.0208333333333333
 47
0.0
 47
0.0
 47
0.0
 47
0.0
 47
0.0208333333333333
 47
0.0
 47
0.0
 47
0.0
 47
0.0
 47
1.0
 47
0.0
 47
0.0
 47
0.0
 47
0.0
 47
1.0
171
     0
 49
0.0208333333333333
 49
0.0
 49
0.0
 49
0.0
 49
0.0
 49
0.0208333333333333
 49
0.0
 49
0.0
 49
0.0
 49
0.0
 49
1.0
 49
0.0
 49
0.0
 49
0.0
 49
0.0
 49
1.0
175
     0
142
0.0208333333333333
142
0.0
142
0.0
142
0.0
142
0.0
142
0.0208333333333333
142
0.0
142
0.0
142
0.0
142
0.0
142
1.0
142
0.0
142
0.0
142
0.0
142
0.0
142
1.0
179
     0
144
0.0208333333333333
144
0.0
144
0.0
144
0.0
144
0.0
144
0.0208333333333333
144
0.0
144
0.0
144
0.0
144
0.0
144
1.0
144
0.0
144
0.0
144
0.0
144
0.0
144
1.0
147
0.0208333333333333
147
0.0
147
0.0
147
0.0
147
0.0
147
0.0208333333333333
147
0.0
147
0.0
147
0.0
147
0.0
147
1.0
147
0.0
147
0.0
147
0.0
147
0.0
147
1.0
  0
MATERIAL
  5
1599
102
{ACAD_XDICTIONARY
360
159A
102
}
102
{ACAD_REACTORS
330
1588
102
}
330
1588
100
AcDbMaterial
  1
Global
 72
     0
 43
0.0208333333333333
 43
0.0
 43
0.0
 43
0.0
 43
0.0
 43
0.0208333333333333
 43
0.0
 43
0.0
 43
0.0
 43
0.0
 43
1.0
 43
0.0
 43
0.0
 43
0.0
 43
0.0
 43
1.0
 77
     0
 47
0.0208333333333333
 47
0.0
 47
0.0
 47
0.0
 47
0.0
 47
0.0208333333333333
 47
0.0
 47
0.0
 47
0.0
 47
0.0
 47
1.0
 47
0.0
 47
0.0
 47
0.0
 47
0.0
 47
1.0
171
     0
 49
0.0208333333333333
 49
0.0
 49
0.0
 49
0.0
 49
0.0
 49
0.0208333333333333
 49
0.0
 49
0.0
 49
0.0
 49
0.0
 49
1.0
 49
0.0
 49
0.0
 49
0.0
 49
0.0
 49
1.0
175
     0
142
0.0208333333333333
142
0.0
142
0.0
142
0.0
142
0.0
142
0.0208333333333333
142
0.0
142
0.0
142
0.0
142
0.0
142
1.0
142
0.0
142
0.0
142
0.0
142
0.0
142
1.0
179
     0
144
0.0208333333333333
144
0.0
144
0.0
144
0.0
144
0.0
144
0.0208333333333333
144
0.0
144
0.0
144
0.0
144
0.0
144
1.0
144
0.0
144
0.0
144
0.0
144
0.0
144
1.0
147
0.0208333333333333
147
0.0
147
0.0
147
0.0
147
0.0
147
0.0208333333333333
147
0.0
147
0.0
147
0.0
147
0.0
147
1.0
147
0.0
147
0.0
147
0.0
147
0.0
147
1.0
  0
MLEADERSTYLE
  5
15D0
102
{ACAD_REACTORS
330
15CF
102
}
330
15CF
100
AcDbMLeaderStyle
170
     2
171
     1
172
     0
 90
        2
 40
0.0
 41
0.0
173
     1
 91
-1056964608
340
14
 92
       -2
290
     1
 42
0.09
291
     1
 43
0.36
  3
Standard
 44
0.18
300

342
11
174
     1
178
     6
175
     1
176
     0
 93
-1056964608
 45
0.18
292
     0
297
     0
 46
0.18
 94
-1056964608
 47
1.0
 49
1.0
140
1.0
293
     1
141
0.0
294
     1
177
     0
142
1.0
295
     0
296
     0
143
0.125
1001
ACAD_MLEADERVER
1070
     2
  0
MLINESTYLE
  5
18
102
{ACAD_REACTORS
330
17
102
}
330
17
100
AcDbMlineStyle
  2
STANDARD
 70
     0
  3

 62
   256
 51
90.0
 52
90.0
 71
     2
 49
0.5
 62
   256
  6
BYLAYER
 49
-0.5
 62
   256
  6
BYLAYER
  0
ACDBPLACEHOLDER
  5
F
102
{ACAD_REACTORS
330
E
102
}
330
E
  0
SCALE
  5
15BE
102
{ACAD_REACTORS
330
15BD
102
}
330
15BD
100
AcDbScale
 70
     0
300
1:1
140
1.0
141
1.0
290
     1
  0
SCALE
  5
15BF
102
{ACAD_REACTORS
330
15BD
102
}
330
15BD
100
AcDbScale
 70
     0
300
1/128" = 1'-0"
140
0.0078125
141
12.0
290
     0
  0
SCALE
  5
15C0
102
{ACAD_REACTORS
330
15BD
102
}
330
15BD
100
AcDbScale
 70
     0
300
1/64" = 1'-0"
140
0.015625
141
12.0
290
     0
  0
SCALE
  5
15C1
102
{ACAD_REACTORS
330
15BD
102
}
330
15BD
100
AcDbScale
 70
     0
300
1/32" = 1'-0"
140
0.03125
141
12.0
290
     0
  0
SCALE
  5
15C2
102
{ACAD_REACTORS
330
15BD
102
}
330
15BD
100
AcDbScale
 70
     0
300
1/16" = 1'-0"
140
0.0625
141
12.0
290
     0
  0
SCALE
  5
15C3
102
{ACAD_REACTORS
330
15BD
102
}
330
15BD
100
AcDbScale
 70
     0
300
3/32" = 1'-0"
140
0.09375
141
12.0
290
     0
  0
SCALE
  5
15C4
102
{ACAD_REACTORS
330
15BD
102
}
330
15BD
100
AcDbScale
 70
     0
300
1/8" = 1'-0"
140
0.125
141
12.0
290
     0
  0
SCALE
  5
15C5
102
{ACAD_REACTORS
330
15BD
102
}
330
15BD
100
AcDbScale
 70
     0
300
3/16" = 1'-0"
140
0.1875
141
12.0
290
     0
  0
SCALE
  5
15C6
102
{ACAD_REACTORS
330
15BD
102
}
330
15BD
100
AcDbScale
 70
     0
300
1/4" = 1'-0"
140
0.25
141
12.0
290
     0
  0
SCALE
  5
15C7
102
{ACAD_REACTORS
330
15BD
102
}
330
15BD
100
AcDbScale
 70
     0
300
3/8" = 1'-0"
140
0.375
141
12.0
290
     0
  0
SCALE
  5
15C8
102
{ACAD_REACTORS
330
15BD
102
}
330
15BD
100
AcDbScale
 70
     0
300
1/2" = 1'-0"
140
0.5
141
12.0
290
     0
  0
SCALE
  5
15C9
102
{ACAD_REACTORS
330
15BD
102
}
330
15BD
100
AcDbScale
 70
     0
300
3/4" = 1'-0"
140
0.75
141
12.0
290
     0
  0
SCALE
  5
15CA
102
{ACAD_REACTORS
330
15BD
102
}
330
15BD
100
AcDbScale
 70
     0
300
1" = 1'-0"
140
1.0
141
12.0
290
     0
  0
SCALE
  5
15CB
102
{ACAD_REACTORS
330
15BD
102
}
330
15BD
100
AcDbScale
 70
     0
300
1-1/2" = 1'-0"
140
1.5
141
12.0
290
     0
  0
SCALE
  5
15CC
102
{ACAD_REACTORS
330
15BD
102
}
330
15BD
100
AcDbScale
 70
     0
300
3" = 1'-0"
140
3.0
141
12.0
290
     0
  0
SCALE
  5
15CD
102
{ACAD_REACTORS
330
15BD
102
}
330
15BD
100
AcDbScale
 70
     0
300
6" = 1'-0"
140
6.0
141
12.0
290
     0
  0
SCALE
  5
15CE
102
{ACAD_REACTORS
330
15BD
102
}
330
15BD
100
AcDbScale
 70
     0
300
1'-0" = 1'-0"
140
12.0
141
12.0
290
     0
  0
ACAD_PROXY_OBJECT
  5
15D3
102
{ACAD_REACTORS
330
15D1
102
}
330
15D1
100
AcDbProxyObject
 90
      499
 91
      508
 95
   983063
 70
     0
 93
     2303
310
90B496D70657269616C3234004A765C0F42F5A8DC671FE5C0F42F5A8DC671FA229258409E5840A25840A65840B05840B4005C0F42F5A8DC6F1FA33A659703D0BD6A3719C7E5C0F42F5A8DC671FE5C0F42F5A8DC671FA02000000000000741FA02BE929E2E20B1AB30B9102B34B2BBAA3CB832902E33101112BA3198911F129
310
0129E2E20B1AB30B9102B34B2BBA9B2B1BA34B7B729BA30B93A24B21F1296929E2E20B1AB30B9102B34B2BBA9B2B1BA34B7B722B73224B21F12AE2829A1A0A62290129E2E20B1AB30B9102B34B2BBA9B1B0B632902E33101112B9B7111F128060080A0E829CA692666200C206056BD1B81E85639FA0320D0305A88A9F643F2
310
7E32B9969C2960E81F87FA0718D4DE3E87E32B9969C2960E85F9E5129FC49EA5FA7E
340
11
340
0
340
0
340
15D2
340
16
340
11
 94
        0
  0
TABLESTYLE
  5
15BC
102
{ACAD_XDICTIONARY
360
15D6
102
}
102
{ACAD_REACTORS
330
15BB
102
}
330
15BB
100
AcDbTableStyle
  3
Standard
 70
     0
 71
     0
 40
0.06
 41
0.06
280
     0
281
     0
  7
STANDARD
140
0.18
170
     2
 62
     0
 63
     7
283
     0
274
    -2
284
     1
 64
     0
275
    -2
285
     1
 65
     0
276
    -2
286
     1
 66
     0
277
    -2
287
     1
 67
     0
278
    -2
288
     1
 68
     0
279
    -2
289
     1
 69
     0
  7
STANDARD
140
0.25
170
     5
 62
     0
 63
     7
283
     0
274
    -2
284
     1
 64
     0
275
    -2
285
     1
 65
     0
276
    -2
286
     1
 66
     0
277
    -2
287
     1
 67
     0
278
    -2
288
     1
 68
     0
279
    -2
289
     1
 69
     0
  7
STANDARD
140
0.18
170
     5
 62
     0
 63
     7
283
     0
274
    -2
284
     1
 64
     0
275
    -2
285
     1
 65
     0
276
    -2
286
     1
 66
     0
277
    -2
287
     1
 67
     0
278
    -2
288
     1
 68
     0
279
    -2
289
     1
 69
     0
  0
VISUALSTYLE
  5
15A7
102
{ACAD_XDICTIONARY
360
15ED
102
}
102
{ACAD_REACTORS
330
15A1
102
}
330
15A1
100
AcDbVisualStyle
  2
2dWireframe
 70
     4
 71
     0
 72
     2
 73
     0
 90
        0
 40
-0.6
 41
-30.0
 62
     5
 63
     7
 74
     1
 91
        4
 64
     7
 65
   257
 75
     1
175
     1
 42
1.0
 92
        0
 66
   257
 43
1.0
 76
     1
 77
     6
 78
     2
 67
     7
 79
     5
170
     0
171
     0
290
     0
174
     0
 93
        1
 44
0.0
173
     0
291
     0
 45
0.0
1001
ACAD
1000
AcDbSavedByObjectVersion
1070
     0
  0
VISUALSTYLE
  5
1621
102
{ACAD_REACTORS
330
15A1
102
}
330
15A1
100
AcDbVisualStyle
  2
3D Hidden
 70
     6
 71
     1
 72
     2
 73
     2
 90
        0
 40
-0.6
 41
-30.0
 62
     5
 63
     7
421
 16777215
 74
     2
 91
        2
 64
     7
 65
   257
 75
     2
175
     1
 42
40.0
 92
        0
 66
   257
 43
1.0
 76
     1
 77
     6
 78
     2
 67
     7
 79
     3
170
     0
171
     0
290
     0
174
     0
 93
        1
 44
0.0
173
     0
291
     0
 45
0.0
1001
ACAD
1000
AcDbSavedByObjectVersion
1070
     0
  0
VISUALSTYLE
  5
1620
102
{ACAD_REACTORS
330
15A1
102
}
330
15A1
100
AcDbVisualStyle
  2
3dWireframe
 70
     5
 71
     0
 72
     2
 73
     0
 90
        0
 40
-0.6
 41
-30.0
 62
     5
 63
     7
421
 16777215
 74
     1
 91
        4
 64
     7
 65
   257
 75
     1
175
     1
 42
1.0
 92
        0
 66
   257
 43
1.0
 76
     1
 77
     6
 78
     2
 67
     7
 79
     5
170
     0
171
     0
290
     0
174
     0
 93
        1
 44
0.0
173
     0
291
     0
 45
0.0
1001
ACAD
1000
AcDbSavedByObjectVersion
1070
     0
  0
VISUALSTYLE
  5
15A6
102
{ACAD_XDICTIONARY
360
15EB
102
}
102
{ACAD_REACTORS
330
15A1
102
}
330
15A1
100
AcDbVisualStyle
  2
Basic
 70
     7
 71
     1
 72
     0
 73
     1
 90
        0
 40
-0.6
 41
-30.0
 62
     5
 63
     7
 74
     0
 91
        4
 64
     7
 65
   257
 75
     1
175
     1
 42
1.0
 92
        8
 66
     7
 43
1.0
 76
     1
 77
     6
 78
     2
 67
     7
 79
     5
170
     0
171
     0
290
     0
174
     0
 93
        1
 44
0.0
173
     0
291
     1
 45
0.0
1001
ACAD
1000
AcDbSavedByObjectVersion
1070
     0
  0
VISUALSTYLE
  5
15AD
102
{ACAD_XDICTIONARY
360
15F9
102
}
102
{ACAD_REACTORS
330
15A1
102
}
330
15A1
100
AcDbVisualStyle
  2
Brighten
 70
    12
 71
     2
 72
     2
 73
     0
 90
        0
 40
-0.6
 41
-30.0
 62
     5
 63
     7
 74
     1
 91
        4
 64
     7
 65
   257
 75
     1
175
     1
 42
1.0
 92
        8
 66
     7
 43
1.0
 76
     1
 77
     6
 78
     2
 67
     7
 79
     5
170
     0
171
     0
290
     0
174
     0
 93
        1
 44
50.0
173
     0
291
     1
 45
0.0
1001
ACAD
1000
AcDbSavedByObjectVersion
1070
     0
  0
VISUALSTYLE
  5
15B1
102
{ACAD_XDICTIONARY
360
1601
102
}
102
{ACAD_REACTORS
330
15A1
102
}
330
15A1
100
AcDbVisualStyle
  2
ColorChange
 70
    16
 71
     2
 72
     2
 73
     3
 90
        0
 40
-0.6
 41
-30.0
 62
     5
 63
     8
 74
     1
 91
        4
 64
     7
 65
   257
 75
     1
175
     1
 42
1.0
 92
        8
 66
     8
 43
1.0
 76
     1
 77
     6
 78
     2
 67
     7
 79
     5
170
     0
171
     0
290
     0
174
     0
 93
        1
 44
0.0
173
     0
291
     1
 45
0.0
1001
ACAD
1000
AcDbSavedByObjectVersion
1070
     0
  0
VISUALSTYLE
  5
15AA
102
{ACAD_XDICTIONARY
360
15F3
102
}
102
{ACAD_REACTORS
330
15A1
102
}
330
15A1
100
AcDbVisualStyle
  2
Conceptual
 70
     9
 71
     3
 72
     2
 73
     0
 90
        0
 40
-0.6
 41
-30.0
 62
     5
 63
     7
 74
     2
 91
        2
 64
     7
 65
   257
 75
     1
175
     1
 42
179.0
 92
        8
 66
     7
 43
1.0
 76
     1
 77
     6
 78
     2
 67
     7
 79
     3
170
     0
171
     0
290
     0
174
     0
 93
        1
 44
0.0
173
     0
291
     0
 45
0.0
1001
ACAD
1000
AcDbSavedByObjectVersion
1070
     0
  0
VISUALSTYLE
  5
15AC
102
{ACAD_XDICTIONARY
360
15F7
102
}
102
{ACAD_REACTORS
330
15A1
102
}
330
15A1
100
AcDbVisualStyle
  2
Dim
 70
    11
 71
     2
 72
     2
 73
     0
 90
        0
 40
-0.6
 41
-30.0
 62
     5
 63
     7
 74
     1
 91
        4
 64
     7
 65
   257
 75
     1
175
     1
 42
1.0
 92
        8
 66
     7
 43
1.0
 76
     1
 77
     6
 78
     2
 67
     7
 79
     5
170
     0
171
     0
290
     0
174
     0
 93
        1
 44
-50.0
173
     0
291
     1
 45
0.0
1001
ACAD
1000
AcDbSavedByObjectVersion
1070
     0
  0
VISUALSTYLE
  5
15B9
102
{ACAD_XDICTIONARY
360
1611
102
}
102
{ACAD_REACTORS
330
15A1
102
}
330
15A1
100
AcDbVisualStyle
  2
EdgeColorOff
 70
    22
 71
     2
 72
     2
 73
     0
 90
        0
 40
-0.6
 41
-30.0
 62
     5
 63
     7
 74
     1
 91
        4
 64
     7
 65
   257
 75
     1
175
     1
 42
1.0
 92
        8
 66
     7
 43
1.0
 76
     1
 77
     6
 78
     2
 67
     7
 79
     5
170
     0
171
     0
290
     0
174
     0
 93
        1
 44
0.0
173
     0
291
     1
 45
0.0
1001
ACAD
1000
AcDbSavedByObjectVersion
1070
     0
  0
VISUALSTYLE
  5
15B0
102
{ACAD_XDICTIONARY
360
15FF
102
}
102
{ACAD_REACTORS
330
15A1
102
}
330
15A1
100
AcDbVisualStyle
  2
Facepattern
 70
    15
 71
     2
 72
     2
 73
     0
 90
        0
 40
-0.6
 41
-30.0
 62
     5
 63
     7
 74
     1
 91
        4
 64
     7
 65
   257
 75
     1
175
     1
 42
1.0
 92
        8
 66
     7
 43
1.0
 76
     1
 77
     6
 78
     2
 67
     7
 79
     5
170
     0
171
     0
290
     0
174
     0
 93
        1
 44
0.0
173
     0
291
     1
 45
0.0
1001
ACAD
1000
AcDbSavedByObjectVersion
1070
     0
  0
VISUALSTYLE
  5
15A2
102
{ACAD_XDICTIONARY
360
15E3
102
}
102
{ACAD_REACTORS
330
15A1
102
}
330
15A1
100
AcDbVisualStyle
  2
Flat
 70
     0
 71
     2
 72
     1
 73
     1
 90
        2
 40
-0.6
 41
30.0
 62
     5
 63
     7
 74
     0
 91
        0
 64
     7
 65
   257
 75
     1
175
     1
 42
1.0
 92
        8
 66
     7
 43
1.0
 76
     1
 77
     6
 78
     2
 67
     7
 79
     5
170
     0
171
     0
290
     0
174
     0
 93
       13
 44
0.0
173
     0
291
     1
 45
0.0
1001
ACAD
1000
AcDbSavedByObjectVersion
1070
     0
  0
VISUALSTYLE
  5
15A3
102
{ACAD_XDICTIONARY
360
15E5
102
}
102
{ACAD_REACTORS
330
15A1
102
}
330
15A1
100
AcDbVisualStyle
  2
FlatWithEdges
 70
     1
 71
     2
 72
     1
 73
     1
 90
        2
 40
-0.6
 41
30.0
 62
     5
 63
     7
 74
     1
 91
        0
 64
     7
 65
   257
 75
     1
175
     1
 42
1.0
 92
        0
 66
   257
 43
1.0
 76
     1
 77
     6
 78
     2
 67
     7
 79
     5
170
     0
171
     0
290
     0
174
     0
 93
       13
 44
0.0
173
     0
291
     1
 45
0.0
1001
ACAD
1000
AcDbSavedByObjectVersion
1070
     0
  0
VISUALSTYLE
  5
15A4
102
{ACAD_XDICTIONARY
360
15E7
102
}
102
{ACAD_REACTORS
330
15A1
102
}
330
15A1
100
AcDbVisualStyle
  2
Gouraud
 70
     2
 71
     2
 72
     2
 73
     1
 90
        2
 40
-0.6
 41
30.0
 62
     5
 63
     7
 74
     0
 91
        0
 64
     7
 65
   257
 75
     1
175
     1
 42
1.0
 92
        0
 66
     7
 43
1.0
 76
     1
 77
     6
 78
     2
 67
     7
 79
     5
170
     0
171
     0
290
     0
174
     0
 93
       13
 44
0.0
173
     0
291
     1
 45
0.0
1001
ACAD
1000
AcDbSavedByObjectVersion
1070
     0
  0
VISUALSTYLE
  5
15A5
102
{ACAD_XDICTIONARY
360
15E9
102
}
102
{ACAD_REACTORS
330
15A1
102
}
330
15A1
100
AcDbVisualStyle
  2
GouraudWithEdges
 70
     3
 71
     2
 72
     2
 73
     1
 90
        2
 40
-0.6
 41
30.0
 62
     5
 63
     7
 74
     1
 91
        0
 64
     7
 65
   257
 75
     1
175
     1
 42
1.0
 92
        0
 66
   257
 43
1.0
 76
     1
 77
     6
 78
     2
 67
     7
 79
     5
170
     0
171
     0
290
     0
174
     0
 93
       13
 44
0.0
173
     0
291
     1
 45
0.0
1001
ACAD
1000
AcDbSavedByObjectVersion
1070
     0
  0
VISUALSTYLE
  5
15A9
102
{ACAD_XDICTIONARY
360
15F1
102
}
102
{ACAD_REACTORS
330
15A1
102
}
330
15A1
100
AcDbVisualStyle
  2
Hidden
 70
     6
 71
     1
 72
     2
 73
     2
 90
        0
 40
-0.6
 41
-30.0
 62
     5
 63
     7
 74
     2
 91
        2
 64
     7
 65
   257
 75
     2
175
     1
 42
40.0
 92
        0
 66
   257
 43
1.0
 76
     1
 77
     6
 78
     2
 67
     7
 79
     3
170
     0
171
     0
290
     0
174
     0
 93
        1
 44
0.0
173
     0
291
     0
 45
0.0
1001
ACAD
1000
AcDbSavedByObjectVersion
1070
     0
  0
VISUALSTYLE
  5
15B7
102
{ACAD_XDICTIONARY
360
160D
102
}
102
{ACAD_REACTORS
330
15A1
102
}
330
15A1
100
AcDbVisualStyle
  2
JitterOff
 70
    20
 71
     2
 72
     2
 73
     0
 90
        0
 40
-0.6
 41
-30.0
 62
     5
 63
     7
 74
     1
 91
        4
 64
     7
 65
   257
 75
     1
175
     1
 42
1.0
 92
       10
 66
     7
 43
1.0
 76
     1
 77
     6
 78
     2
 67
     7
 79
     5
170
     0
171
     0
290
     0
174
     0
 93
        1
 44
0.0
173
     0
291
     1
 45
0.0
1001
ACAD
1000
AcDbSavedByObjectVersion
1070
     0
  0
VISUALSTYLE
  5
15AF
102
{ACAD_XDICTIONARY
360
15FD
102
}
102
{ACAD_REACTORS
330
15A1
102
}
330
15A1
100
AcDbVisualStyle
  2
Linepattern
 70
    14
 71
     2
 72
     2
 73
     0
 90
        0
 40
-0.6
 41
-30.0
 62
     5
 63
     7
 74
     1
 91
        4
 64
     7
 65
   257
 75
     7
175
     7
 42
1.0
 92
        8
 66
     7
 43
1.0
 76
     1
 77
     6
 78
     2
 67
     7
 79
     5
170
     0
171
     0
290
     0
174
     0
 93
        1
 44
0.0
173
     0
291
     1
 45
0.0
1001
ACAD
1000
AcDbSavedByObjectVersion
1070
     0
  0
VISUALSTYLE
  5
15B8
102
{ACAD_XDICTIONARY
360
160F
102
}
102
{ACAD_REACTORS
330
15A1
102
}
330
15A1
100
AcDbVisualStyle
  2
OverhangOff
 70
    21
 71
     2
 72
     2
 73
     0
 90
        0
 40
-0.6
 41
-30.0
 62
     5
 63
     7
 74
     1
 91
        4
 64
     7
 65
   257
 75
     1
175
     1
 42
1.0
 92
        9
 66
     7
 43
1.0
 76
     1
 77
     6
 78
     2
 67
     7
 79
     5
170
     0
171
     0
290
     0
174
     0
 93
        1
 44
0.0
173
     0
291
     1
 45
0.0
1001
ACAD
1000
AcDbSavedByObjectVersion
1070
     0
  0
VISUALSTYLE
  5
15AB
102
{ACAD_XDICTIONARY
360
15F5
102
}
102
{ACAD_REACTORS
330
15A1
102
}
330
15A1
100
AcDbVisualStyle
  2
Realistic
 70
     8
 71
     2
 72
     2
 73
     0
 90
        2
 40
-0.6
 41
30.0
 62
     5
 63
     7
 74
     0
 91
        0
 64
     7
 65
   257
 75
     1
175
     1
 42
1.0
 92
        8
 66
   257
 43
1.0
 76
     1
 77
     6
 78
     2
 67
     7
 79
     3
170
     0
171
     0
290
     0
174
     0
 93
       13
 44
0.0
173
     0
291
     0
 45
0.0
1001
ACAD
1000
AcDbSavedByObjectVersion
1070
     0
  0
VISUALSTYLE
  5
15B6
102
{ACAD_XDICTIONARY
360
160B
102
}
102
{ACAD_REACTORS
330
15A1
102
}
330
15A1
100
AcDbVisualStyle
  2
Shaded
 70
    27
 71
     2
 72
     2
 73
     1
 90
        2
 40
-0.6
 41
30.0
 62
     5
 63
     7
 74
     0
 91
        4
 64
     7
 65
   257
 75
     1
175
     1
 42
1.0
 92
        8
 66
   257
 43
1.0
 76
     1
 77
     6
 78
     2
 67
     8
 79
     3
170
     0
171
     0
290
     0
174
     0
 93
        5
 44
0.0
173
     0
291
     0
 45
0.0
1001
ACAD
1000
AcDbSavedByObjectVersion
1070
     0
  0
VISUALSTYLE
  5
15B5
102
{ACAD_XDICTIONARY
360
1609
102
}
102
{ACAD_REACTORS
330
15A1
102
}
330
15A1
100
AcDbVisualStyle
  2
Shaded with edges
 70
    26
 71
     2
 72
     2
 73
     1
 90
        2
 40
-0.6
 41
30.0
 62
     5
 63
     7
 74
     1
 91
       10
 64
     7
 65
   257
 75
     2
175
     1
 42
1.0
 92
        8
 66
   257
 43
1.0
 76
     1
 77
     6
 78
     2
 67
     7
 79
     3
170
     0
171
     0
290
     0
174
     0
 93
        5
 44
0.0
173
     0
291
     0
 45
0.0
1001
ACAD
1000
AcDbSavedByObjectVersion
1070
     0
  0
VISUALSTYLE
  5
15B2
102
{ACAD_XDICTIONARY
360
1603
102
}
102
{ACAD_REACTORS
330
15A1
102
}
330
15A1
100
AcDbVisualStyle
  2
Shades of Gray
 70
    23
 71
     2
 72
     2
 73
     3
 90
        0
 40
-0.6
 41
-30.0
 62
     5
 63
     7
 74
     2
 91
        2
 64
     7
 65
     7
 75
     1
175
     1
 42
40.0
 92
        8
 66
     7
 43
1.0
 76
     1
 77
     6
 78
     2
 67
     7
 79
     3
170
     0
171
     0
290
     0
174
     0
 93
        1
 44
0.0
173
     0
291
     0
 45
0.0
1001
ACAD
1000
AcDbSavedByObjectVersion
1070
     0
  0
VISUALSTYLE
  5
15B3
102
{ACAD_XDICTIONARY
360
1605
102
}
102
{ACAD_REACTORS
330
15A1
102
}
330
15A1
100
AcDbVisualStyle
  2
Sketchy
 70
    24
 71
     1
 72
     2
 73
     2
 90
        0
 40
-0.6
 41
-30.0
 62
     5
 63
     7
 74
     2
 91
        2
 64
     7
 65
     7
 75
     1
175
     1
 42
40.0
 92
       11
 66
     7
 43
1.0
 76
     1
 77
     6
 78
     2
 67
     7
 79
     6
170
     0
171
     0
290
     0
174
     0
 93
        1
 44
0.0
173
     0
291
     0
 45
0.0
1001
ACAD
1000
AcDbSavedByObjectVersion
1070
     0
  0
VISUALSTYLE
  5
15AE
102
{ACAD_XDICTIONARY
360
15FB
102
}
102
{ACAD_REACTORS
330
15A1
102
}
330
15A1
100
AcDbVisualStyle
  2
Thicken
 70
    13
 71
     2
 72
     2
 73
     0
 90
        0
 40
-0.6
 41
-30.0
 62
     5
 63
     7
 74
     1
 91
        4
 64
     7
 65
   257
 75
     1
175
     1
 42
1.0
 92
       12
 66
     7
 43
1.0
 76
     1
 77
     6
 78
     2
 67
     7
 79
     5
170
     0
171
     0
290
     0
174
     0
 93
        1
 44
0.0
173
     0
291
     1
 45
0.0
1001
ACAD
1000
AcDbSavedByObjectVersion
1070
     0
  0
VISUALSTYLE
  5
15A8
102
{ACAD_XDICTIONARY
360
15EF
102
}
102
{ACAD_REACTORS
330
15A1
102
}
330
15A1
100
AcDbVisualStyle
  2
Wireframe
 70
     5
 71
     0
 72
     2
 73
     0
 90
        0
 40
-0.6
 41
-30.0
 62
     5
 63
     7
 74
     1
 91
        4
 64
     7
 65
   257
 75
     1
175
     1
 42
1.0
 92
        0
 66
   257
 43
1.0
 76
     1
 77
     6
 78
     2
 67
     7
 79
     3
170
     0
171
     0
290
     0
174
     0
 93
        1
 44
0.0
173
     0
291
     0
 45
0.0
1001
ACAD
1000
AcDbSavedByObjectVersion
1070
     0
  0
VISUALSTYLE
  5
15B4
102
{ACAD_XDICTIONARY
360
1607
102
}
102
{ACAD_REACTORS
330
15A1
102
}
330
15A1
100
AcDbVisualStyle
  2
X-Ray
 70
    25
 71
     2
 72
     2
 73
     1
 90
        1
 40
0.5
 41
-30.0
 62
     5
 63
     7
 74
     1
 91
        0
 64
     7
 65
   257
 75
     1
175
     1
 42
1.0
 92
        8
 66
     7
 43
1.0
 76
     1
 77
     6
 78
     2
 67
     7
 79
     3
170
     0
171
     0
290
     0
174
     0
 93
       13
 44
0.0
173
     0
291
     0
 45
0.0
1001
ACAD
1000
AcDbSavedByObjectVersion
1070
     0
  0
DICTIONARYVAR
  5
161A
102
{ACAD_REACTORS
330
1615
102
}
330
1615
100
DictionaryVariables
280
     0
  1
1:1
  0
DICTIONARYVAR
  5
1617
102
{ACAD_REACTORS
330
1615
102
}
330
1615
100
DictionaryVariables
280
     0
  1
STANDARD
  0
DICTIONARYVAR
  5
1616
102
{ACAD_REACTORS
330
1615
102
}
330
1615
100
DictionaryVariables
280
     0
  1
STANDARD
  0
DICTIONARYVAR
  5
1618
102
{ACAD_REACTORS
330
1615
102
}
330
1615
100
DictionaryVariables
280
     0
  1
Imperial24
  0
DICTIONARYVAR
  5
1619
102
{ACAD_REACTORS
330
1615
102
}
330
1615
100
DictionaryVariables
280
     0
  1
Imperial24
  0
DICTIONARYVAR
  5
161D
102
{ACAD_REACTORS
330
1615
102
}
330
1615
100
DictionaryVariables
280
     0
  1
1
  0
DICTIONARYVAR
  5
161C
102
{ACAD_REACTORS
330
1615
102
}
330
1615
100
DictionaryVariables
280
     0
  1
0
  0
DICTIONARYVAR
  5
161B
102
{ACAD_REACTORS
330
1615
102
}
330
1615
100
DictionaryVariables
280
     0
  1
127
  0
DICTIONARYVAR
  5
161E
102
{ACAD_REACTORS
330
1615
102
}
330
1615
100
DictionaryVariables
280
     0
  1
2
  0
DICTIONARY
  5
1592
330
1591
100
AcDbDictionary
280
     1
281
     1
  3
ACAD_XREC_ROUNDTRIP
360
165A
  3
BUMPTILE
360
1594
  3
DIFFUSETILE
360
1593
  3
OPACITYTILE
360
1597
  3
REFLECTIONTILE
360
1596
  3
REFRACTIONTILE
360
1598
  3
SPECULARTILE
360
1595
  0
DICTIONARY
  5
158A
330
1589
100
AcDbDictionary
280
     1
281
     1
  3
ACAD_XREC_ROUNDTRIP
360
1659
  3
BUMPTILE
360
158C
  3
DIFFUSETILE
360
158B
  3
OPACITYTILE
360
158F
  3
REFLECTIONTILE
360
158E
  3
REFRACTIONTILE
360
1590
  3
SPECULARTILE
360
158D
  0
DICTIONARY
  5
159A
330
1599
100
AcDbDictionary
280
     1
281
     1
  3
ACAD_XREC_ROUNDTRIP
360
165B
  3
BUMPTILE
360
159C
  3
DIFFUSETILE
360
159B
  3
OPACITYTILE
360
159F
  3
REFLECTIONTILE
360
159E
  3
REFRACTIONTILE
360
15A0
  3
SPECULARTILE
360
159D
  0
DICTIONARY
  5
15D6
330
15BC
100
AcDbDictionary
280
     1
281
     1
  3
ACAD_ROUNDTRIP_2008_TABLESTYLE_CELLSTYLEMAP
360
1658
  3
ACAD_XREC_ROUNDTRIP
360
165C
  0
DICTIONARY
  5
15ED
330
15A7
100
AcDbDictionary
280
     1
281
     1
  3
ACAD_XREC_ROUNDTRIP
360
15EE
  0
DICTIONARY
  5
15EB
330
15A6
100
AcDbDictionary
280
     1
281
     1
  3
ACAD_XREC_ROUNDTRIP
360
15EC
  0
DICTIONARY
  5
15F9
330
15AD
100
AcDbDictionary
280
     1
281
     1
  3
ACAD_XREC_ROUNDTRIP
360
15FA
  0
DICTIONARY
  5
1601
330
15B1
100
AcDbDictionary
280
     1
281
     1
  3
ACAD_XREC_ROUNDTRIP
360
1602
  0
DICTIONARY
  5
15F3
330
15AA
100
AcDbDictionary
280
     1
281
     1
  3
ACAD_XREC_ROUNDTRIP
360
15F4
  0
DICTIONARY
  5
15F7
330
15AC
100
AcDbDictionary
280
     1
281
     1
  3
ACAD_XREC_ROUNDTRIP
360
15F8
  0
DICTIONARY
  5
1611
330
15B9
100
AcDbDictionary
280
     1
281
     1
  3
ACAD_XREC_ROUNDTRIP
360
1612
  0
DICTIONARY
  5
15FF
330
15B0
100
AcDbDictionary
280
     1
281
     1
  3
ACAD_XREC_ROUNDTRIP
360
1600
  0
DICTIONARY
  5
15E3
330
15A2
100
AcDbDictionary
280
     1
281
     1
  3
ACAD_XREC_ROUNDTRIP
360
15E4
  0
DICTIONARY
  5
15E5
330
15A3
100
AcDbDictionary
280
     1
281
     1
  3
ACAD_XREC_ROUNDTRIP
360
15E6
  0
DICTIONARY
  5
15E7
330
15A4
100
AcDbDictionary
280
     1
281
     1
  3
ACAD_XREC_ROUNDTRIP
360
15E8
  0
DICTIONARY
  5
15E9
330
15A5
100
AcDbDictionary
280
     1
281
     1
  3
ACAD_XREC_ROUNDTRIP
360
15EA
  0
DICTIONARY
  5
15F1
330
15A9
100
AcDbDictionary
280
     1
281
     1
  3
ACAD_XREC_ROUNDTRIP
360
15F2
  0
DICTIONARY
  5
160D
330
15B7
100
AcDbDictionary
280
     1
281
     1
  3
ACAD_XREC_ROUNDTRIP
360
160E
  0
DICTIONARY
  5
15FD
330
15AF
100
AcDbDictionary
280
     1
281
     1
  3
ACAD_XREC_ROUNDTRIP
360
15FE
  0
DICTIONARY
  5
160F
330
15B8
100
AcDbDictionary
280
     1
281
     1
  3
ACAD_XREC_ROUNDTRIP
360
1610
  0
DICTIONARY
  5
15F5
330
15AB
100
AcDbDictionary
280
     1
281
     1
  3
ACAD_XREC_ROUNDTRIP
360
15F6
  0
DICTIONARY
  5
160B
330
15B6
100
AcDbDictionary
280
     1
281
     1
  3
ACAD_XREC_ROUNDTRIP
360
160C
  0
DICTIONARY
  5
1609
330
15B5
100
AcDbDictionary
280
     1
281
     1
  3
ACAD_XREC_ROUNDTRIP
360
160A
  0
DICTIONARY
  5
1603
330
15B2
100
AcDbDictionary
280
     1
281
     1
  3
ACAD_XREC_ROUNDTRIP
360
1604
  0
DICTIONARY
  5
1605
330
15B3
100
AcDbDictionary
280
     1
281
     1
  3
ACAD_XREC_ROUNDTRIP
360
1606
  0
DICTIONARY
  5
15FB
330
15AE
100
AcDbDictionary
280
     1
281
     1
  3
ACAD_XREC_ROUNDTRIP
360
15FC
  0
DICTIONARY
  5
15EF
330
15A8
100
AcDbDictionary
280
     1
281
     1
  3
ACAD_XREC_ROUNDTRIP
360
15F0
  0
DICTIONARY
  5
1607
330
15B4
100
AcDbDictionary
280
     1
281
     1
  3
ACAD_XREC_ROUNDTRIP
360
1608
  0
XRECORD
  5
165A
102
{ACAD_REACTORS
330
1592
102
}
330
1592
100
AcDbXrecord
280
     1
102
MATERIAL
148
0.0
149
0.0
149
0.0
 93
        0
 94
      127
282
     0
 72
     0
 77
     0
171
     0
175
     0
179
     0
273
     0
  0
XRECORD
  5
1594
102
{ACAD_REACTORS
330
1592
102
}
330
1592
100
AcDbXrecord
280
     1
270
     1
271
     1
  0
XRECORD
  5
1593
102
{ACAD_REACTORS
330
1592
102
}
330
1592
100
AcDbXrecord
280
     1
270
     1
271
     1
  0
XRECORD
  5
1597
102
{ACAD_REACTORS
330
1592
102
}
330
1592
100
AcDbXrecord
280
     1
270
     1
271
     1
  0
XRECORD
  5
1596
102
{ACAD_REACTORS
330
1592
102
}
330
1592
100
AcDbXrecord
280
     1
270
     1
271
     1
  0
XRECORD
  5
1598
102
{ACAD_REACTORS
330
1592
102
}
330
1592
100
AcDbXrecord
280
     1
270
     1
271
     1
  0
XRECORD
  5
1595
102
{ACAD_REACTORS
330
1592
102
}
330
1592
100
AcDbXrecord
280
     1
270
     1
271
     1
  0
XRECORD
  5
1659
102
{ACAD_REACTORS
330
158A
102
}
330
158A
100
AcDbXrecord
280
     1
102
MATERIAL
148
0.0
149
0.0
149
0.0
 93
        0
 94
      127
282
     0
 72
     0
 77
     0
171
     0
175
     0
179
     0
273
     0
  0
XRECORD
  5
158C
102
{ACAD_REACTORS
330
158A
102
}
330
158A
100
AcDbXrecord
280
     1
270
     1
271
     1
  0
XRECORD
  5
158B
102
{ACAD_REACTORS
330
158A
102
}
330
158A
100
AcDbXrecord
280
     1
270
     1
271
     1
  0
XRECORD
  5
158F
102
{ACAD_REACTORS
330
158A
102
}
330
158A
100
AcDbXrecord
280
     1
270
     1
271
     1
  0
XRECORD
  5
158E
102
{ACAD_REACTORS
330
158A
102
}
330
158A
100
AcDbXrecord
280
     1
270
     1
271
     1
  0
XRECORD
  5
1590
102
{ACAD_REACTORS
330
158A
102
}
330
158A
100
AcDbXrecord
280
     1
270
     1
271
     1
  0
XRECORD
  5
158D
102
{ACAD_REACTORS
330
158A
102
}
330
158A
100
AcDbXrecord
280
     1
270
     1
271
     1
  0
XRECORD
  5
165B
102
{ACAD_REACTORS
330
159A
102
}
330
159A
100
AcDbXrecord
280
     1
102
MATERIAL
148
0.0
149
0.0
149
0.0
 93
        0
 94
      127
282
     0
 72
     0
 77
     0
171
     0
175
     0
179
     0
273
     0
  0
XRECORD
  5
159C
102
{ACAD_REACTORS
330
159A
102
}
330
159A
100
AcDbXrecord
280
     1
270
     1
271
     1
  0
XRECORD
  5
159B
102
{ACAD_REACTORS
330
159A
102
}
330
159A
100
AcDbXrecord
280
     1
270
     1
271
     1
  0
XRECORD
  5
159F
102
{ACAD_REACTORS
330
159A
102
}
330
159A
100
AcDbXrecord
280
     1
270
     1
271
     1
  0
XRECORD
  5
159E
102
{ACAD_REACTORS
330
159A
102
}
330
159A
100
AcDbXrecord
280
     1
270
     1
271
     1
  0
XRECORD
  5
15A0
102
{ACAD_REACTORS
330
159A
102
}
330
159A
100
AcDbXrecord
280
     1
270
     1
271
     1
  0
XRECORD
  5
159D
102
{ACAD_REACTORS
330
159A
102
}
330
159A
100
AcDbXrecord
280
     1
270
     1
271
     1
  0
CELLSTYLEMAP
  5
1658
102
{ACAD_REACTORS
330
15D6
102
}
330
15D6
100
AcDbCellStyleMap
 90
        3
300
CELLSTYLE
  1
TABLEFORMAT_BEGIN
 90
        5
170
     1
 91
        0
 92
    32768
 62
   257
 93
        1
300
CONTENTFORMAT
  1
CONTENTFORMAT_BEGIN
 90
        0
 91
        0
 92
      512
 93
        0
300

 40
0.0
140
1.0
 94
        5
 62
     0
340
11
144
0.25
309
CONTENTFORMAT_END
171
     0
 94
        0
309
TABLEFORMAT_END
  1
CELLSTYLE_BEGIN
 90
        1
 91
        1
300
_TITLE
309
CELLSTYLE_END
300
CELLSTYLE
  1
TABLEFORMAT_BEGIN
 90
        5
170
     1
 91
        0
 92
        0
 62
   257
 93
        1
300
CONTENTFORMAT
  1
CONTENTFORMAT_BEGIN
 90
        0
 91
        0
 92
      512
 93
        0
300

 40
0.0
140
1.0
 94
        5
 62
     0
340
11
144
0.18
309
CONTENTFORMAT_END
171
     0
 94
        0
309
TABLEFORMAT_END
  1
CELLSTYLE_BEGIN
 90
        2
 91
        1
300
_HEADER
309
CELLSTYLE_END
300
CELLSTYLE
  1
TABLEFORMAT_BEGIN
 90
        5
170
     1
 91
        0
 92
        0
 62
   257
 93
        1
300
CONTENTFORMAT
  1
CONTENTFORMAT_BEGIN
 90
        0
 91
        0
 92
      512
 93
        0
300

 40
0.0
140
1.0
 94
        2
 62
     0
340
11
144
0.18
309
CONTENTFORMAT_END
171
     0
 94
        0
309
TABLEFORMAT_END
  1
CELLSTYLE_BEGIN
 90
        3
 91
        2
300
_DATA
309
CELLSTYLE_END
  0
XRECORD
  5
165C
102
{ACAD_REACTORS
330
15D6
102
}
330
15D6
100
AcDbXrecord
280
     1
102
ACAD_ROUNDTRIP_PRE2007_TABLESTYLE
 90
      512
 91
        0
  1

 92
      512
 93
        0
  2

 94
      512
 95
        0
  3

  0
XRECORD
  5
15EE
102
{ACAD_REACTORS
330
15ED
102
}
330
15ED
100
AcDbXrecord
280
     1
102
RTVSPost2010Prop28
280
     1
102
RTVSPost2010PropOp28
 70
     1
102
RTVSPost2010Prop29
280
     1
102
RTVSPost2010PropOp29
 70
     1
102
RTVSPost2010Prop30
280
     0
102
RTVSPost2010PropOp30
 70
     1
102
RTVSPost2010Prop31
280
     0
102
RTVSPost2010PropOp31
 70
     1
102
RTVSPost2010Prop32
280
     0
102
RTVSPost2010PropOp32
 70
     1
102
RTVSPost2010Prop33
280
     0
102
RTVSPost2010PropOp33
 70
     1
102
RTVSPost2010Prop34
280
     0
102
RTVSPost2010PropOp34
 70
     1
102
RTVSPost2010Prop35
280
     0
102
RTVSPost2010PropOp35
 70
     1
102
RTVSPost2010Prop36
280
     0
102
RTVSPost2010PropOp36
 70
     1
102
RTVSPost2010Prop37
 90
       50
102
RTVSPost2010PropOp37
 70
     1
102
RTVSPost2010Prop38
140
0.0
102
RTVSPost2010PropOp38
 70
     1
102
RTVSPost2010Prop39
140
1.0
102
RTVSPost2010PropOp39
 70
     1
102
RTVSPost2010Prop40
 90
        0
102
RTVSPost2010PropOp40
 70
     1
102
RTVSPost2010Prop41ColorIndex
 90
       18
102
RTVSPost2010Prop41ColorRGB
 90
        0
102
RTVSPost2010PropOp41
 70
     1
102
RTVSPost2010Prop42
 90
       50
102
RTVSPost2010PropOp42
 70
     1
102
RTVSPost2010Prop43
 90
        3
102
RTVSPost2010PropOp43
 70
     1
102
RTVSPost2010Prop44ColorIndex
 90
        5
102
RTVSPost2010Prop44ColorRGB
 90
      255
102
RTVSPost2010PropOp44
 70
     1
102
RTVSPost2010Prop45
280
     0
102
RTVSPost2010PropOp45
 70
     1
102
RTVSPost2010Prop46
 90
       50
102
RTVSPost2010PropOp46
 70
     1
102
RTVSPost2010Prop47
 90
       50
102
RTVSPost2010PropOp47
 70
     1
102
RTVSPost2010Prop48
 90
       50
102
RTVSPost2010PropOp48
 70
     1
102
RTVSPost2010Prop49
280
     0
102
RTVSPost2010PropOp49
 70
     1
102
RTVSPost2010Prop50
 90
       50
102
RTVSPost2010PropOp50
 70
     1
102
RTVSPost2010Prop51ColorIndex
 90
      256
102
RTVSPost2010Prop51ColorRGB
 90
-16777216
102
RTVSPost2010PropOp51
 70
     0
102
RTVSPost2010Prop52
140
1.0
102
RTVSPost2010PropOp52
 70
     0
102
RTVSPost2010Prop53
 90
        2
102
RTVSPost2010PropOp53
 70
     1
102
RTVSPost2010Prop54
  1
strokes_ogs.tif
102
RTVSPost2010PropOp54
 70
     1
102
RTVSPost2010Prop55
280
     0
102
RTVSPost2010PropOp55
 70
     1
102
RTVSPost2010Prop56
140
1.0
102
RTVSPost2010PropOp56
 70
     1
102
RTVSPost2010Prop57
140
1.0
102
RTVSPost2010PropOp57
 70
     1
102
RTVSPropertyOp0
 70
     1
102
RTVSPropertyOp1
 70
     1
102
RTVSPropertyOp2
 70
     1
102
RTVSPropertyOp3
 70
     1
102
RTVSPropertyOp4
 70
     1
102
RTVSPropertyOp5
 70
     1
102
RTVSPropertyOp6
 70
     1
102
RTVSPropertyOp7
 70
     1
102
RTVSPropertyOp8
 70
     1
102
RTVSPropertyOp9
 70
     1
102
RTVSPropertyOp10
 70
     1
102
RTVSPropertyOp11
 70
     1
102
RTVSPropertyOp12
 70
     1
102
RTVSPropertyOp13
 70
     1
102
RTVSPropertyOp14
 70
     1
102
RTVSPropertyOp15
 70
     1
102
RTVSPropertyOp16
 70
     1
102
RTVSPropertyOp17
 70
     1
102
RTVSPropertyOp18
 70
     1
102
RTVSPropertyOp19
 70
     1
102
RTVSPropertyOp20
 70
     1
102
RTVSPropertyOp21
 70
     1
102
RTVSPropertyOp22
 70
     1
102
RTVSPropertyOp23
 70
     1
102
RTVSPropertyOp24
 70
     1
102
RTVSPropertyOp25
 70
     1
102
RTVSPropertyOp26
 70
     1
102
RTVSPropertyOp27
 70
     1
102
RTVSPropertyOp28
 70
     1
102
RTVSPropertyOp29
 70
     1
102
RTVSPropertyOp30
 70
     1
102
RTVSPropertyOp31
 70
     1
102
RTVSPropertyOp32
 70
     1
102
RTVSPropertyOp33
 70
     1
102
RTVSPropertyOp34
 70
     1
102
RTVSPropertyOp35
 70
     1
102
RTVSPropertyOp36
 70
     1
102
RTVSPropertyOp37
 70
     1
102
RTVSPropertyOp38
 70
     1
102
RTVSPropertyOp39
 70
     1
102
RTVSPropertyOp40
 70
     1
102
RTVSPropertyOp41
 70
     1
102
RTVSPropertyOp42
 70
     1
102
RTVSPropertyOp43
 70
     1
102
RTVSPropertyOp44
 70
     1
102
RTVSPropertyOp45
 70
     1
102
RTVSPropertyOp46
 70
     1
102
RTVSPropertyOp47
 70
     1
102
RTVSPropertyOp48
 70
     1
102
RTVSPropertyOp49
 70
     1
102
RTVSPropertyOp50
 70
     1
102
RTVSPropertyOp51
 70
     0
102
RTVSPropertyOp52
 70
     0
102
RTVSPropertyOp53
 70
     1
102
RTVSPropertyOp54
 70
     1
102
RTVSPropertyOp55
 70
     1
102
RTVSPropertyOp56
 70
     1
102
RTVSPropertyOp57
 70
     1
102
RTVSPropertyOp58
 70
     1
102
RTVSPropertyOp59
 70
     1
102
RTVSPropertyOp60
 70
     1
102
RTVSPropertyOp61
 70
     1
102
RTVSPropertyOp62
 70
     1
  0
XRECORD
  5
15EC
102
{ACAD_REACTORS
330
15EB
102
}
330
15EB
100
AcDbXrecord
280
     1
102
RTVSPost2010Prop28
280
     0
102
RTVSPost2010PropOp28
 70
     1
102
RTVSPost2010Prop29
280
     1
102
RTVSPost2010PropOp29
 70
     1
102
RTVSPost2010Prop30
280
     1
102
RTVSPost2010PropOp30
 70
     1
102
RTVSPost2010Prop31
280
     0
102
RTVSPost2010PropOp31
 70
     1
102
RTVSPost2010Prop32
280
     0
102
RTVSPost2010PropOp32
 70
     1
102
RTVSPost2010Prop33
280
     0
102
RTVSPost2010PropOp33
 70
     1
102
RTVSPost2010Prop34
280
     0
102
RTVSPost2010PropOp34
 70
     1
102
RTVSPost2010Prop35
280
     0
102
RTVSPost2010PropOp35
 70
     1
102
RTVSPost2010Prop36
280
     0
102
RTVSPost2010PropOp36
 70
     1
102
RTVSPost2010Prop37
 90
       50
102
RTVSPost2010PropOp37
 70
     1
102
RTVSPost2010Prop38
140
0.0
102
RTVSPost2010PropOp38
 70
     1
102
RTVSPost2010Prop39
140
1.0
102
RTVSPost2010PropOp39
 70
     1
102
RTVSPost2010Prop40
 90
        0
102
RTVSPost2010PropOp40
 70
     1
102
RTVSPost2010Prop41ColorIndex
 90
       18
102
RTVSPost2010Prop41ColorRGB
 90
        0
102
RTVSPost2010PropOp41
 70
     1
102
RTVSPost2010Prop42
 90
       50
102
RTVSPost2010PropOp42
 70
     1
102
RTVSPost2010Prop43
 90
        3
102
RTVSPost2010PropOp43
 70
     1
102
RTVSPost2010Prop44ColorIndex
 90
        5
102
RTVSPost2010Prop44ColorRGB
 90
      255
102
RTVSPost2010PropOp44
 70
     1
102
RTVSPost2010Prop45
280
     0
102
RTVSPost2010PropOp45
 70
     1
102
RTVSPost2010Prop46
 90
       50
102
RTVSPost2010PropOp46
 70
     1
102
RTVSPost2010Prop47
 90
       50
102
RTVSPost2010PropOp47
 70
     1
102
RTVSPost2010Prop48
 90
       50
102
RTVSPost2010PropOp48
 70
     1
102
RTVSPost2010Prop49
280
     0
102
RTVSPost2010PropOp49
 70
     1
102
RTVSPost2010Prop50
 90
       50
102
RTVSPost2010PropOp50
 70
     1
102
RTVSPost2010Prop51ColorIndex
 90
      256
102
RTVSPost2010Prop51ColorRGB
 90
-16777216
102
RTVSPost2010PropOp51
 70
     0
102
RTVSPost2010Prop52
140
1.0
102
RTVSPost2010PropOp52
 70
     0
102
RTVSPost2010Prop53
 90
        2
102
RTVSPost2010PropOp53
 70
     1
102
RTVSPost2010Prop54
  1
strokes_ogs.tif
102
RTVSPost2010PropOp54
 70
     1
102
RTVSPost2010Prop55
280
     0
102
RTVSPost2010PropOp55
 70
     1
102
RTVSPost2010Prop56
140
1.0
102
RTVSPost2010PropOp56
 70
     1
102
RTVSPost2010Prop57
140
1.0
102
RTVSPost2010PropOp57
 70
     1
102
RTVSPropertyOp0
 70
     1
102
RTVSPropertyOp1
 70
     1
102
RTVSPropertyOp2
 70
     1
102
RTVSPropertyOp3
 70
     1
102
RTVSPropertyOp4
 70
     1
102
RTVSPropertyOp5
 70
     1
102
RTVSPropertyOp6
 70
     1
102
RTVSPropertyOp7
 70
     1
102
RTVSPropertyOp8
 70
     1
102
RTVSPropertyOp9
 70
     1
102
RTVSPropertyOp10
 70
     1
102
RTVSPropertyOp11
 70
     1
102
RTVSPropertyOp12
 70
     1
102
RTVSPropertyOp13
 70
     1
102
RTVSPropertyOp14
 70
     1
102
RTVSPropertyOp15
 70
     1
102
RTVSPropertyOp16
 70
     1
102
RTVSPropertyOp17
 70
     1
102
RTVSPropertyOp18
 70
     1
102
RTVSPropertyOp19
 70
     1
102
RTVSPropertyOp20
 70
     1
102
RTVSPropertyOp21
 70
     1
102
RTVSPropertyOp22
 70
     1
102
RTVSPropertyOp23
 70
     1
102
RTVSPropertyOp24
 70
     1
102
RTVSPropertyOp25
 70
     1
102
RTVSPropertyOp26
 70
     1
102
RTVSPropertyOp27
 70
     1
102
RTVSPropertyOp28
 70
     1
102
RTVSPropertyOp29
 70
     1
102
RTVSPropertyOp30
 70
     1
102
RTVSPropertyOp31
 70
     1
102
RTVSPropertyOp32
 70
     1
102
RTVSPropertyOp33
 70
     1
102
RTVSPropertyOp34
 70
     1
102
RTVSPropertyOp35
 70
     1
102
RTVSPropertyOp36
 70
     1
102
RTVSPropertyOp37
 70
     1
102
RTVSPropertyOp38
 70
     1
102
RTVSPropertyOp39
 70
     1
102
RTVSPropertyOp40
 70
     1
102
RTVSPropertyOp41
 70
     1
102
RTVSPropertyOp42
 70
     1
102
RTVSPropertyOp43
 70
     1
102
RTVSPropertyOp44
 70
     1
102
RTVSPropertyOp45
 70
     1
102
RTVSPropertyOp46
 70
     1
102
RTVSPropertyOp47
 70
     1
102
RTVSPropertyOp48
 70
     1
102
RTVSPropertyOp49
 70
     1
102
RTVSPropertyOp50
 70
     1
102
RTVSPropertyOp51
 70
     0
102
RTVSPropertyOp52
 70
     0
102
RTVSPropertyOp53
 70
     1
102
RTVSPropertyOp54
 70
     1
102
RTVSPropertyOp55
 70
     1
102
RTVSPropertyOp56
 70
     1
102
RTVSPropertyOp57
 70
     1
102
RTVSPropertyOp58
 70
     1
102
RTVSPropertyOp59
 70
     1
102
RTVSPropertyOp60
 70
     1
102
RTVSPropertyOp61
 70
     1
102
RTVSPropertyOp62
 70
     1
  0
XRECORD
  5
15FA
102
{ACAD_REACTORS
330
15F9
102
}
330
15F9
100
AcDbXrecord
280
     1
102
RTVSPost2010Prop28
280
     0
102
RTVSPost2010PropOp28
 70
     1
102
RTVSPost2010Prop29
280
     1
102
RTVSPost2010PropOp29
 70
     1
102
RTVSPost2010Prop30
280
     1
102
RTVSPost2010PropOp30
 70
     1
102
RTVSPost2010Prop31
280
     0
102
RTVSPost2010PropOp31
 70
     1
102
RTVSPost2010Prop32
280
     0
102
RTVSPost2010PropOp32
 70
     1
102
RTVSPost2010Prop33
280
     0
102
RTVSPost2010PropOp33
 70
     1
102
RTVSPost2010Prop34
280
     0
102
RTVSPost2010PropOp34
 70
     1
102
RTVSPost2010Prop35
280
     0
102
RTVSPost2010PropOp35
 70
     1
102
RTVSPost2010Prop36
280
     0
102
RTVSPost2010PropOp36
 70
     1
102
RTVSPost2010Prop37
 90
       50
102
RTVSPost2010PropOp37
 70
     1
102
RTVSPost2010Prop38
140
0.0
102
RTVSPost2010PropOp38
 70
     1
102
RTVSPost2010Prop39
140
1.0
102
RTVSPost2010PropOp39
 70
     1
102
RTVSPost2010Prop40
 90
        0
102
RTVSPost2010PropOp40
 70
     1
102
RTVSPost2010Prop41ColorIndex
 90
       18
102
RTVSPost2010Prop41ColorRGB
 90
        0
102
RTVSPost2010PropOp41
 70
     1
102
RTVSPost2010Prop42
 90
       50
102
RTVSPost2010PropOp42
 70
     1
102
RTVSPost2010Prop43
 90
        3
102
RTVSPost2010PropOp43
 70
     1
102
RTVSPost2010Prop44ColorIndex
 90
        5
102
RTVSPost2010Prop44ColorRGB
 90
      255
102
RTVSPost2010PropOp44
 70
     1
102
RTVSPost2010Prop45
280
     0
102
RTVSPost2010PropOp45
 70
     1
102
RTVSPost2010Prop46
 90
       50
102
RTVSPost2010PropOp46
 70
     1
102
RTVSPost2010Prop47
 90
       50
102
RTVSPost2010PropOp47
 70
     1
102
RTVSPost2010Prop48
 90
       50
102
RTVSPost2010PropOp48
 70
     1
102
RTVSPost2010Prop49
280
     0
102
RTVSPost2010PropOp49
 70
     1
102
RTVSPost2010Prop50
 90
       50
102
RTVSPost2010PropOp50
 70
     1
102
RTVSPost2010Prop51ColorIndex
 90
      256
102
RTVSPost2010Prop51ColorRGB
 90
-16777216
102
RTVSPost2010PropOp51
 70
     0
102
RTVSPost2010Prop52
140
1.0
102
RTVSPost2010PropOp52
 70
     0
102
RTVSPost2010Prop53
 90
        2
102
RTVSPost2010PropOp53
 70
     1
102
RTVSPost2010Prop54
  1
strokes_ogs.tif
102
RTVSPost2010PropOp54
 70
     1
102
RTVSPost2010Prop55
280
     0
102
RTVSPost2010PropOp55
 70
     1
102
RTVSPost2010Prop56
140
1.0
102
RTVSPost2010PropOp56
 70
     1
102
RTVSPost2010Prop57
140
1.0
102
RTVSPost2010PropOp57
 70
     1
102
RTVSPropertyOp0
 70
     1
102
RTVSPropertyOp1
 70
     1
102
RTVSPropertyOp2
 70
     1
102
RTVSPropertyOp3
 70
     1
102
RTVSPropertyOp4
 70
     1
102
RTVSPropertyOp5
 70
     1
102
RTVSPropertyOp6
 70
     1
102
RTVSPropertyOp7
 70
     1
102
RTVSPropertyOp8
 70
     1
102
RTVSPropertyOp9
 70
     1
102
RTVSPropertyOp10
 70
     1
102
RTVSPropertyOp11
 70
     1
102
RTVSPropertyOp12
 70
     1
102
RTVSPropertyOp13
 70
     1
102
RTVSPropertyOp14
 70
     1
102
RTVSPropertyOp15
 70
     1
102
RTVSPropertyOp16
 70
     1
102
RTVSPropertyOp17
 70
     1
102
RTVSPropertyOp18
 70
     1
102
RTVSPropertyOp19
 70
     1
102
RTVSPropertyOp20
 70
     1
102
RTVSPropertyOp21
 70
     1
102
RTVSPropertyOp22
 70
     1
102
RTVSPropertyOp23
 70
     1
102
RTVSPropertyOp24
 70
     1
102
RTVSPropertyOp25
 70
     1
102
RTVSPropertyOp26
 70
     1
102
RTVSPropertyOp27
 70
     1
102
RTVSPropertyOp28
 70
     1
102
RTVSPropertyOp29
 70
     1
102
RTVSPropertyOp30
 70
     1
102
RTVSPropertyOp31
 70
     1
102
RTVSPropertyOp32
 70
     1
102
RTVSPropertyOp33
 70
     1
102
RTVSPropertyOp34
 70
     1
102
RTVSPropertyOp35
 70
     1
102
RTVSPropertyOp36
 70
     1
102
RTVSPropertyOp37
 70
     1
102
RTVSPropertyOp38
 70
     1
102
RTVSPropertyOp39
 70
     1
102
RTVSPropertyOp40
 70
     1
102
RTVSPropertyOp41
 70
     1
102
RTVSPropertyOp42
 70
     1
102
RTVSPropertyOp43
 70
     1
102
RTVSPropertyOp44
 70
     1
102
RTVSPropertyOp45
 70
     1
102
RTVSPropertyOp46
 70
     1
102
RTVSPropertyOp47
 70
     1
102
RTVSPropertyOp48
 70
     1
102
RTVSPropertyOp49
 70
     1
102
RTVSPropertyOp50
 70
     1
102
RTVSPropertyOp51
 70
     0
102
RTVSPropertyOp52
 70
     0
102
RTVSPropertyOp53
 70
     1
102
RTVSPropertyOp54
 70
     1
102
RTVSPropertyOp55
 70
     1
102
RTVSPropertyOp56
 70
     1
102
RTVSPropertyOp57
 70
     1
102
RTVSPropertyOp58
 70
     1
102
RTVSPropertyOp59
 70
     1
102
RTVSPropertyOp60
 70
     1
102
RTVSPropertyOp61
 70
     1
102
RTVSPropertyOp62
 70
     1
  0
XRECORD
  5
1602
102
{ACAD_REACTORS
330
1601
102
}
330
1601
100
AcDbXrecord
280
     1
102
RTVSPost2010Prop28
280
     0
102
RTVSPost2010PropOp28
 70
     1
102
RTVSPost2010Prop29
280
     1
102
RTVSPost2010PropOp29
 70
     1
102
RTVSPost2010Prop30
280
     1
102
RTVSPost2010PropOp30
 70
     1
102
RTVSPost2010Prop31
280
     0
102
RTVSPost2010PropOp31
 70
     1
102
RTVSPost2010Prop32
280
     0
102
RTVSPost2010PropOp32
 70
     1
102
RTVSPost2010Prop33
280
     0
102
RTVSPost2010PropOp33
 70
     1
102
RTVSPost2010Prop34
280
     0
102
RTVSPost2010PropOp34
 70
     1
102
RTVSPost2010Prop35
280
     0
102
RTVSPost2010PropOp35
 70
     1
102
RTVSPost2010Prop36
280
     0
102
RTVSPost2010PropOp36
 70
     1
102
RTVSPost2010Prop37
 90
       50
102
RTVSPost2010PropOp37
 70
     1
102
RTVSPost2010Prop38
140
0.0
102
RTVSPost2010PropOp38
 70
     1
102
RTVSPost2010Prop39
140
1.0
102
RTVSPost2010PropOp39
 70
     1
102
RTVSPost2010Prop40
 90
        0
102
RTVSPost2010PropOp40
 70
     1
102
RTVSPost2010Prop41ColorIndex
 90
       18
102
RTVSPost2010Prop41ColorRGB
 90
        0
102
RTVSPost2010PropOp41
 70
     1
102
RTVSPost2010Prop42
 90
       50
102
RTVSPost2010PropOp42
 70
     1
102
RTVSPost2010Prop43
 90
        3
102
RTVSPost2010PropOp43
 70
     1
102
RTVSPost2010Prop44ColorIndex
 90
        5
102
RTVSPost2010Prop44ColorRGB
 90
      255
102
RTVSPost2010PropOp44
 70
     1
102
RTVSPost2010Prop45
280
     0
102
RTVSPost2010PropOp45
 70
     1
102
RTVSPost2010Prop46
 90
       50
102
RTVSPost2010PropOp46
 70
     1
102
RTVSPost2010Prop47
 90
       50
102
RTVSPost2010PropOp47
 70
     1
102
RTVSPost2010Prop48
 90
       50
102
RTVSPost2010PropOp48
 70
     1
102
RTVSPost2010Prop49
280
     0
102
RTVSPost2010PropOp49
 70
     1
102
RTVSPost2010Prop50
 90
       50
102
RTVSPost2010PropOp50
 70
     1
102
RTVSPost2010Prop51ColorIndex
 90
      256
102
RTVSPost2010Prop51ColorRGB
 90
-16777216
102
RTVSPost2010PropOp51
 70
     0
102
RTVSPost2010Prop52
140
1.0
102
RTVSPost2010PropOp52
 70
     0
102
RTVSPost2010Prop53
 90
        2
102
RTVSPost2010PropOp53
 70
     1
102
RTVSPost2010Prop54
  1
strokes_ogs.tif
102
RTVSPost2010PropOp54
 70
     1
102
RTVSPost2010Prop55
280
     0
102
RTVSPost2010PropOp55
 70
     1
102
RTVSPost2010Prop56
140
1.0
102
RTVSPost2010PropOp56
 70
     1
102
RTVSPost2010Prop57
140
1.0
102
RTVSPost2010PropOp57
 70
     1
102
RTVSPropertyOp0
 70
     1
102
RTVSPropertyOp1
 70
     1
102
RTVSPropertyOp2
 70
     1
102
RTVSPropertyOp3
 70
     1
102
RTVSPropertyOp4
 70
     1
102
RTVSPropertyOp5
 70
     1
102
RTVSPropertyOp6
 70
     1
102
RTVSPropertyOp7
 70
     1
102
RTVSPropertyOp8
 70
     1
102
RTVSPropertyOp9
 70
     1
102
RTVSPropertyOp10
 70
     1
102
RTVSPropertyOp11
 70
     1
102
RTVSPropertyOp12
 70
     1
102
RTVSPropertyOp13
 70
     1
102
RTVSPropertyOp14
 70
     1
102
RTVSPropertyOp15
 70
     1
102
RTVSPropertyOp16
 70
     1
102
RTVSPropertyOp17
 70
     1
102
RTVSPropertyOp18
 70
     1
102
RTVSPropertyOp19
 70
     1
102
RTVSPropertyOp20
 70
     1
102
RTVSPropertyOp21
 70
     1
102
RTVSPropertyOp22
 70
     1
102
RTVSPropertyOp23
 70
     1
102
RTVSPropertyOp24
 70
     1
102
RTVSPropertyOp25
 70
     1
102
RTVSPropertyOp26
 70
     1
102
RTVSPropertyOp27
 70
     1
102
RTVSPropertyOp28
 70
     1
102
RTVSPropertyOp29
 70
     1
102
RTVSPropertyOp30
 70
     1
102
RTVSPropertyOp31
 70
     1
102
RTVSPropertyOp32
 70
     1
102
RTVSPropertyOp33
 70
     1
102
RTVSPropertyOp34
 70
     1
102
RTVSPropertyOp35
 70
     1
102
RTVSPropertyOp36
 70
     1
102
RTVSPropertyOp37
 70
     1
102
RTVSPropertyOp38
 70
     1
102
RTVSPropertyOp39
 70
     1
102
RTVSPropertyOp40
 70
     1
102
RTVSPropertyOp41
 70
     1
102
RTVSPropertyOp42
 70
     1
102
RTVSPropertyOp43
 70
     1
102
RTVSPropertyOp44
 70
     1
102
RTVSPropertyOp45
 70
     1
102
RTVSPropertyOp46
 70
     1
102
RTVSPropertyOp47
 70
     1
102
RTVSPropertyOp48
 70
     1
102
RTVSPropertyOp49
 70
     1
102
RTVSPropertyOp50
 70
     1
102
RTVSPropertyOp51
 70
     0
102
RTVSPropertyOp52
 70
     0
102
RTVSPropertyOp53
 70
     1
102
RTVSPropertyOp54
 70
     1
102
RTVSPropertyOp55
 70
     1
102
RTVSPropertyOp56
 70
     1
102
RTVSPropertyOp57
 70
     1
102
RTVSPropertyOp58
 70
     1
102
RTVSPropertyOp59
 70
     1
102
RTVSPropertyOp60
 70
     1
102
RTVSPropertyOp61
 70
     1
102
RTVSPropertyOp62
 70
     1
  0
XRECORD
  5
15F4
102
{ACAD_REACTORS
330
15F3
102
}
330
15F3
100
AcDbXrecord
280
     1
102
RTVSPost2010Prop28
280
     0
102
RTVSPost2010PropOp28
 70
     1
102
RTVSPost2010Prop29
280
     1
102
RTVSPost2010PropOp29
 70
     1
102
RTVSPost2010Prop30
280
     1
102
RTVSPost2010PropOp30
 70
     1
102
RTVSPost2010Prop31
280
     0
102
RTVSPost2010PropOp31
 70
     1
102
RTVSPost2010Prop32
280
     0
102
RTVSPost2010PropOp32
 70
     1
102
RTVSPost2010Prop33
280
     0
102
RTVSPost2010PropOp33
 70
     1
102
RTVSPost2010Prop34
280
     0
102
RTVSPost2010PropOp34
 70
     1
102
RTVSPost2010Prop35
280
     0
102
RTVSPost2010PropOp35
 70
     1
102
RTVSPost2010Prop36
280
     0
102
RTVSPost2010PropOp36
 70
     1
102
RTVSPost2010Prop37
 90
       50
102
RTVSPost2010PropOp37
 70
     1
102
RTVSPost2010Prop38
140
0.0
102
RTVSPost2010PropOp38
 70
     1
102
RTVSPost2010Prop39
140
1.0
102
RTVSPost2010PropOp39
 70
     1
102
RTVSPost2010Prop40
 90
        0
102
RTVSPost2010PropOp40
 70
     1
102
RTVSPost2010Prop41ColorIndex
 90
       18
102
RTVSPost2010Prop41ColorRGB
 90
        0
102
RTVSPost2010PropOp41
 70
     1
102
RTVSPost2010Prop42
 90
       50
102
RTVSPost2010PropOp42
 70
     1
102
RTVSPost2010Prop43
 90
        3
102
RTVSPost2010PropOp43
 70
     1
102
RTVSPost2010Prop44ColorIndex
 90
        5
102
RTVSPost2010Prop44ColorRGB
 90
      255
102
RTVSPost2010PropOp44
 70
     1
102
RTVSPost2010Prop45
280
     0
102
RTVSPost2010PropOp45
 70
     1
102
RTVSPost2010Prop46
 90
       50
102
RTVSPost2010PropOp46
 70
     1
102
RTVSPost2010Prop47
 90
       50
102
RTVSPost2010PropOp47
 70
     1
102
RTVSPost2010Prop48
 90
       50
102
RTVSPost2010PropOp48
 70
     1
102
RTVSPost2010Prop49
280
     0
102
RTVSPost2010PropOp49
 70
     1
102
RTVSPost2010Prop50
 90
       50
102
RTVSPost2010PropOp50
 70
     1
102
RTVSPost2010Prop51ColorIndex
 90
      256
102
RTVSPost2010Prop51ColorRGB
 90
-16777216
102
RTVSPost2010PropOp51
 70
     0
102
RTVSPost2010Prop52
140
1.0
102
RTVSPost2010PropOp52
 70
     0
102
RTVSPost2010Prop53
 90
        2
102
RTVSPost2010PropOp53
 70
     1
102
RTVSPost2010Prop54
  1
strokes_ogs.tif
102
RTVSPost2010PropOp54
 70
     1
102
RTVSPost2010Prop55
280
     0
102
RTVSPost2010PropOp55
 70
     1
102
RTVSPost2010Prop56
140
1.0
102
RTVSPost2010PropOp56
 70
     1
102
RTVSPost2010Prop57
140
1.0
102
RTVSPost2010PropOp57
 70
     1
102
RTVSPropertyOp0
 70
     1
102
RTVSPropertyOp1
 70
     1
102
RTVSPropertyOp2
 70
     1
102
RTVSPropertyOp3
 70
     1
102
RTVSPropertyOp4
 70
     1
102
RTVSPropertyOp5
 70
     1
102
RTVSPropertyOp6
 70
     1
102
RTVSPropertyOp7
 70
     1
102
RTVSPropertyOp8
 70
     1
102
RTVSPropertyOp9
 70
     1
102
RTVSPropertyOp10
 70
     1
102
RTVSPropertyOp11
 70
     1
102
RTVSPropertyOp12
 70
     1
102
RTVSPropertyOp13
 70
     1
102
RTVSPropertyOp14
 70
     1
102
RTVSPropertyOp15
 70
     1
102
RTVSPropertyOp16
 70
     1
102
RTVSPropertyOp17
 70
     1
102
RTVSPropertyOp18
 70
     1
102
RTVSPropertyOp19
 70
     1
102
RTVSPropertyOp20
 70
     1
102
RTVSPropertyOp21
 70
     1
102
RTVSPropertyOp22
 70
     1
102
RTVSPropertyOp23
 70
     1
102
RTVSPropertyOp24
 70
     1
102
RTVSPropertyOp25
 70
     1
102
RTVSPropertyOp26
 70
     1
102
RTVSPropertyOp27
 70
     1
102
RTVSPropertyOp28
 70
     1
102
RTVSPropertyOp29
 70
     1
102
RTVSPropertyOp30
 70
     1
102
RTVSPropertyOp31
 70
     1
102
RTVSPropertyOp32
 70
     1
102
RTVSPropertyOp33
 70
     1
102
RTVSPropertyOp34
 70
     1
102
RTVSPropertyOp35
 70
     1
102
RTVSPropertyOp36
 70
     1
102
RTVSPropertyOp37
 70
     1
102
RTVSPropertyOp38
 70
     1
102
RTVSPropertyOp39
 70
     1
102
RTVSPropertyOp40
 70
     1
102
RTVSPropertyOp41
 70
     1
102
RTVSPropertyOp42
 70
     1
102
RTVSPropertyOp43
 70
     1
102
RTVSPropertyOp44
 70
     1
102
RTVSPropertyOp45
 70
     1
102
RTVSPropertyOp46
 70
     1
102
RTVSPropertyOp47
 70
     1
102
RTVSPropertyOp48
 70
     1
102
RTVSPropertyOp49
 70
     1
102
RTVSPropertyOp50
 70
     1
102
RTVSPropertyOp51
 70
     0
102
RTVSPropertyOp52
 70
     0
102
RTVSPropertyOp53
 70
     1
102
RTVSPropertyOp54
 70
     1
102
RTVSPropertyOp55
 70
     1
102
RTVSPropertyOp56
 70
     1
102
RTVSPropertyOp57
 70
     1
102
RTVSPropertyOp58
 70
     1
102
RTVSPropertyOp59
 70
     1
102
RTVSPropertyOp60
 70
     1
102
RTVSPropertyOp61
 70
     1
102
RTVSPropertyOp62
 70
     1
  0
XRECORD
  5
15F8
102
{ACAD_REACTORS
330
15F7
102
}
330
15F7
100
AcDbXrecord
280
     1
102
RTVSPost2010Prop28
280
     0
102
RTVSPost2010PropOp28
 70
     1
102
RTVSPost2010Prop29
280
     1
102
RTVSPost2010PropOp29
 70
     1
102
RTVSPost2010Prop30
280
     1
102
RTVSPost2010PropOp30
 70
     1
102
RTVSPost2010Prop31
280
     0
102
RTVSPost2010PropOp31
 70
     1
102
RTVSPost2010Prop32
280
     0
102
RTVSPost2010PropOp32
 70
     1
102
RTVSPost2010Prop33
280
     0
102
RTVSPost2010PropOp33
 70
     1
102
RTVSPost2010Prop34
280
     0
102
RTVSPost2010PropOp34
 70
     1
102
RTVSPost2010Prop35
280
     0
102
RTVSPost2010PropOp35
 70
     1
102
RTVSPost2010Prop36
280
     0
102
RTVSPost2010PropOp36
 70
     1
102
RTVSPost2010Prop37
 90
       50
102
RTVSPost2010PropOp37
 70
     1
102
RTVSPost2010Prop38
140
0.0
102
RTVSPost2010PropOp38
 70
     1
102
RTVSPost2010Prop39
140
1.0
102
RTVSPost2010PropOp39
 70
     1
102
RTVSPost2010Prop40
 90
        0
102
RTVSPost2010PropOp40
 70
     1
102
RTVSPost2010Prop41ColorIndex
 90
       18
102
RTVSPost2010Prop41ColorRGB
 90
        0
102
RTVSPost2010PropOp41
 70
     1
102
RTVSPost2010Prop42
 90
       50
102
RTVSPost2010PropOp42
 70
     1
102
RTVSPost2010Prop43
 90
        3
102
RTVSPost2010PropOp43
 70
     1
102
RTVSPost2010Prop44ColorIndex
 90
        5
102
RTVSPost2010Prop44ColorRGB
 90
      255
102
RTVSPost2010PropOp44
 70
     1
102
RTVSPost2010Prop45
280
     0
102
RTVSPost2010PropOp45
 70
     1
102
RTVSPost2010Prop46
 90
       50
102
RTVSPost2010PropOp46
 70
     1
102
RTVSPost2010Prop47
 90
       50
102
RTVSPost2010PropOp47
 70
     1
102
RTVSPost2010Prop48
 90
       50
102
RTVSPost2010PropOp48
 70
     1
102
RTVSPost2010Prop49
280
     0
102
RTVSPost2010PropOp49
 70
     1
102
RTVSPost2010Prop50
 90
       50
102
RTVSPost2010PropOp50
 70
     1
102
RTVSPost2010Prop51ColorIndex
 90
      256
102
RTVSPost2010Prop51ColorRGB
 90
-16777216
102
RTVSPost2010PropOp51
 70
     0
102
RTVSPost2010Prop52
140
1.0
102
RTVSPost2010PropOp52
 70
     0
102
RTVSPost2010Prop53
 90
        2
102
RTVSPost2010PropOp53
 70
     1
102
RTVSPost2010Prop54
  1
strokes_ogs.tif
102
RTVSPost2010PropOp54
 70
     1
102
RTVSPost2010Prop55
280
     0
102
RTVSPost2010PropOp55
 70
     1
102
RTVSPost2010Prop56
140
1.0
102
RTVSPost2010PropOp56
 70
     1
102
RTVSPost2010Prop57
140
1.0
102
RTVSPost2010PropOp57
 70
     1
102
RTVSPropertyOp0
 70
     1
102
RTVSPropertyOp1
 70
     1
102
RTVSPropertyOp2
 70
     1
102
RTVSPropertyOp3
 70
     1
102
RTVSPropertyOp4
 70
     1
102
RTVSPropertyOp5
 70
     1
102
RTVSPropertyOp6
 70
     1
102
RTVSPropertyOp7
 70
     1
102
RTVSPropertyOp8
 70
     1
102
RTVSPropertyOp9
 70
     1
102
RTVSPropertyOp10
 70
     1
102
RTVSPropertyOp11
 70
     1
102
RTVSPropertyOp12
 70
     1
102
RTVSPropertyOp13
 70
     1
102
RTVSPropertyOp14
 70
     1
102
RTVSPropertyOp15
 70
     1
102
RTVSPropertyOp16
 70
     1
102
RTVSPropertyOp17
 70
     1
102
RTVSPropertyOp18
 70
     1
102
RTVSPropertyOp19
 70
     1
102
RTVSPropertyOp20
 70
     1
102
RTVSPropertyOp21
 70
     1
102
RTVSPropertyOp22
 70
     1
102
RTVSPropertyOp23
 70
     1
102
RTVSPropertyOp24
 70
     1
102
RTVSPropertyOp25
 70
     1
102
RTVSPropertyOp26
 70
     1
102
RTVSPropertyOp27
 70
     1
102
RTVSPropertyOp28
 70
     1
102
RTVSPropertyOp29
 70
     1
102
RTVSPropertyOp30
 70
     1
102
RTVSPropertyOp31
 70
     1
102
RTVSPropertyOp32
 70
     1
102
RTVSPropertyOp33
 70
     1
102
RTVSPropertyOp34
 70
     1
102
RTVSPropertyOp35
 70
     1
102
RTVSPropertyOp36
 70
     1
102
RTVSPropertyOp37
 70
     1
102
RTVSPropertyOp38
 70
     1
102
RTVSPropertyOp39
 70
     1
102
RTVSPropertyOp40
 70
     1
102
RTVSPropertyOp41
 70
     1
102
RTVSPropertyOp42
 70
     1
102
RTVSPropertyOp43
 70
     1
102
RTVSPropertyOp44
 70
     1
102
RTVSPropertyOp45
 70
     1
102
RTVSPropertyOp46
 70
     1
102
RTVSPropertyOp47
 70
     1
102
RTVSPropertyOp48
 70
     1
102
RTVSPropertyOp49
 70
     1
102
RTVSPropertyOp50
 70
     1
102
RTVSPropertyOp51
 70
     0
102
RTVSPropertyOp52
 70
     0
102
RTVSPropertyOp53
 70
     1
102
RTVSPropertyOp54
 70
     1
102
RTVSPropertyOp55
 70
     1
102
RTVSPropertyOp56
 70
     1
102
RTVSPropertyOp57
 70
     1
102
RTVSPropertyOp58
 70
     1
102
RTVSPropertyOp59
 70
     1
102
RTVSPropertyOp60
 70
     1
102
RTVSPropertyOp61
 70
     1
102
RTVSPropertyOp62
 70
     1
  0
XRECORD
  5
1612
102
{ACAD_REACTORS
330
1611
102
}
330
1611
100
AcDbXrecord
280
     1
102
RTVSPost2010Prop28
280
     0
102
RTVSPost2010PropOp28
 70
     1
102
RTVSPost2010Prop29
280
     1
102
RTVSPost2010PropOp29
 70
     1
102
RTVSPost2010Prop30
280
     1
102
RTVSPost2010PropOp30
 70
     1
102
RTVSPost2010Prop31
280
     0
102
RTVSPost2010PropOp31
 70
     1
102
RTVSPost2010Prop32
280
     0
102
RTVSPost2010PropOp32
 70
     1
102
RTVSPost2010Prop33
280
     0
102
RTVSPost2010PropOp33
 70
     1
102
RTVSPost2010Prop34
280
     0
102
RTVSPost2010PropOp34
 70
     1
102
RTVSPost2010Prop35
280
     0
102
RTVSPost2010PropOp35
 70
     1
102
RTVSPost2010Prop36
280
     0
102
RTVSPost2010PropOp36
 70
     1
102
RTVSPost2010Prop37
 90
       50
102
RTVSPost2010PropOp37
 70
     0
102
RTVSPost2010Prop38
140
0.0
102
RTVSPost2010PropOp38
 70
     0
102
RTVSPost2010Prop39
140
1.0
102
RTVSPost2010PropOp39
 70
     0
102
RTVSPost2010Prop40
 90
        0
102
RTVSPost2010PropOp40
 70
     0
102
RTVSPost2010Prop41ColorIndex
 90
       18
102
RTVSPost2010Prop41ColorRGB
 90
        0
102
RTVSPost2010PropOp41
 70
     0
102
RTVSPost2010Prop42
 90
       50
102
RTVSPost2010PropOp42
 70
     0
102
RTVSPost2010Prop43
 90
        3
102
RTVSPost2010PropOp43
 70
     0
102
RTVSPost2010Prop44ColorIndex
 90
        5
102
RTVSPost2010Prop44ColorRGB
 90
      255
102
RTVSPost2010PropOp44
 70
     0
102
RTVSPost2010Prop45
280
     0
102
RTVSPost2010PropOp45
 70
     1
102
RTVSPost2010Prop46
 90
       50
102
RTVSPost2010PropOp46
 70
     0
102
RTVSPost2010Prop47
 90
       50
102
RTVSPost2010PropOp47
 70
     0
102
RTVSPost2010Prop48
 90
       50
102
RTVSPost2010PropOp48
 70
     0
102
RTVSPost2010Prop49
280
     0
102
RTVSPost2010PropOp49
 70
     1
102
RTVSPost2010Prop50
 90
       50
102
RTVSPost2010PropOp50
 70
     0
102
RTVSPost2010Prop51ColorIndex
 90
      256
102
RTVSPost2010Prop51ColorRGB
 90
-16777216
102
RTVSPost2010PropOp51
 70
     0
102
RTVSPost2010Prop52
140
1.0
102
RTVSPost2010PropOp52
 70
     0
102
RTVSPost2010Prop53
 90
        2
102
RTVSPost2010PropOp53
 70
     0
102
RTVSPost2010Prop54
  1
strokes_ogs.tif
102
RTVSPost2010PropOp54
 70
     0
102
RTVSPost2010Prop55
280
     0
102
RTVSPost2010PropOp55
 70
     1
102
RTVSPost2010Prop56
140
1.0
102
RTVSPost2010PropOp56
 70
     0
102
RTVSPost2010Prop57
140
1.0
102
RTVSPost2010PropOp57
 70
     0
102
RTVSPropertyOp0
 70
     0
102
RTVSPropertyOp1
 70
     0
102
RTVSPropertyOp2
 70
     0
102
RTVSPropertyOp3
 70
     0
102
RTVSPropertyOp4
 70
     0
102
RTVSPropertyOp5
 70
     0
102
RTVSPropertyOp6
 70
     0
102
RTVSPropertyOp7
 70
     0
102
RTVSPropertyOp8
 70
     0
102
RTVSPropertyOp9
 70
     0
102
RTVSPropertyOp10
 70
     0
102
RTVSPropertyOp11
 70
     0
102
RTVSPropertyOp12
 70
     0
102
RTVSPropertyOp13
 70
     0
102
RTVSPropertyOp14
 70
     2
102
RTVSPropertyOp15
 70
     0
102
RTVSPropertyOp16
 70
     0
102
RTVSPropertyOp17
 70
     0
102
RTVSPropertyOp18
 70
     0
102
RTVSPropertyOp19
 70
     0
102
RTVSPropertyOp20
 70
     0
102
RTVSPropertyOp21
 70
     0
102
RTVSPropertyOp22
 70
     0
102
RTVSPropertyOp23
 70
     0
102
RTVSPropertyOp24
 70
     0
102
RTVSPropertyOp25
 70
     0
102
RTVSPropertyOp26
 70
     0
102
RTVSPropertyOp27
 70
     0
102
RTVSPropertyOp28
 70
     1
102
RTVSPropertyOp29
 70
     1
102
RTVSPropertyOp30
 70
     1
102
RTVSPropertyOp31
 70
     1
102
RTVSPropertyOp32
 70
     1
102
RTVSPropertyOp33
 70
     1
102
RTVSPropertyOp34
 70
     1
102
RTVSPropertyOp35
 70
     1
102
RTVSPropertyOp36
 70
     1
102
RTVSPropertyOp37
 70
     0
102
RTVSPropertyOp38
 70
     0
102
RTVSPropertyOp39
 70
     0
102
RTVSPropertyOp40
 70
     0
102
RTVSPropertyOp41
 70
     0
102
RTVSPropertyOp42
 70
     0
102
RTVSPropertyOp43
 70
     0
102
RTVSPropertyOp44
 70
     0
102
RTVSPropertyOp45
 70
     1
102
RTVSPropertyOp46
 70
     0
102
RTVSPropertyOp47
 70
     0
102
RTVSPropertyOp48
 70
     0
102
RTVSPropertyOp49
 70
     1
102
RTVSPropertyOp50
 70
     0
102
RTVSPropertyOp51
 70
     0
102
RTVSPropertyOp52
 70
     0
102
RTVSPropertyOp53
 70
     0
102
RTVSPropertyOp54
 70
     0
102
RTVSPropertyOp55
 70
     1
102
RTVSPropertyOp56
 70
     0
102
RTVSPropertyOp57
 70
     0
102
RTVSPropertyOp58
 70
     0
102
RTVSPropertyOp59
 70
     0
102
RTVSPropertyOp60
 70
     0
102
RTVSPropertyOp61
 70
     0
102
RTVSPropertyOp62
 70
     0
  0
XRECORD
  5
1600
102
{ACAD_REACTORS
330
15FF
102
}
330
15FF
100
AcDbXrecord
280
     1
102
RTVSPost2010Prop28
280
     0
102
RTVSPost2010PropOp28
 70
     1
102
RTVSPost2010Prop29
280
     1
102
RTVSPost2010PropOp29
 70
     1
102
RTVSPost2010Prop30
280
     1
102
RTVSPost2010PropOp30
 70
     1
102
RTVSPost2010Prop31
280
     0
102
RTVSPost2010PropOp31
 70
     1
102
RTVSPost2010Prop32
280
     0
102
RTVSPost2010PropOp32
 70
     1
102
RTVSPost2010Prop33
280
     0
102
RTVSPost2010PropOp33
 70
     1
102
RTVSPost2010Prop34
280
     0
102
RTVSPost2010PropOp34
 70
     1
102
RTVSPost2010Prop35
280
     0
102
RTVSPost2010PropOp35
 70
     1
102
RTVSPost2010Prop36
280
     0
102
RTVSPost2010PropOp36
 70
     1
102
RTVSPost2010Prop37
 90
       50
102
RTVSPost2010PropOp37
 70
     1
102
RTVSPost2010Prop38
140
0.0
102
RTVSPost2010PropOp38
 70
     1
102
RTVSPost2010Prop39
140
1.0
102
RTVSPost2010PropOp39
 70
     1
102
RTVSPost2010Prop40
 90
        0
102
RTVSPost2010PropOp40
 70
     1
102
RTVSPost2010Prop41ColorIndex
 90
       18
102
RTVSPost2010Prop41ColorRGB
 90
        0
102
RTVSPost2010PropOp41
 70
     1
102
RTVSPost2010Prop42
 90
       50
102
RTVSPost2010PropOp42
 70
     1
102
RTVSPost2010Prop43
 90
        3
102
RTVSPost2010PropOp43
 70
     1
102
RTVSPost2010Prop44ColorIndex
 90
        5
102
RTVSPost2010Prop44ColorRGB
 90
      255
102
RTVSPost2010PropOp44
 70
     1
102
RTVSPost2010Prop45
280
     0
102
RTVSPost2010PropOp45
 70
     1
102
RTVSPost2010Prop46
 90
       50
102
RTVSPost2010PropOp46
 70
     1
102
RTVSPost2010Prop47
 90
       50
102
RTVSPost2010PropOp47
 70
     1
102
RTVSPost2010Prop48
 90
       50
102
RTVSPost2010PropOp48
 70
     1
102
RTVSPost2010Prop49
280
     0
102
RTVSPost2010PropOp49
 70
     1
102
RTVSPost2010Prop50
 90
       50
102
RTVSPost2010PropOp50
 70
     1
102
RTVSPost2010Prop51ColorIndex
 90
      256
102
RTVSPost2010Prop51ColorRGB
 90
-16777216
102
RTVSPost2010PropOp51
 70
     0
102
RTVSPost2010Prop52
140
1.0
102
RTVSPost2010PropOp52
 70
     0
102
RTVSPost2010Prop53
 90
        2
102
RTVSPost2010PropOp53
 70
     1
102
RTVSPost2010Prop54
  1
strokes_ogs.tif
102
RTVSPost2010PropOp54
 70
     1
102
RTVSPost2010Prop55
280
     0
102
RTVSPost2010PropOp55
 70
     1
102
RTVSPost2010Prop56
140
1.0
102
RTVSPost2010PropOp56
 70
     1
102
RTVSPost2010Prop57
140
1.0
102
RTVSPost2010PropOp57
 70
     1
102
RTVSPropertyOp0
 70
     1
102
RTVSPropertyOp1
 70
     1
102
RTVSPropertyOp2
 70
     1
102
RTVSPropertyOp3
 70
     1
102
RTVSPropertyOp4
 70
     1
102
RTVSPropertyOp5
 70
     1
102
RTVSPropertyOp6
 70
     1
102
RTVSPropertyOp7
 70
     1
102
RTVSPropertyOp8
 70
     1
102
RTVSPropertyOp9
 70
     1
102
RTVSPropertyOp10
 70
     1
102
RTVSPropertyOp11
 70
     1
102
RTVSPropertyOp12
 70
     1
102
RTVSPropertyOp13
 70
     1
102
RTVSPropertyOp14
 70
     1
102
RTVSPropertyOp15
 70
     1
102
RTVSPropertyOp16
 70
     1
102
RTVSPropertyOp17
 70
     1
102
RTVSPropertyOp18
 70
     1
102
RTVSPropertyOp19
 70
     1
102
RTVSPropertyOp20
 70
     1
102
RTVSPropertyOp21
 70
     1
102
RTVSPropertyOp22
 70
     1
102
RTVSPropertyOp23
 70
     1
102
RTVSPropertyOp24
 70
     1
102
RTVSPropertyOp25
 70
     1
102
RTVSPropertyOp26
 70
     1
102
RTVSPropertyOp27
 70
     1
102
RTVSPropertyOp28
 70
     1
102
RTVSPropertyOp29
 70
     1
102
RTVSPropertyOp30
 70
     1
102
RTVSPropertyOp31
 70
     1
102
RTVSPropertyOp32
 70
     1
102
RTVSPropertyOp33
 70
     1
102
RTVSPropertyOp34
 70
     1
102
RTVSPropertyOp35
 70
     1
102
RTVSPropertyOp36
 70
     1
102
RTVSPropertyOp37
 70
     1
102
RTVSPropertyOp38
 70
     1
102
RTVSPropertyOp39
 70
     1
102
RTVSPropertyOp40
 70
     1
102
RTVSPropertyOp41
 70
     1
102
RTVSPropertyOp42
 70
     1
102
RTVSPropertyOp43
 70
     1
102
RTVSPropertyOp44
 70
     1
102
RTVSPropertyOp45
 70
     1
102
RTVSPropertyOp46
 70
     1
102
RTVSPropertyOp47
 70
     1
102
RTVSPropertyOp48
 70
     1
102
RTVSPropertyOp49
 70
     1
102
RTVSPropertyOp50
 70
     1
102
RTVSPropertyOp51
 70
     0
102
RTVSPropertyOp52
 70
     0
102
RTVSPropertyOp53
 70
     1
102
RTVSPropertyOp54
 70
     1
102
RTVSPropertyOp55
 70
     1
102
RTVSPropertyOp56
 70
     1
102
RTVSPropertyOp57
 70
     1
102
RTVSPropertyOp58
 70
     1
102
RTVSPropertyOp59
 70
     1
102
RTVSPropertyOp60
 70
     1
102
RTVSPropertyOp61
 70
     1
102
RTVSPropertyOp62
 70
     1
  0
XRECORD
  5
15E4
102
{ACAD_REACTORS
330
15E3
102
}
330
15E3
100
AcDbXrecord
280
     1
102
RTVSPost2010Prop28
280
     0
102
RTVSPost2010PropOp28
 70
     1
102
RTVSPost2010Prop29
280
     1
102
RTVSPost2010PropOp29
 70
     1
102
RTVSPost2010Prop30
280
     1
102
RTVSPost2010PropOp30
 70
     1
102
RTVSPost2010Prop31
280
     0
102
RTVSPost2010PropOp31
 70
     1
102
RTVSPost2010Prop32
280
     0
102
RTVSPost2010PropOp32
 70
     1
102
RTVSPost2010Prop33
280
     0
102
RTVSPost2010PropOp33
 70
     1
102
RTVSPost2010Prop34
280
     0
102
RTVSPost2010PropOp34
 70
     1
102
RTVSPost2010Prop35
280
     0
102
RTVSPost2010PropOp35
 70
     1
102
RTVSPost2010Prop36
280
     0
102
RTVSPost2010PropOp36
 70
     1
102
RTVSPost2010Prop37
 90
       50
102
RTVSPost2010PropOp37
 70
     1
102
RTVSPost2010Prop38
140
0.0
102
RTVSPost2010PropOp38
 70
     1
102
RTVSPost2010Prop39
140
1.0
102
RTVSPost2010PropOp39
 70
     1
102
RTVSPost2010Prop40
 90
        0
102
RTVSPost2010PropOp40
 70
     1
102
RTVSPost2010Prop41ColorIndex
 90
       18
102
RTVSPost2010Prop41ColorRGB
 90
        0
102
RTVSPost2010PropOp41
 70
     1
102
RTVSPost2010Prop42
 90
       50
102
RTVSPost2010PropOp42
 70
     1
102
RTVSPost2010Prop43
 90
        3
102
RTVSPost2010PropOp43
 70
     1
102
RTVSPost2010Prop44ColorIndex
 90
        5
102
RTVSPost2010Prop44ColorRGB
 90
      255
102
RTVSPost2010PropOp44
 70
     1
102
RTVSPost2010Prop45
280
     0
102
RTVSPost2010PropOp45
 70
     1
102
RTVSPost2010Prop46
 90
       50
102
RTVSPost2010PropOp46
 70
     1
102
RTVSPost2010Prop47
 90
       50
102
RTVSPost2010PropOp47
 70
     1
102
RTVSPost2010Prop48
 90
       50
102
RTVSPost2010PropOp48
 70
     1
102
RTVSPost2010Prop49
280
     0
102
RTVSPost2010PropOp49
 70
     1
102
RTVSPost2010Prop50
 90
       50
102
RTVSPost2010PropOp50
 70
     1
102
RTVSPost2010Prop51ColorIndex
 90
      256
102
RTVSPost2010Prop51ColorRGB
 90
-16777216
102
RTVSPost2010PropOp51
 70
     0
102
RTVSPost2010Prop52
140
1.0
102
RTVSPost2010PropOp52
 70
     0
102
RTVSPost2010Prop53
 90
        2
102
RTVSPost2010PropOp53
 70
     1
102
RTVSPost2010Prop54
  1
strokes_ogs.tif
102
RTVSPost2010PropOp54
 70
     1
102
RTVSPost2010Prop55
280
     0
102
RTVSPost2010PropOp55
 70
     1
102
RTVSPost2010Prop56
140
1.0
102
RTVSPost2010PropOp56
 70
     1
102
RTVSPost2010Prop57
140
1.0
102
RTVSPost2010PropOp57
 70
     1
102
RTVSPropertyOp0
 70
     1
102
RTVSPropertyOp1
 70
     1
102
RTVSPropertyOp2
 70
     1
102
RTVSPropertyOp3
 70
     1
102
RTVSPropertyOp4
 70
     1
102
RTVSPropertyOp5
 70
     1
102
RTVSPropertyOp6
 70
     1
102
RTVSPropertyOp7
 70
     1
102
RTVSPropertyOp8
 70
     1
102
RTVSPropertyOp9
 70
     1
102
RTVSPropertyOp10
 70
     1
102
RTVSPropertyOp11
 70
     1
102
RTVSPropertyOp12
 70
     1
102
RTVSPropertyOp13
 70
     1
102
RTVSPropertyOp14
 70
     1
102
RTVSPropertyOp15
 70
     1
102
RTVSPropertyOp16
 70
     1
102
RTVSPropertyOp17
 70
     1
102
RTVSPropertyOp18
 70
     1
102
RTVSPropertyOp19
 70
     1
102
RTVSPropertyOp20
 70
     1
102
RTVSPropertyOp21
 70
     1
102
RTVSPropertyOp22
 70
     1
102
RTVSPropertyOp23
 70
     1
102
RTVSPropertyOp24
 70
     1
102
RTVSPropertyOp25
 70
     1
102
RTVSPropertyOp26
 70
     1
102
RTVSPropertyOp27
 70
     1
102
RTVSPropertyOp28
 70
     1
102
RTVSPropertyOp29
 70
     1
102
RTVSPropertyOp30
 70
     1
102
RTVSPropertyOp31
 70
     1
102
RTVSPropertyOp32
 70
     1
102
RTVSPropertyOp33
 70
     1
102
RTVSPropertyOp34
 70
     1
102
RTVSPropertyOp35
 70
     1
102
RTVSPropertyOp36
 70
     1
102
RTVSPropertyOp37
 70
     1
102
RTVSPropertyOp38
 70
     1
102
RTVSPropertyOp39
 70
     1
102
RTVSPropertyOp40
 70
     1
102
RTVSPropertyOp41
 70
     1
102
RTVSPropertyOp42
 70
     1
102
RTVSPropertyOp43
 70
     1
102
RTVSPropertyOp44
 70
     1
102
RTVSPropertyOp45
 70
     1
102
RTVSPropertyOp46
 70
     1
102
RTVSPropertyOp47
 70
     1
102
RTVSPropertyOp48
 70
     1
102
RTVSPropertyOp49
 70
     1
102
RTVSPropertyOp50
 70
     1
102
RTVSPropertyOp51
 70
     0
102
RTVSPropertyOp52
 70
     0
102
RTVSPropertyOp53
 70
     1
102
RTVSPropertyOp54
 70
     1
102
RTVSPropertyOp55
 70
     1
102
RTVSPropertyOp56
 70
     1
102
RTVSPropertyOp57
 70
     1
102
RTVSPropertyOp58
 70
     1
102
RTVSPropertyOp59
 70
     1
102
RTVSPropertyOp60
 70
     1
102
RTVSPropertyOp61
 70
     1
102
RTVSPropertyOp62
 70
     1
  0
XRECORD
  5
15E6
102
{ACAD_REACTORS
330
15E5
102
}
330
15E5
100
AcDbXrecord
280
     1
102
RTVSPost2010Prop28
280
     0
102
RTVSPost2010PropOp28
 70
     1
102
RTVSPost2010Prop29
280
     1
102
RTVSPost2010PropOp29
 70
     1
102
RTVSPost2010Prop30
280
     1
102
RTVSPost2010PropOp30
 70
     1
102
RTVSPost2010Prop31
280
     0
102
RTVSPost2010PropOp31
 70
     1
102
RTVSPost2010Prop32
280
     0
102
RTVSPost2010PropOp32
 70
     1
102
RTVSPost2010Prop33
280
     0
102
RTVSPost2010PropOp33
 70
     1
102
RTVSPost2010Prop34
280
     0
102
RTVSPost2010PropOp34
 70
     1
102
RTVSPost2010Prop35
280
     0
102
RTVSPost2010PropOp35
 70
     1
102
RTVSPost2010Prop36
280
     0
102
RTVSPost2010PropOp36
 70
     1
102
RTVSPost2010Prop37
 90
       50
102
RTVSPost2010PropOp37
 70
     1
102
RTVSPost2010Prop38
140
0.0
102
RTVSPost2010PropOp38
 70
     1
102
RTVSPost2010Prop39
140
1.0
102
RTVSPost2010PropOp39
 70
     1
102
RTVSPost2010Prop40
 90
        0
102
RTVSPost2010PropOp40
 70
     1
102
RTVSPost2010Prop41ColorIndex
 90
       18
102
RTVSPost2010Prop41ColorRGB
 90
        0
102
RTVSPost2010PropOp41
 70
     1
102
RTVSPost2010Prop42
 90
       50
102
RTVSPost2010PropOp42
 70
     1
102
RTVSPost2010Prop43
 90
        3
102
RTVSPost2010PropOp43
 70
     1
102
RTVSPost2010Prop44ColorIndex
 90
        5
102
RTVSPost2010Prop44ColorRGB
 90
      255
102
RTVSPost2010PropOp44
 70
     1
102
RTVSPost2010Prop45
280
     0
102
RTVSPost2010PropOp45
 70
     1
102
RTVSPost2010Prop46
 90
       50
102
RTVSPost2010PropOp46
 70
     1
102
RTVSPost2010Prop47
 90
       50
102
RTVSPost2010PropOp47
 70
     1
102
RTVSPost2010Prop48
 90
       50
102
RTVSPost2010PropOp48
 70
     1
102
RTVSPost2010Prop49
280
     0
102
RTVSPost2010PropOp49
 70
     1
102
RTVSPost2010Prop50
 90
       50
102
RTVSPost2010PropOp50
 70
     1
102
RTVSPost2010Prop51ColorIndex
 90
      256
102
RTVSPost2010Prop51ColorRGB
 90
-16777216
102
RTVSPost2010PropOp51
 70
     0
102
RTVSPost2010Prop52
140
1.0
102
RTVSPost2010PropOp52
 70
     0
102
RTVSPost2010Prop53
 90
        2
102
RTVSPost2010PropOp53
 70
     1
102
RTVSPost2010Prop54
  1
strokes_ogs.tif
102
RTVSPost2010PropOp54
 70
     1
102
RTVSPost2010Prop55
280
     0
102
RTVSPost2010PropOp55
 70
     1
102
RTVSPost2010Prop56
140
1.0
102
RTVSPost2010PropOp56
 70
     1
102
RTVSPost2010Prop57
140
1.0
102
RTVSPost2010PropOp57
 70
     1
102
RTVSPropertyOp0
 70
     1
102
RTVSPropertyOp1
 70
     1
102
RTVSPropertyOp2
 70
     1
102
RTVSPropertyOp3
 70
     1
102
RTVSPropertyOp4
 70
     1
102
RTVSPropertyOp5
 70
     1
102
RTVSPropertyOp6
 70
     1
102
RTVSPropertyOp7
 70
     1
102
RTVSPropertyOp8
 70
     1
102
RTVSPropertyOp9
 70
     1
102
RTVSPropertyOp10
 70
     1
102
RTVSPropertyOp11
 70
     1
102
RTVSPropertyOp12
 70
     1
102
RTVSPropertyOp13
 70
     1
102
RTVSPropertyOp14
 70
     1
102
RTVSPropertyOp15
 70
     1
102
RTVSPropertyOp16
 70
     1
102
RTVSPropertyOp17
 70
     1
102
RTVSPropertyOp18
 70
     1
102
RTVSPropertyOp19
 70
     1
102
RTVSPropertyOp20
 70
     1
102
RTVSPropertyOp21
 70
     1
102
RTVSPropertyOp22
 70
     1
102
RTVSPropertyOp23
 70
     1
102
RTVSPropertyOp24
 70
     1
102
RTVSPropertyOp25
 70
     1
102
RTVSPropertyOp26
 70
     1
102
RTVSPropertyOp27
 70
     1
102
RTVSPropertyOp28
 70
     1
102
RTVSPropertyOp29
 70
     1
102
RTVSPropertyOp30
 70
     1
102
RTVSPropertyOp31
 70
     1
102
RTVSPropertyOp32
 70
     1
102
RTVSPropertyOp33
 70
     1
102
RTVSPropertyOp34
 70
     1
102
RTVSPropertyOp35
 70
     1
102
RTVSPropertyOp36
 70
     1
102
RTVSPropertyOp37
 70
     1
102
RTVSPropertyOp38
 70
     1
102
RTVSPropertyOp39
 70
     1
102
RTVSPropertyOp40
 70
     1
102
RTVSPropertyOp41
 70
     1
102
RTVSPropertyOp42
 70
     1
102
RTVSPropertyOp43
 70
     1
102
RTVSPropertyOp44
 70
     1
102
RTVSPropertyOp45
 70
     1
102
RTVSPropertyOp46
 70
     1
102
RTVSPropertyOp47
 70
     1
102
RTVSPropertyOp48
 70
     1
102
RTVSPropertyOp49
 70
     1
102
RTVSPropertyOp50
 70
     1
102
RTVSPropertyOp51
 70
     0
102
RTVSPropertyOp52
 70
     0
102
RTVSPropertyOp53
 70
     1
102
RTVSPropertyOp54
 70
     1
102
RTVSPropertyOp55
 70
     1
102
RTVSPropertyOp56
 70
     1
102
RTVSPropertyOp57
 70
     1
102
RTVSPropertyOp58
 70
     1
102
RTVSPropertyOp59
 70
     1
102
RTVSPropertyOp60
 70
     1
102
RTVSPropertyOp61
 70
     1
102
RTVSPropertyOp62
 70
     1
  0
XRECORD
  5
15E8
102
{ACAD_REACTORS
330
15E7
102
}
330
15E7
100
AcDbXrecord
280
     1
102
RTVSPost2010Prop28
280
     0
102
RTVSPost2010PropOp28
 70
     1
102
RTVSPost2010Prop29
280
     1
102
RTVSPost2010PropOp29
 70
     1
102
RTVSPost2010Prop30
280
     1
102
RTVSPost2010PropOp30
 70
     1
102
RTVSPost2010Prop31
280
     0
102
RTVSPost2010PropOp31
 70
     1
102
RTVSPost2010Prop32
280
     0
102
RTVSPost2010PropOp32
 70
     1
102
RTVSPost2010Prop33
280
     0
102
RTVSPost2010PropOp33
 70
     1
102
RTVSPost2010Prop34
280
     0
102
RTVSPost2010PropOp34
 70
     1
102
RTVSPost2010Prop35
280
     0
102
RTVSPost2010PropOp35
 70
     1
102
RTVSPost2010Prop36
280
     0
102
RTVSPost2010PropOp36
 70
     1
102
RTVSPost2010Prop37
 90
       50
102
RTVSPost2010PropOp37
 70
     1
102
RTVSPost2010Prop38
140
0.0
102
RTVSPost2010PropOp38
 70
     1
102
RTVSPost2010Prop39
140
1.0
102
RTVSPost2010PropOp39
 70
     1
102
RTVSPost2010Prop40
 90
        0
102
RTVSPost2010PropOp40
 70
     1
102
RTVSPost2010Prop41ColorIndex
 90
       18
102
RTVSPost2010Prop41ColorRGB
 90
        0
102
RTVSPost2010PropOp41
 70
     1
102
RTVSPost2010Prop42
 90
       50
102
RTVSPost2010PropOp42
 70
     1
102
RTVSPost2010Prop43
 90
        3
102
RTVSPost2010PropOp43
 70
     1
102
RTVSPost2010Prop44ColorIndex
 90
        5
102
RTVSPost2010Prop44ColorRGB
 90
      255
102
RTVSPost2010PropOp44
 70
     1
102
RTVSPost2010Prop45
280
     0
102
RTVSPost2010PropOp45
 70
     1
102
RTVSPost2010Prop46
 90
       50
102
RTVSPost2010PropOp46
 70
     1
102
RTVSPost2010Prop47
 90
       50
102
RTVSPost2010PropOp47
 70
     1
102
RTVSPost2010Prop48
 90
       50
102
RTVSPost2010PropOp48
 70
     1
102
RTVSPost2010Prop49
280
     0
102
RTVSPost2010PropOp49
 70
     1
102
RTVSPost2010Prop50
 90
       50
102
RTVSPost2010PropOp50
 70
     1
102
RTVSPost2010Prop51ColorIndex
 90
      256
102
RTVSPost2010Prop51ColorRGB
 90
-16777216
102
RTVSPost2010PropOp51
 70
     0
102
RTVSPost2010Prop52
140
1.0
102
RTVSPost2010PropOp52
 70
     0
102
RTVSPost2010Prop53
 90
        2
102
RTVSPost2010PropOp53
 70
     1
102
RTVSPost2010Prop54
  1
strokes_ogs.tif
102
RTVSPost2010PropOp54
 70
     1
102
RTVSPost2010Prop55
280
     0
102
RTVSPost2010PropOp55
 70
     1
102
RTVSPost2010Prop56
140
1.0
102
RTVSPost2010PropOp56
 70
     1
102
RTVSPost2010Prop57
140
1.0
102
RTVSPost2010PropOp57
 70
     1
102
RTVSPropertyOp0
 70
     1
102
RTVSPropertyOp1
 70
     1
102
RTVSPropertyOp2
 70
     1
102
RTVSPropertyOp3
 70
     1
102
RTVSPropertyOp4
 70
     1
102
RTVSPropertyOp5
 70
     1
102
RTVSPropertyOp6
 70
     1
102
RTVSPropertyOp7
 70
     1
102
RTVSPropertyOp8
 70
     1
102
RTVSPropertyOp9
 70
     1
102
RTVSPropertyOp10
 70
     1
102
RTVSPropertyOp11
 70
     1
102
RTVSPropertyOp12
 70
     1
102
RTVSPropertyOp13
 70
     1
102
RTVSPropertyOp14
 70
     1
102
RTVSPropertyOp15
 70
     1
102
RTVSPropertyOp16
 70
     1
102
RTVSPropertyOp17
 70
     1
102
RTVSPropertyOp18
 70
     1
102
RTVSPropertyOp19
 70
     1
102
RTVSPropertyOp20
 70
     1
102
RTVSPropertyOp21
 70
     1
102
RTVSPropertyOp22
 70
     1
102
RTVSPropertyOp23
 70
     1
102
RTVSPropertyOp24
 70
     1
102
RTVSPropertyOp25
 70
     1
102
RTVSPropertyOp26
 70
     1
102
RTVSPropertyOp27
 70
     1
102
RTVSPropertyOp28
 70
     1
102
RTVSPropertyOp29
 70
     1
102
RTVSPropertyOp30
 70
     1
102
RTVSPropertyOp31
 70
     1
102
RTVSPropertyOp32
 70
     1
102
RTVSPropertyOp33
 70
     1
102
RTVSPropertyOp34
 70
     1
102
RTVSPropertyOp35
 70
     1
102
RTVSPropertyOp36
 70
     1
102
RTVSPropertyOp37
 70
     1
102
RTVSPropertyOp38
 70
     1
102
RTVSPropertyOp39
 70
     1
102
RTVSPropertyOp40
 70
     1
102
RTVSPropertyOp41
 70
     1
102
RTVSPropertyOp42
 70
     1
102
RTVSPropertyOp43
 70
     1
102
RTVSPropertyOp44
 70
     1
102
RTVSPropertyOp45
 70
     1
102
RTVSPropertyOp46
 70
     1
102
RTVSPropertyOp47
 70
     1
102
RTVSPropertyOp48
 70
     1
102
RTVSPropertyOp49
 70
     1
102
RTVSPropertyOp50
 70
     1
102
RTVSPropertyOp51
 70
     0
102
RTVSPropertyOp52
 70
     0
102
RTVSPropertyOp53
 70
     1
102
RTVSPropertyOp54
 70
     1
102
RTVSPropertyOp55
 70
     1
102
RTVSPropertyOp56
 70
     1
102
RTVSPropertyOp57
 70
     1
102
RTVSPropertyOp58
 70
     1
102
RTVSPropertyOp59
 70
     1
102
RTVSPropertyOp60
 70
     1
102
RTVSPropertyOp61
 70
     1
102
RTVSPropertyOp62
 70
     1
  0
XRECORD
  5
15EA
102
{ACAD_REACTORS
330
15E9
102
}
330
15E9
100
AcDbXrecord
280
     1
102
RTVSPost2010Prop28
280
     0
102
RTVSPost2010PropOp28
 70
     1
102
RTVSPost2010Prop29
280
     1
102
RTVSPost2010PropOp29
 70
     1
102
RTVSPost2010Prop30
280
     1
102
RTVSPost2010PropOp30
 70
     1
102
RTVSPost2010Prop31
280
     0
102
RTVSPost2010PropOp31
 70
     1
102
RTVSPost2010Prop32
280
     0
102
RTVSPost2010PropOp32
 70
     1
102
RTVSPost2010Prop33
280
     0
102
RTVSPost2010PropOp33
 70
     1
102
RTVSPost2010Prop34
280
     0
102
RTVSPost2010PropOp34
 70
     1
102
RTVSPost2010Prop35
280
     0
102
RTVSPost2010PropOp35
 70
     1
102
RTVSPost2010Prop36
280
     0
102
RTVSPost2010PropOp36
 70
     1
102
RTVSPost2010Prop37
 90
       50
102
RTVSPost2010PropOp37
 70
     1
102
RTVSPost2010Prop38
140
0.0
102
RTVSPost2010PropOp38
 70
     1
102
RTVSPost2010Prop39
140
1.0
102
RTVSPost2010PropOp39
 70
     1
102
RTVSPost2010Prop40
 90
        0
102
RTVSPost2010PropOp40
 70
     1
102
RTVSPost2010Prop41ColorIndex
 90
       18
102
RTVSPost2010Prop41ColorRGB
 90
        0
102
RTVSPost2010PropOp41
 70
     1
102
RTVSPost2010Prop42
 90
       50
102
RTVSPost2010PropOp42
 70
     1
102
RTVSPost2010Prop43
 90
        3
102
RTVSPost2010PropOp43
 70
     1
102
RTVSPost2010Prop44ColorIndex
 90
        5
102
RTVSPost2010Prop44ColorRGB
 90
      255
102
RTVSPost2010PropOp44
 70
     1
102
RTVSPost2010Prop45
280
     0
102
RTVSPost2010PropOp45
 70
     1
102
RTVSPost2010Prop46
 90
       50
102
RTVSPost2010PropOp46
 70
     1
102
RTVSPost2010Prop47
 90
       50
102
RTVSPost2010PropOp47
 70
     1
102
RTVSPost2010Prop48
 90
       50
102
RTVSPost2010PropOp48
 70
     1
102
RTVSPost2010Prop49
280
     0
102
RTVSPost2010PropOp49
 70
     1
102
RTVSPost2010Prop50
 90
       50
102
RTVSPost2010PropOp50
 70
     1
102
RTVSPost2010Prop51ColorIndex
 90
      256
102
RTVSPost2010Prop51ColorRGB
 90
-16777216
102
RTVSPost2010PropOp51
 70
     0
102
RTVSPost2010Prop52
140
1.0
102
RTVSPost2010PropOp52
 70
     0
102
RTVSPost2010Prop53
 90
        2
102
RTVSPost2010PropOp53
 70
     1
102
RTVSPost2010Prop54
  1
strokes_ogs.tif
102
RTVSPost2010PropOp54
 70
     1
102
RTVSPost2010Prop55
280
     0
102
RTVSPost2010PropOp55
 70
     1
102
RTVSPost2010Prop56
140
1.0
102
RTVSPost2010PropOp56
 70
     1
102
RTVSPost2010Prop57
140
1.0
102
RTVSPost2010PropOp57
 70
     1
102
RTVSPropertyOp0
 70
     1
102
RTVSPropertyOp1
 70
     1
102
RTVSPropertyOp2
 70
     1
102
RTVSPropertyOp3
 70
     1
102
RTVSPropertyOp4
 70
     1
102
RTVSPropertyOp5
 70
     1
102
RTVSPropertyOp6
 70
     1
102
RTVSPropertyOp7
 70
     1
102
RTVSPropertyOp8
 70
     1
102
RTVSPropertyOp9
 70
     1
102
RTVSPropertyOp10
 70
     1
102
RTVSPropertyOp11
 70
     1
102
RTVSPropertyOp12
 70
     1
102
RTVSPropertyOp13
 70
     1
102
RTVSPropertyOp14
 70
     1
102
RTVSPropertyOp15
 70
     1
102
RTVSPropertyOp16
 70
     1
102
RTVSPropertyOp17
 70
     1
102
RTVSPropertyOp18
 70
     1
102
RTVSPropertyOp19
 70
     1
102
RTVSPropertyOp20
 70
     1
102
RTVSPropertyOp21
 70
     1
102
RTVSPropertyOp22
 70
     1
102
RTVSPropertyOp23
 70
     1
102
RTVSPropertyOp24
 70
     1
102
RTVSPropertyOp25
 70
     1
102
RTVSPropertyOp26
 70
     1
102
RTVSPropertyOp27
 70
     1
102
RTVSPropertyOp28
 70
     1
102
RTVSPropertyOp29
 70
     1
102
RTVSPropertyOp30
 70
     1
102
RTVSPropertyOp31
 70
     1
102
RTVSPropertyOp32
 70
     1
102
RTVSPropertyOp33
 70
     1
102
RTVSPropertyOp34
 70
     1
102
RTVSPropertyOp35
 70
     1
102
RTVSPropertyOp36
 70
     1
102
RTVSPropertyOp37
 70
     1
102
RTVSPropertyOp38
 70
     1
102
RTVSPropertyOp39
 70
     1
102
RTVSPropertyOp40
 70
     1
102
RTVSPropertyOp41
 70
     1
102
RTVSPropertyOp42
 70
     1
102
RTVSPropertyOp43
 70
     1
102
RTVSPropertyOp44
 70
     1
102
RTVSPropertyOp45
 70
     1
102
RTVSPropertyOp46
 70
     1
102
RTVSPropertyOp47
 70
     1
102
RTVSPropertyOp48
 70
     1
102
RTVSPropertyOp49
 70
     1
102
RTVSPropertyOp50
 70
     1
102
RTVSPropertyOp51
 70
     0
102
RTVSPropertyOp52
 70
     0
102
RTVSPropertyOp53
 70
     1
102
RTVSPropertyOp54
 70
     1
102
RTVSPropertyOp55
 70
     1
102
RTVSPropertyOp56
 70
     1
102
RTVSPropertyOp57
 70
     1
102
RTVSPropertyOp58
 70
     1
102
RTVSPropertyOp59
 70
     1
102
RTVSPropertyOp60
 70
     1
102
RTVSPropertyOp61
 70
     1
102
RTVSPropertyOp62
 70
     1
  0
XRECORD
  5
15F2
102
{ACAD_REACTORS
330
15F1
102
}
330
15F1
100
AcDbXrecord
280
     1
102
RTVSPost2010Prop28
280
     0
102
RTVSPost2010PropOp28
 70
     1
102
RTVSPost2010Prop29
280
     1
102
RTVSPost2010PropOp29
 70
     1
102
RTVSPost2010Prop30
280
     1
102
RTVSPost2010PropOp30
 70
     1
102
RTVSPost2010Prop31
280
     0
102
RTVSPost2010PropOp31
 70
     1
102
RTVSPost2010Prop32
280
     0
102
RTVSPost2010PropOp32
 70
     1
102
RTVSPost2010Prop33
280
     0
102
RTVSPost2010PropOp33
 70
     1
102
RTVSPost2010Prop34
280
     0
102
RTVSPost2010PropOp34
 70
     1
102
RTVSPost2010Prop35
280
     0
102
RTVSPost2010PropOp35
 70
     1
102
RTVSPost2010Prop36
280
     0
102
RTVSPost2010PropOp36
 70
     1
102
RTVSPost2010Prop37
 90
       50
102
RTVSPost2010PropOp37
 70
     1
102
RTVSPost2010Prop38
140
0.0
102
RTVSPost2010PropOp38
 70
     1
102
RTVSPost2010Prop39
140
1.0
102
RTVSPost2010PropOp39
 70
     1
102
RTVSPost2010Prop40
 90
        0
102
RTVSPost2010PropOp40
 70
     1
102
RTVSPost2010Prop41ColorIndex
 90
       18
102
RTVSPost2010Prop41ColorRGB
 90
        0
102
RTVSPost2010PropOp41
 70
     1
102
RTVSPost2010Prop42
 90
       50
102
RTVSPost2010PropOp42
 70
     1
102
RTVSPost2010Prop43
 90
        3
102
RTVSPost2010PropOp43
 70
     1
102
RTVSPost2010Prop44ColorIndex
 90
        5
102
RTVSPost2010Prop44ColorRGB
 90
      255
102
RTVSPost2010PropOp44
 70
     1
102
RTVSPost2010Prop45
280
     0
102
RTVSPost2010PropOp45
 70
     1
102
RTVSPost2010Prop46
 90
       50
102
RTVSPost2010PropOp46
 70
     1
102
RTVSPost2010Prop47
 90
       50
102
RTVSPost2010PropOp47
 70
     1
102
RTVSPost2010Prop48
 90
       50
102
RTVSPost2010PropOp48
 70
     1
102
RTVSPost2010Prop49
280
     0
102
RTVSPost2010PropOp49
 70
     1
102
RTVSPost2010Prop50
 90
       50
102
RTVSPost2010PropOp50
 70
     1
102
RTVSPost2010Prop51ColorIndex
 90
      256
102
RTVSPost2010Prop51ColorRGB
 90
-16777216
102
RTVSPost2010PropOp51
 70
     0
102
RTVSPost2010Prop52
140
1.0
102
RTVSPost2010PropOp52
 70
     0
102
RTVSPost2010Prop53
 90
        2
102
RTVSPost2010PropOp53
 70
     1
102
RTVSPost2010Prop54
  1
strokes_ogs.tif
102
RTVSPost2010PropOp54
 70
     1
102
RTVSPost2010Prop55
280
     0
102
RTVSPost2010PropOp55
 70
     1
102
RTVSPost2010Prop56
140
1.0
102
RTVSPost2010PropOp56
 70
     1
102
RTVSPost2010Prop57
140
1.0
102
RTVSPost2010PropOp57
 70
     1
102
RTVSPropertyOp0
 70
     1
102
RTVSPropertyOp1
 70
     1
102
RTVSPropertyOp2
 70
     1
102
RTVSPropertyOp3
 70
     1
102
RTVSPropertyOp4
 70
     1
102
RTVSPropertyOp5
 70
     1
102
RTVSPropertyOp6
 70
     1
102
RTVSPropertyOp7
 70
     1
102
RTVSPropertyOp8
 70
     1
102
RTVSPropertyOp9
 70
     1
102
RTVSPropertyOp10
 70
     1
102
RTVSPropertyOp11
 70
     1
102
RTVSPropertyOp12
 70
     1
102
RTVSPropertyOp13
 70
     1
102
RTVSPropertyOp14
 70
     1
102
RTVSPropertyOp15
 70
     1
102
RTVSPropertyOp16
 70
     1
102
RTVSPropertyOp17
 70
     1
102
RTVSPropertyOp18
 70
     1
102
RTVSPropertyOp19
 70
     1
102
RTVSPropertyOp20
 70
     1
102
RTVSPropertyOp21
 70
     1
102
RTVSPropertyOp22
 70
     1
102
RTVSPropertyOp23
 70
     1
102
RTVSPropertyOp24
 70
     1
102
RTVSPropertyOp25
 70
     1
102
RTVSPropertyOp26
 70
     1
102
RTVSPropertyOp27
 70
     1
102
RTVSPropertyOp28
 70
     1
102
RTVSPropertyOp29
 70
     1
102
RTVSPropertyOp30
 70
     1
102
RTVSPropertyOp31
 70
     1
102
RTVSPropertyOp32
 70
     1
102
RTVSPropertyOp33
 70
     1
102
RTVSPropertyOp34
 70
     1
102
RTVSPropertyOp35
 70
     1
102
RTVSPropertyOp36
 70
     1
102
RTVSPropertyOp37
 70
     1
102
RTVSPropertyOp38
 70
     1
102
RTVSPropertyOp39
 70
     1
102
RTVSPropertyOp40
 70
     1
102
RTVSPropertyOp41
 70
     1
102
RTVSPropertyOp42
 70
     1
102
RTVSPropertyOp43
 70
     1
102
RTVSPropertyOp44
 70
     1
102
RTVSPropertyOp45
 70
     1
102
RTVSPropertyOp46
 70
     1
102
RTVSPropertyOp47
 70
     1
102
RTVSPropertyOp48
 70
     1
102
RTVSPropertyOp49
 70
     1
102
RTVSPropertyOp50
 70
     1
102
RTVSPropertyOp51
 70
     0
102
RTVSPropertyOp52
 70
     0
102
RTVSPropertyOp53
 70
     1
102
RTVSPropertyOp54
 70
     1
102
RTVSPropertyOp55
 70
     1
102
RTVSPropertyOp56
 70
     1
102
RTVSPropertyOp57
 70
     1
102
RTVSPropertyOp58
 70
     1
102
RTVSPropertyOp59
 70
     1
102
RTVSPropertyOp60
 70
     1
102
RTVSPropertyOp61
 70
     1
102
RTVSPropertyOp62
 70
     1
  0
XRECORD
  5
160E
102
{ACAD_REACTORS
330
160D
102
}
330
160D
100
AcDbXrecord
280
     1
102
RTVSPost2010Prop28
280
     0
102
RTVSPost2010PropOp28
 70
     1
102
RTVSPost2010Prop29
280
     1
102
RTVSPost2010PropOp29
 70
     1
102
RTVSPost2010Prop30
280
     1
102
RTVSPost2010PropOp30
 70
     1
102
RTVSPost2010Prop31
280
     0
102
RTVSPost2010PropOp31
 70
     1
102
RTVSPost2010Prop32
280
     0
102
RTVSPost2010PropOp32
 70
     1
102
RTVSPost2010Prop33
280
     0
102
RTVSPost2010PropOp33
 70
     1
102
RTVSPost2010Prop34
280
     0
102
RTVSPost2010PropOp34
 70
     1
102
RTVSPost2010Prop35
280
     0
102
RTVSPost2010PropOp35
 70
     1
102
RTVSPost2010Prop36
280
     0
102
RTVSPost2010PropOp36
 70
     1
102
RTVSPost2010Prop37
 90
       50
102
RTVSPost2010PropOp37
 70
     0
102
RTVSPost2010Prop38
140
0.0
102
RTVSPost2010PropOp38
 70
     0
102
RTVSPost2010Prop39
140
1.0
102
RTVSPost2010PropOp39
 70
     0
102
RTVSPost2010Prop40
 90
        0
102
RTVSPost2010PropOp40
 70
     0
102
RTVSPost2010Prop41ColorIndex
 90
       18
102
RTVSPost2010Prop41ColorRGB
 90
        0
102
RTVSPost2010PropOp41
 70
     0
102
RTVSPost2010Prop42
 90
       50
102
RTVSPost2010PropOp42
 70
     0
102
RTVSPost2010Prop43
 90
        3
102
RTVSPost2010PropOp43
 70
     0
102
RTVSPost2010Prop44ColorIndex
 90
        5
102
RTVSPost2010Prop44ColorRGB
 90
      255
102
RTVSPost2010PropOp44
 70
     0
102
RTVSPost2010Prop45
280
     0
102
RTVSPost2010PropOp45
 70
     1
102
RTVSPost2010Prop46
 90
       50
102
RTVSPost2010PropOp46
 70
     0
102
RTVSPost2010Prop47
 90
       50
102
RTVSPost2010PropOp47
 70
     0
102
RTVSPost2010Prop48
 90
       50
102
RTVSPost2010PropOp48
 70
     0
102
RTVSPost2010Prop49
280
     0
102
RTVSPost2010PropOp49
 70
     1
102
RTVSPost2010Prop50
 90
       50
102
RTVSPost2010PropOp50
 70
     0
102
RTVSPost2010Prop51ColorIndex
 90
      256
102
RTVSPost2010Prop51ColorRGB
 90
-16777216
102
RTVSPost2010PropOp51
 70
     0
102
RTVSPost2010Prop52
140
1.0
102
RTVSPost2010PropOp52
 70
     0
102
RTVSPost2010Prop53
 90
        2
102
RTVSPost2010PropOp53
 70
     0
102
RTVSPost2010Prop54
  1
strokes_ogs.tif
102
RTVSPost2010PropOp54
 70
     0
102
RTVSPost2010Prop55
280
     0
102
RTVSPost2010PropOp55
 70
     1
102
RTVSPost2010Prop56
140
1.0
102
RTVSPost2010PropOp56
 70
     0
102
RTVSPost2010Prop57
140
1.0
102
RTVSPost2010PropOp57
 70
     0
102
RTVSPropertyOp0
 70
     0
102
RTVSPropertyOp1
 70
     0
102
RTVSPropertyOp2
 70
     0
102
RTVSPropertyOp3
 70
     0
102
RTVSPropertyOp4
 70
     0
102
RTVSPropertyOp5
 70
     0
102
RTVSPropertyOp6
 70
     0
102
RTVSPropertyOp7
 70
     0
102
RTVSPropertyOp8
 70
     0
102
RTVSPropertyOp9
 70
     0
102
RTVSPropertyOp10
 70
     0
102
RTVSPropertyOp11
 70
     0
102
RTVSPropertyOp12
 70
     0
102
RTVSPropertyOp13
 70
     0
102
RTVSPropertyOp14
 70
     2
102
RTVSPropertyOp15
 70
     0
102
RTVSPropertyOp16
 70
     0
102
RTVSPropertyOp17
 70
     0
102
RTVSPropertyOp18
 70
     0
102
RTVSPropertyOp19
 70
     0
102
RTVSPropertyOp20
 70
     0
102
RTVSPropertyOp21
 70
     0
102
RTVSPropertyOp22
 70
     0
102
RTVSPropertyOp23
 70
     0
102
RTVSPropertyOp24
 70
     0
102
RTVSPropertyOp25
 70
     0
102
RTVSPropertyOp26
 70
     0
102
RTVSPropertyOp27
 70
     0
102
RTVSPropertyOp28
 70
     1
102
RTVSPropertyOp29
 70
     1
102
RTVSPropertyOp30
 70
     1
102
RTVSPropertyOp31
 70
     1
102
RTVSPropertyOp32
 70
     1
102
RTVSPropertyOp33
 70
     1
102
RTVSPropertyOp34
 70
     1
102
RTVSPropertyOp35
 70
     1
102
RTVSPropertyOp36
 70
     1
102
RTVSPropertyOp37
 70
     0
102
RTVSPropertyOp38
 70
     0
102
RTVSPropertyOp39
 70
     0
102
RTVSPropertyOp40
 70
     0
102
RTVSPropertyOp41
 70
     0
102
RTVSPropertyOp42
 70
     0
102
RTVSPropertyOp43
 70
     0
102
RTVSPropertyOp44
 70
     0
102
RTVSPropertyOp45
 70
     1
102
RTVSPropertyOp46
 70
     0
102
RTVSPropertyOp47
 70
     0
102
RTVSPropertyOp48
 70
     0
102
RTVSPropertyOp49
 70
     1
102
RTVSPropertyOp50
 70
     0
102
RTVSPropertyOp51
 70
     0
102
RTVSPropertyOp52
 70
     0
102
RTVSPropertyOp53
 70
     0
102
RTVSPropertyOp54
 70
     0
102
RTVSPropertyOp55
 70
     1
102
RTVSPropertyOp56
 70
     0
102
RTVSPropertyOp57
 70
     0
102
RTVSPropertyOp58
 70
     0
102
RTVSPropertyOp59
 70
     0
102
RTVSPropertyOp60
 70
     0
102
RTVSPropertyOp61
 70
     0
102
RTVSPropertyOp62
 70
     0
  0
XRECORD
  5
15FE
102
{ACAD_REACTORS
330
15FD
102
}
330
15FD
100
AcDbXrecord
280
     1
102
RTVSPost2010Prop28
280
     0
102
RTVSPost2010PropOp28
 70
     1
102
RTVSPost2010Prop29
280
     1
102
RTVSPost2010PropOp29
 70
     1
102
RTVSPost2010Prop30
280
     1
102
RTVSPost2010PropOp30
 70
     1
102
RTVSPost2010Prop31
280
     0
102
RTVSPost2010PropOp31
 70
     1
102
RTVSPost2010Prop32
280
     0
102
RTVSPost2010PropOp32
 70
     1
102
RTVSPost2010Prop33
280
     0
102
RTVSPost2010PropOp33
 70
     1
102
RTVSPost2010Prop34
280
     0
102
RTVSPost2010PropOp34
 70
     1
102
RTVSPost2010Prop35
280
     0
102
RTVSPost2010PropOp35
 70
     1
102
RTVSPost2010Prop36
280
     0
102
RTVSPost2010PropOp36
 70
     1
102
RTVSPost2010Prop37
 90
       50
102
RTVSPost2010PropOp37
 70
     1
102
RTVSPost2010Prop38
140
0.0
102
RTVSPost2010PropOp38
 70
     1
102
RTVSPost2010Prop39
140
1.0
102
RTVSPost2010PropOp39
 70
     1
102
RTVSPost2010Prop40
 90
        0
102
RTVSPost2010PropOp40
 70
     1
102
RTVSPost2010Prop41ColorIndex
 90
       18
102
RTVSPost2010Prop41ColorRGB
 90
        0
102
RTVSPost2010PropOp41
 70
     1
102
RTVSPost2010Prop42
 90
       50
102
RTVSPost2010PropOp42
 70
     1
102
RTVSPost2010Prop43
 90
        3
102
RTVSPost2010PropOp43
 70
     1
102
RTVSPost2010Prop44ColorIndex
 90
        5
102
RTVSPost2010Prop44ColorRGB
 90
      255
102
RTVSPost2010PropOp44
 70
     1
102
RTVSPost2010Prop45
280
     0
102
RTVSPost2010PropOp45
 70
     1
102
RTVSPost2010Prop46
 90
       50
102
RTVSPost2010PropOp46
 70
     1
102
RTVSPost2010Prop47
 90
       50
102
RTVSPost2010PropOp47
 70
     1
102
RTVSPost2010Prop48
 90
       50
102
RTVSPost2010PropOp48
 70
     1
102
RTVSPost2010Prop49
280
     0
102
RTVSPost2010PropOp49
 70
     1
102
RTVSPost2010Prop50
 90
       50
102
RTVSPost2010PropOp50
 70
     1
102
RTVSPost2010Prop51ColorIndex
 90
      256
102
RTVSPost2010Prop51ColorRGB
 90
-16777216
102
RTVSPost2010PropOp51
 70
     0
102
RTVSPost2010Prop52
140
1.0
102
RTVSPost2010PropOp52
 70
     0
102
RTVSPost2010Prop53
 90
        2
102
RTVSPost2010PropOp53
 70
     1
102
RTVSPost2010Prop54
  1
strokes_ogs.tif
102
RTVSPost2010PropOp54
 70
     1
102
RTVSPost2010Prop55
280
     0
102
RTVSPost2010PropOp55
 70
     1
102
RTVSPost2010Prop56
140
1.0
102
RTVSPost2010PropOp56
 70
     1
102
RTVSPost2010Prop57
140
1.0
102
RTVSPost2010PropOp57
 70
     1
102
RTVSPropertyOp0
 70
     1
102
RTVSPropertyOp1
 70
     1
102
RTVSPropertyOp2
 70
     1
102
RTVSPropertyOp3
 70
     1
102
RTVSPropertyOp4
 70
     1
102
RTVSPropertyOp5
 70
     1
102
RTVSPropertyOp6
 70
     1
102
RTVSPropertyOp7
 70
     1
102
RTVSPropertyOp8
 70
     1
102
RTVSPropertyOp9
 70
     1
102
RTVSPropertyOp10
 70
     1
102
RTVSPropertyOp11
 70
     1
102
RTVSPropertyOp12
 70
     1
102
RTVSPropertyOp13
 70
     1
102
RTVSPropertyOp14
 70
     1
102
RTVSPropertyOp15
 70
     1
102
RTVSPropertyOp16
 70
     1
102
RTVSPropertyOp17
 70
     1
102
RTVSPropertyOp18
 70
     1
102
RTVSPropertyOp19
 70
     1
102
RTVSPropertyOp20
 70
     1
102
RTVSPropertyOp21
 70
     1
102
RTVSPropertyOp22
 70
     1
102
RTVSPropertyOp23
 70
     1
102
RTVSPropertyOp24
 70
     1
102
RTVSPropertyOp25
 70
     1
102
RTVSPropertyOp26
 70
     1
102
RTVSPropertyOp27
 70
     1
102
RTVSPropertyOp28
 70
     1
102
RTVSPropertyOp29
 70
     1
102
RTVSPropertyOp30
 70
     1
102
RTVSPropertyOp31
 70
     1
102
RTVSPropertyOp32
 70
     1
102
RTVSPropertyOp33
 70
     1
102
RTVSPropertyOp34
 70
     1
102
RTVSPropertyOp35
 70
     1
102
RTVSPropertyOp36
 70
     1
102
RTVSPropertyOp37
 70
     1
102
RTVSPropertyOp38
 70
     1
102
RTVSPropertyOp39
 70
     1
102
RTVSPropertyOp40
 70
     1
102
RTVSPropertyOp41
 70
     1
102
RTVSPropertyOp42
 70
     1
102
RTVSPropertyOp43
 70
     1
102
RTVSPropertyOp44
 70
     1
102
RTVSPropertyOp45
 70
     1
102
RTVSPropertyOp46
 70
     1
102
RTVSPropertyOp47
 70
     1
102
RTVSPropertyOp48
 70
     1
102
RTVSPropertyOp49
 70
     1
102
RTVSPropertyOp50
 70
     1
102
RTVSPropertyOp51
 70
     0
102
RTVSPropertyOp52
 70
     0
102
RTVSPropertyOp53
 70
     1
102
RTVSPropertyOp54
 70
     1
102
RTVSPropertyOp55
 70
     1
102
RTVSPropertyOp56
 70
     1
102
RTVSPropertyOp57
 70
     1
102
RTVSPropertyOp58
 70
     1
102
RTVSPropertyOp59
 70
     1
102
RTVSPropertyOp60
 70
     1
102
RTVSPropertyOp61
 70
     1
102
RTVSPropertyOp62
 70
     1
  0
XRECORD
  5
1610
102
{ACAD_REACTORS
330
160F
102
}
330
160F
100
AcDbXrecord
280
     1
102
RTVSPost2010Prop28
280
     0
102
RTVSPost2010PropOp28
 70
     1
102
RTVSPost2010Prop29
280
     1
102
RTVSPost2010PropOp29
 70
     1
102
RTVSPost2010Prop30
280
     1
102
RTVSPost2010PropOp30
 70
     1
102
RTVSPost2010Prop31
280
     0
102
RTVSPost2010PropOp31
 70
     1
102
RTVSPost2010Prop32
280
     0
102
RTVSPost2010PropOp32
 70
     1
102
RTVSPost2010Prop33
280
     0
102
RTVSPost2010PropOp33
 70
     1
102
RTVSPost2010Prop34
280
     0
102
RTVSPost2010PropOp34
 70
     1
102
RTVSPost2010Prop35
280
     0
102
RTVSPost2010PropOp35
 70
     1
102
RTVSPost2010Prop36
280
     0
102
RTVSPost2010PropOp36
 70
     1
102
RTVSPost2010Prop37
 90
       50
102
RTVSPost2010PropOp37
 70
     0
102
RTVSPost2010Prop38
140
0.0
102
RTVSPost2010PropOp38
 70
     0
102
RTVSPost2010Prop39
140
1.0
102
RTVSPost2010PropOp39
 70
     0
102
RTVSPost2010Prop40
 90
        0
102
RTVSPost2010PropOp40
 70
     0
102
RTVSPost2010Prop41ColorIndex
 90
       18
102
RTVSPost2010Prop41ColorRGB
 90
        0
102
RTVSPost2010PropOp41
 70
     0
102
RTVSPost2010Prop42
 90
       50
102
RTVSPost2010PropOp42
 70
     0
102
RTVSPost2010Prop43
 90
        3
102
RTVSPost2010PropOp43
 70
     0
102
RTVSPost2010Prop44ColorIndex
 90
        5
102
RTVSPost2010Prop44ColorRGB
 90
      255
102
RTVSPost2010PropOp44
 70
     0
102
RTVSPost2010Prop45
280
     0
102
RTVSPost2010PropOp45
 70
     1
102
RTVSPost2010Prop46
 90
       50
102
RTVSPost2010PropOp46
 70
     0
102
RTVSPost2010Prop47
 90
       50
102
RTVSPost2010PropOp47
 70
     0
102
RTVSPost2010Prop48
 90
       50
102
RTVSPost2010PropOp48
 70
     0
102
RTVSPost2010Prop49
280
     0
102
RTVSPost2010PropOp49
 70
     1
102
RTVSPost2010Prop50
 90
       50
102
RTVSPost2010PropOp50
 70
     0
102
RTVSPost2010Prop51ColorIndex
 90
      256
102
RTVSPost2010Prop51ColorRGB
 90
-16777216
102
RTVSPost2010PropOp51
 70
     0
102
RTVSPost2010Prop52
140
1.0
102
RTVSPost2010PropOp52
 70
     0
102
RTVSPost2010Prop53
 90
        2
102
RTVSPost2010PropOp53
 70
     0
102
RTVSPost2010Prop54
  1
strokes_ogs.tif
102
RTVSPost2010PropOp54
 70
     0
102
RTVSPost2010Prop55
280
     0
102
RTVSPost2010PropOp55
 70
     1
102
RTVSPost2010Prop56
140
1.0
102
RTVSPost2010PropOp56
 70
     0
102
RTVSPost2010Prop57
140
1.0
102
RTVSPost2010PropOp57
 70
     0
102
RTVSPropertyOp0
 70
     0
102
RTVSPropertyOp1
 70
     0
102
RTVSPropertyOp2
 70
     0
102
RTVSPropertyOp3
 70
     0
102
RTVSPropertyOp4
 70
     0
102
RTVSPropertyOp5
 70
     0
102
RTVSPropertyOp6
 70
     0
102
RTVSPropertyOp7
 70
     0
102
RTVSPropertyOp8
 70
     0
102
RTVSPropertyOp9
 70
     0
102
RTVSPropertyOp10
 70
     0
102
RTVSPropertyOp11
 70
     0
102
RTVSPropertyOp12
 70
     0
102
RTVSPropertyOp13
 70
     0
102
RTVSPropertyOp14
 70
     2
102
RTVSPropertyOp15
 70
     0
102
RTVSPropertyOp16
 70
     0
102
RTVSPropertyOp17
 70
     0
102
RTVSPropertyOp18
 70
     0
102
RTVSPropertyOp19
 70
     0
102
RTVSPropertyOp20
 70
     0
102
RTVSPropertyOp21
 70
     0
102
RTVSPropertyOp22
 70
     0
102
RTVSPropertyOp23
 70
     0
102
RTVSPropertyOp24
 70
     0
102
RTVSPropertyOp25
 70
     0
102
RTVSPropertyOp26
 70
     0
102
RTVSPropertyOp27
 70
     0
102
RTVSPropertyOp28
 70
     1
102
RTVSPropertyOp29
 70
     1
102
RTVSPropertyOp30
 70
     1
102
RTVSPropertyOp31
 70
     1
102
RTVSPropertyOp32
 70
     1
102
RTVSPropertyOp33
 70
     1
102
RTVSPropertyOp34
 70
     1
102
RTVSPropertyOp35
 70
     1
102
RTVSPropertyOp36
 70
     1
102
RTVSPropertyOp37
 70
     0
102
RTVSPropertyOp38
 70
     0
102
RTVSPropertyOp39
 70
     0
102
RTVSPropertyOp40
 70
     0
102
RTVSPropertyOp41
 70
     0
102
RTVSPropertyOp42
 70
     0
102
RTVSPropertyOp43
 70
     0
102
RTVSPropertyOp44
 70
     0
102
RTVSPropertyOp45
 70
     1
102
RTVSPropertyOp46
 70
     0
102
RTVSPropertyOp47
 70
     0
102
RTVSPropertyOp48
 70
     0
102
RTVSPropertyOp49
 70
     1
102
RTVSPropertyOp50
 70
     0
102
RTVSPropertyOp51
 70
     0
102
RTVSPropertyOp52
 70
     0
102
RTVSPropertyOp53
 70
     0
102
RTVSPropertyOp54
 70
     0
102
RTVSPropertyOp55
 70
     1
102
RTVSPropertyOp56
 70
     0
102
RTVSPropertyOp57
 70
     0
102
RTVSPropertyOp58
 70
     0
102
RTVSPropertyOp59
 70
     0
102
RTVSPropertyOp60
 70
     0
102
RTVSPropertyOp61
 70
     0
102
RTVSPropertyOp62
 70
     0
  0
XRECORD
  5
15F6
102
{ACAD_REACTORS
330
15F5
102
}
330
15F5
100
AcDbXrecord
280
     1
102
RTVSPost2010Prop28
280
     0
102
RTVSPost2010PropOp28
 70
     1
102
RTVSPost2010Prop29
280
     1
102
RTVSPost2010PropOp29
 70
     1
102
RTVSPost2010Prop30
280
     1
102
RTVSPost2010PropOp30
 70
     1
102
RTVSPost2010Prop31
280
     0
102
RTVSPost2010PropOp31
 70
     1
102
RTVSPost2010Prop32
280
     0
102
RTVSPost2010PropOp32
 70
     1
102
RTVSPost2010Prop33
280
     0
102
RTVSPost2010PropOp33
 70
     1
102
RTVSPost2010Prop34
280
     0
102
RTVSPost2010PropOp34
 70
     1
102
RTVSPost2010Prop35
280
     0
102
RTVSPost2010PropOp35
 70
     1
102
RTVSPost2010Prop36
280
     0
102
RTVSPost2010PropOp36
 70
     1
102
RTVSPost2010Prop37
 90
       50
102
RTVSPost2010PropOp37
 70
     1
102
RTVSPost2010Prop38
140
0.0
102
RTVSPost2010PropOp38
 70
     1
102
RTVSPost2010Prop39
140
1.0
102
RTVSPost2010PropOp39
 70
     1
102
RTVSPost2010Prop40
 90
        0
102
RTVSPost2010PropOp40
 70
     1
102
RTVSPost2010Prop41ColorIndex
 90
       18
102
RTVSPost2010Prop41ColorRGB
 90
        0
102
RTVSPost2010PropOp41
 70
     1
102
RTVSPost2010Prop42
 90
       50
102
RTVSPost2010PropOp42
 70
     1
102
RTVSPost2010Prop43
 90
        3
102
RTVSPost2010PropOp43
 70
     1
102
RTVSPost2010Prop44ColorIndex
 90
        5
102
RTVSPost2010Prop44ColorRGB
 90
      255
102
RTVSPost2010PropOp44
 70
     1
102
RTVSPost2010Prop45
280
     0
102
RTVSPost2010PropOp45
 70
     1
102
RTVSPost2010Prop46
 90
       50
102
RTVSPost2010PropOp46
 70
     1
102
RTVSPost2010Prop47
 90
       50
102
RTVSPost2010PropOp47
 70
     1
102
RTVSPost2010Prop48
 90
       50
102
RTVSPost2010PropOp48
 70
     1
102
RTVSPost2010Prop49
280
     0
102
RTVSPost2010PropOp49
 70
     1
102
RTVSPost2010Prop50
 90
       50
102
RTVSPost2010PropOp50
 70
     1
102
RTVSPost2010Prop51ColorIndex
 90
      256
102
RTVSPost2010Prop51ColorRGB
 90
-16777216
102
RTVSPost2010PropOp51
 70
     0
102
RTVSPost2010Prop52
140
1.0
102
RTVSPost2010PropOp52
 70
     0
102
RTVSPost2010Prop53
 90
        2
102
RTVSPost2010PropOp53
 70
     1
102
RTVSPost2010Prop54
  1
strokes_ogs.tif
102
RTVSPost2010PropOp54
 70
     1
102
RTVSPost2010Prop55
280
     0
102
RTVSPost2010PropOp55
 70
     1
102
RTVSPost2010Prop56
140
1.0
102
RTVSPost2010PropOp56
 70
     1
102
RTVSPost2010Prop57
140
1.0
102
RTVSPost2010PropOp57
 70
     1
102
RTVSPropertyOp0
 70
     1
102
RTVSPropertyOp1
 70
     1
102
RTVSPropertyOp2
 70
     1
102
RTVSPropertyOp3
 70
     1
102
RTVSPropertyOp4
 70
     1
102
RTVSPropertyOp5
 70
     1
102
RTVSPropertyOp6
 70
     1
102
RTVSPropertyOp7
 70
     1
102
RTVSPropertyOp8
 70
     1
102
RTVSPropertyOp9
 70
     1
102
RTVSPropertyOp10
 70
     1
102
RTVSPropertyOp11
 70
     1
102
RTVSPropertyOp12
 70
     1
102
RTVSPropertyOp13
 70
     1
102
RTVSPropertyOp14
 70
     1
102
RTVSPropertyOp15
 70
     1
102
RTVSPropertyOp16
 70
     1
102
RTVSPropertyOp17
 70
     1
102
RTVSPropertyOp18
 70
     1
102
RTVSPropertyOp19
 70
     1
102
RTVSPropertyOp20
 70
     1
102
RTVSPropertyOp21
 70
     1
102
RTVSPropertyOp22
 70
     1
102
RTVSPropertyOp23
 70
     1
102
RTVSPropertyOp24
 70
     1
102
RTVSPropertyOp25
 70
     1
102
RTVSPropertyOp26
 70
     1
102
RTVSPropertyOp27
 70
     1
102
RTVSPropertyOp28
 70
     1
102
RTVSPropertyOp29
 70
     1
102
RTVSPropertyOp30
 70
     1
102
RTVSPropertyOp31
 70
     1
102
RTVSPropertyOp32
 70
     1
102
RTVSPropertyOp33
 70
     1
102
RTVSPropertyOp34
 70
     1
102
RTVSPropertyOp35
 70
     1
102
RTVSPropertyOp36
 70
     1
102
RTVSPropertyOp37
 70
     1
102
RTVSPropertyOp38
 70
     1
102
RTVSPropertyOp39
 70
     1
102
RTVSPropertyOp40
 70
     1
102
RTVSPropertyOp41
 70
     1
102
RTVSPropertyOp42
 70
     1
102
RTVSPropertyOp43
 70
     1
102
RTVSPropertyOp44
 70
     1
102
RTVSPropertyOp45
 70
     1
102
RTVSPropertyOp46
 70
     1
102
RTVSPropertyOp47
 70
     1
102
RTVSPropertyOp48
 70
     1
102
RTVSPropertyOp49
 70
     1
102
RTVSPropertyOp50
 70
     1
102
RTVSPropertyOp51
 70
     0
102
RTVSPropertyOp52
 70
     0
102
RTVSPropertyOp53
 70
     1
102
RTVSPropertyOp54
 70
     1
102
RTVSPropertyOp55
 70
     1
102
RTVSPropertyOp56
 70
     1
102
RTVSPropertyOp57
 70
     1
102
RTVSPropertyOp58
 70
     1
102
RTVSPropertyOp59
 70
     1
102
RTVSPropertyOp60
 70
     1
102
RTVSPropertyOp61
 70
     1
102
RTVSPropertyOp62
 70
     1
  0
XRECORD
  5
160C
102
{ACAD_REACTORS
330
160B
102
}
330
160B
100
AcDbXrecord
280
     1
102
RTVSPost2010Prop28
280
     0
102
RTVSPost2010PropOp28
 70
     1
102
RTVSPost2010Prop29
280
     1
102
RTVSPost2010PropOp29
 70
     1
102
RTVSPost2010Prop30
280
     1
102
RTVSPost2010PropOp30
 70
     1
102
RTVSPost2010Prop31
280
     0
102
RTVSPost2010PropOp31
 70
     1
102
RTVSPost2010Prop32
280
     0
102
RTVSPost2010PropOp32
 70
     1
102
RTVSPost2010Prop33
280
     0
102
RTVSPost2010PropOp33
 70
     1
102
RTVSPost2010Prop34
280
     0
102
RTVSPost2010PropOp34
 70
     1
102
RTVSPost2010Prop35
280
     0
102
RTVSPost2010PropOp35
 70
     1
102
RTVSPost2010Prop36
280
     0
102
RTVSPost2010PropOp36
 70
     1
102
RTVSPost2010Prop37
 90
       50
102
RTVSPost2010PropOp37
 70
     1
102
RTVSPost2010Prop38
140
0.0
102
RTVSPost2010PropOp38
 70
     1
102
RTVSPost2010Prop39
140
1.0
102
RTVSPost2010PropOp39
 70
     1
102
RTVSPost2010Prop40
 90
        0
102
RTVSPost2010PropOp40
 70
     1
102
RTVSPost2010Prop41ColorIndex
 90
       18
102
RTVSPost2010Prop41ColorRGB
 90
        0
102
RTVSPost2010PropOp41
 70
     1
102
RTVSPost2010Prop42
 90
       50
102
RTVSPost2010PropOp42
 70
     1
102
RTVSPost2010Prop43
 90
        3
102
RTVSPost2010PropOp43
 70
     1
102
RTVSPost2010Prop44ColorIndex
 90
        5
102
RTVSPost2010Prop44ColorRGB
 90
      255
102
RTVSPost2010PropOp44
 70
     1
102
RTVSPost2010Prop45
280
     0
102
RTVSPost2010PropOp45
 70
     1
102
RTVSPost2010Prop46
 90
       50
102
RTVSPost2010PropOp46
 70
     1
102
RTVSPost2010Prop47
 90
       50
102
RTVSPost2010PropOp47
 70
     1
102
RTVSPost2010Prop48
 90
       50
102
RTVSPost2010PropOp48
 70
     1
102
RTVSPost2010Prop49
280
     0
102
RTVSPost2010PropOp49
 70
     1
102
RTVSPost2010Prop50
 90
       50
102
RTVSPost2010PropOp50
 70
     1
102
RTVSPost2010Prop51ColorIndex
 90
      256
102
RTVSPost2010Prop51ColorRGB
 90
-16777216
102
RTVSPost2010PropOp51
 70
     0
102
RTVSPost2010Prop52
140
1.0
102
RTVSPost2010PropOp52
 70
     0
102
RTVSPost2010Prop53
 90
        2
102
RTVSPost2010PropOp53
 70
     1
102
RTVSPost2010Prop54
  1
strokes_ogs.tif
102
RTVSPost2010PropOp54
 70
     1
102
RTVSPost2010Prop55
280
     0
102
RTVSPost2010PropOp55
 70
     1
102
RTVSPost2010Prop56
140
1.0
102
RTVSPost2010PropOp56
 70
     1
102
RTVSPost2010Prop57
140
1.0
102
RTVSPost2010PropOp57
 70
     1
102
RTVSPropertyOp0
 70
     1
102
RTVSPropertyOp1
 70
     1
102
RTVSPropertyOp2
 70
     1
102
RTVSPropertyOp3
 70
     1
102
RTVSPropertyOp4
 70
     1
102
RTVSPropertyOp5
 70
     1
102
RTVSPropertyOp6
 70
     1
102
RTVSPropertyOp7
 70
     1
102
RTVSPropertyOp8
 70
     1
102
RTVSPropertyOp9
 70
     1
102
RTVSPropertyOp10
 70
     1
102
RTVSPropertyOp11
 70
     1
102
RTVSPropertyOp12
 70
     1
102
RTVSPropertyOp13
 70
     1
102
RTVSPropertyOp14
 70
     1
102
RTVSPropertyOp15
 70
     1
102
RTVSPropertyOp16
 70
     1
102
RTVSPropertyOp17
 70
     1
102
RTVSPropertyOp18
 70
     1
102
RTVSPropertyOp19
 70
     1
102
RTVSPropertyOp20
 70
     1
102
RTVSPropertyOp21
 70
     1
102
RTVSPropertyOp22
 70
     1
102
RTVSPropertyOp23
 70
     1
102
RTVSPropertyOp24
 70
     1
102
RTVSPropertyOp25
 70
     1
102
RTVSPropertyOp26
 70
     1
102
RTVSPropertyOp27
 70
     1
102
RTVSPropertyOp28
 70
     1
102
RTVSPropertyOp29
 70
     1
102
RTVSPropertyOp30
 70
     1
102
RTVSPropertyOp31
 70
     1
102
RTVSPropertyOp32
 70
     1
102
RTVSPropertyOp33
 70
     1
102
RTVSPropertyOp34
 70
     1
102
RTVSPropertyOp35
 70
     1
102
RTVSPropertyOp36
 70
     1
102
RTVSPropertyOp37
 70
     1
102
RTVSPropertyOp38
 70
     1
102
RTVSPropertyOp39
 70
     1
102
RTVSPropertyOp40
 70
     1
102
RTVSPropertyOp41
 70
     1
102
RTVSPropertyOp42
 70
     1
102
RTVSPropertyOp43
 70
     1
102
RTVSPropertyOp44
 70
     1
102
RTVSPropertyOp45
 70
     1
102
RTVSPropertyOp46
 70
     1
102
RTVSPropertyOp47
 70
     1
102
RTVSPropertyOp48
 70
     1
102
RTVSPropertyOp49
 70
     1
102
RTVSPropertyOp50
 70
     1
102
RTVSPropertyOp51
 70
     0
102
RTVSPropertyOp52
 70
     0
102
RTVSPropertyOp53
 70
     1
102
RTVSPropertyOp54
 70
     1
102
RTVSPropertyOp55
 70
     1
102
RTVSPropertyOp56
 70
     1
102
RTVSPropertyOp57
 70
     1
102
RTVSPropertyOp58
 70
     1
102
RTVSPropertyOp59
 70
     1
102
RTVSPropertyOp60
 70
     1
102
RTVSPropertyOp61
 70
     1
102
RTVSPropertyOp62
 70
     1
  0
XRECORD
  5
160A
102
{ACAD_REACTORS
330
1609
102
}
330
1609
100
AcDbXrecord
280
     1
102
RTVSPost2010Prop28
280
     0
102
RTVSPost2010PropOp28
 70
     1
102
RTVSPost2010Prop29
280
     1
102
RTVSPost2010PropOp29
 70
     1
102
RTVSPost2010Prop30
280
     1
102
RTVSPost2010PropOp30
 70
     1
102
RTVSPost2010Prop31
280
     0
102
RTVSPost2010PropOp31
 70
     1
102
RTVSPost2010Prop32
280
     0
102
RTVSPost2010PropOp32
 70
     1
102
RTVSPost2010Prop33
280
     0
102
RTVSPost2010PropOp33
 70
     1
102
RTVSPost2010Prop34
280
     0
102
RTVSPost2010PropOp34
 70
     1
102
RTVSPost2010Prop35
280
     0
102
RTVSPost2010PropOp35
 70
     1
102
RTVSPost2010Prop36
280
     0
102
RTVSPost2010PropOp36
 70
     1
102
RTVSPost2010Prop37
 90
       50
102
RTVSPost2010PropOp37
 70
     1
102
RTVSPost2010Prop38
140
0.0
102
RTVSPost2010PropOp38
 70
     1
102
RTVSPost2010Prop39
140
1.0
102
RTVSPost2010PropOp39
 70
     1
102
RTVSPost2010Prop40
 90
        0
102
RTVSPost2010PropOp40
 70
     1
102
RTVSPost2010Prop41ColorIndex
 90
       18
102
RTVSPost2010Prop41ColorRGB
 90
        0
102
RTVSPost2010PropOp41
 70
     1
102
RTVSPost2010Prop42
 90
       50
102
RTVSPost2010PropOp42
 70
     1
102
RTVSPost2010Prop43
 90
        3
102
RTVSPost2010PropOp43
 70
     1
102
RTVSPost2010Prop44ColorIndex
 90
        5
102
RTVSPost2010Prop44ColorRGB
 90
      255
102
RTVSPost2010PropOp44
 70
     1
102
RTVSPost2010Prop45
280
     0
102
RTVSPost2010PropOp45
 70
     1
102
RTVSPost2010Prop46
 90
       50
102
RTVSPost2010PropOp46
 70
     1
102
RTVSPost2010Prop47
 90
       50
102
RTVSPost2010PropOp47
 70
     1
102
RTVSPost2010Prop48
 90
       50
102
RTVSPost2010PropOp48
 70
     1
102
RTVSPost2010Prop49
280
     0
102
RTVSPost2010PropOp49
 70
     1
102
RTVSPost2010Prop50
 90
       50
102
RTVSPost2010PropOp50
 70
     1
102
RTVSPost2010Prop51ColorIndex
 90
      256
102
RTVSPost2010Prop51ColorRGB
 90
-16777216
102
RTVSPost2010PropOp51
 70
     0
102
RTVSPost2010Prop52
140
1.0
102
RTVSPost2010PropOp52
 70
     0
102
RTVSPost2010Prop53
 90
        2
102
RTVSPost2010PropOp53
 70
     1
102
RTVSPost2010Prop54
  1
strokes_ogs.tif
102
RTVSPost2010PropOp54
 70
     1
102
RTVSPost2010Prop55
280
     0
102
RTVSPost2010PropOp55
 70
     1
102
RTVSPost2010Prop56
140
1.0
102
RTVSPost2010PropOp56
 70
     1
102
RTVSPost2010Prop57
140
1.0
102
RTVSPost2010PropOp57
 70
     1
102
RTVSPropertyOp0
 70
     1
102
RTVSPropertyOp1
 70
     1
102
RTVSPropertyOp2
 70
     1
102
RTVSPropertyOp3
 70
     1
102
RTVSPropertyOp4
 70
     1
102
RTVSPropertyOp5
 70
     1
102
RTVSPropertyOp6
 70
     1
102
RTVSPropertyOp7
 70
     1
102
RTVSPropertyOp8
 70
     1
102
RTVSPropertyOp9
 70
     1
102
RTVSPropertyOp10
 70
     1
102
RTVSPropertyOp11
 70
     1
102
RTVSPropertyOp12
 70
     1
102
RTVSPropertyOp13
 70
     1
102
RTVSPropertyOp14
 70
     1
102
RTVSPropertyOp15
 70
     1
102
RTVSPropertyOp16
 70
     1
102
RTVSPropertyOp17
 70
     1
102
RTVSPropertyOp18
 70
     1
102
RTVSPropertyOp19
 70
     1
102
RTVSPropertyOp20
 70
     1
102
RTVSPropertyOp21
 70
     1
102
RTVSPropertyOp22
 70
     1
102
RTVSPropertyOp23
 70
     1
102
RTVSPropertyOp24
 70
     1
102
RTVSPropertyOp25
 70
     1
102
RTVSPropertyOp26
 70
     1
102
RTVSPropertyOp27
 70
     1
102
RTVSPropertyOp28
 70
     1
102
RTVSPropertyOp29
 70
     1
102
RTVSPropertyOp30
 70
     1
102
RTVSPropertyOp31
 70
     1
102
RTVSPropertyOp32
 70
     1
102
RTVSPropertyOp33
 70
     1
102
RTVSPropertyOp34
 70
     1
102
RTVSPropertyOp35
 70
     1
102
RTVSPropertyOp36
 70
     1
102
RTVSPropertyOp37
 70
     1
102
RTVSPropertyOp38
 70
     1
102
RTVSPropertyOp39
 70
     1
102
RTVSPropertyOp40
 70
     1
102
RTVSPropertyOp41
 70
     1
102
RTVSPropertyOp42
 70
     1
102
RTVSPropertyOp43
 70
     1
102
RTVSPropertyOp44
 70
     1
102
RTVSPropertyOp45
 70
     1
102
RTVSPropertyOp46
 70
     1
102
RTVSPropertyOp47
 70
     1
102
RTVSPropertyOp48
 70
     1
102
RTVSPropertyOp49
 70
     1
102
RTVSPropertyOp50
 70
     1
102
RTVSPropertyOp51
 70
     0
102
RTVSPropertyOp52
 70
     0
102
RTVSPropertyOp53
 70
     1
102
RTVSPropertyOp54
 70
     1
102
RTVSPropertyOp55
 70
     1
102
RTVSPropertyOp56
 70
     1
102
RTVSPropertyOp57
 70
     1
102
RTVSPropertyOp58
 70
     1
102
RTVSPropertyOp59
 70
     1
102
RTVSPropertyOp60
 70
     1
102
RTVSPropertyOp61
 70
     1
102
RTVSPropertyOp62
 70
     1
  0
XRECORD
  5
1604
102
{ACAD_REACTORS
330
1603
102
}
330
1603
100
AcDbXrecord
280
     1
102
RTVSPost2010Prop28
280
     0
102
RTVSPost2010PropOp28
 70
     1
102
RTVSPost2010Prop29
280
     1
102
RTVSPost2010PropOp29
 70
     1
102
RTVSPost2010Prop30
280
     1
102
RTVSPost2010PropOp30
 70
     1
102
RTVSPost2010Prop31
280
     0
102
RTVSPost2010PropOp31
 70
     1
102
RTVSPost2010Prop32
280
     0
102
RTVSPost2010PropOp32
 70
     1
102
RTVSPost2010Prop33
280
     0
102
RTVSPost2010PropOp33
 70
     1
102
RTVSPost2010Prop34
280
     0
102
RTVSPost2010PropOp34
 70
     1
102
RTVSPost2010Prop35
280
     0
102
RTVSPost2010PropOp35
 70
     1
102
RTVSPost2010Prop36
280
     0
102
RTVSPost2010PropOp36
 70
     1
102
RTVSPost2010Prop37
 90
       50
102
RTVSPost2010PropOp37
 70
     1
102
RTVSPost2010Prop38
140
0.0
102
RTVSPost2010PropOp38
 70
     1
102
RTVSPost2010Prop39
140
1.0
102
RTVSPost2010PropOp39
 70
     1
102
RTVSPost2010Prop40
 90
        0
102
RTVSPost2010PropOp40
 70
     1
102
RTVSPost2010Prop41ColorIndex
 90
       18
102
RTVSPost2010Prop41ColorRGB
 90
        0
102
RTVSPost2010PropOp41
 70
     1
102
RTVSPost2010Prop42
 90
       50
102
RTVSPost2010PropOp42
 70
     1
102
RTVSPost2010Prop43
 90
        3
102
RTVSPost2010PropOp43
 70
     1
102
RTVSPost2010Prop44ColorIndex
 90
        5
102
RTVSPost2010Prop44ColorRGB
 90
      255
102
RTVSPost2010PropOp44
 70
     1
102
RTVSPost2010Prop45
280
     0
102
RTVSPost2010PropOp45
 70
     1
102
RTVSPost2010Prop46
 90
       50
102
RTVSPost2010PropOp46
 70
     1
102
RTVSPost2010Prop47
 90
       50
102
RTVSPost2010PropOp47
 70
     1
102
RTVSPost2010Prop48
 90
       50
102
RTVSPost2010PropOp48
 70
     1
102
RTVSPost2010Prop49
280
     0
102
RTVSPost2010PropOp49
 70
     1
102
RTVSPost2010Prop50
 90
       50
102
RTVSPost2010PropOp50
 70
     1
102
RTVSPost2010Prop51ColorIndex
 90
      256
102
RTVSPost2010Prop51ColorRGB
 90
-16777216
102
RTVSPost2010PropOp51
 70
     0
102
RTVSPost2010Prop52
140
1.0
102
RTVSPost2010PropOp52
 70
     0
102
RTVSPost2010Prop53
 90
        2
102
RTVSPost2010PropOp53
 70
     1
102
RTVSPost2010Prop54
  1
strokes_ogs.tif
102
RTVSPost2010PropOp54
 70
     1
102
RTVSPost2010Prop55
280
     0
102
RTVSPost2010PropOp55
 70
     1
102
RTVSPost2010Prop56
140
1.0
102
RTVSPost2010PropOp56
 70
     1
102
RTVSPost2010Prop57
140
1.0
102
RTVSPost2010PropOp57
 70
     1
102
RTVSPropertyOp0
 70
     1
102
RTVSPropertyOp1
 70
     1
102
RTVSPropertyOp2
 70
     1
102
RTVSPropertyOp3
 70
     1
102
RTVSPropertyOp4
 70
     1
102
RTVSPropertyOp5
 70
     1
102
RTVSPropertyOp6
 70
     1
102
RTVSPropertyOp7
 70
     1
102
RTVSPropertyOp8
 70
     1
102
RTVSPropertyOp9
 70
     1
102
RTVSPropertyOp10
 70
     1
102
RTVSPropertyOp11
 70
     1
102
RTVSPropertyOp12
 70
     1
102
RTVSPropertyOp13
 70
     1
102
RTVSPropertyOp14
 70
     1
102
RTVSPropertyOp15
 70
     1
102
RTVSPropertyOp16
 70
     1
102
RTVSPropertyOp17
 70
     1
102
RTVSPropertyOp18
 70
     1
102
RTVSPropertyOp19
 70
     1
102
RTVSPropertyOp20
 70
     1
102
RTVSPropertyOp21
 70
     1
102
RTVSPropertyOp22
 70
     1
102
RTVSPropertyOp23
 70
     1
102
RTVSPropertyOp24
 70
     1
102
RTVSPropertyOp25
 70
     1
102
RTVSPropertyOp26
 70
     1
102
RTVSPropertyOp27
 70
     1
102
RTVSPropertyOp28
 70
     1
102
RTVSPropertyOp29
 70
     1
102
RTVSPropertyOp30
 70
     1
102
RTVSPropertyOp31
 70
     1
102
RTVSPropertyOp32
 70
     1
102
RTVSPropertyOp33
 70
     1
102
RTVSPropertyOp34
 70
     1
102
RTVSPropertyOp35
 70
     1
102
RTVSPropertyOp36
 70
     1
102
RTVSPropertyOp37
 70
     1
102
RTVSPropertyOp38
 70
     1
102
RTVSPropertyOp39
 70
     1
102
RTVSPropertyOp40
 70
     1
102
RTVSPropertyOp41
 70
     1
102
RTVSPropertyOp42
 70
     1
102
RTVSPropertyOp43
 70
     1
102
RTVSPropertyOp44
 70
     1
102
RTVSPropertyOp45
 70
     1
102
RTVSPropertyOp46
 70
     1
102
RTVSPropertyOp47
 70
     1
102
RTVSPropertyOp48
 70
     1
102
RTVSPropertyOp49
 70
     1
102
RTVSPropertyOp50
 70
     1
102
RTVSPropertyOp51
 70
     0
102
RTVSPropertyOp52
 70
     0
102
RTVSPropertyOp53
 70
     1
102
RTVSPropertyOp54
 70
     1
102
RTVSPropertyOp55
 70
     1
102
RTVSPropertyOp56
 70
     1
102
RTVSPropertyOp57
 70
     1
102
RTVSPropertyOp58
 70
     1
102
RTVSPropertyOp59
 70
     1
102
RTVSPropertyOp60
 70
     1
102
RTVSPropertyOp61
 70
     1
102
RTVSPropertyOp62
 70
     1
  0
XRECORD
  5
1606
102
{ACAD_REACTORS
330
1605
102
}
330
1605
100
AcDbXrecord
280
     1
102
RTVSPost2010Prop28
280
     0
102
RTVSPost2010PropOp28
 70
     1
102
RTVSPost2010Prop29
280
     1
102
RTVSPost2010PropOp29
 70
     1
102
RTVSPost2010Prop30
280
     1
102
RTVSPost2010PropOp30
 70
     1
102
RTVSPost2010Prop31
280
     0
102
RTVSPost2010PropOp31
 70
     1
102
RTVSPost2010Prop32
280
     0
102
RTVSPost2010PropOp32
 70
     1
102
RTVSPost2010Prop33
280
     0
102
RTVSPost2010PropOp33
 70
     1
102
RTVSPost2010Prop34
280
     0
102
RTVSPost2010PropOp34
 70
     1
102
RTVSPost2010Prop35
280
     0
102
RTVSPost2010PropOp35
 70
     1
102
RTVSPost2010Prop36
280
     0
102
RTVSPost2010PropOp36
 70
     1
102
RTVSPost2010Prop37
 90
       50
102
RTVSPost2010PropOp37
 70
     1
102
RTVSPost2010Prop38
140
0.0
102
RTVSPost2010PropOp38
 70
     1
102
RTVSPost2010Prop39
140
1.0
102
RTVSPost2010PropOp39
 70
     1
102
RTVSPost2010Prop40
 90
        0
102
RTVSPost2010PropOp40
 70
     1
102
RTVSPost2010Prop41ColorIndex
 90
       18
102
RTVSPost2010Prop41ColorRGB
 90
        0
102
RTVSPost2010PropOp41
 70
     1
102
RTVSPost2010Prop42
 90
       50
102
RTVSPost2010PropOp42
 70
     1
102
RTVSPost2010Prop43
 90
        3
102
RTVSPost2010PropOp43
 70
     1
102
RTVSPost2010Prop44ColorIndex
 90
        5
102
RTVSPost2010Prop44ColorRGB
 90
      255
102
RTVSPost2010PropOp44
 70
     1
102
RTVSPost2010Prop45
280
     0
102
RTVSPost2010PropOp45
 70
     1
102
RTVSPost2010Prop46
 90
       50
102
RTVSPost2010PropOp46
 70
     1
102
RTVSPost2010Prop47
 90
       50
102
RTVSPost2010PropOp47
 70
     1
102
RTVSPost2010Prop48
 90
       50
102
RTVSPost2010PropOp48
 70
     1
102
RTVSPost2010Prop49
280
     0
102
RTVSPost2010PropOp49
 70
     1
102
RTVSPost2010Prop50
 90
       50
102
RTVSPost2010PropOp50
 70
     1
102
RTVSPost2010Prop51ColorIndex
 90
      256
102
RTVSPost2010Prop51ColorRGB
 90
-16777216
102
RTVSPost2010PropOp51
 70
     0
102
RTVSPost2010Prop52
140
1.0
102
RTVSPost2010PropOp52
 70
     0
102
RTVSPost2010Prop53
 90
        2
102
RTVSPost2010PropOp53
 70
     1
102
RTVSPost2010Prop54
  1
strokes_ogs.tif
102
RTVSPost2010PropOp54
 70
     1
102
RTVSPost2010Prop55
280
     0
102
RTVSPost2010PropOp55
 70
     1
102
RTVSPost2010Prop56
140
1.0
102
RTVSPost2010PropOp56
 70
     1
102
RTVSPost2010Prop57
140
1.0
102
RTVSPost2010PropOp57
 70
     1
102
RTVSPropertyOp0
 70
     1
102
RTVSPropertyOp1
 70
     1
102
RTVSPropertyOp2
 70
     1
102
RTVSPropertyOp3
 70
     1
102
RTVSPropertyOp4
 70
     1
102
RTVSPropertyOp5
 70
     1
102
RTVSPropertyOp6
 70
     1
102
RTVSPropertyOp7
 70
     1
102
RTVSPropertyOp8
 70
     1
102
RTVSPropertyOp9
 70
     1
102
RTVSPropertyOp10
 70
     1
102
RTVSPropertyOp11
 70
     1
102
RTVSPropertyOp12
 70
     1
102
RTVSPropertyOp13
 70
     1
102
RTVSPropertyOp14
 70
     1
102
RTVSPropertyOp15
 70
     1
102
RTVSPropertyOp16
 70
     1
102
RTVSPropertyOp17
 70
     1
102
RTVSPropertyOp18
 70
     1
102
RTVSPropertyOp19
 70
     1
102
RTVSPropertyOp20
 70
     1
102
RTVSPropertyOp21
 70
     1
102
RTVSPropertyOp22
 70
     1
102
RTVSPropertyOp23
 70
     1
102
RTVSPropertyOp24
 70
     1
102
RTVSPropertyOp25
 70
     1
102
RTVSPropertyOp26
 70
     1
102
RTVSPropertyOp27
 70
     1
102
RTVSPropertyOp28
 70
     1
102
RTVSPropertyOp29
 70
     1
102
RTVSPropertyOp30
 70
     1
102
RTVSPropertyOp31
 70
     1
102
RTVSPropertyOp32
 70
     1
102
RTVSPropertyOp33
 70
     1
102
RTVSPropertyOp34
 70
     1
102
RTVSPropertyOp35
 70
     1
102
RTVSPropertyOp36
 70
     1
102
RTVSPropertyOp37
 70
     1
102
RTVSPropertyOp38
 70
     1
102
RTVSPropertyOp39
 70
     1
102
RTVSPropertyOp40
 70
     1
102
RTVSPropertyOp41
 70
     1
102
RTVSPropertyOp42
 70
     1
102
RTVSPropertyOp43
 70
     1
102
RTVSPropertyOp44
 70
     1
102
RTVSPropertyOp45
 70
     1
102
RTVSPropertyOp46
 70
     1
102
RTVSPropertyOp47
 70
     1
102
RTVSPropertyOp48
 70
     1
102
RTVSPropertyOp49
 70
     1
102
RTVSPropertyOp50
 70
     1
102
RTVSPropertyOp51
 70
     0
102
RTVSPropertyOp52
 70
     0
102
RTVSPropertyOp53
 70
     1
102
RTVSPropertyOp54
 70
     1
102
RTVSPropertyOp55
 70
     1
102
RTVSPropertyOp56
 70
     1
102
RTVSPropertyOp57
 70
     1
102
RTVSPropertyOp58
 70
     1
102
RTVSPropertyOp59
 70
     1
102
RTVSPropertyOp60
 70
     1
102
RTVSPropertyOp61
 70
     1
102
RTVSPropertyOp62
 70
     1
  0
XRECORD
  5
15FC
102
{ACAD_REACTORS
330
15FB
102
}
330
15FB
100
AcDbXrecord
280
     1
102
RTVSPost2010Prop28
280
     0
102
RTVSPost2010PropOp28
 70
     1
102
RTVSPost2010Prop29
280
     1
102
RTVSPost2010PropOp29
 70
     1
102
RTVSPost2010Prop30
280
     1
102
RTVSPost2010PropOp30
 70
     1
102
RTVSPost2010Prop31
280
     0
102
RTVSPost2010PropOp31
 70
     1
102
RTVSPost2010Prop32
280
     0
102
RTVSPost2010PropOp32
 70
     1
102
RTVSPost2010Prop33
280
     0
102
RTVSPost2010PropOp33
 70
     1
102
RTVSPost2010Prop34
280
     0
102
RTVSPost2010PropOp34
 70
     1
102
RTVSPost2010Prop35
280
     0
102
RTVSPost2010PropOp35
 70
     1
102
RTVSPost2010Prop36
280
     0
102
RTVSPost2010PropOp36
 70
     1
102
RTVSPost2010Prop37
 90
       50
102
RTVSPost2010PropOp37
 70
     1
102
RTVSPost2010Prop38
140
0.0
102
RTVSPost2010PropOp38
 70
     1
102
RTVSPost2010Prop39
140
1.0
102
RTVSPost2010PropOp39
 70
     1
102
RTVSPost2010Prop40
 90
        0
102
RTVSPost2010PropOp40
 70
     1
102
RTVSPost2010Prop41ColorIndex
 90
       18
102
RTVSPost2010Prop41ColorRGB
 90
        0
102
RTVSPost2010PropOp41
 70
     1
102
RTVSPost2010Prop42
 90
       50
102
RTVSPost2010PropOp42
 70
     1
102
RTVSPost2010Prop43
 90
        3
102
RTVSPost2010PropOp43
 70
     1
102
RTVSPost2010Prop44ColorIndex
 90
        5
102
RTVSPost2010Prop44ColorRGB
 90
      255
102
RTVSPost2010PropOp44
 70
     1
102
RTVSPost2010Prop45
280
     0
102
RTVSPost2010PropOp45
 70
     1
102
RTVSPost2010Prop46
 90
       50
102
RTVSPost2010PropOp46
 70
     1
102
RTVSPost2010Prop47
 90
       50
102
RTVSPost2010PropOp47
 70
     1
102
RTVSPost2010Prop48
 90
       50
102
RTVSPost2010PropOp48
 70
     1
102
RTVSPost2010Prop49
280
     0
102
RTVSPost2010PropOp49
 70
     1
102
RTVSPost2010Prop50
 90
       50
102
RTVSPost2010PropOp50
 70
     1
102
RTVSPost2010Prop51ColorIndex
 90
      256
102
RTVSPost2010Prop51ColorRGB
 90
-16777216
102
RTVSPost2010PropOp51
 70
     0
102
RTVSPost2010Prop52
140
1.0
102
RTVSPost2010PropOp52
 70
     0
102
RTVSPost2010Prop53
 90
        2
102
RTVSPost2010PropOp53
 70
     1
102
RTVSPost2010Prop54
  1
strokes_ogs.tif
102
RTVSPost2010PropOp54
 70
     1
102
RTVSPost2010Prop55
280
     0
102
RTVSPost2010PropOp55
 70
     1
102
RTVSPost2010Prop56
140
1.0
102
RTVSPost2010PropOp56
 70
     1
102
RTVSPost2010Prop57
140
1.0
102
RTVSPost2010PropOp57
 70
     1
102
RTVSPropertyOp0
 70
     1
102
RTVSPropertyOp1
 70
     1
102
RTVSPropertyOp2
 70
     1
102
RTVSPropertyOp3
 70
     1
102
RTVSPropertyOp4
 70
     1
102
RTVSPropertyOp5
 70
     1
102
RTVSPropertyOp6
 70
     1
102
RTVSPropertyOp7
 70
     1
102
RTVSPropertyOp8
 70
     1
102
RTVSPropertyOp9
 70
     1
102
RTVSPropertyOp10
 70
     1
102
RTVSPropertyOp11
 70
     1
102
RTVSPropertyOp12
 70
     1
102
RTVSPropertyOp13
 70
     1
102
RTVSPropertyOp14
 70
     1
102
RTVSPropertyOp15
 70
     1
102
RTVSPropertyOp16
 70
     1
102
RTVSPropertyOp17
 70
     1
102
RTVSPropertyOp18
 70
     1
102
RTVSPropertyOp19
 70
     1
102
RTVSPropertyOp20
 70
     1
102
RTVSPropertyOp21
 70
     1
102
RTVSPropertyOp22
 70
     1
102
RTVSPropertyOp23
 70
     1
102
RTVSPropertyOp24
 70
     1
102
RTVSPropertyOp25
 70
     1
102
RTVSPropertyOp26
 70
     1
102
RTVSPropertyOp27
 70
     1
102
RTVSPropertyOp28
 70
     1
102
RTVSPropertyOp29
 70
     1
102
RTVSPropertyOp30
 70
     1
102
RTVSPropertyOp31
 70
     1
102
RTVSPropertyOp32
 70
     1
102
RTVSPropertyOp33
 70
     1
102
RTVSPropertyOp34
 70
     1
102
RTVSPropertyOp35
 70
     1
102
RTVSPropertyOp36
 70
     1
102
RTVSPropertyOp37
 70
     1
102
RTVSPropertyOp38
 70
     1
102
RTVSPropertyOp39
 70
     1
102
RTVSPropertyOp40
 70
     1
102
RTVSPropertyOp41
 70
     1
102
RTVSPropertyOp42
 70
     1
102
RTVSPropertyOp43
 70
     1
102
RTVSPropertyOp44
 70
     1
102
RTVSPropertyOp45
 70
     1
102
RTVSPropertyOp46
 70
     1
102
RTVSPropertyOp47
 70
     1
102
RTVSPropertyOp48
 70
     1
102
RTVSPropertyOp49
 70
     1
102
RTVSPropertyOp50
 70
     1
102
RTVSPropertyOp51
 70
     0
102
RTVSPropertyOp52
 70
     0
102
RTVSPropertyOp53
 70
     1
102
RTVSPropertyOp54
 70
     1
102
RTVSPropertyOp55
 70
     1
102
RTVSPropertyOp56
 70
     1
102
RTVSPropertyOp57
 70
     1
102
RTVSPropertyOp58
 70
     1
102
RTVSPropertyOp59
 70
     1
102
RTVSPropertyOp60
 70
     1
102
RTVSPropertyOp61
 70
     1
102
RTVSPropertyOp62
 70
     1
  0
XRECORD
  5
15F0
102
{ACAD_REACTORS
330
15EF
102
}
330
15EF
100
AcDbXrecord
280
     1
102
RTVSPost2010Prop28
280
     0
102
RTVSPost2010PropOp28
 70
     1
102
RTVSPost2010Prop29
280
     1
102
RTVSPost2010PropOp29
 70
     1
102
RTVSPost2010Prop30
280
     1
102
RTVSPost2010PropOp30
 70
     1
102
RTVSPost2010Prop31
280
     0
102
RTVSPost2010PropOp31
 70
     1
102
RTVSPost2010Prop32
280
     0
102
RTVSPost2010PropOp32
 70
     1
102
RTVSPost2010Prop33
280
     0
102
RTVSPost2010PropOp33
 70
     1
102
RTVSPost2010Prop34
280
     0
102
RTVSPost2010PropOp34
 70
     1
102
RTVSPost2010Prop35
280
     0
102
RTVSPost2010PropOp35
 70
     1
102
RTVSPost2010Prop36
280
     0
102
RTVSPost2010PropOp36
 70
     1
102
RTVSPost2010Prop37
 90
       50
102
RTVSPost2010PropOp37
 70
     1
102
RTVSPost2010Prop38
140
0.0
102
RTVSPost2010PropOp38
 70
     1
102
RTVSPost2010Prop39
140
1.0
102
RTVSPost2010PropOp39
 70
     1
102
RTVSPost2010Prop40
 90
        0
102
RTVSPost2010PropOp40
 70
     1
102
RTVSPost2010Prop41ColorIndex
 90
       18
102
RTVSPost2010Prop41ColorRGB
 90
        0
102
RTVSPost2010PropOp41
 70
     1
102
RTVSPost2010Prop42
 90
       50
102
RTVSPost2010PropOp42
 70
     1
102
RTVSPost2010Prop43
 90
        3
102
RTVSPost2010PropOp43
 70
     1
102
RTVSPost2010Prop44ColorIndex
 90
        5
102
RTVSPost2010Prop44ColorRGB
 90
      255
102
RTVSPost2010PropOp44
 70
     1
102
RTVSPost2010Prop45
280
     0
102
RTVSPost2010PropOp45
 70
     1
102
RTVSPost2010Prop46
 90
       50
102
RTVSPost2010PropOp46
 70
     1
102
RTVSPost2010Prop47
 90
       50
102
RTVSPost2010PropOp47
 70
     1
102
RTVSPost2010Prop48
 90
       50
102
RTVSPost2010PropOp48
 70
     1
102
RTVSPost2010Prop49
280
     0
102
RTVSPost2010PropOp49
 70
     1
102
RTVSPost2010Prop50
 90
       50
102
RTVSPost2010PropOp50
 70
     1
102
RTVSPost2010Prop51ColorIndex
 90
      256
102
RTVSPost2010Prop51ColorRGB
 90
-16777216
102
RTVSPost2010PropOp51
 70
     0
102
RTVSPost2010Prop52
140
1.0
102
RTVSPost2010PropOp52
 70
     0
102
RTVSPost2010Prop53
 90
        2
102
RTVSPost2010PropOp53
 70
     1
102
RTVSPost2010Prop54
  1
strokes_ogs.tif
102
RTVSPost2010PropOp54
 70
     1
102
RTVSPost2010Prop55
280
     0
102
RTVSPost2010PropOp55
 70
     1
102
RTVSPost2010Prop56
140
1.0
102
RTVSPost2010PropOp56
 70
     1
102
RTVSPost2010Prop57
140
1.0
102
RTVSPost2010PropOp57
 70
     1
102
RTVSPropertyOp0
 70
     1
102
RTVSPropertyOp1
 70
     1
102
RTVSPropertyOp2
 70
     1
102
RTVSPropertyOp3
 70
     1
102
RTVSPropertyOp4
 70
     1
102
RTVSPropertyOp5
 70
     1
102
RTVSPropertyOp6
 70
     1
102
RTVSPropertyOp7
 70
     1
102
RTVSPropertyOp8
 70
     1
102
RTVSPropertyOp9
 70
     1
102
RTVSPropertyOp10
 70
     1
102
RTVSPropertyOp11
 70
     1
102
RTVSPropertyOp12
 70
     1
102
RTVSPropertyOp13
 70
     1
102
RTVSPropertyOp14
 70
     1
102
RTVSPropertyOp15
 70
     1
102
RTVSPropertyOp16
 70
     1
102
RTVSPropertyOp17
 70
     1
102
RTVSPropertyOp18
 70
     1
102
RTVSPropertyOp19
 70
     1
102
RTVSPropertyOp20
 70
     1
102
RTVSPropertyOp21
 70
     1
102
RTVSPropertyOp22
 70
     1
102
RTVSPropertyOp23
 70
     1
102
RTVSPropertyOp24
 70
     1
102
RTVSPropertyOp25
 70
     1
102
RTVSPropertyOp26
 70
     1
102
RTVSPropertyOp27
 70
     1
102
RTVSPropertyOp28
 70
     1
102
RTVSPropertyOp29
 70
     1
102
RTVSPropertyOp30
 70
     1
102
RTVSPropertyOp31
 70
     1
102
RTVSPropertyOp32
 70
     1
102
RTVSPropertyOp33
 70
     1
102
RTVSPropertyOp34
 70
     1
102
RTVSPropertyOp35
 70
     1
102
RTVSPropertyOp36
 70
     1
102
RTVSPropertyOp37
 70
     1
102
RTVSPropertyOp38
 70
     1
102
RTVSPropertyOp39
 70
     1
102
RTVSPropertyOp40
 70
     1
102
RTVSPropertyOp41
 70
     1
102
RTVSPropertyOp42
 70
     1
102
RTVSPropertyOp43
 70
     1
102
RTVSPropertyOp44
 70
     1
102
RTVSPropertyOp45
 70
     1
102
RTVSPropertyOp46
 70
     1
102
RTVSPropertyOp47
 70
     1
102
RTVSPropertyOp48
 70
     1
102
RTVSPropertyOp49
 70
     1
102
RTVSPropertyOp50
 70
     1
102
RTVSPropertyOp51
 70
     0
102
RTVSPropertyOp52
 70
     0
102
RTVSPropertyOp53
 70
     1
102
RTVSPropertyOp54
 70
     1
102
RTVSPropertyOp55
 70
     1
102
RTVSPropertyOp56
 70
     1
102
RTVSPropertyOp57
 70
     1
102
RTVSPropertyOp58
 70
     1
102
RTVSPropertyOp59
 70
     1
102
RTVSPropertyOp60
 70
     1
102
RTVSPropertyOp61
 70
     1
102
RTVSPropertyOp62
 70
     1
  0
XRECORD
  5
1608
102
{ACAD_REACTORS
330
1607
102
}
330
1607
100
AcDbXrecord
280
     1
102
RTVSPost2010Prop28
280
     0
102
RTVSPost2010PropOp28
 70
     1
102
RTVSPost2010Prop29
280
     1
102
RTVSPost2010PropOp29
 70
     1
102
RTVSPost2010Prop30
280
     1
102
RTVSPost2010PropOp30
 70
     1
102
RTVSPost2010Prop31
280
     0
102
RTVSPost2010PropOp31
 70
     1
102
RTVSPost2010Prop32
280
     0
102
RTVSPost2010PropOp32
 70
     1
102
RTVSPost2010Prop33
280
     0
102
RTVSPost2010PropOp33
 70
     1
102
RTVSPost2010Prop34
280
     0
102
RTVSPost2010PropOp34
 70
     1
102
RTVSPost2010Prop35
280
     0
102
RTVSPost2010PropOp35
 70
     1
102
RTVSPost2010Prop36
280
     0
102
RTVSPost2010PropOp36
 70
     1
102
RTVSPost2010Prop37
 90
       50
102
RTVSPost2010PropOp37
 70
     1
102
RTVSPost2010Prop38
140
0.0
102
RTVSPost2010PropOp38
 70
     1
102
RTVSPost2010Prop39
140
1.0
102
RTVSPost2010PropOp39
 70
     1
102
RTVSPost2010Prop40
 90
        0
102
RTVSPost2010PropOp40
 70
     1
102
RTVSPost2010Prop41ColorIndex
 90
       18
102
RTVSPost2010Prop41ColorRGB
 90
        0
102
RTVSPost2010PropOp41
 70
     1
102
RTVSPost2010Prop42
 90
       50
102
RTVSPost2010PropOp42
 70
     1
102
RTVSPost2010Prop43
 90
        3
102
RTVSPost2010PropOp43
 70
     1
102
RTVSPost2010Prop44ColorIndex
 90
        5
102
RTVSPost2010Prop44ColorRGB
 90
      255
102
RTVSPost2010PropOp44
 70
     1
102
RTVSPost2010Prop45
280
     0
102
RTVSPost2010PropOp45
 70
     1
102
RTVSPost2010Prop46
 90
       50
102
RTVSPost2010PropOp46
 70
     1
102
RTVSPost2010Prop47
 90
       50
102
RTVSPost2010PropOp47
 70
     1
102
RTVSPost2010Prop48
 90
       50
102
RTVSPost2010PropOp48
 70
     1
102
RTVSPost2010Prop49
280
     0
102
RTVSPost2010PropOp49
 70
     1
102
RTVSPost2010Prop50
 90
       50
102
RTVSPost2010PropOp50
 70
     1
102
RTVSPost2010Prop51ColorIndex
 90
      256
102
RTVSPost2010Prop51ColorRGB
 90
-16777216
102
RTVSPost2010PropOp51
 70
     0
102
RTVSPost2010Prop52
140
1.0
102
RTVSPost2010PropOp52
 70
     0
102
RTVSPost2010Prop53
 90
        2
102
RTVSPost2010PropOp53
 70
     1
102
RTVSPost2010Prop54
  1
strokes_ogs.tif
102
RTVSPost2010PropOp54
 70
     1
102
RTVSPost2010Prop55
280
     0
102
RTVSPost2010PropOp55
 70
     1
102
RTVSPost2010Prop56
140
1.0
102
RTVSPost2010PropOp56
 70
     1
102
RTVSPost2010Prop57
140
1.0
102
RTVSPost2010PropOp57
 70
     1
102
RTVSPropertyOp0
 70
     1
102
RTVSPropertyOp1
 70
     1
102
RTVSPropertyOp2
 70
     1
102
RTVSPropertyOp3
 70
     1
102
RTVSPropertyOp4
 70
     1
102
RTVSPropertyOp5
 70
     1
102
RTVSPropertyOp6
 70
     1
102
RTVSPropertyOp7
 70
     1
102
RTVSPropertyOp8
 70
     1
102
RTVSPropertyOp9
 70
     1
102
RTVSPropertyOp10
 70
     1
102
RTVSPropertyOp11
 70
     1
102
RTVSPropertyOp12
 70
     1
102
RTVSPropertyOp13
 70
     1
102
RTVSPropertyOp14
 70
     1
102
RTVSPropertyOp15
 70
     1
102
RTVSPropertyOp16
 70
     1
102
RTVSPropertyOp17
 70
     1
102
RTVSPropertyOp18
 70
     1
102
RTVSPropertyOp19
 70
     1
102
RTVSPropertyOp20
 70
     1
102
RTVSPropertyOp21
 70
     1
102
RTVSPropertyOp22
 70
     1
102
RTVSPropertyOp23
 70
     1
102
RTVSPropertyOp24
 70
     1
102
RTVSPropertyOp25
 70
     1
102
RTVSPropertyOp26
 70
     1
102
RTVSPropertyOp27
 70
     1
102
RTVSPropertyOp28
 70
     1
102
RTVSPropertyOp29
 70
     1
102
RTVSPropertyOp30
 70
     1
102
RTVSPropertyOp31
 70
     1
102
RTVSPropertyOp32
 70
     1
102
RTVSPropertyOp33
 70
     1
102
RTVSPropertyOp34
 70
     1
102
RTVSPropertyOp35
 70
     1
102
RTVSPropertyOp36
 70
     1
102
RTVSPropertyOp37
 70
     1
102
RTVSPropertyOp38
 70
     1
102
RTVSPropertyOp39
 70
     1
102
RTVSPropertyOp40
 70
     1
102
RTVSPropertyOp41
 70
     1
102
RTVSPropertyOp42
 70
     1
102
RTVSPropertyOp43
 70
     1
102
RTVSPropertyOp44
 70
     1
102
RTVSPropertyOp45
 70
     1
102
RTVSPropertyOp46
 70
     1
102
RTVSPropertyOp47
 70
     1
102
RTVSPropertyOp48
 70
     1
102
RTVSPropertyOp49
 70
     1
102
RTVSPropertyOp50
 70
     1
102
RTVSPropertyOp51
 70
     0
102
RTVSPropertyOp52
 70
     0
102
RTVSPropertyOp53
 70
     1
102
RTVSPropertyOp54
 70
     1
102
RTVSPropertyOp55
 70
     1
102
RTVSPropertyOp56
 70
     1
102
RTVSPropertyOp57
 70
     1
102
RTVSPropertyOp58
 70
     1
102
RTVSPropertyOp59
 70
     1
102
RTVSPropertyOp60
 70
     1
102
RTVSPropertyOp61
 70
     1
102
RTVSPropertyOp62
 70
     1
  0
ENDSEC
  0
EOF
