  0
SECTION
  2
HEADER
  9
$ACADVER
  1
AC1021
  9
$ACADMAINTVER
 70
    50
  9
$DWGCODEPAGE
  3
ANSI_1252
  9
$LASTSAVEDBY
  1
francoisbu
  9
$INSBASE
 10
0.0
 20
0.0
 30
0.0
  9
$EXTMIN
 10
11.6293949669859
 20
23.18164092516838
 30
-0.0000000349181948
  9
$EXTMAX
 10
71.64404326324131
 20
44.19156919844385
 30
0.0000000814935746
  9
$LIMMIN
 10
0.0
 20
0.0
  9
$LIMMAX
 10
181.3333333333
 20
117.3333333333
  9
$ORTHOMODE
 70
     1
  9
$REGENMODE
 70
     1
  9
$FILLMODE
 70
     1
  9
$QTEXTMODE
 70
     0
  9
$MIRRTEXT
 70
     0
  9
$LTSCALE
 40
9.973333333300001
  9
$ATTMODE
 70
     1
  9
$TEXTSIZE
 40
0.2
  9
$TRACEWID
 40
0.05
  9
$TEXTSTYLE
  7
STANDARD
  9
$CLAYER
  8
0
  9
$CELTYPE
  6
BYLAYER
  9
$CECOLOR
 62
   256
  9
$CELTSCALE
 40
1.0
  9
$DISPSILH
 70
     0
  9
$DIMSCALE
 40
1.0
  9
$DIMASZ
 40
2.0
  9
$DIMEXO
 40
0.0625
  9
$DIMDLI
 40
6.890666666699999
  9
$DIMRND
 40
0.0
  9
$DIMDLE
 40
0.0
  9
$DIMEXE
 40
0.125
  9
$DIMTP
 40
0.00001
  9
$DIMTM
 40
0.00001
  9
$DIMTXT
 40
1.333333333299999
  9
$DIMCEN
 40
1.631999999999999
  9
$DIMTSZ
 40
0.0
  9
$DIMTOL
 70
     1
  9
$DIMLIM
 70
     0
  9
$DIMTIH
 70
     1
  9
$DIMTOH
 70
     1
  9
$DIMSE1
 70
     0
  9
$DIMSE2
 70
     0
  9
$DIMTAD
 70
     0
  9
$DIMZIN
 70
     0
  9
$DIMBLK
  1
_FILLED
  9
$DIMASO
 70
     1
  9
$DIMSHO
 70
     1
  9
$DIMPOST
  1

  9
$DIMAPOST
  1

  9
$DIMALT
 70
     0
  9
$DIMALTD
 70
     2
  9
$DIMALTF
 40
25.4
  9
$DIMLFAC
 40
1.0
  9
$DIMTOFL
 70
     0
  9
$DIMTVP
 40
0.0
  9
$DIMTIX
 70
     0
  9
$DIMSOXD
 70
     0
  9
$DIMSAH
 70
     0
  9
$DIMBLK1
  1

  9
$DIMBLK2
  1

  9
$DIMSTYLE
  2
STANDARD
  9
$DIMCLRD
 70
     0
  9
$DIMCLRE
 70
     0
  9
$DIMCLRT
 70
     0
  9
$DIMTFAC
 40
1.0
  9
$DIMGAP
 40
0.09
  9
$DIMJUST
 70
     0
  9
$DIMSD1
 70
     0
  9
$DIMSD2
 70
     0
  9
$DIMTOLJ
 70
     1
  9
$DIMTZIN
 70
     0
  9
$DIMALTZ
 70
     0
  9
$DIMALTTZ
 70
     0
  9
$DIMUPT
 70
     0
  9
$DIMDEC
 70
     4
  9
$DIMTDEC
 70
     4
  9
$DIMALTU
 70
     2
  9
$DIMALTTD
 70
     2
  9
$DIMTXSTY
  7
STANDARD
  9
$DIMAUNIT
 70
     0
  9
$DIMADEC
 70
     0
  9
$DIMALTRND
 40
0.0
  9
$DIMAZIN
 70
     0
  9
$DIMDSEP
 70
    46
  9
$DIMATFIT
 70
     3
  9
$DIMFRAC
 70
     0
  9
$DIMLDRBLK
  1

  9
$DIMLUNIT
 70
     2
  9
$DIMLWD
 70
    -2
  9
$DIMLWE
 70
    -2
  9
$DIMTMOVE
 70
     0
  9
$DIMFXL
 40
1.0
  9
$DIMFXLON
 70
     0
  9
$DIMJOGANG
 40
0.7853981633974483
  9
$DIMTFILL
 70
     0
  9
$DIMTFILLCLR
 70
     0
  9
$DIMARCSYM
 70
     0
  9
$DIMLTYPE
  6

  9
$DIMLTEX1
  6

  9
$DIMLTEX2
  6

  9
$LUNITS
 70
     2
  9
$LUPREC
 70
     4
  9
$SKETCHINC
 40
0.1
  9
$FILLETRAD
 40
0.0
  9
$AUNITS
 70
     0
  9
$AUPREC
 70
     0
  9
$MENU
  1
.
  9
$ELEVATION
 40
0.0
  9
$PELEVATION
 40
0.0
  9
$THICKNESS
 40
0.0
  9
$LIMCHECK
 70
     0
  9
$CHAMFERA
 40
0.0
  9
$CHAMFERB
 40
0.0
  9
$CHAMFERC
 40
0.0
  9
$CHAMFERD
 40
0.0
  9
$SKPOLY
 70
     0
  9
$TDCREATE
 40
2456638.634747315
  9
$TDUCREATE
 40
2456638.843080648
  9
$TDUPDATE
 40
2456645.376387697
  9
$TDUUPDATE
 40
2456645.584721030
  9
$TDINDWG
 40
0.0036303241
  9
$TDUSRTIMER
 40
0.0036303241
  9
$USRTIMER
 70
     1
  9
$ANGBASE
 50
0.0
  9
$ANGDIR
 70
     0
  9
$PDMODE
 70
     3
  9
$PDSIZE
 40
0.03125
  9
$PLINEWID
 40
0.0
  9
$SPLFRAME
 70
     0
  9
$SPLINETYPE
 70
     6
  9
$SPLINESEGS
 70
     8
  9
$HANDSEED
  5
1800
  9
$SURFTAB1
 70
     6
  9
$SURFTAB2
 70
     6
  9
$SURFTYPE
 70
     6
  9
$SURFU
 70
     6
  9
$SURFV
 70
     6
  9
$UCSBASE
  2

  9
$UCSNAME
  2

  9
$UCSORG
 10
0.0
 20
0.0
 30
0.0
  9
$UCSXDIR
 10
1.0
 20
0.0
 30
0.0
  9
$UCSYDIR
 10
0.0
 20
1.0
 30
0.0
  9
$UCSORTHOREF
  2

  9
$UCSORTHOVIEW
 70
     0
  9
$UCSORGTOP
 10
0.0
 20
0.0
 30
0.0
  9
$UCSORGBOTTOM
 10
0.0
 20
0.0
 30
0.0
  9
$UCSORGLEFT
 10
0.0
 20
0.0
 30
0.0
  9
$UCSORGRIGHT
 10
0.0
 20
0.0
 30
0.0
  9
$UCSORGFRONT
 10
0.0
 20
0.0
 30
0.0
  9
$UCSORGBACK
 10
0.0
 20
0.0
 30
0.0
  9
$PUCSBASE
  2

  9
$PUCSNAME
  2

  9
$PUCSORG
 10
0.0
 20
0.0
 30
0.0
  9
$PUCSXDIR
 10
1.0
 20
0.0
 30
0.0
  9
$PUCSYDIR
 10
0.0
 20
1.0
 30
0.0
  9
$PUCSORTHOREF
  2

  9
$PUCSORTHOVIEW
 70
     0
  9
$PUCSORGTOP
 10
0.0
 20
0.0
 30
0.0
  9
$PUCSORGBOTTOM
 10
0.0
 20
0.0
 30
0.0
  9
$PUCSORGLEFT
 10
0.0
 20
0.0
 30
0.0
  9
$PUCSORGRIGHT
 10
0.0
 20
0.0
 30
0.0
  9
$PUCSORGFRONT
 10
0.0
 20
0.0
 30
0.0
  9
$PUCSORGBACK
 10
0.0
 20
0.0
 30
0.0
  9
$USERI1
 70
     0
  9
$USERI2
 70
     0
  9
$USERI3
 70
     0
  9
$USERI4
 70
     0
  9
$USERI5
 70
     0
  9
$USERR1
 40
0.0
  9
$USERR2
 40
0.0
  9
$USERR3
 40
0.0
  9
$USERR4
 40
0.0
  9
$USERR5
 40
0.0
  9
$WORLDVIEW
 70
     1
  9
$SHADEDGE
 70
     3
  9
$SHADEDIF
 70
    70
  9
$TILEMODE
 70
     1
  9
$MAXACTVP
 70
    64
  9
$PINSBASE
 10
0.0
 20
0.0
 30
0.0
  9
$PLIMCHECK
 70
     0
  9
$PEXTMIN
 10
1.000000000000000E+20
 20
1.000000000000000E+20
 30
1.000000000000000E+20
  9
$PEXTMAX
 10
-1.000000000000000E+20
 20
-1.000000000000000E+20
 30
-1.000000000000000E+20
  9
$PLIMMIN
 10
0.0
 20
0.0
  9
$PLIMMAX
 10
12.0
 20
9.0
  9
$UNITMODE
 70
     0
  9
$VISRETAIN
 70
     1
  9
$PLINEGEN
 70
     0
  9
$PSLTSCALE
 70
     1
  9
$TREEDEPTH
 70
  3020
  9
$CMLSTYLE
  2
Standard
  9
$CMLJUST
 70
     0
  9
$CMLSCALE
 40
1.0
  9
$PROXYGRAPHICS
 70
     1
  9
$MEASUREMENT
 70
     0
  9
$CELWEIGHT
370
    -1
  9
$ENDCAPS
280
     0
  9
$JOINSTYLE
280
     0
  9
$LWDISPLAY
290
     0
  9
$INSUNITS
 70
     1
  9
$HYPERLINKBASE
  1

  9
$STYLESHEET
  1

  9
$XEDIT
290
     1
  9
$CEPSNTYPE
380
     0
  9
$PSTYLEMODE
290
     1
  9
$FINGERPRINTGUID
  2
{0AEA682C-ADCF-4887-A010-D663D1ECA4A6}
  9
$VERSIONGUID
  2
{412F0776-5286-4F2D-840A-061CCFBE1B9D}
  9
$EXTNAMES
290
     1
  9
$PSVPSCALE
 40
0.0
  9
$OLESTARTUP
290
     0
  9
$SORTENTS
280
   127
  9
$INDEXCTL
280
     0
  9
$HIDETEXT
280
     0
  9
$XCLIPFRAME
290
     0
  9
$HALOGAP
280
     0
  9
$OBSCOLOR
 70
   257
  9
$OBSLTYPE
280
     0
  9
$INTERSECTIONDISPLAY
280
     0
  9
$INTERSECTIONCOLOR
 70
   257
  9
$DIMASSOC
280
     1
  9
$PROJECTNAME
  1

  9
$CAMERADISPLAY
290
     0
  9
$LENSLENGTH
 40
50.0
  9
$CAMERAHEIGHT
 40
0.0
  9
$STEPSPERSEC
 40
2.0
  9
$STEPSIZE
 40
6.0
  9
$3DDWFPREC
 40
2.0
  9
$PSOLWIDTH
 40
0.25
  9
$PSOLHEIGHT
 40
4.0
  9
$LOFTANG1
 40
1.570796326794896
  9
$LOFTANG2
 40
1.570796326794896
  9
$LOFTMAG1
 40
0.0
  9
$LOFTMAG2
 40
0.0
  9
$LOFTPARAM
 70
     7
  9
$LOFTNORMALS
280
     1
  9
$LATITUDE
 40
37.795
  9
$LONGITUDE
 40
-122.394
  9
$NORTHDIRECTION
 40
0.0
  9
$TIMEZONE
 70
 -8000
  9
$LIGHTGLYPHDISPLAY
280
     1
  9
$TILEMODELIGHTSYNCH
280
     1
  9
$CMATERIAL
347
16FF
  9
$SOLIDHIST
280
     1
  9
$SHOWHIST
280
     1
  9
$DWFFRAME
280
     2
  9
$DGNFRAME
280
     0
  9
$REALWORLDSCALE
290
     1
  9
$INTERFERECOLOR
 62
     1
  9
$INTERFEREOBJVS
345
1721
  9
$INTERFEREVPVS
346
171E
  9
$CSHADOW
280
     0
  9
$SHADOWPLANELOCATION
 40
0.0
  0
ENDSEC
  0
SECTION
  2
CLASSES
  0
CLASS
  1
ACDBDICTIONARYWDFLT
  2
AcDbDictionaryWithDefault
  3
ObjectDBX Classes
 90
        0
 91
        1
280
     0
281
     0
  0
CLASS
  1
MATERIAL
  2
AcDbMaterial
  3
ObjectDBX Classes
 90
     1153
 91
        3
280
     0
281
     0
  0
CLASS
  1
VISUALSTYLE
  2
AcDbVisualStyle
  3
ObjectDBX Classes
 90
     4095
 91
       19
280
     0
281
     0
  0
CLASS
  1
TABLESTYLE
  2
AcDbTableStyle
  3
ObjectDBX Classes
 90
     4095
 91
        1
280
     0
281
     0
  0
CLASS
  1
SCALE
  2
AcDbScale
  3
ObjectDBX Classes
 90
     1153
 91
       33
280
     0
281
     0
  0
CLASS
  1
MLEADERSTYLE
  2
AcDbMLeaderStyle
  3
ACDB_MLEADERSTYLE_CLASS
 90
     4095
 91
        1
280
     0
281
     0
  0
CLASS
  1
CELLSTYLEMAP
  2
AcDbCellStyleMap
  3
ObjectDBX Classes
 90
     1152
 91
        4
280
     0
281
     0
  0
CLASS
  1
DICTIONARYVAR
  2
AcDbDictionaryVar
  3
ObjectDBX Classes
 90
        0
 91
       11
280
     0
281
     0
  0
ENDSEC
  0
SECTION
  2
TABLES
  0
TABLE
  2
VPORT
  5
8
102
{ACAD_XDICTIONARY
360
1755
102
}
330
0
100
AcDbSymbolTable
 70
     1
  0
VPORT
  5
1F4
330
8
100
AcDbSymbolTableRecord
100
AcDbViewportTableRecord
  2
*ACTIVE
 70
     0
 10
0.0
 20
0.0
 11
1.0
 21
1.0
 12
41.6367191151136
 22
33.68660506180612
 13
0.0
 23
0.0
 14
1.0
 24
1.0
 15
0.0
 25
0.0
 16
0.0
 26
0.0
 36
1.0
 17
0.0
 27
0.0
 37
0.0
 40
30.79124090271246
 41
1.957300275482093
 42
50.0
 43
0.0
 44
0.0
 50
0.0
 51
0.0
 71
     0
 72
   100
 73
     1
 74
     1
 75
     0
 76
     0
 77
     0
 78
     0
281
     0
 65
     1
110
0.0
120
0.0
130
0.0
111
1.0
121
0.0
131
0.0
112
0.0
122
1.0
132
0.0
 79
     0
146
0.0
348
171D
 60
     3
 61
     5
292
     1
282
     1
141
0.0
142
0.0
 63
   250
421
  3355443
  0
ENDTAB
  0
TABLE
  2
LTYPE
  5
5
330
0
100
AcDbSymbolTable
 70
     6
  0
LTYPE
  5
14
330
5
100
AcDbSymbolTableRecord
100
AcDbLinetypeTableRecord
  2
BYBLOCK
 70
     0
  3

 72
    65
 73
     0
 40
0.0
  0
LTYPE
  5
15
330
5
100
AcDbSymbolTableRecord
100
AcDbLinetypeTableRecord
  2
BYLAYER
 70
     0
  3

 72
    65
 73
     0
 40
0.0
  0
LTYPE
  5
16
330
5
100
AcDbSymbolTableRecord
100
AcDbLinetypeTableRecord
  2
CONTINUOUS
 70
     0
  3
Solid line
 72
    65
 73
     0
 40
0.0
  0
LTYPE
  5
1F5
330
5
100
AcDbSymbolTableRecord
100
AcDbLinetypeTableRecord
  2
CENTER
 70
     0
  3
____ _ ____ _ ____ _ ____ _ ____ _ ____ _ ____
 72
    65
 73
     4
 40
0.6
 49
0.375
 74
     0
 49
-0.075
 74
     0
 49
0.075
 74
     0
 49
-0.075
 74
     0
  0
LTYPE
  5
1F6
330
5
100
AcDbSymbolTableRecord
100
AcDbLinetypeTableRecord
  2
HIDDEN
 70
     0
  3
- - - - - - - - - - - - - - - - - - - -
 72
    65
 73
     2
 40
0.2
 49
0.1
 74
     0
 49
-0.1
 74
     0
  0
LTYPE
  5
1F7
330
5
100
AcDbSymbolTableRecord
100
AcDbLinetypeTableRecord
  2
PHANTOM
 70
     0
  3
_____ _ _ _____ _ _ _____ _ _ _____
 72
    65
 73
     6
 40
0.8
 49
0.45
 74
     0
 49
-0.05
 74
     0
 49
0.1
 74
     0
 49
-0.05
 74
     0
 49
0.1
 74
     0
 49
-0.05
 74
     0
  0
LTYPE
  5
1F8
330
5
100
AcDbSymbolTableRecord
100
AcDbLinetypeTableRecord
  2
DOT
 70
     0
  3
. . . . . . . . . . . . . . . . . . . .
 72
    65
 73
     2
 40
0.2
 49
0.1
 74
     0
 49
-0.1
 74
     0
  0
LTYPE
  5
1F9
330
5
100
AcDbSymbolTableRecord
100
AcDbLinetypeTableRecord
  2
DASHED
 70
     0
  3
- - - - - - - - - - - - - - - - - - - -
 72
    65
 73
     2
 40
0.2
 49
0.1
 74
     0
 49
-0.1
 74
     0
  0
ENDTAB
  0
TABLE
  2
LAYER
  5
2
330
0
100
AcDbSymbolTable
 70
    42
  0
LAYER
  5
10
102
{ACAD_XDICTIONARY
360
1795
102
}
330
2
100
AcDbSymbolTableRecord
100
AcDbLayerTableRecord
  2
0
 70
     0
 62
     7
  6
CONTINUOUS
370
    -3
390
F
347
170F
  0
LAYER
  5
1FA
102
{ACAD_XDICTIONARY
360
1797
102
}
330
2
100
AcDbSymbolTableRecord
100
AcDbLayerTableRecord
  2
DEFAULT_1
 70
     0
 62
     7
  6
CENTER
370
    -3
390
F
347
170F
  0
LAYER
  5
1FB
102
{ACAD_XDICTIONARY
360
1799
102
}
330
2
100
AcDbSymbolTableRecord
100
AcDbLayerTableRecord
  2
DEFAULT_2
 70
     0
 62
     7
  6
HIDDEN
370
    -3
390
F
347
170F
  0
LAYER
  5
1FC
102
{ACAD_XDICTIONARY
360
179B
102
}
330
2
100
AcDbSymbolTableRecord
100
AcDbLayerTableRecord
  2
DEFAULT_3
 70
     0
 62
     7
  6
PHANTOM
370
    -3
390
F
347
170F
  0
LAYER
  5
1FD
102
{ACAD_XDICTIONARY
360
179D
102
}
330
2
100
AcDbSymbolTableRecord
100
AcDbLayerTableRecord
  2
1_CURCES_SPECS_FRONT_GAUCHE_INS
 70
     0
 62
     7
  6
CONTINUOUS
370
    -3
390
F
347
170F
  0
LAYER
  5
1FE
102
{ACAD_XDICTIONARY
360
179F
102
}
330
2
100
AcDbSymbolTableRecord
100
AcDbLayerTableRecord
  2
1_CURVES
 70
     0
 62
     7
  6
CONTINUOUS
370
    -3
390
F
347
170F
  0
LAYER
  5
1FF
102
{ACAD_XDICTIONARY
360
17A1
102
}
330
2
100
AcDbSymbolTableRecord
100
AcDbLayerTableRecord
  2
1_CURVES_CONDUIT
 70
     0
 62
     7
  6
CONTINUOUS
370
    -3
390
F
347
170F
  0
LAYER
  5
200
102
{ACAD_XDICTIONARY
360
17A3
102
}
330
2
100
AcDbSymbolTableRecord
100
AcDbLayerTableRecord
  2
1_CURVES_JETS
 70
     0
 62
     7
  6
CONTINUOUS
370
    -3
390
F
347
170F
  0
LAYER
  5
201
102
{ACAD_XDICTIONARY
360
17A5
102
}
330
2
100
AcDbSymbolTableRecord
100
AcDbLayerTableRecord
  2
1_CURVES_JETS-1
 70
     0
 62
     7
  6
CONTINUOUS
370
    -3
390
F
347
170F
  0
LAYER
  5
202
102
{ACAD_XDICTIONARY
360
17A7
102
}
330
2
100
AcDbSymbolTableRecord
100
AcDbLayerTableRecord
  2
1_CURVES_JETS-2
 70
     0
 62
     7
  6
CONTINUOUS
370
    -3
390
F
347
170F
  0
LAYER
  5
203
102
{ACAD_XDICTIONARY
360
17A9
102
}
330
2
100
AcDbSymbolTableRecord
100
AcDbLayerTableRecord
  2
1_CURVES_PATINS
 70
     0
 62
     7
  6
CONTINUOUS
370
    -3
390
F
347
170F
  0
LAYER
  5
204
102
{ACAD_XDICTIONARY
360
17AB
102
}
330
2
100
AcDbSymbolTableRecord
100
AcDbLayerTableRecord
  2
1_CURVES_RESURFACAGE
 70
     0
 62
     7
  6
CONTINUOUS
370
    -3
390
F
347
170F
  0
LAYER
  5
205
102
{ACAD_XDICTIONARY
360
17AD
102
}
330
2
100
AcDbSymbolTableRecord
100
AcDbLayerTableRecord
  2
1_CURVES_SPECS_FRONT-GAUCHE
 70
     0
 62
     7
  6
CONTINUOUS
370
    -3
390
F
347
170F
  0
LAYER
  5
206
102
{ACAD_XDICTIONARY
360
17AF
102
}
330
2
100
AcDbSymbolTableRecord
100
AcDbLayerTableRecord
  2
1_CURVES_SPECS_RIGHT-GAUCHE
 70
     0
 62
     7
  6
CONTINUOUS
370
    -3
390
F
347
170F
  0
LAYER
  5
207
102
{ACAD_XDICTIONARY
360
17B1
102
}
330
2
100
AcDbSymbolTableRecord
100
AcDbLayerTableRecord
  2
2_PLANES
 70
     0
 62
     7
  6
CONTINUOUS
370
    -3
390
F
347
170F
  0
LAYER
  5
208
102
{ACAD_XDICTIONARY
360
17B3
102
}
330
2
100
AcDbSymbolTableRecord
100
AcDbLayerTableRecord
  2
2_PLANES_JETS-1
 70
     0
 62
     7
  6
CONTINUOUS
370
    -3
390
F
347
170F
  0
LAYER
  5
209
102
{ACAD_XDICTIONARY
360
17B5
102
}
330
2
100
AcDbSymbolTableRecord
100
AcDbLayerTableRecord
  2
2_PLANES_JETS-2
 70
     0
 62
     7
  6
CONTINUOUS
370
    -3
390
F
347
170F
  0
LAYER
  5
20A
102
{ACAD_XDICTIONARY
360
17B7
102
}
330
2
100
AcDbSymbolTableRecord
100
AcDbLayerTableRecord
  2
3_POINTS
 70
     0
 62
     7
  6
CONTINUOUS
370
    -3
390
F
347
170F
  0
LAYER
  5
20B
102
{ACAD_XDICTIONARY
360
17B9
102
}
330
2
100
AcDbSymbolTableRecord
100
AcDbLayerTableRecord
  2
3_POINTS_JETS-1
 70
     0
 62
     7
  6
CONTINUOUS
370
    -3
390
F
347
170F
  0
LAYER
  5
20C
102
{ACAD_XDICTIONARY
360
17BB
102
}
330
2
100
AcDbSymbolTableRecord
100
AcDbLayerTableRecord
  2
3_POINTS_JETS-2
 70
     0
 62
     7
  6
CONTINUOUS
370
    -3
390
F
347
170F
  0
LAYER
  5
20D
102
{ACAD_XDICTIONARY
360
17BD
102
}
330
2
100
AcDbSymbolTableRecord
100
AcDbLayerTableRecord
  2
4_CSYS
 70
     0
 62
     7
  6
CONTINUOUS
370
    -3
390
F
347
170F
  0
LAYER
  5
20E
102
{ACAD_XDICTIONARY
360
17BF
102
}
330
2
100
AcDbSymbolTableRecord
100
AcDbLayerTableRecord
  2
5_AXIS
 70
     0
 62
     7
  6
CONTINUOUS
370
    -3
390
F
347
170F
  0
LAYER
  5
20F
102
{ACAD_XDICTIONARY
360
17C1
102
}
330
2
100
AcDbSymbolTableRecord
100
AcDbLayerTableRecord
  2
5_AXIS_JETS-1
 70
     0
 62
     7
  6
CONTINUOUS
370
    -3
390
F
347
170F
  0
LAYER
  5
210
102
{ACAD_XDICTIONARY
360
17C3
102
}
330
2
100
AcDbSymbolTableRecord
100
AcDbLayerTableRecord
  2
5_AXIS_JETS-2
 70
     0
 62
     7
  6
CONTINUOUS
370
    -3
390
F
347
170F
  0
LAYER
  5
211
102
{ACAD_XDICTIONARY
360
17C5
102
}
330
2
100
AcDbSymbolTableRecord
100
AcDbLayerTableRecord
  2
6_AIRE_CONDUIT
 70
     0
 62
     7
  6
CONTINUOUS
370
    -3
390
F
347
170F
  0
LAYER
  5
212
102
{ACAD_XDICTIONARY
360
17C7
102
}
330
2
100
AcDbSymbolTableRecord
100
AcDbLayerTableRecord
  2
6_SURFACES
 70
     0
 62
     7
  6
CONTINUOUS
370
    -3
390
F
347
170F
  0
LAYER
  5
213
102
{ACAD_XDICTIONARY
360
17C9
102
}
330
2
100
AcDbSymbolTableRecord
100
AcDbLayerTableRecord
  2
6_SURFACES-TOOLING
 70
     0
 62
     7
  6
CONTINUOUS
370
    -3
390
F
347
170F
  0
LAYER
  5
214
102
{ACAD_XDICTIONARY
360
17CB
102
}
330
2
100
AcDbSymbolTableRecord
100
AcDbLayerTableRecord
  2
6_SURFACES_AIRE
 70
     0
 62
     7
  6
CONTINUOUS
370
    -3
390
F
347
170F
  0
LAYER
  5
215
102
{ACAD_XDICTIONARY
360
17CD
102
}
330
2
100
AcDbSymbolTableRecord
100
AcDbLayerTableRecord
  2
6_SURFACES_BAIN_DROIT
 70
     0
 62
     7
  6
CONTINUOUS
370
    -3
390
F
347
170F
  0
LAYER
  5
216
102
{ACAD_XDICTIONARY
360
17CF
102
}
330
2
100
AcDbSymbolTableRecord
100
AcDbLayerTableRecord
  2
6_SURFACES_BAIN_DROIT_INSERT
 70
     0
 62
     7
  6
CONTINUOUS
370
    -3
390
F
347
170F
  0
LAYER
  5
217
102
{ACAD_XDICTIONARY
360
17D1
102
}
330
2
100
AcDbSymbolTableRecord
100
AcDbLayerTableRecord
  2
6_SURFACES_BAIN_GAUCHE
 70
     0
 62
     7
  6
CONTINUOUS
370
    -3
390
F
347
170F
  0
LAYER
  5
218
102
{ACAD_XDICTIONARY
360
17D3
102
}
330
2
100
AcDbSymbolTableRecord
100
AcDbLayerTableRecord
  2
6_SURFACES_BAIN_GAUCHE_INSERT
 70
     0
 62
     7
  6
CONTINUOUS
370
    -3
390
F
347
170F
  0
LAYER
  5
219
102
{ACAD_XDICTIONARY
360
17D5
102
}
330
2
100
AcDbSymbolTableRecord
100
AcDbLayerTableRecord
  2
6_SURFACES_OFFSET_FIBRE_ACRYLIQ
 70
     0
 62
     7
  6
CONTINUOUS
370
    -3
390
F
347
170F
  0
LAYER
  5
21A
102
{ACAD_XDICTIONARY
360
17D7
102
}
330
2
100
AcDbSymbolTableRecord
100
AcDbLayerTableRecord
  2
6_SURFACES_PATINS_SPECS
 70
     0
 62
     7
  6
CONTINUOUS
370
    -3
390
F
347
170F
  0
LAYER
  5
21B
102
{ACAD_XDICTIONARY
360
17D9
102
}
330
2
100
AcDbSymbolTableRecord
100
AcDbLayerTableRecord
  2
6_SURFACES_POUR_CONDUIT
 70
     0
 62
     7
  6
CONTINUOUS
370
    -3
390
F
347
170F
  0
LAYER
  5
21C
102
{ACAD_XDICTIONARY
360
17DB
102
}
330
2
100
AcDbSymbolTableRecord
100
AcDbLayerTableRecord
  2
6_SURFACES_POUR_HFL
 70
     0
 62
     7
  6
CONTINUOUS
370
    -3
390
F
347
170F
  0
LAYER
  5
21D
102
{ACAD_XDICTIONARY
360
17DD
102
}
330
2
100
AcDbSymbolTableRecord
100
AcDbLayerTableRecord
  2
6_SURFACES_POUR_TROP_PLEIN
 70
     0
 62
     7
  6
CONTINUOUS
370
    -3
390
F
347
170F
  0
LAYER
  5
21E
102
{ACAD_XDICTIONARY
360
17DF
102
}
330
2
100
AcDbSymbolTableRecord
100
AcDbLayerTableRecord
  2
6_SURFACES_TOOLING
 70
     0
 62
     7
  6
CONTINUOUS
370
    -3
390
F
347
170F
  0
LAYER
  5
21F
102
{ACAD_XDICTIONARY
360
17E1
102
}
330
2
100
AcDbSymbolTableRecord
100
AcDbLayerTableRecord
  2
7_NOTES
 70
     0
 62
     7
  6
CONTINUOUS
370
    -3
390
F
347
170F
  0
LAYER
  5
220
102
{ACAD_XDICTIONARY
360
17E3
102
}
330
2
100
AcDbSymbolTableRecord
100
AcDbLayerTableRecord
  2
8_TOL_GEOM
 70
     0
 62
     7
  6
CONTINUOUS
370
    -3
390
F
347
170F
  0
LAYER
  5
221
102
{ACAD_XDICTIONARY
360
17E5
102
}
330
2
100
AcDbSymbolTableRecord
100
AcDbLayerTableRecord
  2
NONE
 70
     0
 62
     7
  6
CONTINUOUS
370
    -3
390
F
347
170F
  0
LAYER
  5
222
102
{ACAD_XDICTIONARY
360
17E7
102
}
330
2
100
AcDbSymbolTableRecord
100
AcDbLayerTableRecord
  2
XSEC_DATUMS
 70
     0
 62
     7
  6
CONTINUOUS
370
    -3
390
F
347
170F
  0
ENDTAB
  0
TABLE
  2
STYLE
  5
3
330
0
100
AcDbSymbolTable
 70
     8
  0
STYLE
  5
11
330
3
100
AcDbSymbolTableRecord
100
AcDbTextStyleTableRecord
  2
STANDARD
 70
     0
 40
0.0
 41
0.8
 50
0.0
 71
     0
 42
0.2
  3
txt
  4

  0
STYLE
  5
223
330
3
100
AcDbSymbolTableRecord
100
AcDbTextStyleTableRecord
  2
TEXTSTYLE_1
 70
     0
 40
0.0
 41
0.8
 50
0.0
 71
     0
 42
0.2
  3
gdt
  4

  0
STYLE
  5
224
330
3
100
AcDbSymbolTableRecord
100
AcDbTextStyleTableRecord
  2
TEXTSTYLE_2
 70
     0
 40
0.0
 41
1.0
 50
0.0
 71
     0
 42
0.2
  3
trium.ttf
  4

  0
STYLE
  5
225
330
3
100
AcDbSymbolTableRecord
100
AcDbTextStyleTableRecord
  2
TEXTSTYLE_3
 70
     0
 40
0.0
 41
1.0
 50
0.0
 71
     0
 42
0.2
  3
trium.ttf
  4

  0
STYLE
  5
226
330
3
100
AcDbSymbolTableRecord
100
AcDbTextStyleTableRecord
  2
TEXTSTYLE_4
 70
     0
 40
0.0
 41
1.0
 50
0.0
 71
     0
 42
0.2
  3
txt_____.ttf
  4

1001
ACAD
1000
txt
1071
        2
  0
STYLE
  5
227
330
3
100
AcDbSymbolTableRecord
100
AcDbTextStyleTableRecord
  2
TEXTSTYLE_5
 70
     0
 40
0.0
 41
1.0
 50
0.0
 71
     0
 42
0.2
  3
txt
  4

  0
STYLE
  5
228
330
3
100
AcDbSymbolTableRecord
100
AcDbTextStyleTableRecord
  2
TEXTSTYLE_6
 70
     0
 40
0.0
 41
1.0
 50
0.0
 71
     0
 42
0.2
  3
trium.ttf
  4

  0
STYLE
  5
229
330
3
100
AcDbSymbolTableRecord
100
AcDbTextStyleTableRecord
  2
TEXTSTYLE_7
 70
     0
 40
0.0
 41
0.8
 50
0.0
 71
     0
 42
0.2
  3
txt
  4

1001
ACAD
1000
txt
1071
        2
  0
ENDTAB
  0
TABLE
  2
VIEW
  5
6
330
0
100
AcDbSymbolTable
 70
     0
  0
ENDTAB
  0
TABLE
  2
UCS
  5
7
330
0
100
AcDbSymbolTable
 70
     0
  0
ENDTAB
  0
TABLE
  2
APPID
  5
9
330
0
100
AcDbSymbolTable
 70
     2
  0
APPID
  5
22A
330
9
100
AcDbSymbolTableRecord
100
AcDbRegAppTableRecord
  2
ACAD
 70
     0
  0
APPID
  5
1785
330
9
100
AcDbSymbolTableRecord
100
AcDbRegAppTableRecord
  2
ACAD_MLEADERVER
 70
     0
  0
ENDTAB
  0
TABLE
  2
DIMSTYLE
  5
A
330
0
100
AcDbSymbolTable
 70
     6
100
AcDbDimStyleTable
 71
     0
  0
DIMSTYLE
105
247
330
A
100
AcDbSymbolTableRecord
100
AcDbDimStyleTableRecord
  2
STANDARD
 70
     0
 41
2.0
 44
0.125
 47
0.00001
 48
0.00001
 71
     1
 78
     4
140
1.333333333299999
271
     5
272
     5
284
     4
340
11
341
22D
342
22D
343
22D
344
22D
  0
DIMSTYLE
105
248
330
A
100
AcDbSymbolTableRecord
100
AcDbDimStyleTableRecord
  2
DIMSTYLE_1
 70
     0
 41
2.0
 44
0.125
 47
0.001
 48
0.001
 78
     4
140
1.333333333299999
147
0.0625
271
     6
272
     6
284
     4
340
11
341
22D
342
22D
343
22D
344
22D
  0
DIMSTYLE
105
249
330
A
100
AcDbSymbolTableRecord
100
AcDbDimStyleTableRecord
  2
DIMSTYLE_2
 70
     0
 41
2.0
 44
0.125
 47
0.001
 48
0.001
 78
     4
140
1.333333333299999
147
0.0625
271
     3
272
     3
284
     4
340
11
341
22D
342
22D
343
22D
344
22D
  0
DIMSTYLE
105
24A
330
A
100
AcDbSymbolTableRecord
100
AcDbDimStyleTableRecord
  2
DIMSTYLE_3
 70
     0
 41
2.0
 44
0.125
 47
0.001
 48
0.001
 78
     4
140
1.333333333299999
147
0.0625
284
     4
340
11
341
22D
342
22D
343
22D
344
22D
  0
DIMSTYLE
105
24B
330
A
100
AcDbSymbolTableRecord
100
AcDbDimStyleTableRecord
  2
DIMSTYLE_4
 70
     0
 41
2.0
 44
0.125
 47
1.0
 48
1.0
 78
     4
140
1.333333333299999
271
     0
272
     0
284
     4
340
11
341
22D
342
22D
343
22D
344
22D
  0
DIMSTYLE
105
24C
330
A
100
AcDbSymbolTableRecord
100
AcDbDimStyleTableRecord
  2
DIMSTYLE_5
 70
     0
 41
2.0
 44
0.125
 47
0.00001
 48
0.00001
 78
     4
140
1.333333333299999
147
0.0625
271
     6
272
     6
284
     4
340
11
341
22D
342
22D
343
22D
344
22D
  0
ENDTAB
  0
TABLE
  2
BLOCK_RECORD
  5
1
330
0
100
AcDbSymbolTable
 70
    26
  0
BLOCK_RECORD
  5
22B
330
1
100
AcDbSymbolTableRecord
100
AcDbBlockTableRecord
  2
*Model_Space
340
16FA
 70
     0
280
     1
281
     0
  0
BLOCK_RECORD
  5
22C
330
1
100
AcDbSymbolTableRecord
100
AcDbBlockTableRecord
  2
*Paper_Space
340
16FB
 70
     0
280
     1
281
     0
  0
BLOCK_RECORD
  5
22D
330
1
100
AcDbSymbolTableRecord
100
AcDbBlockTableRecord
  2
_FILLED
340
0
102
{BLKREFS
331
349
331
34A
331
353
331
354
331
35C
331
35D
331
365
331
366
331
36E
331
36F
331
377
331
378
331
381
331
382
331
38A
331
38B
331
393
331
394
331
39D
331
39E
331
3A6
331
3A7
331
3B6
331
3B7
331
3BF
331
3C0
331
3C8
331
3C9
102
}
 70
     0
280
     1
281
     0
  0
BLOCK_RECORD
  5
23D
330
1
100
AcDbSymbolTableRecord
100
AcDbBlockTableRecord
  2
SYMBOL_25_BL9
340
0
 70
     0
280
     1
281
     0
  0
BLOCK_RECORD
  5
23E
330
1
100
AcDbSymbolTableRecord
100
AcDbBlockTableRecord
  2
SYMBOL_24_BL8
340
0
 70
     0
280
     1
281
     0
  0
BLOCK_RECORD
  5
23F
330
1
100
AcDbSymbolTableRecord
100
AcDbBlockTableRecord
  2
SYMBOL_8_BL7
340
0
 70
     0
280
     1
281
     0
  0
BLOCK_RECORD
  5
240
330
1
100
AcDbSymbolTableRecord
100
AcDbBlockTableRecord
  2
SYMBOL_7_BL6
340
0
 70
     0
280
     1
281
     0
  0
BLOCK_RECORD
  5
241
330
1
100
AcDbSymbolTableRecord
100
AcDbBlockTableRecord
  2
SYMBOL_22_BL5
340
0
 70
     0
280
     1
281
     0
  0
BLOCK_RECORD
  5
242
330
1
100
AcDbSymbolTableRecord
100
AcDbBlockTableRecord
  2
SYMBOL_21_BL4
340
0
 70
     0
280
     1
281
     0
  0
BLOCK_RECORD
  5
243
330
1
100
AcDbSymbolTableRecord
100
AcDbBlockTableRecord
  2
SYMBOL_6_BL3
340
0
 70
     0
280
     1
281
     0
  0
BLOCK_RECORD
  5
244
330
1
100
AcDbSymbolTableRecord
100
AcDbBlockTableRecord
  2
SYMBOL_5_BL2
340
0
 70
     0
280
     1
281
     0
  0
BLOCK_RECORD
  5
245
330
1
100
AcDbSymbolTableRecord
100
AcDbBlockTableRecord
  2
SYMBOL_2_BL1
340
0
 70
     0
280
     1
281
     0
  0
BLOCK_RECORD
  5
246
330
1
100
AcDbSymbolTableRecord
100
AcDbBlockTableRecord
  2
SYMBOL_0_BL0
340
0
 70
     0
280
     1
281
     0
  0
ENDTAB
  0
ENDSEC
  0
SECTION
  2
BLOCKS
  0
BLOCK
  5
20
330
22B
100
AcDbEntity
  8
0
100
AcDbBlockBegin
  2
*Model_Space
 70
     0
 10
0.0
 20
0.0
 30
0.0
  3
*Model_Space
  1

  0
ENDBLK
  5
21
330
22B
100
AcDbEntity
  8
0
100
AcDbBlockEnd
  0
BLOCK
  5
1C
330
22C
100
AcDbEntity
 67
     1
  8
0
100
AcDbBlockBegin
  2
*Paper_Space
 70
     0
 10
0.0
 20
0.0
 30
0.0
  3
*Paper_Space
  1

  0
ENDBLK
  5
1D
330
22C
100
AcDbEntity
 67
     1
  8
0
100
AcDbBlockEnd
  0
BLOCK
  5
340
330
22D
100
AcDbEntity
  8
0
100
AcDbBlockBegin
  2
_FILLED
 70
     0
 10
0.0
 20
0.0
 30
0.0
  3
_FILLED
  1

  0
SOLID
  5
341
330
22D
100
AcDbEntity
  8
0
  6
ByBlock
 62
     0
100
AcDbTrace
 10
0.0
 20
0.0
 30
0.0
 11
-1.0
 21
0.1666666667
 31
0.0
 12
-1.0
 22
-0.1666666667
 32
0.0
 13
-1.0
 23
-0.1666666667
 33
0.0
  0
ENDBLK
  5
342
330
22D
100
AcDbEntity
  8
0
  6
ByBlock
 62
     0
100
AcDbBlockEnd
  0
BLOCK
  5
24D
330
23D
100
AcDbEntity
  8
0
  6
Continuous
 62
     7
100
AcDbBlockBegin
  2
SYMBOL_25_BL9
 70
     0
 10
129.641570543
 20
70.46977435229999
 30
0.0
  3
SYMBOL_25_BL9
  1

  0
TEXT
  5
24E
330
23D
100
AcDbEntity
  8
0
  6
Continuous
 62
     7
100
AcDbText
 10
129.026755489
 20
69.8031074263
 30
0.0
 40
1.333333852099999
  1
A
  7
TEXTSTYLE_2
100
AcDbText
  0
ELLIPSE
  5
24F
330
23D
100
AcDbEntity
  8
0
  6
Continuous
 62
     7
100
AcDbEllipse
 10
129.641570543
 20
70.46977435229999
 30
0.0
 11
-1.942887567899999
 21
0.0
 31
0.0
210
0.0
220
0.0
230
1.0
 40
0.6606458385
 41
0.0
 42
6.283185307179586
  0
ENDBLK
  5
250
330
23D
100
AcDbEntity
  8
0
  6
ByBlock
 62
     0
100
AcDbBlockEnd
  0
BLOCK
  5
251
330
23E
100
AcDbEntity
  8
0
  6
Continuous
 62
     7
100
AcDbBlockBegin
  2
SYMBOL_24_BL8
 70
     0
 10
119.64843757
 20
70.5151668885
 30
0.0
  3
SYMBOL_24_BL8
  1

  0
TEXT
  5
252
330
23E
100
AcDbEntity
  8
0
  6
Continuous
 62
     7
100
AcDbText
 10
118.981770644
 20
69.8484999625
 30
0.0
 40
1.333333852099999
  1
C
  7
TEXTSTYLE_2
100
AcDbText
  0
ELLIPSE
  5
253
330
23E
100
AcDbEntity
  8
0
  6
Continuous
 62
     7
100
AcDbEllipse
 10
119.64843757
 20
70.5151668885
 30
0.0
 11
-1.942887567899999
 21
0.0
 31
0.0
210
0.0
220
0.0
230
1.0
 40
0.6606458385
 41
0.0
 42
6.283185307179586
  0
ENDBLK
  5
254
330
23E
100
AcDbEntity
  8
0
  6
ByBlock
 62
     0
100
AcDbBlockEnd
  0
BLOCK
  5
255
330
23F
100
AcDbEntity
  8
0
  6
Continuous
 62
     7
100
AcDbBlockBegin
  2
SYMBOL_8_BL7
 70
     0
 10
148.6485547499
 20
97.5428180886
 30
0.0
  3
SYMBOL_8_BL7
  1

  0
TEXT
  5
256
330
23F
100
AcDbEntity
  8
0
  6
Continuous
 62
     7
100
AcDbText
 10
148.0990795499
 20
96.86994574860001
 30
0.0
 40
1.333333852099999
  1
L
  7
TEXTSTYLE_2
100
AcDbText
  0
TEXT
  5
257
330
23F
100
AcDbEntity
  8
0
  6
Continuous
 62
     7
100
AcDbText
 10
144.4144932716
 20
96.88235657660001
 30
0.0
 40
1.333333852099999
  1
8
  7
TEXTSTYLE_2
100
AcDbText
  0
TEXT
  5
258
330
23F
100
AcDbEntity
  8
0
  6
Continuous
 62
     7
100
AcDbText
 10
151.8603936083
 20
96.88235657660001
 30
0.0
 40
1.333333852099999
  1
7
  7
TEXTSTYLE_2
100
AcDbText
  0
ELLIPSE
  5
259
330
23F
100
AcDbEntity
  8
0
  6
Continuous
 62
     7
100
AcDbEllipse
 10
148.6274748171999
 20
97.5366126746
 30
0.0
 11
-1.942887567899999
 21
0.0
 31
0.0
210
0.0
220
0.0
230
1.0
 40
0.6606458385
 41
0.0
 42
6.283185307179586
  0
ENDBLK
  5
25A
330
23F
100
AcDbEntity
  8
0
  6
ByBlock
 62
     0
100
AcDbBlockEnd
  0
BLOCK
  5
25B
330
240
100
AcDbEntity
  8
0
  6
Continuous
 62
     7
100
AcDbBlockBegin
  2
SYMBOL_7_BL6
 70
     0
 10
121.589001051
 20
73.8682697456
 30
0.0
  3
SYMBOL_7_BL6
  1

  0
TEXT
  5
25C
330
240
100
AcDbEntity
  8
0
  6
Continuous
 62
     7
100
AcDbText
 10
121.039525851
 20
73.1953974056
 30
0.0
 40
1.333333852099999
  1
L
  7
TEXTSTYLE_2
100
AcDbText
  0
TEXT
  5
25D
330
240
100
AcDbEntity
  8
0
  6
Continuous
 62
     7
100
AcDbText
 10
116.8438282628
 20
73.20780823359999
 30
0.0
 40
1.333333852099999
  1
16
  7
TEXTSTYLE_2
100
AcDbText
  0
TEXT
  5
25E
330
240
100
AcDbEntity
  8
0
  6
Continuous
 62
     7
100
AcDbText
 10
124.2897285995
 20
73.20780823359999
 30
0.0
 40
1.333333852099999
  1
15
  7
TEXTSTYLE_2
100
AcDbText
  0
ELLIPSE
  5
25F
330
240
100
AcDbEntity
  8
0
  6
Continuous
 62
     7
100
AcDbEllipse
 10
121.5679211183
 20
73.86206433159999
 30
0.0
 11
-1.942887567899999
 21
0.0
 31
0.0
210
0.0
220
0.0
230
1.0
 40
0.6606458385
 41
0.0
 42
6.283185307179586
  0
ENDBLK
  5
260
330
240
100
AcDbEntity
  8
0
  6
ByBlock
 62
     0
100
AcDbBlockEnd
  0
BLOCK
  5
261
330
241
100
AcDbEntity
  8
0
  6
Continuous
 62
     7
100
AcDbBlockBegin
  2
SYMBOL_22_BL5
 70
     0
 10
54.11940283959999
 20
70.58639429919999
 30
0.0
  3
SYMBOL_22_BL5
  1

  0
TEXT
  5
262
330
241
100
AcDbEntity
  8
0
  6
Continuous
 62
     7
100
AcDbText
 10
53.5045877856
 20
69.91972737319999
 30
0.0
 40
1.333333852099999
  1
A
  7
TEXTSTYLE_2
100
AcDbText
  0
ELLIPSE
  5
263
330
241
100
AcDbEntity
  8
0
  6
Continuous
 62
     7
100
AcDbEllipse
 10
54.11940283959999
 20
70.58639429919999
 30
0.0
 11
-1.942887567899999
 21
0.0
 31
0.0
210
0.0
220
0.0
230
1.0
 40
0.6606458385
 41
0.0
 42
6.283185307179586
  0
ENDBLK
  5
264
330
241
100
AcDbEntity
  8
0
  6
ByBlock
 62
     0
100
AcDbBlockEnd
  0
BLOCK
  5
265
330
242
100
AcDbEntity
  8
0
  6
Continuous
 62
     7
100
AcDbBlockBegin
  2
SYMBOL_21_BL4
 70
     0
 10
64.09221079640001
 20
70.58639429919999
 30
0.0
  3
SYMBOL_21_BL4
  1

  0
TEXT
  5
266
330
242
100
AcDbEntity
  8
0
  6
Continuous
 62
     7
100
AcDbText
 10
63.42554387039999
 20
69.91972737319999
 30
0.0
 40
1.333333852099999
  1
C
  7
TEXTSTYLE_2
100
AcDbText
  0
ELLIPSE
  5
267
330
242
100
AcDbEntity
  8
0
  6
Continuous
 62
     7
100
AcDbEllipse
 10
64.09221079640001
 20
70.58639429919999
 30
0.0
 11
-1.942887567899999
 21
0.0
 31
0.0
210
0.0
220
0.0
230
1.0
 40
0.6606458385
 41
0.0
 42
6.283185307179586
  0
ENDBLK
  5
268
330
242
100
AcDbEntity
  8
0
  6
ByBlock
 62
     0
100
AcDbBlockEnd
  0
BLOCK
  5
269
330
243
100
AcDbEntity
  8
0
  6
Continuous
 62
     7
100
AcDbBlockBegin
  2
SYMBOL_6_BL3
 70
     0
 10
33.4385583993
 20
73.82690505380001
 30
0.0
  3
SYMBOL_6_BL3
  1

  0
TEXT
  5
26A
330
243
100
AcDbEntity
  8
0
  6
Continuous
 62
     7
100
AcDbText
 10
32.8890831993
 20
73.15403271370001
 30
0.0
 40
1.333333852099999
  1
L
  7
TEXTSTYLE_2
100
AcDbText
  0
TEXT
  5
26B
330
243
100
AcDbEntity
  8
0
  6
Continuous
 62
     7
100
AcDbText
 10
29.204496921
 20
73.16644354170001
 30
0.0
 40
1.333333852099999
  1
7
  7
TEXTSTYLE_2
100
AcDbText
  0
TEXT
  5
26C
330
243
100
AcDbEntity
  8
0
  6
Continuous
 62
     7
100
AcDbText
 10
36.6503972577
 20
73.16644354170001
 30
0.0
 40
1.333333852099999
  1
8
  7
TEXTSTYLE_2
100
AcDbText
  0
ELLIPSE
  5
26D
330
243
100
AcDbEntity
  8
0
  6
Continuous
 62
     7
100
AcDbEllipse
 10
33.4174784666
 20
73.82069963970001
 30
0.0
 11
-1.942887567899999
 21
0.0
 31
0.0
210
0.0
220
0.0
230
1.0
 40
0.6606458385
 41
0.0
 42
6.283185307179586
  0
ENDBLK
  5
26E
330
243
100
AcDbEntity
  8
0
  6
ByBlock
 62
     0
100
AcDbBlockEnd
  0
BLOCK
  5
26F
330
244
100
AcDbEntity
  8
0
  6
Continuous
 62
     7
100
AcDbBlockBegin
  2
SYMBOL_5_BL2
 70
     0
 10
61.5667068575
 20
97.65801435829999
 30
0.0
  3
SYMBOL_5_BL2
  1

  0
TEXT
  5
270
330
244
100
AcDbEntity
  8
0
  6
Continuous
 62
     7
100
AcDbText
 10
61.0172316575
 20
96.98514201830001
 30
0.0
 40
1.333333852099999
  1
L
  7
TEXTSTYLE_2
100
AcDbText
  0
TEXT
  5
271
330
244
100
AcDbEntity
  8
0
  6
Continuous
 62
     7
100
AcDbText
 10
56.8215340692
 20
96.99755284630001
 30
0.0
 40
1.333333852099999
  1
15
  7
TEXTSTYLE_2
100
AcDbText
  0
TEXT
  5
272
330
244
100
AcDbEntity
  8
0
  6
Continuous
 62
     7
100
AcDbText
 10
64.26743440590001
 20
96.99755284630001
 30
0.0
 40
1.333333852099999
  1
16
  7
TEXTSTYLE_2
100
AcDbText
  0
ELLIPSE
  5
273
330
244
100
AcDbEntity
  8
0
  6
Continuous
 62
     7
100
AcDbEllipse
 10
61.5456269247
 20
97.65180894430001
 30
0.0
 11
-1.942887567899999
 21
0.0
 31
0.0
210
0.0
220
0.0
230
1.0
 40
0.6606458385
 41
0.0
 42
6.283185307179586
  0
ENDBLK
  5
274
330
244
100
AcDbEntity
  8
0
  6
ByBlock
 62
     0
100
AcDbBlockEnd
  0
BLOCK
  5
275
330
245
100
AcDbEntity
  8
0
  6
Continuous
 62
     7
100
AcDbBlockBegin
  2
SYMBOL_2_BL1
 70
     0
 10
124.0039900067
 20
49.01303612180001
 30
0.0
  3
SYMBOL_2_BL1
  1

  0
TEXT
  5
276
330
245
100
AcDbEntity
  8
0
  6
Continuous
 62
     7
100
AcDbText
 10
117.6899297049
 20
51.2580701076
 30
0.0
 40
1.1626666667
  1
INTERNAL USE 
 50
10.0
  7
TEXTSTYLE_3
100
AcDbText
  0
TEXT
  5
277
330
245
100
AcDbEntity
  8
0
  6
Continuous
 62
     7
100
AcDbText
 10
116.9462455009
 20
49.25654892989999
 30
0.0
 40
1.1626666667
  1
DOCUMENT ONLY
 50
10.0
  7
TEXTSTYLE_3
100
AcDbText
  0
TEXT
  5
278
330
245
100
AcDbEntity
  8
0
  6
Continuous
 62
     7
100
AcDbText
 10
122.7309730642
 20
49.0081208794
 30
0.0
 40
1.1626666667
  1
 
 50
10.0
  7
TEXTSTYLE_5
100
AcDbText
  0
TEXT
  5
279
330
245
100
AcDbEntity
  8
0
  6
Continuous
 62
     7
100
AcDbText
 10
114.2863251812
 20
44.8310264731
 30
0.0
 40
1.1626666667
  1
DOCUMENT POUR USAGE
 50
10.0
  7
TEXTSTYLE_3
100
AcDbText
  0
TEXT
  5
27A
330
245
100
AcDbEntity
  8
0
  6
Continuous
 62
     7
100
AcDbText
 10
114.7154246272
 20
42.8142780127
 30
0.0
 40
1.1626666667
  1
A L'INTERNE SEULEMENT
 50
10.0
  7
TEXTSTYLE_3
100
AcDbText
  0
LINE
  5
27B
330
245
100
AcDbEntity
  8
0
  6
Continuous
 62
     7
100
AcDbLine
 10
137.86054173
 20
44.6695025038
 30
0.0
 11
137.8673006627
 21
44.6762614365
 31
0.0
  0
LINE
  5
27C
330
245
100
AcDbEntity
  8
0
  6
Continuous
 62
     7
100
AcDbLine
 10
137.1279721636
 20
44.54033072399999
 30
0.0
 11
137.7768536087
 21
45.18921216919999
 31
0.0
  0
LINE
  5
27D
330
245
100
AcDbEntity
  8
0
  6
Continuous
 62
     7
100
AcDbLine
 10
136.3954025972
 20
44.4111589442
 30
0.0
 11
137.6864065548
 21
45.7021629018
 31
0.0
  0
LINE
  5
27E
330
245
100
AcDbEntity
  8
0
  6
Continuous
 62
     7
100
AcDbLine
 10
135.6628330308
 20
44.28198716439999
 30
0.0
 11
137.5959595009
 21
46.21511363449999
 31
0.0
  0
LINE
  5
27F
330
245
100
AcDbEntity
  8
0
  6
Continuous
 62
     7
100
AcDbLine
 10
134.9302634644
 20
44.1528153846
 30
0.0
 11
137.5055124469
 21
46.72806436720001
 31
0.0
  0
LINE
  5
280
330
245
100
AcDbEntity
  8
0
  6
Continuous
 62
     7
100
AcDbLine
 10
134.1976938979
 20
44.02364360479999
 30
0.0
 11
135.7386977127
 21
45.5646474196
 31
0.0
  0
LINE
  5
281
330
245
100
AcDbEntity
  8
0
  6
Continuous
 62
     7
100
AcDbLine
 10
136.3360429054
 20
46.1619926123
 30
0.0
 11
137.415065393
 21
47.24101509979999
 31
0.0
  0
LINE
  5
282
330
245
100
AcDbEntity
  8
0
  6
Continuous
 62
     7
100
AcDbLine
 10
133.4651243315
 20
43.89447182499999
 30
0.0
 11
135.0061281463
 21
45.43547563979999
 31
0.0
  0
LINE
  5
283
330
245
100
AcDbEntity
  8
0
  6
Continuous
 62
     7
100
AcDbLine
 10
136.2455958515
 20
46.674943345
 30
0.0
 11
137.324618339
 21
47.7539658325
 31
0.0
  0
LINE
  5
284
330
245
100
AcDbEntity
  8
0
  6
Continuous
 62
     7
100
AcDbLine
 10
132.7325547651
 20
43.76530004520001
 30
0.0
 11
134.2735585799
 21
45.30630386
 31
0.0
  0
LINE
  5
285
330
245
100
AcDbEntity
  8
0
  6
Continuous
 62
     7
100
AcDbLine
 10
136.1551487976
 20
47.1878940777
 30
0.0
 11
137.2341712851
 21
48.26691656520001
 31
0.0
  0
LINE
  5
286
330
245
100
AcDbEntity
  8
0
  6
Continuous
 62
     7
100
AcDbLine
 10
131.9999851987
 20
43.63612826539999
 30
0.0
 11
133.5409890135
 21
45.1771320802
 31
0.0
  0
LINE
  5
287
330
245
100
AcDbEntity
  8
0
  6
Continuous
 62
     7
100
AcDbLine
 10
136.0647017436
 20
47.70084481029999
 30
0.0
 11
137.1437242311
 21
48.77986729779999
 31
0.0
  0
LINE
  5
288
330
245
100
AcDbEntity
  8
0
  6
Continuous
 62
     7
100
AcDbLine
 10
131.2674156323
 20
43.50695648560001
 30
0.0
 11
132.8084194471
 21
45.0479603004
 31
0.0
  0
LINE
  5
289
330
245
100
AcDbEntity
  8
0
  6
Continuous
 62
     7
100
AcDbLine
 10
135.9742546897
 20
48.213795543
 30
0.0
 11
137.0532771772
 21
49.2928180305
 31
0.0
  0
LINE
  5
28A
330
245
100
AcDbEntity
  8
0
  6
Continuous
 62
     7
100
AcDbLine
 10
130.5348460659
 20
43.37778470579999
 30
0.0
 11
132.0758498806
 21
44.9187885206
 31
0.0
  0
LINE
  5
28B
330
245
100
AcDbEntity
  8
0
  6
Continuous
 62
     7
100
AcDbLine
 10
135.8838076357
 20
48.72674627569999
 30
0.0
 11
136.9628301232
 21
49.8057687632
 31
0.0
  0
LINE
  5
28C
330
245
100
AcDbEntity
  8
0
  6
Continuous
 62
     7
100
AcDbLine
 10
129.8022764994
 20
43.248612926
 30
0.0
 11
131.3432803142
 21
44.78961674079999
 31
0.0
  0
LINE
  5
28D
330
245
100
AcDbEntity
  8
0
  6
Continuous
 62
     7
100
AcDbLine
 10
135.7933605818
 20
49.23969700829999
 30
0.0
 11
136.8723830693
 21
50.3187194959
 31
0.0
  0
LINE
  5
28E
330
245
100
AcDbEntity
  8
0
  6
Continuous
 62
     7
100
AcDbLine
 10
129.069706933
 20
43.1194411462
 30
0.0
 11
130.6107107478
 21
44.660444961
 31
0.0
  0
LINE
  5
28F
330
245
100
AcDbEntity
  8
0
  6
Continuous
 62
     7
100
AcDbLine
 10
135.7029135278
 20
49.75264774100001
 30
0.0
 11
136.7819360154
 21
50.8316702285
 31
0.0
  0
LINE
  5
290
330
245
100
AcDbEntity
  8
0
  6
Continuous
 62
     7
100
AcDbLine
 10
128.3371373666
 20
42.9902693664
 30
0.0
 11
129.8781411814
 21
44.53127318119999
 31
0.0
  0
LINE
  5
291
330
245
100
AcDbEntity
  8
0
  6
Continuous
 62
     7
100
AcDbLine
 10
135.6124664739
 20
50.26559847369999
 30
0.0
 11
136.6914889613999
 21
51.3446209612
 31
0.0
  0
LINE
  5
292
330
245
100
AcDbEntity
  8
0
  6
Continuous
 62
     7
100
AcDbLine
 10
127.6045678002
 20
42.86109758659999
 30
0.0
 11
129.145571615
 21
44.4021014014
 31
0.0
  0
LINE
  5
293
330
245
100
AcDbEntity
  8
0
  6
Continuous
 62
     7
100
AcDbLine
 10
135.3095868741
 20
50.5661166605
 30
0.0
 11
136.6010419075
 21
51.85757169390001
 31
0.0
  0
LINE
  5
294
330
245
100
AcDbEntity
  8
0
  6
Continuous
 62
     7
100
AcDbLine
 10
126.8719982338
 20
42.73192580679999
 30
0.0
 11
128.4130020485
 21
44.2729296215
 31
0.0
  0
LINE
  5
295
330
245
100
AcDbEntity
  8
0
  6
Continuous
 62
     7
100
AcDbLine
 10
134.5770173077
 20
50.43694488069999
 30
0.0
 11
136.5105948535
 21
52.37052242649999
 31
0.0
  0
LINE
  5
296
330
245
100
AcDbEntity
  8
0
  6
Continuous
 62
     7
100
AcDbLine
 10
126.1394286673
 20
42.60275402699999
 30
0.0
 11
127.6804324821
 21
44.1437578417
 31
0.0
  0
LINE
  5
297
330
245
100
AcDbEntity
  8
0
  6
Continuous
 62
     7
100
AcDbLine
 10
133.8444477412
 20
50.3077731008
 30
0.0
 11
134.8717900395
 21
51.33511539909999
 31
0.0
  0
LINE
  5
298
330
245
100
AcDbEntity
  8
0
  6
Continuous
 62
     7
100
AcDbLine
 10
135.3411253121
 20
51.8044506717
 30
0.0
 11
136.4201477996
 21
52.8834731592
 31
0.0
  0
LINE
  5
299
330
245
100
AcDbEntity
  8
0
  6
Continuous
 62
     7
100
AcDbLine
 10
125.4068591009
 20
42.4735822472
 30
0.0
 11
126.9478629157
 21
44.0145860619
 31
0.0
  0
LINE
  5
29A
330
245
100
AcDbEntity
  8
0
  6
Continuous
 62
     7
100
AcDbLine
 10
133.1118781748
 20
50.178601321
 30
0.0
 11
134.1392202635
 21
51.20594340970001
 31
0.0
  0
LINE
  5
29B
330
245
100
AcDbEntity
  8
0
  6
Continuous
 62
     7
100
AcDbLine
 10
135.2506782580999
 20
52.3174014043
 30
0.0
 11
136.3297007456
 21
53.39642389189999
 31
0.0
  0
LINE
  5
29C
330
245
100
AcDbEntity
  8
0
  6
Continuous
 62
     7
100
AcDbLine
 10
124.6742895345
 20
42.34441046739999
 30
0.0
 11
126.2152933493
 21
43.88541428209999
 31
0.0
  0
LINE
  5
29D
330
245
100
AcDbEntity
  8
0
  6
Continuous
 62
     7
100
AcDbLine
 10
132.3793086084
 20
50.0494295412
 30
0.0
 11
133.4066504874
 21
51.0767714203
 31
0.0
  0
LINE
  5
29E
330
245
100
AcDbEntity
  8
0
  6
Continuous
 62
     7
100
AcDbLine
 10
135.1602312042
 20
52.83035213699999
 30
0.0
 11
136.2392536917
 21
53.9093746245
 31
0.0
  0
LINE
  5
29F
330
245
100
AcDbEntity
  8
0
  6
Continuous
 62
     7
100
AcDbLine
 10
123.9417199681
 20
42.2152386875
 30
0.0
 11
125.4827237829
 21
43.75624250229999
 31
0.0
  0
LINE
  5
2A0
330
245
100
AcDbEntity
  8
0
  6
Continuous
 62
     7
100
AcDbLine
 10
131.646739042
 20
49.9202577614
 30
0.0
 11
132.6740807114
 21
50.9475994309
 31
0.0
  0
LINE
  5
2A1
330
245
100
AcDbEntity
  8
0
  6
Continuous
 62
     7
100
AcDbLine
 10
135.0697841502
 20
53.34330286970001
 30
0.0
 11
136.1488066378
 21
54.4223253572
 31
0.0
  0
LINE
  5
2A2
330
245
100
AcDbEntity
  8
0
  6
Continuous
 62
     7
100
AcDbLine
 10
123.2091504017
 20
42.08606690769999
 30
0.0
 11
124.7501542165
 21
43.6270707225
 31
0.0
  0
LINE
  5
2A3
330
245
100
AcDbEntity
  8
0
  6
Continuous
 62
     7
100
AcDbLine
 10
130.9141694756
 20
49.79108598159999
 30
0.0
 11
131.9415109354
 21
50.81842744140001
 31
0.0
  0
LINE
  5
2A4
330
245
100
AcDbEntity
  8
0
  6
Continuous
 62
     7
100
AcDbLine
 10
134.9793370963
 20
53.85625360239999
 30
0.0
 11
136.0583595838
 21
54.9352760899
 31
0.0
  0
LINE
  5
2A5
330
245
100
AcDbEntity
  8
0
  6
Continuous
 62
     7
100
AcDbLine
 10
122.4765808353
 20
41.95689512789999
 30
0.0
 11
124.01758465
 21
43.4978989427
 31
0.0
  0
LINE
  5
2A6
330
245
100
AcDbEntity
  8
0
  6
Continuous
 62
     7
100
AcDbLine
 10
130.1815999091
 20
49.6619142018
 30
0.0
 11
131.2089411594
 21
50.68925545199999
 31
0.0
  0
LINE
  5
2A7
330
245
100
AcDbEntity
  8
0
  6
Continuous
 62
     7
100
AcDbLine
 10
134.8888900423
 20
54.369204335
 30
0.0
 11
135.9679125299
 21
55.4482268225
 31
0.0
  0
LINE
  5
2A8
330
245
100
AcDbEntity
  8
0
  6
Continuous
 62
     7
100
AcDbLine
 10
121.7440112688
 20
41.8277233481
 30
0.0
 11
123.2850150836
 21
43.3687271629
 31
0.0
  0
LINE
  5
2A9
330
245
100
AcDbEntity
  8
0
  6
Continuous
 62
     7
100
AcDbLine
 10
129.4490303427
 20
49.532742422
 30
0.0
 11
130.4763713833
 21
50.5600834626
 31
0.0
  0
LINE
  5
2AA
330
245
100
AcDbEntity
  8
0
  6
Continuous
 62
     7
100
AcDbLine
 10
134.7984429884
 20
54.8821550677
 30
0.0
 11
135.8774654759
 21
55.9611775552
 31
0.0
  0
LINE
  5
2AB
330
245
100
AcDbEntity
  8
0
  6
Continuous
 62
     7
100
AcDbLine
 10
121.0114417024
 20
41.69855156829999
 30
0.0
 11
122.5524455172
 21
43.2395553831
 31
0.0
  0
LINE
  5
2AC
330
245
100
AcDbEntity
  8
0
  6
Continuous
 62
     7
100
AcDbLine
 10
128.7164607763
 20
49.4035706422
 30
0.0
 11
129.7438016073
 21
50.4309114732
 31
0.0
  0
LINE
  5
2AD
330
245
100
AcDbEntity
  8
0
  6
Continuous
 62
     7
100
AcDbLine
 10
134.7079959345
 20
55.39510580039999
 30
0.0
 11
135.787018422
 21
56.4741282879
 31
0.0
  0
LINE
  5
2AE
330
245
100
AcDbEntity
  8
0
  6
Continuous
 62
     7
100
AcDbLine
 10
120.278872136
 20
41.5693797885
 30
0.0
 11
121.8198759508
 21
43.1103836033
 31
0.0
  0
LINE
  5
2AF
330
245
100
AcDbEntity
  8
0
  6
Continuous
 62
     7
100
AcDbLine
 10
127.9838912099
 20
49.2743988624
 30
0.0
 11
129.0112318313
 21
50.30173948379999
 31
0.0
  0
LINE
  5
2B0
330
245
100
AcDbEntity
  8
0
  6
Continuous
 62
     7
100
AcDbLine
 10
134.6175488805
 20
55.908056533
 30
0.0
 11
135.6965713679999
 21
56.9870790205
 31
0.0
  0
LINE
  5
2B1
330
245
100
AcDbEntity
  8
0
  6
Continuous
 62
     7
100
AcDbLine
 10
119.5463025696
 20
41.44020800869999
 30
0.0
 11
121.0873063844
 21
42.9812118235
 31
0.0
  0
LINE
  5
2B2
330
245
100
AcDbEntity
  8
0
  6
Continuous
 62
     7
100
AcDbLine
 10
127.2513216435
 20
49.1452270826
 30
0.0
 11
128.2786620552
 21
50.1725674944
 31
0.0
  0
LINE
  5
2B3
330
245
100
AcDbEntity
  8
0
  6
Continuous
 62
     7
100
AcDbLine
 10
134.4426727791
 20
56.33657821819999
 30
0.0
 11
135.6061243141
 21
57.5000297532
 31
0.0
  0
LINE
  5
2B4
330
245
100
AcDbEntity
  8
0
  6
Continuous
 62
     7
100
AcDbLine
 10
118.8137330032
 20
41.3110362289
 30
0.0
 11
120.3547368179
 21
42.8520400437
 31
0.0
  0
LINE
  5
2B5
330
245
100
AcDbEntity
  8
0
  6
Continuous
 62
     7
100
AcDbLine
 10
126.5187520771
 20
49.0160553028
 30
0.0
 11
127.5460922792
 21
50.0433955049
 31
0.0
  0
LINE
  5
2B6
330
245
100
AcDbEntity
  8
0
  6
Continuous
 62
     7
100
AcDbLine
 10
133.7101032127
 20
56.2074064384
 30
0.0
 11
135.2511070275
 21
57.7484102532
 31
0.0
  0
LINE
  5
2B7
330
245
100
AcDbEntity
  8
0
  6
Continuous
 62
     7
100
AcDbLine
 10
118.0811634368
 20
41.1818644491
 30
0.0
 11
119.6221672515
 21
42.7228682639
 31
0.0
  0
LINE
  5
2B8
330
245
100
AcDbEntity
  8
0
  6
Continuous
 62
     7
100
AcDbLine
 10
125.7861825106
 20
48.886883523
 30
0.0
 11
126.8135225032
 21
49.9142235155
 31
0.0
  0
LINE
  5
2B9
330
245
100
AcDbEntity
  8
0
  6
Continuous
 62
     7
100
AcDbLine
 10
132.9775336463
 20
56.0782346586
 30
0.0
 11
134.518537461
 21
57.6192384734
 31
0.0
  0
LINE
  5
2BA
330
245
100
AcDbEntity
  8
0
  6
Continuous
 62
     7
100
AcDbLine
 10
117.3485938703
 20
41.0526926693
 30
0.0
 11
118.8895976851
 21
42.59369648409999
 31
0.0
  0
LINE
  5
2BB
330
245
100
AcDbEntity
  8
0
  6
Continuous
 62
     7
100
AcDbLine
 10
125.0536129442
 20
48.7577117432
 30
0.0
 11
126.0809527272
 21
49.7850515261
 31
0.0
  0
LINE
  5
2BC
330
245
100
AcDbEntity
  8
0
  6
Continuous
 62
     7
100
AcDbLine
 10
132.2449640798
 20
55.9490628788
 30
0.0
 11
133.7859678946
 21
57.49006669359999
 31
0.0
  0
LINE
  5
2BD
330
245
100
AcDbEntity
  8
0
  6
Continuous
 62
     7
100
AcDbLine
 10
116.6160243039
 20
40.9235208895
 30
0.0
 11
118.1570281187
 21
42.46452470429999
 31
0.0
  0
LINE
  5
2BE
330
245
100
AcDbEntity
  8
0
  6
Continuous
 62
     7
100
AcDbLine
 10
124.3210433778
 20
48.6285399634
 30
0.0
 11
125.3483829511
 21
49.6558795367
 31
0.0
  0
LINE
  5
2BF
330
245
100
AcDbEntity
  8
0
  6
Continuous
 62
     7
100
AcDbLine
 10
131.5123945134
 20
55.819891099
 30
0.0
 11
133.0533983282
 21
57.3608949138
 31
0.0
  0
LINE
  5
2C0
330
245
100
AcDbEntity
  8
0
  6
Continuous
 62
     7
100
AcDbLine
 10
115.8834547375
 20
40.79434910969999
 30
0.0
 11
117.4244585523
 21
42.3353529245
 31
0.0
  0
LINE
  5
2C1
330
245
100
AcDbEntity
  8
0
  6
Continuous
 62
     7
100
AcDbLine
 10
123.5884738114
 20
48.49936818359999
 30
0.0
 11
124.6158131751
 21
49.52670754729999
 31
0.0
  0
LINE
  5
2C2
330
245
100
AcDbEntity
  8
0
  6
Continuous
 62
     7
100
AcDbLine
 10
130.779824947
 20
55.69071931919999
 30
0.0
 11
132.3208287618
 21
57.231723134
 31
0.0
  0
LINE
  5
2C3
330
245
100
AcDbEntity
  8
0
  6
Continuous
 62
     7
100
AcDbLine
 10
115.1508851711
 20
40.66517732989999
 30
0.0
 11
116.6918889859
 21
42.20618114469999
 31
0.0
  0
LINE
  5
2C4
330
245
100
AcDbEntity
  8
0
  6
Continuous
 62
     7
100
AcDbLine
 10
122.855904245
 20
48.3701964038
 30
0.0
 11
123.8832433991
 21
49.3975355579
 31
0.0
  0
LINE
  5
2C5
330
245
100
AcDbEntity
  8
0
  6
Continuous
 62
     7
100
AcDbLine
 10
130.0472553806
 20
55.56154753939999
 30
0.0
 11
131.5882591954
 21
57.1025513542
 31
0.0
  0
LINE
  5
2C6
330
245
100
AcDbEntity
  8
0
  6
Continuous
 62
     7
100
AcDbLine
 10
114.4183156047
 20
40.5360055501
 30
0.0
 11
115.9593194194
 21
42.0770093649
 31
0.0
  0
LINE
  5
2C7
330
245
100
AcDbEntity
  8
0
  6
Continuous
 62
     7
100
AcDbLine
 10
122.1233346785
 20
48.24102462399999
 30
0.0
 11
123.150673623
 21
49.2683635685
 31
0.0
  0
LINE
  5
2C8
330
245
100
AcDbEntity
  8
0
  6
Continuous
 62
     7
100
AcDbLine
 10
129.3146858142
 20
55.4323757596
 30
0.0
 11
130.855689629
 21
56.9733795744
 31
0.0
  0
LINE
  5
2C9
330
245
100
AcDbEntity
  8
0
  6
Continuous
 62
     7
100
AcDbLine
 10
113.6857460382
 20
40.4068337703
 30
0.0
 11
115.226749853
 21
41.947837585
 31
0.0
  0
LINE
  5
2CA
330
245
100
AcDbEntity
  8
0
  6
Continuous
 62
     7
100
AcDbLine
 10
121.3907651121
 20
48.1118528442
 30
0.0
 11
122.418103847
 21
49.139191579
 31
0.0
  0
LINE
  5
2CB
330
245
100
AcDbEntity
  8
0
  6
Continuous
 62
     7
100
AcDbLine
 10
128.5821162478
 20
55.30320397979999
 30
0.0
 11
130.1231200625
 21
56.8442077946
 31
0.0
  0
LINE
  5
2CC
330
245
100
AcDbEntity
  8
0
  6
Continuous
 62
     7
100
AcDbLine
 10
112.9531764718
 20
40.2776619905
 30
0.0
 11
114.4941802866
 21
41.8186658052
 31
0.0
  0
LINE
  5
2CD
330
245
100
AcDbEntity
  8
0
  6
Continuous
 62
     7
100
AcDbLine
 10
120.6581955457
 20
47.9826810644
 30
0.0
 11
121.685534071
 21
49.0100195896
 31
0.0
  0
LINE
  5
2CE
330
245
100
AcDbEntity
  8
0
  6
Continuous
 62
     7
100
AcDbLine
 10
127.8495466813
 20
55.17403220000001
 30
0.0
 11
129.3905504961
 21
56.71503601479999
 31
0.0
  0
LINE
  5
2CF
330
245
100
AcDbEntity
  8
0
  6
Continuous
 62
     7
100
AcDbLine
 10
112.4018556993
 20
40.3297390046
 30
0.0
 11
113.7616107202
 21
41.6894940254
 31
0.0
  0
LINE
  5
2D0
330
245
100
AcDbEntity
  8
0
  6
Continuous
 62
     7
100
AcDbLine
 10
119.9256259793
 20
47.85350928449999
 30
0.0
 11
120.952964295
 21
48.8808476002
 31
0.0
  0
LINE
  5
2D1
330
245
100
AcDbEntity
  8
0
  6
Continuous
 62
     7
100
AcDbLine
 10
127.1169771149
 20
55.0448604202
 30
0.0
 11
128.6579809297
 21
56.5858642349
 31
0.0
  0
LINE
  5
2D2
330
245
100
AcDbEntity
  8
0
  6
Continuous
 62
     7
100
AcDbLine
 10
112.3114086454
 20
40.84268973719999
 30
0.0
 11
113.3904311329
 21
41.92171222469999
 31
0.0
  0
LINE
  5
2D3
330
245
100
AcDbEntity
  8
0
  6
Continuous
 62
     7
100
AcDbLine
 10
119.1930564129
 20
47.7243375047
 30
0.0
 11
120.2203945189
 21
48.7516756108
 31
0.0
  0
LINE
  5
2D4
330
245
100
AcDbEntity
  8
0
  6
Continuous
 62
     7
100
AcDbLine
 10
126.3844075485
 20
54.9156886404
 30
0.0
 11
127.9254113633
 21
56.4566924551
 31
0.0
  0
LINE
  5
2D5
330
245
100
AcDbEntity
  8
0
  6
Continuous
 62
     7
100
AcDbLine
 10
112.2209615914
 20
41.35564046989999
 30
0.0
 11
113.2999840789
 21
42.4346629574
 31
0.0
  0
LINE
  5
2D6
330
245
100
AcDbEntity
  8
0
  6
Continuous
 62
     7
100
AcDbLine
 10
118.4604868465
 20
47.59516572489999
 30
0.0
 11
119.4878247429
 21
48.6225036214
 31
0.0
  0
LINE
  5
2D7
330
245
100
AcDbEntity
  8
0
  6
Continuous
 62
     7
100
AcDbLine
 10
125.6518379821
 20
54.7865168606
 30
0.0
 11
127.1928417969
 21
56.3275206753
 31
0.0
  0
LINE
  5
2D8
330
245
100
AcDbEntity
  8
0
  6
Continuous
 62
     7
100
AcDbLine
 10
112.1305145375
 20
41.8685912026
 30
0.0
 11
113.209537025
 21
42.94761369009999
 31
0.0
  0
LINE
  5
2D9
330
245
100
AcDbEntity
  8
0
  6
Continuous
 62
     7
100
AcDbLine
 10
117.72791728
 20
47.4659939451
 30
0.0
 11
118.7552549669
 21
48.493331632
 31
0.0
  0
LINE
  5
2DA
330
245
100
AcDbEntity
  8
0
  6
Continuous
 62
     7
100
AcDbLine
 10
124.9192684157
 20
54.6573450808
 30
0.0
 11
126.4602722304
 21
56.1983488955
 31
0.0
  0
LINE
  5
2DB
330
245
100
AcDbEntity
  8
0
  6
Continuous
 62
     7
100
AcDbLine
 10
112.0400674835
 20
42.38154193519999
 30
0.0
 11
113.119089971
 21
43.4605644228
 31
0.0
  0
LINE
  5
2DC
330
245
100
AcDbEntity
  8
0
  6
Continuous
 62
     7
100
AcDbLine
 10
116.9953477136
 20
47.3368221653
 30
0.0
 11
118.0226851908
 21
48.3641596425
 31
0.0
  0
LINE
  5
2DD
330
245
100
AcDbEntity
  8
0
  6
Continuous
 62
     7
100
AcDbLine
 10
124.1866988492
 20
54.528173301
 30
0.0
 11
125.727702664
 21
56.06917711569999
 31
0.0
  0
LINE
  5
2DE
330
245
100
AcDbEntity
  8
0
  6
Continuous
 62
     7
100
AcDbLine
 10
111.9496204296
 20
42.8944926679
 30
0.0
 11
113.0286429171
 21
43.9735151554
 31
0.0
  0
LINE
  5
2DF
330
245
100
AcDbEntity
  8
0
  6
Continuous
 62
     7
100
AcDbLine
 10
116.2627781472
 20
47.2076503855
 30
0.0
 11
117.2901154148
 21
48.2349876531
 31
0.0
  0
LINE
  5
2E0
330
245
100
AcDbEntity
  8
0
  6
Continuous
 62
     7
100
AcDbLine
 10
123.4541292828
 20
54.39900152109999
 30
0.0
 11
124.9951330976
 21
55.9400053359
 31
0.0
  0
LINE
  5
2E1
330
245
100
AcDbEntity
  8
0
  6
Continuous
 62
     7
100
AcDbLine
 10
111.8591733756
 20
43.4074434006
 30
0.0
 11
112.9381958632
 21
44.4864658881
 31
0.0
  0
LINE
  5
2E2
330
245
100
AcDbEntity
  8
0
  6
Continuous
 62
     7
100
AcDbLine
 10
115.5302085808
 20
47.0784786057
 30
0.0
 11
116.5575456388
 21
48.1058156637
 31
0.0
  0
LINE
  5
2E3
330
245
100
AcDbEntity
  8
0
  6
Continuous
 62
     7
100
AcDbLine
 10
122.7215597164
 20
54.2698297413
 30
0.0
 11
124.2625635312
 21
55.81083355609999
 31
0.0
  0
LINE
  5
2E4
330
245
100
AcDbEntity
  8
0
  6
Continuous
 62
     7
100
AcDbLine
 10
111.7687263217
 20
43.9203941332
 30
0.0
 11
112.8477488092
 21
44.9994166208
 31
0.0
  0
LINE
  5
2E5
330
245
100
AcDbEntity
  8
0
  6
Continuous
 62
     7
100
AcDbLine
 10
114.7976390144
 20
46.9493068259
 30
0.0
 11
115.8249758628
 21
47.9766436743
 31
0.0
  0
LINE
  5
2E6
330
245
100
AcDbEntity
  8
0
  6
Continuous
 62
     7
100
AcDbLine
 10
121.98899015
 20
54.1406579615
 30
0.0
 11
123.5299939648
 21
55.68166177630001
 31
0.0
  0
LINE
  5
2E7
330
245
100
AcDbEntity
  8
0
  6
Continuous
 62
     7
100
AcDbLine
 10
111.6782792678
 20
44.4333448659
 30
0.0
 11
112.7573017553
 21
45.5123673534
 31
0.0
  0
LINE
  5
2E8
330
245
100
AcDbEntity
  8
0
  6
Continuous
 62
     7
100
AcDbLine
 10
114.065069448
 20
46.8201350461
 30
0.0
 11
115.0924060867
 21
47.8474716849
 31
0.0
  0
LINE
  5
2E9
330
245
100
AcDbEntity
  8
0
  6
Continuous
 62
     7
100
AcDbLine
 10
121.2564205836
 20
54.0114861817
 30
0.0
 11
122.7974243984
 21
55.55248999649999
 31
0.0
  0
LINE
  5
2EA
330
245
100
AcDbEntity
  8
0
  6
Continuous
 62
     7
100
AcDbLine
 10
111.5878322138
 20
44.94629559859999
 30
0.0
 11
112.6668547013
 21
46.02531808609999
 31
0.0
  0
LINE
  5
2EB
330
245
100
AcDbEntity
  8
0
  6
Continuous
 62
     7
100
AcDbLine
 10
113.3324998815
 20
46.6909632663
 30
0.0
 11
114.3598363107
 21
47.7182996955
 31
0.0
  0
LINE
  5
2EC
330
245
100
AcDbEntity
  8
0
  6
Continuous
 62
     7
100
AcDbLine
 10
120.5238510172
 20
53.8823144019
 30
0.0
 11
122.0648548319
 21
55.4233182167
 31
0.0
  0
LINE
  5
2ED
330
245
100
AcDbEntity
  8
0
  6
Continuous
 62
     7
100
AcDbLine
 10
111.4973851599
 20
45.4592463312
 30
0.0
 11
112.5764076474
 21
46.53826881879999
 31
0.0
  0
LINE
  5
2EE
330
245
100
AcDbEntity
  8
0
  6
Continuous
 62
     7
100
AcDbLine
 10
112.5999303151
 20
46.56179148649999
 30
0.0
 11
113.6272665347
 21
47.58912770600001
 31
0.0
  0
LINE
  5
2EF
330
245
100
AcDbEntity
  8
0
  6
Continuous
 62
     7
100
AcDbLine
 10
119.7912814507
 20
53.7531426221
 30
0.0
 11
121.3322852655
 21
55.2941464369
 31
0.0
  0
LINE
  5
2F0
330
245
100
AcDbEntity
  8
0
  6
Continuous
 62
     7
100
AcDbLine
 10
111.4069381059
 20
45.9721970639
 30
0.0
 11
112.8946967586
 21
47.45995571659999
 31
0.0
  0
LINE
  5
2F1
330
245
100
AcDbEntity
  8
0
  6
Continuous
 62
     7
100
AcDbLine
 10
119.0587118843
 20
53.6239708423
 30
0.0
 11
120.5997156991
 21
55.1649746571
 31
0.0
  0
LINE
  5
2F2
330
245
100
AcDbEntity
  8
0
  6
Continuous
 62
     7
100
AcDbLine
 10
111.316491052
 20
46.4851477966
 30
0.0
 11
112.3955135395
 21
47.5641702841
 31
0.0
  0
LINE
  5
2F3
330
245
100
AcDbEntity
  8
0
  6
Continuous
 62
     7
100
AcDbLine
 10
118.3261423179
 20
53.4947990625
 30
0.0
 11
119.8671461327
 21
55.03580287729999
 31
0.0
  0
LINE
  5
2F4
330
245
100
AcDbEntity
  8
0
  6
Continuous
 62
     7
100
AcDbLine
 10
111.226043998
 20
46.9980985293
 30
0.0
 11
112.3050664856
 21
48.07712101679999
 31
0.0
  0
LINE
  5
2F5
330
245
100
AcDbEntity
  8
0
  6
Continuous
 62
     7
100
AcDbLine
 10
117.5935727515
 20
53.3656272827
 30
0.0
 11
119.1345765663
 21
54.90663109749999
 31
0.0
  0
LINE
  5
2F6
330
245
100
AcDbEntity
  8
0
  6
Continuous
 62
     7
100
AcDbLine
 10
111.1355969441
 20
47.5110492619
 30
0.0
 11
112.2146194316
 21
48.5900717494
 31
0.0
  0
LINE
  5
2F7
330
245
100
AcDbEntity
  8
0
  6
Continuous
 62
     7
100
AcDbLine
 10
116.8610031851
 20
53.2364555029
 30
0.0
 11
118.4020069998
 21
54.77745931770001
 31
0.0
  0
LINE
  5
2F8
330
245
100
AcDbEntity
  8
0
  6
Continuous
 62
     7
100
AcDbLine
 10
111.0451498902
 20
48.0239999946
 30
0.0
 11
112.1241723777
 21
49.1030224821
 31
0.0
  0
LINE
  5
2F9
330
245
100
AcDbEntity
  8
0
  6
Continuous
 62
     7
100
AcDbLine
 10
116.1284336187
 20
53.1072837231
 30
0.0
 11
117.6694374334
 21
54.64828753789999
 31
0.0
  0
LINE
  5
2FA
330
245
100
AcDbEntity
  8
0
  6
Continuous
 62
     7
100
AcDbLine
 10
110.9547028362
 20
48.53695072729999
 30
0.0
 11
112.0337253237
 21
49.61597321479999
 31
0.0
  0
LINE
  5
2FB
330
245
100
AcDbEntity
  8
0
  6
Continuous
 62
     7
100
AcDbLine
 10
115.3958640522
 20
52.9781119433
 30
0.0
 11
116.936867867
 21
54.51911575810001
 31
0.0
  0
LINE
  5
2FC
330
245
100
AcDbEntity
  8
0
  6
Continuous
 62
     7
100
AcDbLine
 10
110.8642557823
 20
49.0499014599
 30
0.0
 11
111.9432782698
 21
50.12892394739999
 31
0.0
  0
LINE
  5
2FD
330
245
100
AcDbEntity
  8
0
  6
Continuous
 62
     7
100
AcDbLine
 10
114.6632944858
 20
52.8489401635
 30
0.0
 11
116.2042983006
 21
54.3899439783
 31
0.0
  0
LINE
  5
2FE
330
245
100
AcDbEntity
  8
0
  6
Continuous
 62
     7
100
AcDbLine
 10
110.7738087283
 20
49.5628521926
 30
0.0
 11
111.8528312158
 21
50.6418746801
 31
0.0
  0
LINE
  5
2FF
330
245
100
AcDbEntity
  8
0
  6
Continuous
 62
     7
100
AcDbLine
 10
113.9307249194
 20
52.7197683837
 30
0.0
 11
115.4717287342
 21
54.2607721985
 31
0.0
  0
LINE
  5
300
330
245
100
AcDbEntity
  8
0
  6
Continuous
 62
     7
100
AcDbLine
 10
110.6833616744
 20
50.0758029253
 30
0.0
 11
111.7623841619
 21
51.15482541279999
 31
0.0
  0
LINE
  5
301
330
245
100
AcDbEntity
  8
0
  6
Continuous
 62
     7
100
AcDbLine
 10
113.198155353
 20
52.59059660390001
 30
0.0
 11
114.7391591678
 21
54.13160041859999
 31
0.0
  0
LINE
  5
302
330
245
100
AcDbEntity
  8
0
  6
Continuous
 62
     7
100
AcDbLine
 10
110.5929146204
 20
50.5887536579
 30
0.0
 11
111.6719371079
 21
51.66777614549999
 31
0.0
  0
LINE
  5
303
330
245
100
AcDbEntity
  8
0
  6
Continuous
 62
     7
100
AcDbLine
 10
112.4655857866
 20
52.4614248241
 30
0.0
 11
114.0065896013
 21
54.00242863879999
 31
0.0
  0
LINE
  5
304
330
245
100
AcDbEntity
  8
0
  6
Continuous
 62
     7
100
AcDbLine
 10
110.5024675665
 20
51.1017043906
 30
0.0
 11
111.581490054
 21
52.1807268781
 31
0.0
  0
LINE
  5
305
330
245
100
AcDbEntity
  8
0
  6
Continuous
 62
     7
100
AcDbLine
 10
111.7330162201
 20
52.3322530443
 30
0.0
 11
113.2740200349
 21
53.87325685899999
 31
0.0
  0
LINE
  5
306
330
245
100
AcDbEntity
  8
0
  6
Continuous
 62
     7
100
AcDbLine
 10
110.4120205125
 20
51.6146551233
 30
0.0
 11
112.5414504685
 21
53.7440850792
 31
0.0
  0
LINE
  5
307
330
245
100
AcDbEntity
  8
0
  6
Continuous
 62
     7
100
AcDbLine
 10
110.3215734586
 20
52.1276058559
 30
0.0
 11
111.8088809021
 21
53.61491329939999
 31
0.0
  0
LINE
  5
308
330
245
100
AcDbEntity
  8
0
  6
Continuous
 62
     7
100
AcDbLine
 10
110.2311264047
 20
52.6405565886
 30
0.0
 11
111.0763113357
 21
53.4857415196
 31
0.0
  0
LINE
  5
309
330
245
100
AcDbEntity
  8
0
  6
Continuous
 62
     7
100
AcDbLine
 10
110.1406793507
 20
53.1535073213
 30
0.0
 11
110.3437417693
 21
53.35656973979999
 31
0.0
  0
ENDBLK
  5
30A
330
245
100
AcDbEntity
  8
0
  6
ByBlock
 62
     0
100
AcDbBlockEnd
  0
BLOCK
  5
30B
330
246
100
AcDbEntity
  8
0
  6
Continuous
 62
     7
100
AcDbBlockBegin
  2
SYMBOL_0_BL0
 70
     0
 10
160.6664912223
 20
55.3345526721
 30
0.0
  3
SYMBOL_0_BL0
  1

  0
TEXT
  5
30C
330
246
100
AcDbEntity
  8
0
  6
Continuous
 62
     7
100
AcDbText
 10
144.4187061461
 20
63.10798606319999
 30
0.0
 40
0.5
  1
Infomations Techniques/Technical Infomations
  7
TEXTSTYLE_2
100
AcDbText
  0
TEXT
  5
30D
330
246
100
AcDbEntity
  8
0
  6
Continuous
 62
     7
100
AcDbText
 10
144.6664912222999
 20
61.6678860054
 30
0.0
 40
0.6666666667
  1
NOMBRE DE JETS:     
  7
TEXTSTYLE_2
100
AcDbText
  0
TEXT
  5
30E
330
246
100
AcDbEntity
  8
0
  6
Continuous
 62
     7
100
AcDbText
 10
154.5109356667
 20
61.6678860054
 30
0.0
 40
0.6666666667
  1
44
  7
TEXTSTYLE_2
100
AcDbText
  0
TEXT
  5
30F
330
246
100
AcDbEntity
  8
0
  6
Continuous
 62
     7
100
AcDbText
 10
144.6664912222999
 20
60.6678860054
 30
0.0
 40
0.6666666667
  1
 
  7
TEXTSTYLE_2
100
AcDbText
  0
TEXT
  5
310
330
246
100
AcDbEntity
  8
0
  6
Continuous
 62
     7
100
AcDbText
 10
144.6664912222999
 20
59.6678860054
 30
0.0
 40
0.6666666667
  1
NIVEAU D'EAU              GALLONS(US)        LITRES        GALLONS(UK)
  7
TEXTSTYLE_2
100
AcDbText
  0
TEXT
  5
311
330
246
100
AcDbEntity
  8
0
  6
Continuous
 62
     7
100
AcDbText
 10
144.6664912222999
 20
58.6678860054
 30
0.0
 40
0.6666666667
  1
PLEIN
  7
TEXTSTYLE_2
100
AcDbText
  0
TEXT
  5
312
330
246
100
AcDbEntity
  8
0
  6
Continuous
 62
     7
100
AcDbText
 10
144.6664912222999
 20
57.66788600539999
 30
0.0
 40
0.6666666667
  1
HAUT T.PLEIN
  7
TEXTSTYLE_2
100
AcDbText
  0
TEXT
  5
313
330
246
100
AcDbEntity
  8
0
  6
Continuous
 62
     7
100
AcDbText
 10
144.6664912222999
 20
56.6678860054
 30
0.0
 40
0.6666666667
  1
MILIEU T.PLEIN
  7
TEXTSTYLE_2
100
AcDbText
  0
TEXT
  5
314
330
246
100
AcDbEntity
  8
0
  6
Continuous
 62
     7
100
AcDbText
 10
144.6664912222999
 20
55.6678860054
 30
0.0
 40
0.6666666667
  1
BAS T.PLEIN
  7
TEXTSTYLE_2
100
AcDbText
  0
TEXT
  5
315
330
246
100
AcDbEntity
  8
0
  6
Continuous
 62
     7
100
AcDbText
 10
144.6664912222999
 20
54.6678860054
 30
0.0
 40
0.6666666667
  1
3" EN BAS T.PLEIN
  7
TEXTSTYLE_2
100
AcDbText
  0
TEXT
  5
316
330
246
100
AcDbEntity
  8
0
  6
Continuous
 62
     7
100
AcDbText
 10
144.6664912222999
 20
53.6678860054
 30
0.0
 40
0.6666666667
  1
 
  7
TEXTSTYLE_2
100
AcDbText
  0
TEXT
  5
317
330
246
100
AcDbEntity
  8
0
  6
Continuous
 62
     7
100
AcDbText
 10
144.4663297167
 20
53.1210990806
 30
0.0
 40
0.5
  1
Legende/Legend
  7
TEXTSTYLE_2
100
AcDbText
  0
TEXT
  5
318
330
246
100
AcDbEntity
  8
0
  6
Continuous
 62
     7
100
AcDbText
 10
150.9951646608
 20
51.6098341029
 30
0.0
 40
0.6666666667
  1
ZONE DE ROBINETTERIE
  7
TEXTSTYLE_2
100
AcDbText
  0
TEXT
  5
319
330
246
100
AcDbEntity
  8
0
  6
Continuous
 62
     7
100
AcDbText
 10
145.9154400938
 20
50.1145895885
 30
0.0
 40
0.6666666667
  1
L   :  SYSTEME LED       DC   :  DOUBLE DOSSIER CHAUFFANT
  7
TEXTSTYLE_2
100
AcDbText
  0
TEXT
  5
31A
330
246
100
AcDbEntity
  8
0
  6
Continuous
 62
     7
100
AcDbText
 10
145.9154400938
 20
48.7812562551
 30
0.0
 40
0.6666666667
  1
C   :  CONTROLE
  7
TEXTSTYLE_2
100
AcDbText
  0
TEXT
  5
31B
330
246
100
AcDbEntity
  8
0
  6
Continuous
 62
     7
100
AcDbText
 10
145.9154400938
 20
47.4479229218
 30
0.0
 40
0.6666666667
  1
T   :  MOTEUR
  7
TEXTSTYLE_2
100
AcDbText
  0
TEXT
  5
31C
330
246
100
AcDbEntity
  8
0
  6
Continuous
 62
     7
100
AcDbText
 10
157.4991879216
 20
58.6678860054
 30
0.0
 40
0.6666666667
  1
91
  7
TEXTSTYLE_2
100
AcDbText
  0
TEXT
  5
31D
330
246
100
AcDbEntity
  8
0
  6
Continuous
 62
     7
100
AcDbText
 10
157.4991879216
 20
57.66788600539999
 30
0.0
 40
0.6666666667
  1
71
  7
TEXTSTYLE_2
100
AcDbText
  0
TEXT
  5
31E
330
246
100
AcDbEntity
  8
0
  6
Continuous
 62
     7
100
AcDbText
 10
157.4991879216
 20
56.6678860054
 30
0.0
 40
0.6666666667
  1
70
  7
TEXTSTYLE_2
100
AcDbText
  0
TEXT
  5
31F
330
246
100
AcDbEntity
  8
0
  6
Continuous
 62
     7
100
AcDbText
 10
157.4991879216
 20
55.6678860054
 30
0.0
 40
0.6666666667
  1
69
  7
TEXTSTYLE_2
100
AcDbText
  0
TEXT
  5
320
330
246
100
AcDbEntity
  8
0
  6
Continuous
 62
     7
100
AcDbText
 10
157.4991879216
 20
54.6678860054
 30
0.0
 40
0.6666666667
  1
53
  7
TEXTSTYLE_2
100
AcDbText
  0
TEXT
  5
321
330
246
100
AcDbEntity
  8
0
  6
Continuous
 62
     7
100
AcDbText
 10
164.4193938653
 20
58.6849654075
 30
0.0
 40
0.6666666667
  1
346
  7
TEXTSTYLE_2
100
AcDbText
  0
TEXT
  5
322
330
246
100
AcDbEntity
  8
0
  6
Continuous
 62
     7
100
AcDbText
 10
164.4193938653
 20
57.6849654075
 30
0.0
 40
0.6666666667
  1
269
  7
TEXTSTYLE_2
100
AcDbText
  0
TEXT
  5
323
330
246
100
AcDbEntity
  8
0
  6
Continuous
 62
     7
100
AcDbText
 10
164.4193938653
 20
56.6849654075
 30
0.0
 40
0.6666666667
  1
265
  7
TEXTSTYLE_2
100
AcDbText
  0
TEXT
  5
324
330
246
100
AcDbEntity
  8
0
  6
Continuous
 62
     7
100
AcDbText
 10
164.4193938653
 20
55.6849654075
 30
0.0
 40
0.6666666667
  1
261
  7
TEXTSTYLE_2
100
AcDbText
  0
TEXT
  5
325
330
246
100
AcDbEntity
  8
0
  6
Continuous
 62
     7
100
AcDbText
 10
164.4193938653
 20
54.6849654075
 30
0.0
 40
0.6666666667
  1
200
  7
TEXTSTYLE_2
100
AcDbText
  0
TEXT
  5
326
330
246
100
AcDbEntity
  8
0
  6
Continuous
 62
     7
100
AcDbText
 10
171.3640328028
 20
58.6678860054
 30
0.0
 40
0.6666666667
  1
76
  7
TEXTSTYLE_2
100
AcDbText
  0
TEXT
  5
327
330
246
100
AcDbEntity
  8
0
  6
Continuous
 62
     7
100
AcDbText
 10
171.3640328028
 20
57.66788600539999
 30
0.0
 40
0.6666666667
  1
59
  7
TEXTSTYLE_2
100
AcDbText
  0
TEXT
  5
328
330
246
100
AcDbEntity
  8
0
  6
Continuous
 62
     7
100
AcDbText
 10
171.3640328028
 20
56.6678860054
 30
0.0
 40
0.6666666667
  1
58
  7
TEXTSTYLE_2
100
AcDbText
  0
TEXT
  5
329
330
246
100
AcDbEntity
  8
0
  6
Continuous
 62
     7
100
AcDbText
 10
171.3640328028
 20
55.6678860054
 30
0.0
 40
0.6666666667
  1
57
  7
TEXTSTYLE_2
100
AcDbText
  0
TEXT
  5
32A
330
246
100
AcDbEntity
  8
0
  6
Continuous
 62
     7
100
AcDbText
 10
171.3640328028
 20
54.6678860054
 30
0.0
 40
0.6666666667
  1
44
  7
TEXTSTYLE_2
100
AcDbText
  0
LINE
  5
32B
330
246
100
AcDbEntity
  8
0
  6
Continuous
 62
     7
100
AcDbLine
 10
143.9998245556
 20
64.0012193387
 30
0.0
 11
143.9998245556
 21
46.6678860054
 31
0.0
  0
LINE
  5
32C
330
246
100
AcDbEntity
  8
0
  6
Continuous
 62
     7
100
AcDbLine
 10
143.9998245556
 20
64.0012193387
 30
0.0
 11
177.333157889
 21
64.0012193387
 31
0.0
  0
LINE
  5
32D
330
246
100
AcDbEntity
  8
0
  6
Continuous
 62
     7
100
AcDbLine
 10
177.333157889
 20
64.0012193387
 30
0.0
 11
177.333157889
 21
46.6678860054
 31
0.0
  0
LINE
  5
32E
330
246
100
AcDbEntity
  8
0
  6
Continuous
 62
     7
100
AcDbLine
 10
143.9998245556
 20
46.6678860054
 30
0.0
 11
177.333157889
 21
46.6678860054
 31
0.0
  0
LINE
  5
32F
330
246
100
AcDbEntity
  8
0
  6
Continuous
 62
     7
100
AcDbLine
 10
145.333157889
 20
54.0012193387
 30
0.0
 11
175.9998245556
 21
54.0012193387
 31
0.0
  0
LINE
  5
330
330
246
100
AcDbEntity
  8
0
  6
Continuous
 62
     7
100
AcDbLine
 10
145.333157889
 20
61.00121933869999
 30
0.0
 11
175.9998245556
 21
61.00121933869999
 31
0.0
  0
LINE
  5
331
330
246
100
AcDbEntity
  8
0
  6
Continuous
 62
     7
100
AcDbLine
 10
144.8087311149
 20
52.3793838431
 30
0.0
 11
144.4397103726
 21
52.0103631008
 31
0.0
  0
LINE
  5
332
330
246
100
AcDbEntity
  8
0
  6
Continuous
 62
     7
100
AcDbLine
 10
145.4753977816
 20
52.3793838431
 30
0.0
 11
144.6773819911
 21
51.5813680526
 31
0.0
  0
LINE
  5
333
330
246
100
AcDbEntity
  8
0
  6
Continuous
 62
     7
100
AcDbLine
 10
146.1420644482
 20
52.3793838431
 30
0.0
 11
145.3440486578
 21
51.5813680526
 31
0.0
  0
LINE
  5
334
330
246
100
AcDbEntity
  8
0
  6
Continuous
 62
     7
100
AcDbLine
 10
146.8087311149
 20
52.3793838431
 30
0.0
 11
146.0107153245
 21
51.5813680526
 31
0.0
  0
LINE
  5
335
330
246
100
AcDbEntity
  8
0
  6
Continuous
 62
     7
100
AcDbLine
 10
147.4753977816
 20
52.3793838431
 30
0.0
 11
146.6773819911
 21
51.5813680526
 31
0.0
  0
LINE
  5
336
330
246
100
AcDbEntity
  8
0
  6
Continuous
 62
     7
100
AcDbLine
 10
148.1420644482
 20
52.3793838431
 30
0.0
 11
147.3440486578
 21
51.5813680526
 31
0.0
  0
LINE
  5
337
330
246
100
AcDbEntity
  8
0
  6
Continuous
 62
     7
100
AcDbLine
 10
148.8087311149
 20
52.3793838431
 30
0.0
 11
148.0107153245
 21
51.5813680526
 31
0.0
  0
LINE
  5
338
330
246
100
AcDbEntity
  8
0
  6
Continuous
 62
     7
100
AcDbLine
 10
149.4753977816
 20
52.3793838431
 30
0.0
 11
148.6773819911
 21
51.5813680526
 31
0.0
  0
LINE
  5
339
330
246
100
AcDbEntity
  8
0
  6
Continuous
 62
     7
100
AcDbLine
 10
150.1420644482
 20
52.3793838431
 30
0.0
 11
149.3440486578
 21
51.5813680526
 31
0.0
  0
LINE
  5
33A
330
246
100
AcDbEntity
  8
0
  6
Continuous
 62
     7
100
AcDbLine
 10
150.5855518824
 20
52.15620461060001
 30
0.0
 11
150.0107153245
 21
51.5813680526
 31
0.0
  0
ELLIPSE
  5
33B
330
246
100
AcDbEntity
  8
0
  6
Continuous
 62
     7
100
AcDbEllipse
 10
146.1452270378
 20
50.43216704569999
 30
0.0
 11
1.0473539356
 21
0.0
 31
0.0
210
0.0
220
0.0
230
1.0
 40
0.4938647983
 41
0.0
 42
6.283185307179586
  0
ELLIPSE
  5
33C
330
246
100
AcDbEntity
  8
0
  6
Continuous
 62
     7
100
AcDbEllipse
 10
146.1452270378
 20
49.09883371229999
 30
0.0
 11
1.0473539356
 21
0.0
 31
0.0
210
0.0
220
0.0
230
1.0
 40
0.4938647983
 41
0.0
 42
6.283185307179586
  0
ELLIPSE
  5
33D
330
246
100
AcDbEntity
  8
0
  6
Continuous
 62
     7
100
AcDbEllipse
 10
146.1452270378
 20
47.76550037899999
 30
0.0
 11
1.0473539356
 21
0.0
 31
0.0
210
0.0
220
0.0
230
1.0
 40
0.4938647983
 41
0.0
 42
6.283185307179586
  0
ELLIPSE
  5
33E
330
246
100
AcDbEntity
  8
0
  6
Continuous
 62
     7
100
AcDbEllipse
 10
157.1638626189
 20
50.45168840270001
 30
0.0
 11
1.0473539356
 21
0.0
 31
0.0
210
0.0
220
0.0
230
1.0
 40
0.4938647983
 41
0.0
 42
6.283185307179586
  0
ENDBLK
  5
33F
330
246
100
AcDbEntity
  8
0
  6
ByBlock
 62
     0
100
AcDbBlockEnd
  0
ENDSEC
  0
SECTION
  2
ENTITIES
  0
LINE
  5
45C
330
22B
100
AcDbEntity
  8
DEFAULT_2
  6
HIDDEN
 62
     7
100
AcDbLine
 10
67.09713632294385
 20
26.9780684546
 30
0.0
 11
69.57359418894384
 21
42.61380805739999
 31
0.0
  0
LINE
  5
45E
330
22B
100
AcDbEntity
  8
DEFAULT_2
  6
HIDDEN
 62
     7
100
AcDbLine
 10
62.26131446444385
 20
24.7579011799
 30
0.0
 11
62.61388330474385
 21
25.1104700202
 31
0.0
  0
LWPOLYLINE
  5
464
330
22B
100
AcDbEntity
  8
DEFAULT_2
  6
HIDDEN
 62
     7
100
AcDbPolyline
 90
       61
 70
     0
 43
0.0
 10
43.63431400304384
 20
39.6888020194
 10
43.63416449894385
 20
39.7000919857
 10
43.63371613714384
 20
39.7113748727
 10
43.63296912124385
 20
39.7226428443
 10
43.63192408414385
 20
39.7338868682
 10
43.63058151904385
 20
39.7451012987
 10
43.62894262864386
 20
39.7562763299
 10
43.62700801444385
 20
39.7674072285
 10
43.62477959344384
 20
39.7784830323
 10
43.62225777614385
 20
39.7895010746
 10
43.61944544824384
 20
39.80044857380001
 10
43.61634352114385
 20
39.8113217625
 10
43.61295530384384
 20
39.8221091695
 10
43.60928170784386
 20
39.8328077218
 10
43.60532685324385
 20
39.8434055271
 10
43.60109078114385
 20
39.8539020914
 10
43.59657917204385
 20
39.8642832075
 10
43.59179177904385
 20
39.8745490894
 10
43.58673533734385
 20
39.8846851577
 10
43.58141051634385
 20
39.894689969
 10
43.57582399874385
 20
39.9045510443
 10
43.56997633284385
 20
39.9142673296
 10
43.56387504374385
 20
39.9238263929
 10
43.55751819314384
 20
39.9332308936
 10
43.55091630854385
 20
39.94246503300001
 10
43.54406870904385
 20
39.9515295894
 10
43.53698544744385
 20
39.9604112124
 10
43.52966677884384
 20
39.96910952949999
 10
43.52212252294386
 20
39.9776129318
 10
43.51435288894385
 20
39.9859211383
 10
43.50636833884385
 20
39.9940230207
 10
43.49816472354385
 20
40.0019224159
 10
43.48975721484385
 20
40.00960444519999
 10
43.48114593564385
 20
40.01706895249999
 10
43.47234253574385
 20
40.0243058829
 10
43.46334745184385
 20
40.03131485099999
 10
43.45417251884384
 20
40.0380866892
 10
43.44481734864385
 20
40.04462160110001
 10
43.43529501914385
 20
40.0509104445
 10
43.42560263824385
 20
40.0569549021
 10
43.41575612744385
 20
40.06274489019999
 10
43.40575677084386
 20
40.0682796383
 10
43.39561682724385
 20
40.07355241049999
 10
43.38533801864385
 20
40.07856229859999
 10
43.37493250814385
 20
40.08330342239999
 10
43.36440061214385
 20
40.08777553849999
 10
43.35375616534385
 20
40.09197273159999
 10
43.34299982414385
 20
40.0958946382
 10
43.33214536164385
 20
40.0995361875
 10
43.32119622554385
 20
40.1028962147
 10
43.31016367374386
 20
40.10597130829999
 10
43.29905184804385
 20
40.1087603063
 10
43.28787151364385
 20
40.1112605507
 10
43.27662585604385
 20
40.1134712539
 10
43.26532671534385
 20
40.11539005689999
 10
43.25397910924385
 20
40.1170160746
 10
43.24259327984385
 20
40.1183478661
 10
43.23117565144385
 20
40.1193846732
 10
43.21973480304385
 20
40.12012572719999
 10
43.20827783424385
 20
40.1205705528
 10
43.19681400304385
 20
40.1207188686
  0
LINE
  5
490
330
22B
100
AcDbEntity
  8
DEFAULT_2
  6
HIDDEN
 62
     7
100
AcDbLine
 10
40.13682760934385
 20
39.6656891642
 30
0.0
 11
40.13791676284385
 21
39.6597242351
 31
0.0
  0
LWPOLYLINE
  5
491
330
22B
100
AcDbEntity
  8
DEFAULT_2
  6
HIDDEN
 62
     7
100
AcDbPolyline
 90
       43
 70
     0
 43
0.0
 10
40.13791676284385
 20
39.6597242351
 10
40.13921223544385
 20
39.6538173263
 10
40.14070291054385
 20
39.6479566339
 10
40.14238795034385
 20
39.6421456474
 10
40.14426460364385
 20
39.6363936823
 10
40.14633201164385
 20
39.6307035225
 10
40.14858659054385
 20
39.6250848948
 10
40.15102752594384
 20
39.6195399514
 10
40.15365036374386
 20
39.6140786973
 10
40.15645438134384
 20
39.6087027399
 10
40.15943423954385
 20
39.6034222201
 10
40.16258933414385
 20
39.5982382957
 10
40.16591345034385
 20
39.5931610959
 10
40.16940610824385
 20
39.5881914288
 10
40.17306025124385
 20
39.5833392642
 10
40.17687550824385
 20
39.5786051603
 10
40.18084403864385
 20
39.5739987838
 10
40.18496554424385
 20
39.569520538
 10
40.18923148094384
 20
39.565179652
 10
40.19364156944385
 20
39.5609764606
 10
40.19818666204385
 20
39.5569196337
 10
40.20286642814385
 20
39.5530095114
 10
40.20767123434384
 20
39.5492540995
 10
40.21260061554385
 20
39.5456538017
 10
40.21764458344384
 20
39.5422158745
 10
40.22280244654385
 20
39.5389408252
 10
40.22806400204386
 20
39.5358350973
 10
40.23342823464385
 20
39.5328993228
 10
40.23888487264385
 20
39.5301390915
 10
40.24443247894384
 20
39.5275551602
 10
40.25006085844385
 20
39.5251522482
 10
40.25576805734385
 20
39.5229312172
 10
40.26154410184385
 20
39.520895922
 10
40.26738643494385
 20
39.51904728960001
 10
40.27328543034385
 20
39.517388339
 10
40.27923785024385
 20
39.5159200047
 10
40.28523456634384
 20
39.514644519
 10
40.29127160634384
 20
39.5135627508
 10
40.29734034114385
 20
39.5126762117
 10
40.30343599294385
 20
39.5119856193
 10
40.30955091584385
 20
39.5114918458
 10
40.31567961044386
 20
39.5111953621
 10
40.32181400304384
 20
39.5110964928
  0
LWPOLYLINE
  5
492
330
22B
100
AcDbEntity
  8
DEFAULT_2
  6
HIDDEN
 62
     7
100
AcDbPolyline
 90
       43
 70
     0
 43
0.0
 10
40.13792978874385
 20
39.659749647
 10
40.13922956294385
 20
39.6538487614
 10
40.14072506514384
 20
39.6479944312
 10
40.14241543494385
 20
39.642190115
 10
40.14429785914385
 20
39.6364452071
 10
40.14637144984385
 20
39.63076248530001
 10
40.14863255214384
 20
39.625151735
 10
40.15107965964385
 20
39.6196165181
 10
40.15370880554384
 20
39.6141654113
 10
40.15651930424385
 20
39.6087998687
 10
40.15950567534384
 20
39.6035301865
 10
40.16266735894385
 20
39.5983573704
 10
40.16599798954385
 20
39.5932916841
 10
40.16949595294385
 20
39.5883354088
 10
40.17315511714385
 20
39.5834969236
 10
40.17697529444385
 20
39.5787764923
 10
40.18094838124386
 20
39.5741840177
 10
40.18507426564385
 20
39.5697196371
 10
40.18934414534385
 20
39.5653927728
 10
40.19375633824385
 20
39.56120498110001
 10
40.19830294604385
 20
39.55716351920001
 10
40.20298398444385
 20
39.5532683854
 10
40.20778944714384
 20
39.5495278329
 10
40.21271921274385
 20
39.5459419653
 10
40.21776293674384
 20
39.5425182402
 10
40.22291854824385
 20
39.5392579521
 10
40.22817716134385
 20
39.5361665438
 10
40.23353822144385
 20
39.533244356
 10
40.23899103204385
 20
39.5304971724
 10
40.24453459874385
 20
39.5279255078
 10
40.25015833384385
 20
39.5255342321
 10
40.25585922994385
 20
39.5233245554
 10
40.26162839724384
 20
39.5212998054
 10
40.26746374464384
 20
39.5194607347
 10
40.27335526774385
 20
39.5178104664
 10
40.27930016174384
 20
39.5163498053
 10
40.28528896234385
 20
39.515081057
 10
40.29131722224384
 20
39.5140051425
 10
40.29737688474384
 20
39.5131234248
 10
40.30346350854385
 20
39.51243657
 10
40.30956922444385
 20
39.5119454764
 10
40.31568879124385
 20
39.5116505944
 10
40.32181400304384
 20
39.5115522602
  0
LINE
  5
500
330
22B
100
AcDbEntity
  8
DEFAULT_2
  6
HIDDEN
 62
     7
100
AcDbLine
 10
20.26024539264385
 20
26.0295195004
 30
0.0
 11
58.79769345784385
 21
25.2266713872
 31
0.0
  0
LINE
  5
503
330
22B
100
AcDbEntity
  8
DEFAULT_2
  6
HIDDEN
 62
     7
100
AcDbLine
 10
59.54164455034385
 20
24.6846778752
 30
0.0
 11
62.08453776914385
 21
24.6846778752
 31
0.0
  0
LWPOLYLINE
  5
506
330
22B
100
AcDbEntity
  8
DEFAULT_2
  6
HIDDEN
 62
     7
100
AcDbPolyline
 90
       11
 70
     0
 43
0.0
 10
62.78571404284384
 20
25.1836443952
 10
62.94632511674385
 20
25.1870883941
 10
63.10692509024384
 20
25.1910635254
 10
63.35714081714385
 20
25.1983150255
 10
63.60731716274385
 20
25.2068550651
 10
63.85744670454385
 20
25.2166841912
 10
64.13876924604385
 20
25.2292825343
 10
64.42001278284386
 20
25.2435102594
 10
64.70116693664386
 20
25.2593646496
 10
64.98222132914385
 20
25.27684298800001
 10
65.26316558224386
 20
25.29594255760001
  0
LINE
  5
569
330
22B
100
AcDbEntity
  8
DEFAULT_2
  6
HIDDEN
 62
     7
100
AcDbLine
 10
58.96926679674385
 20
25.1535022382
 30
0.0
 11
59.36486785504385
 21
24.7579011799
 31
0.0
  0
LWPOLYLINE
  5
575
330
22B
100
AcDbEntity
  8
DEFAULT_2
  6
HIDDEN
 62
     7
100
AcDbPolyline
 90
      121
 70
     0
 43
0.0
 10
40.07181400304385
 20
39.2538244832
 10
40.06036210864385
 20
39.2539721303
 10
40.04891702214385
 20
39.25441495280001
 10
40.03748839394385
 20
39.2551526405
 10
40.02608280034386
 20
39.2561847432
 10
40.01470940394385
 20
39.2575104259
 10
40.00337392454386
 20
39.2591290035
 10
39.99208675124386
 20
39.261039025
 10
39.98085263824386
 20
39.2632396636
 10
39.96968265934386
 20
39.2657287678
 10
39.95858067074386
 20
39.2685054566
 10
39.94755847424385
 20
39.2715668023
 10
39.93661906794386
 20
39.2749119492
 10
39.92577484984386
 20
39.2785371295
 10
39.91502802504385
 20
39.2824415818
 10
39.90439148704385
 20
39.2866206471
 10
39.89386672164386
 20
39.2910737161
 10
39.88346699554385
 20
39.2957952022
 10
39.87319315934385
 20
39.300784692
 10
39.86305872614386
 20
39.30603565150001
 10
39.85306400304385
 20
39.3115478925
 10
39.84322261614386
 20
39.3173139304
 10
39.83353442514385
 20
39.3233338163
 10
39.82401303454386
 20
39.3295991298
 10
39.81465795514385
 20
39.336110159
 10
39.80548263404386
 20
39.3428575806
 10
39.79648633194385
 20
39.34984190170001
 10
39.78768220624386
 20
39.3570529461
 10
39.77906936274385
 20
39.3644914064
 10
39.77066054254385
 20
39.3721463212
 10
39.76245478624386
 20
39.3800185201
 10
39.75446430024386
 20
39.3880963392
 10
39.74668814184385
 20
39.39638068380001
 10
39.73913787484386
 20
39.4048592853
 10
39.73181264484385
 20
39.4135330501
 10
39.72472327804385
 20
39.4223892156
 10
39.71786906794386
 20
39.4314286055
 10
39.71126002264385
 20
39.44063808380001
 10
39.70489562954386
 20
39.45001829960001
 10
39.69878501434385
 20
39.4595558725
 10
39.69292788884385
 20
39.4692511792
 10
39.68733245004385
 20
39.4790907299
 10
39.68199864864386
 20
39.4890745285
 10
39.67693372444386
 20
39.4991891125
 10
39.67213786524386
 20
39.5094340129
 10
39.66761734374386
 20
39.5197959317
 10
39.66337256644385
 20
39.5302738286
 10
39.65940884724385
 20
39.5408547043
 10
39.65572677714385
 20
39.551536855
 10
39.65233073754385
 20
39.562307708
 10
39.64922145404385
 20
39.5731648117
 10
39.64640241854385
 20
39.5840961393
 10
39.64387442764385
 20
39.595098418
 10
39.64164014234386
 20
39.6061602749
 10
39.63970035394385
 20
39.6172775553
 10
39.63805696434386
 20
39.62843963530001
 10
39.63671067374386
 20
39.6396414322
 10
39.63566270764385
 20
39.6508731506
 10
39.63491358154385
 20
39.6621287509
 10
39.63446393614385
 20
39.6733993284
 10
39.63431400304385
 20
39.6846778752
 10
39.63446393614385
 20
39.695956422
 10
39.63491358154385
 20
39.7072269995
 10
39.63566270764385
 20
39.7184825997
 10
39.63671067374386
 20
39.7297143181
 10
39.63805696434386
 20
39.7409161151
 10
39.63970035394385
 20
39.7520781951
 10
39.64164014234386
 20
39.7631954754
 10
39.64387442764385
 20
39.7742573324
 10
39.64640241854385
 20
39.785259611
 10
39.64922145404385
 20
39.7961909387
 10
39.65233073754385
 20
39.8070480424
 10
39.65572677714385
 20
39.8178188954
 10
39.65940884724385
 20
39.8285010461
 10
39.66337256644385
 20
39.83908192179999
 10
39.66761734374386
 20
39.8495598187
 10
39.67213786524386
 20
39.8599217375
 10
39.67693372444386
 20
39.8701666379
 10
39.68199864864386
 20
39.8802812219
 10
39.68733245004385
 20
39.8902650205
 10
39.69292788884385
 20
39.9001045712
 10
39.69878501434385
 20
39.9097998779
 10
39.70489562954386
 20
39.9193374508
 10
39.71126002264385
 20
39.9287176666
 10
39.71786906794386
 20
39.9379271449
 10
39.72472327804385
 20
39.9469665348
 10
39.73181264484385
 20
39.95582270030001
 10
39.73913787484386
 20
39.96449646510001
 10
39.74668814184385
 20
39.9729750666
 10
39.75446430024386
 20
39.9812594111
 10
39.76245478624386
 20
39.9893372303
 10
39.77066054254385
 20
39.9972094292
 10
39.77906936274385
 20
40.00486434399999
 10
39.78768220624386
 20
40.01230280429999
 10
39.79648633194385
 20
40.01951384869999
 10
39.80548263404386
 20
40.02649816969999
 10
39.81465795514385
 20
40.0332455914
 10
39.82401303454386
 20
40.0397566206
 10
39.83353442514385
 20
40.0460219341
 10
39.84322261614386
 20
40.05204181989999
 10
39.85306400304385
 20
40.0578078579
 10
39.86305872614386
 20
40.0633200989
 10
39.87319315934385
 20
40.0685710584
 10
39.88346699554385
 20
40.07356054819999
 10
39.89386672164386
 20
40.07828203429999
 10
39.90439148704385
 20
40.0827351033
 10
39.91502802504385
 20
40.0869141686
 10
39.92577484984386
 20
40.0908186209
 10
39.93661906794386
 20
40.0944438012
 10
39.94755847424385
 20
40.097788948
 10
39.95858067074386
 20
40.10085029379999
 10
39.96968265934386
 20
40.1036269825
 10
39.98085263824386
 20
40.1061160868
 10
39.99208675124386
 20
40.1083167254
 10
40.00337392454386
 20
40.1102267469
 10
40.01470940394385
 20
40.11184532449999
 10
40.02608280034386
 20
40.11317100719999
 10
40.03748839394385
 20
40.1142031098
 10
40.04891702214385
 20
40.1149407975
 10
40.06036210864385
 20
40.1153836201
 10
40.07181400304385
 20
40.1155312671
  0
LINE
  5
59B
330
22B
100
AcDbEntity
  8
DEFAULT_2
  6
HIDDEN
 62
     7
100
AcDbLine
 10
40.07181400304385
 20
39.2538244832
 30
0.0
 11
43.19681400304385
 21
39.2538244832
 31
0.0
  0
LINE
  5
59C
330
22B
100
AcDbEntity
  8
DEFAULT_2
  6
HIDDEN
 62
     7
100
AcDbLine
 10
40.32181400304384
 20
39.5115522602
 30
0.0
 11
42.94681400304384
 21
39.5115522602
 31
0.0
  0
LINE
  5
59D
330
22B
100
AcDbEntity
  8
DEFAULT_2
  6
HIDDEN
 62
     7
100
AcDbLine
 10
42.94681400304384
 20
39.8803994002
 30
0.0
 11
40.32181400304384
 21
39.8803994002
 31
0.0
  0
LINE
  5
59E
330
22B
100
AcDbEntity
  8
DEFAULT_2
  6
HIDDEN
 62
     7
100
AcDbLine
 10
43.19681400304385
 20
40.1207188686
 30
0.0
 11
40.07181400304385
 21
40.1207188686
 31
0.0
  0
LWPOLYLINE
  5
5AF
330
22B
100
AcDbEntity
  8
DEFAULT_2
  6
HIDDEN
 62
     7
100
AcDbPolyline
 90
      121
 70
     0
 43
0.0
 10
43.19681400304385
 20
39.2538244832
 10
43.20826589734385
 20
39.2539721303
 10
43.21971098384384
 20
39.25441495280001
 10
43.23113961204385
 20
39.2551526405
 10
43.24254520564385
 20
39.2561847432
 10
43.25391860214384
 20
39.2575104259
 10
43.26525408144385
 20
39.2591290035
 10
43.27654125474384
 20
39.261039025
 10
43.28777536774385
 20
39.2632396636
 10
43.29894534664386
 20
39.2657287678
 10
43.31004733524385
 20
39.2685054566
 10
43.32106953174384
 20
39.2715668023
 10
43.33200893804384
 20
39.2749119492
 10
43.34285315614385
 20
39.2785371295
 10
43.35359998094385
 20
39.2824415818
 10
43.36423651894384
 20
39.2866206471
 10
43.37476128434384
 20
39.2910737161
 10
43.38516101054384
 20
39.2957952022
 10
43.39543484664385
 20
39.300784692
 10
43.40556927984385
 20
39.30603565150001
 10
43.41556400304384
 20
39.3115478925
 10
43.42540538994385
 20
39.3173139304
 10
43.43509358084385
 20
39.3233338163
 10
43.44461497144385
 20
39.3295991298
 10
43.45397005084385
 20
39.336110159
 10
43.46314537194385
 20
39.3428575806
 10
43.47214167404385
 20
39.34984190170001
 10
43.48094579974385
 20
39.3570529461
 10
43.48955864324385
 20
39.3644914064
 10
43.49796746344384
 20
39.3721463212
 10
43.50617321974385
 20
39.3800185201
 10
43.51416370574385
 20
39.3880963392
 10
43.52193986414385
 20
39.39638068380001
 10
43.52949013114385
 20
39.4048592853
 10
43.53681536114385
 20
39.4135330501
 10
43.54390472794385
 20
39.4223892156
 10
43.55075893804385
 20
39.4314286055
 10
43.55736798334386
 20
39.44063808380001
 10
43.56373237644385
 20
39.45001829960001
 10
43.56984299164385
 20
39.4595558725
 10
43.57570011714384
 20
39.4692511792
 10
43.58129555594384
 20
39.4790907299
 10
43.58662935734385
 20
39.4890745285
 10
43.59169428154385
 20
39.4991891125
 10
43.59649014074385
 20
39.5094340129
 10
43.60101066224385
 20
39.5197959317
 10
43.60525543954385
 20
39.5302738286
 10
43.60921915874385
 20
39.5408547043
 10
43.61290122884384
 20
39.551536855
 10
43.61629726844385
 20
39.562307708
 10
43.61940655204385
 20
39.5731648117
 10
43.62222558744385
 20
39.5840961393
 10
43.62475357834386
 20
39.595098418
 10
43.62698786364386
 20
39.6061602749
 10
43.62892765204385
 20
39.6172775553
 10
43.63057104164385
 20
39.62843963530001
 10
43.63191733224385
 20
39.6396414322
 10
43.63296529834385
 20
39.6508731506
 10
43.63371442444385
 20
39.6621287509
 10
43.63416406984385
 20
39.6733993284
 10
43.63431400304384
 20
39.6846778752
 10
43.63416406984385
 20
39.695956422
 10
43.63371442444385
 20
39.7072269995
 10
43.63296529834385
 20
39.7184825997
 10
43.63191733224385
 20
39.7297143181
 10
43.63057104164385
 20
39.7409161151
 10
43.62892765204385
 20
39.7520781951
 10
43.62698786364386
 20
39.7631954754
 10
43.62475357834386
 20
39.7742573324
 10
43.62222558744385
 20
39.785259611
 10
43.61940655204385
 20
39.7961909387
 10
43.61629726844385
 20
39.8070480424
 10
43.61290122884384
 20
39.8178188954
 10
43.60921915874385
 20
39.8285010461
 10
43.60525543954385
 20
39.83908192179999
 10
43.60101066224385
 20
39.8495598187
 10
43.59649014074385
 20
39.8599217375
 10
43.59169428154385
 20
39.8701666379
 10
43.58662935734385
 20
39.8802812219
 10
43.58129555594384
 20
39.8902650205
 10
43.57570011714384
 20
39.9001045712
 10
43.56984299164385
 20
39.9097998779
 10
43.56373237644385
 20
39.9193374508
 10
43.55736798334386
 20
39.9287176666
 10
43.55075893804385
 20
39.9379271449
 10
43.54390472794385
 20
39.9469665348
 10
43.53681536114385
 20
39.95582270030001
 10
43.52949013114385
 20
39.96449646510001
 10
43.52193986414385
 20
39.9729750666
 10
43.51416370574385
 20
39.9812594111
 10
43.50617321974385
 20
39.9893372303
 10
43.49796746344384
 20
39.9972094292
 10
43.48955864324385
 20
40.00486434399999
 10
43.48094579974385
 20
40.01230280429999
 10
43.47214167404385
 20
40.01951384869999
 10
43.46314537194385
 20
40.02649816969999
 10
43.45397005084385
 20
40.0332455914
 10
43.44461497144385
 20
40.0397566206
 10
43.43509358084385
 20
40.0460219341
 10
43.42540538994385
 20
40.05204181989999
 10
43.41556400304384
 20
40.0578078579
 10
43.40556927984385
 20
40.0633200989
 10
43.39543484664385
 20
40.0685710584
 10
43.38516101054384
 20
40.07356054819999
 10
43.37476128434384
 20
40.07828203429999
 10
43.36423651894384
 20
40.0827351033
 10
43.35359998094385
 20
40.0869141686
 10
43.34285315614385
 20
40.0908186209
 10
43.33200893804384
 20
40.0944438012
 10
43.32106953174384
 20
40.097788948
 10
43.31004733524385
 20
40.10085029379999
 10
43.29894534664386
 20
40.1036269825
 10
43.28777536774385
 20
40.1061160868
 10
43.27654125474384
 20
40.1083167254
 10
43.26525408144385
 20
40.1102267469
 10
43.25391860214384
 20
40.11184532449999
 10
43.24254520564385
 20
40.11317100719999
 10
43.23113961204385
 20
40.1142031098
 10
43.21971098384384
 20
40.1149407975
 10
43.20826589734385
 20
40.1153836201
 10
43.19681400304385
 20
40.1155312671
  0
LWPOLYLINE
  5
5B3
330
22B
100
AcDbEntity
  8
DEFAULT_2
  6
HIDDEN
 62
     7
100
AcDbPolyline
 90
       97
 70
     0
 43
0.0
 10
42.94681400304384
 20
39.5110964928
 10
42.95294839554385
 20
39.5111953621
 10
42.95907709014385
 20
39.5114918458
 10
42.96519201304384
 20
39.5119856193
 10
42.97128766484385
 20
39.5126762117
 10
42.97735639964384
 20
39.5135627508
 10
42.98339343964385
 20
39.514644519
 10
42.98939015574386
 20
39.5159200047
 10
42.99534257564385
 20
39.517388339
 10
43.00124157104384
 20
39.51904728960001
 10
43.00708390414385
 20
39.520895922
 10
43.01285994864385
 20
39.5229312172
 10
43.01856714754385
 20
39.5251522482
 10
43.02419552704385
 20
39.5275551602
 10
43.02974313334385
 20
39.5301390915
 10
43.03519977134384
 20
39.5328993228
 10
43.04056400394385
 20
39.5358350973
 10
43.04582555944385
 20
39.5389408252
 10
43.05098342254384
 20
39.5422158745
 10
43.05602739044386
 20
39.5456538017
 10
43.06095677164385
 20
39.5492540995
 10
43.06576157784385
 20
39.5530095114
 10
43.07044134394384
 20
39.5569196337
 10
43.07498643664385
 20
39.5609764606
 10
43.07939652504384
 20
39.565179652
 10
43.08366246174385
 20
39.569520538
 10
43.08778396734385
 20
39.5739987838
 10
43.09175249774385
 20
39.5786051603
 10
43.09556775474384
 20
39.5833392642
 10
43.09922189774385
 20
39.5881914288
 10
43.10271455564385
 20
39.5931610959
 10
43.10603867184385
 20
39.5982382957
 10
43.10919376644385
 20
39.6034222201
 10
43.11217362464384
 20
39.6087027399
 10
43.11497764224385
 20
39.6140786973
 10
43.11760048004384
 20
39.6195399514
 10
43.12004141554385
 20
39.6250848948
 10
43.12229599434385
 20
39.6307035225
 10
43.12436340234385
 20
39.6363936823
 10
43.12624005564385
 20
39.6421456474
 10
43.12792509554385
 20
39.6479566339
 10
43.12941577054385
 20
39.6538173263
 10
43.13071124314385
 20
39.6597242351
 10
43.13180953624385
 20
39.6656685755
 10
43.13270991454385
 20
39.6716460955
 10
43.13341109944385
 20
39.677648642
 10
43.13391255114384
 20
39.6836711637
 10
43.13421359974385
 20
39.68970622030001
 10
43.13431400304384
 20
39.6957479465
 10
43.13421359974385
 20
39.70178967280001
 10
43.13391255114384
 20
39.7078247293
 10
43.13341109944385
 20
39.7138472511
 10
43.13270991454385
 20
39.7198497975
 10
43.13180953624385
 20
39.7258273175
 10
43.13071124314385
 20
39.7317716579
 10
43.12941577054385
 20
39.7376785668
 10
43.12792509554385
 20
39.7435392592
 10
43.12624005564385
 20
39.7493502456
 10
43.12436340234385
 20
39.7551022107
 10
43.12229599434385
 20
39.7607923705
 10
43.12004141554385
 20
39.7664109982
 10
43.11760048004384
 20
39.7719559417
 10
43.11497764224385
 20
39.7774171957
 10
43.11217362464384
 20
39.7827931531
 10
43.10919376644385
 20
39.7880736729
 10
43.10603867184385
 20
39.7932575974
 10
43.10271455564385
 20
39.7983347972
 10
43.09922189774385
 20
39.8033044642
 10
43.09556775474384
 20
39.8081566288
 10
43.09175249774385
 20
39.8128907327
 10
43.08778396734385
 20
39.8174971092
 10
43.08366246174385
 20
39.821975355
 10
43.07939652504384
 20
39.826316241
 10
43.07498643664385
 20
39.83051943239999
 10
43.07044134394384
 20
39.8345762594
 10
43.06576157784385
 20
39.8384863817
 10
43.06095677164385
 20
39.8422417935
 10
43.05602739044386
 20
39.8458420913
 10
43.05098342254384
 20
39.8492800186
 10
43.04582555944385
 20
39.85255506780001
 10
43.04056400394385
 20
39.85566079570001
 10
43.03519977134384
 20
39.8585965702
 10
43.02974313334385
 20
39.8613568016
 10
43.02419552704385
 20
39.86394073280001
 10
43.01856714754385
 20
39.8663436448
 10
43.01285994864385
 20
39.8685646758
 10
43.00708390414385
 20
39.870599971
 10
43.00124157104384
 20
39.8724486035
 10
42.99534257564385
 20
39.8741075541
 10
42.98939015574386
 20
39.8755758883
 10
42.98339343964385
 20
39.8768513741
 10
42.97735639964384
 20
39.8779331423
 10
42.97128766484385
 20
39.8788196813
 10
42.96519201304384
 20
39.8795102737
 10
42.95907709014385
 20
39.8800040472
 10
42.95294839554385
 20
39.8803005309
 10
42.94681400304384
 20
39.8803994002
  0
LWPOLYLINE
  5
5B4
330
22B
100
AcDbEntity
  8
DEFAULT_2
  6
HIDDEN
 62
     7
100
AcDbPolyline
 90
       54
 70
     0
 43
0.0
 10
40.32181400304384
 20
39.8803994002
 10
40.31567961044386
 20
39.8803005309
 10
40.30955091584385
 20
39.8800040472
 10
40.30343599294385
 20
39.8795102737
 10
40.29734034114385
 20
39.8788196813
 10
40.29127160634384
 20
39.8779331423
 10
40.28523456634384
 20
39.8768513741
 10
40.27923785024385
 20
39.8755758883
 10
40.27328543034385
 20
39.8741075541
 10
40.26738643494385
 20
39.8724486035
 10
40.26154410184385
 20
39.870599971
 10
40.25576805734385
 20
39.8685646758
 10
40.25006085844385
 20
39.8663436448
 10
40.24443247894384
 20
39.86394073280001
 10
40.23888487264385
 20
39.8613568016
 10
40.23342823464385
 20
39.8585965702
 10
40.22806400204386
 20
39.85566079570001
 10
40.22280244654385
 20
39.85255506780001
 10
40.21764458344384
 20
39.8492800186
 10
40.21260061554385
 20
39.8458420913
 10
40.20767123434384
 20
39.8422417935
 10
40.20286642814385
 20
39.8384863817
 10
40.19818666204385
 20
39.8345762594
 10
40.19364156944385
 20
39.83051943239999
 10
40.18923148094384
 20
39.826316241
 10
40.18496554424385
 20
39.821975355
 10
40.18084403864385
 20
39.8174971092
 10
40.17687550824385
 20
39.8128907327
 10
40.17306025124385
 20
39.8081566288
 10
40.16940610824385
 20
39.8033044642
 10
40.16591345034385
 20
39.7983347972
 10
40.16258933414385
 20
39.7932575974
 10
40.15943423954385
 20
39.7880736729
 10
40.15645438134384
 20
39.7827931531
 10
40.15365036374386
 20
39.7774171957
 10
40.15102752594384
 20
39.7719559417
 10
40.14858659054385
 20
39.7664109982
 10
40.14633201164385
 20
39.7607923705
 10
40.14426460364385
 20
39.7551022107
 10
40.14238795034385
 20
39.7493502456
 10
40.14070291054385
 20
39.7435392592
 10
40.13921223544385
 20
39.7376785668
 10
40.13791676284385
 20
39.7317716579
 10
40.13681846974384
 20
39.7258273175
 10
40.13591809144385
 20
39.7198497975
 10
40.13521690654385
 20
39.7138472511
 10
40.13471545484384
 20
39.7078247293
 10
40.13441440624386
 20
39.70178967280001
 10
40.13431400304384
 20
39.6957479465
 10
40.13441440624386
 20
39.68970622030001
 10
40.13471545484384
 20
39.6836711637
 10
40.13521690654385
 20
39.677648642
 10
40.13591809144385
 20
39.6716460955
 10
40.13681846974384
 20
39.6656685755
  0
LINE
  5
5F0
330
22B
100
AcDbEntity
  8
DEFAULT_2
  6
HIDDEN
 62
     7
100
AcDbLine
 10
69.91532003194385
 20
43.0235221904
 30
0.0
 11
71.16806002564385
 21
43.14096656479999
 31
0.0
  0
LINE
  5
5F8
330
22B
100
AcDbEntity
  8
DEFAULT_2
  6
HIDDEN
 62
     7
100
AcDbLine
 10
13.38524024704385
 20
43.0205285398
 30
0.0
 11
12.10056798034385
 21
43.14096656479999
 31
0.0
  0
LINE
  5
65F
330
22B
100
AcDbEntity
  8
DEFAULT_2
  6
HIDDEN
 62
     7
100
AcDbLine
 10
13.73225853244385
 20
42.6768157546
 30
0.0
 11
18.38929304834386
 21
27.44434221400001
 31
0.0
  0
LINE
  5
14ED
330
22B
100
AcDbEntity
  8
0
  6
Continuous
 62
     7
100
AcDbLine
 10
71.63431400304386
 20
23.1846778752
 30
0.0
 11
71.63431400304386
 21
44.1846778752
 31
0.0
  0
LINE
  5
14EE
330
22B
100
AcDbEntity
  8
0
  6
Continuous
 62
     7
100
AcDbLine
 10
71.39659264894385
 20
43.4190134704
 30
0.0
 11
71.39450715804385
 21
43.397971542
 31
0.0
  0
LINE
  5
14EF
330
22B
100
AcDbEntity
  8
0
  6
Continuous
 62
     7
100
AcDbLine
 10
71.39659264894385
 20
43.4190134704
 30
0.0
 11
71.43672178224385
 21
44.1846778752
 31
0.0
  0
LWPOLYLINE
  5
14F0
330
22B
100
AcDbEntity
  8
0
  6
Continuous
 62
     7
100
AcDbPolyline
 90
        3
 70
     0
 43
0.0
 10
71.38928323694385
 20
43.371511651
 10
71.39473461064385
 20
43.39962600649999
 10
71.39659246254385
 20
43.41901038359999
  0
LINE
  5
14F1
330
22B
100
AcDbEntity
  8
0
  6
Continuous
 62
     7
100
AcDbLine
 10
71.39450715804385
 20
43.397971542
 30
0.0
 11
71.39050120194385
 21
43.3764925643
 31
0.0
  0
LWPOLYLINE
  5
14F2
330
22B
100
AcDbEntity
  8
0
  6
Continuous
 62
     7
100
AcDbPolyline
 90
        6
 70
     0
 43
0.0
 10
71.39050120194385
 20
43.3764925643
 10
71.38460795984385
 20
43.35533329819999
 10
71.37689019574385
 20
43.3347747513
 10
71.36717308614385
 20
43.3145358619
 10
71.35545637024385
 20
43.2948988465
 10
71.34190827354385
 20
43.27629697459999
  0
LWPOLYLINE
  5
14F4
330
22B
100
AcDbEntity
  8
0
  6
Continuous
 62
     7
100
AcDbPolyline
 90
        5
 70
     0
 43
0.0
 10
71.34184703554385
 20
43.27634611839999
 10
71.35441136754386
 20
43.29343800979999
 10
71.36898870604385
 20
43.3180699057
 10
71.38066352874385
 20
43.3442078749
 10
71.38928323694385
 20
43.371511651
  0
LINE
  5
14F5
330
22B
100
AcDbEntity
  8
0
  6
Continuous
 62
     7
100
AcDbLine
 10
71.63431400304386
 20
23.1846778752
 30
0.0
 11
11.63431400304385
 21
23.1846778752
 31
0.0
  0
LWPOLYLINE
  5
14F6
330
22B
100
AcDbEntity
  8
0
  6
Continuous
 62
     7
100
AcDbPolyline
 90
        9
 70
     0
 43
0.0
 10
71.15470986954385
 20
43.18292249159999
 10
71.17606882934385
 20
43.1845056071
 10
71.20452378054385
 20
43.18953060770001
 10
71.23221105644384
 20
43.19781033329999
 10
71.25876626814386
 20
43.2092371874
 10
71.28383154984385
 20
43.2236594025
 10
71.30706938244386
 20
43.2408841414
 10
71.32817244404385
 20
43.2606857306
 10
71.34184703554385
 20
43.27634611839999
  0
LWPOLYLINE
  5
14F7
330
22B
100
AcDbEntity
  8
0
  6
Continuous
 62
     7
100
AcDbPolyline
 90
        4
 70
     0
 43
0.0
 10
12.11390953084385
 20
43.1829203306
 10
12.48793699054384
 20
43.1732520409
 10
12.84946147914385
 20
43.1675746022
 10
13.17622150594384
 20
43.1657838184
  0
LWPOLYLINE
  5
14F8
330
22B
100
AcDbEntity
  8
0
  6
Continuous
 62
     7
100
AcDbPolyline
 90
        6
 70
     0
 43
0.0
 10
13.17622150594384
 20
43.1657838184
 10
24.55621092304385
 20
43.16613088859999
 10
35.94543523294386
 20
43.1673218679
 10
47.33321678374385
 20
43.1673209749
 10
58.71968380704385
 20
43.1661303351
 10
70.09319482154385
 20
43.1657838164
  0
LWPOLYLINE
  5
14F9
330
22B
100
AcDbEntity
  8
0
  6
Continuous
 62
     7
100
AcDbPolyline
 90
        4
 70
     0
 43
0.0
 10
70.09319482154385
 20
43.16578381649999
 10
70.41985538964386
 20
43.16758168749999
 10
70.78111441024384
 20
43.1732670414
 10
71.15470986944385
 20
43.18292249779999
  0
LINE
  5
14FA
330
22B
100
AcDbEntity
  8
0
  6
Continuous
 62
     7
100
AcDbLine
 10
71.63431400304386
 20
44.1846778752
 30
0.0
 11
11.63431400304385
 21
44.1846778752
 31
0.0
  0
LWPOLYLINE
  5
14FB
330
22B
100
AcDbEntity
  8
0
  6
Continuous
 62
     7
100
AcDbPolyline
 90
        9
 70
     0
 43
0.0
 10
11.92678120834385
 20
43.2763439056
 10
11.94092230284386
 20
43.26019335369999
 10
11.96207938994385
 20
43.2404483789
 10
11.98536330974384
 20
43.2232869304
 10
12.01046652054384
 20
43.2089330952
 10
12.03705147944384
 20
43.1975784477
 10
12.06475970704386
 20
43.18937383499999
 10
12.09322499144384
 20
43.18442588189999
 10
12.11390953024386
 20
43.1829203107
  0
LWPOLYLINE
  5
14FC
330
22B
100
AcDbEntity
  8
0
  6
Continuous
 62
     7
100
AcDbPolyline
 90
        6
 70
     0
 43
0.0
 10
11.92671981534386
 20
43.2762946368
 10
11.91354864714384
 20
43.2943274507
 10
11.90224491664385
 20
43.3130728616
 10
11.89258868174384
 20
43.33279994709999
 10
11.88470623714384
 20
43.3532591522
 10
11.87853917214384
 20
43.3747416046
  0
LWPOLYLINE
  5
14FD
330
22B
100
AcDbEntity
  8
0
  6
Continuous
 62
     7
100
AcDbPolyline
 90
        3
 70
     0
 43
0.0
 10
11.87853917214384
 20
43.3747416046
 10
11.87423722414385
 20
43.3971594527
 10
11.87204621324385
 20
43.4188233262
  0
LINE
  5
14FE
330
22B
100
AcDbEntity
  8
0
  6
Continuous
 62
     7
100
AcDbLine
 10
11.87398471254384
 20
43.3989564219
 30
0.0
 11
11.87951238264385
 21
43.37085388619999
 31
0.0
  0
LWPOLYLINE
  5
14FF
330
22B
100
AcDbEntity
  8
0
  6
Continuous
 62
     7
100
AcDbPolyline
 90
        5
 70
     0
 43
0.0
 10
11.87951238264385
 20
43.37085388619999
 10
11.88820611954385
 20
43.3435726128
 10
11.89995112804385
 20
43.3174671672
 10
11.91459323174385
 20
43.2928772161
 10
11.92678120834385
 20
43.2763439056
  0
LINE
  5
1500
330
22B
100
AcDbEntity
  8
0
  6
Continuous
 62
     7
100
AcDbLine
 10
11.63431400304385
 20
23.1846778752
 30
0.0
 11
11.63431400304385
 21
44.1846778752
 31
0.0
  0
LINE
  5
1501
330
22B
100
AcDbEntity
  8
0
  6
Continuous
 62
     7
100
AcDbLine
 10
11.87204621324385
 20
43.4188233262
 30
0.0
 11
11.83190622374385
 21
44.1846778752
 31
0.0
  0
LINE
  5
1502
330
22B
100
AcDbEntity
  8
0
  6
Continuous
 62
     7
100
AcDbLine
 10
11.87204643684384
 20
43.4188197058
 30
0.0
 11
11.87398471254384
 21
43.3989564219
 31
0.0
  0
ARC
  5
16BD
330
22B
100
AcDbEntity
  8
DEFAULT_2
  6
HIDDEN
 62
     7
100
AcDbCircle
 10
20.30190256024384
 20
28.0290856235
 30
0.0
 40
2.0
100
AcDbArc
 50
196.9999999991001
 51
268.8065237511002
  0
ARC
  5
16BE
330
22B
100
AcDbEntity
  8
DEFAULT_2
  6
HIDDEN
 62
     7
100
AcDbCircle
 10
65.12175964174385
 20
27.2909373847
 30
0.0
 40
2.0
100
AcDbArc
 50
274.0543644909002
 51
351.0000000013
  0
ARC
  5
16C8
330
22B
100
AcDbEntity
  8
DEFAULT_2
  6
HIDDEN
 62
     7
100
AcDbCircle
 10
13.25410615444384
 20
42.5306299022
 30
0.0
 40
0.5
100
AcDbArc
 50
17.00000000000007
 51
84.64417495710039
  0
ARC
  5
16C9
330
22B
100
AcDbEntity
  8
DEFAULT_2
  6
HIDDEN
 62
     7
100
AcDbCircle
 10
70.06743835924385
 20
42.5355908248
 30
0.0
 40
0.5
100
AcDbArc
 50
95.3558250428996
 51
171.0
  0
ARC
  5
16CC
330
22B
100
AcDbEntity
  8
DEFAULT_2
  6
HIDDEN
 62
     7
100
AcDbCircle
 10
62.79066000004386
 20
24.933693325
 30
0.0
 40
0.25
100
AcDbArc
 50
91.13360387949997
 51
134.9999999860999
  0
ARC
  5
16CD
330
22B
100
AcDbEntity
  8
DEFAULT_2
  6
HIDDEN
 62
     7
100
AcDbCircle
 10
59.54164455034385
 20
24.9346778752
 30
0.0
 40
0.25
100
AcDbArc
 50
224.9999999999998
 51
270.0
  0
ARC
  5
16CE
330
22B
100
AcDbEntity
  8
DEFAULT_2
  6
HIDDEN
 62
     7
100
AcDbCircle
 10
62.08453776914385
 20
24.9346778752
 30
0.0
 40
0.25
100
AcDbArc
 50
270.0
 51
315.0000000000002
  0
ARC
  5
16CF
330
22B
100
AcDbEntity
  8
DEFAULT_2
  6
HIDDEN
 62
     7
100
AcDbCircle
 10
58.79249010144384
 20
24.9767255429
 30
0.0
 40
0.25
100
AcDbArc
 50
45.00000000930005
 51
88.80739244099977
  0
ENDSEC
  0
SECTION
  2
OBJECTS
  0
DICTIONARY
  5
C
330
0
100
AcDbDictionary
281
     1
  3
ACAD_COLOR
350
172B
  3
ACAD_GROUP
350
D
  3
ACAD_LAYOUT
350
1A
  3
ACAD_MATERIAL
350
16FE
  3
ACAD_MLEADERSTYLE
350
1750
  3
ACAD_MLINESTYLE
350
17
  3
ACAD_PLOTSETTINGS
350
19
  3
ACAD_PLOTSTYLENAME
350
E
  3
ACAD_SCALELIST
350
172E
  3
ACAD_TABLESTYLE
350
172C
  3
ACAD_VISUALSTYLE
350
1717
  3
ACDB_RECOMPOSE_DATA
350
1754
  3
AcDbVariableDictionary
350
1786
  0
DICTIONARY
  5
1755
330
8
100
AcDbDictionary
280
     1
281
     1
  0
DICTIONARY
  5
1795
330
10
100
AcDbDictionary
280
     1
281
     1
  3
ADSK_XREC_LAYER_RECONCILED
360
1796
  0
DICTIONARY
  5
1797
330
1FA
100
AcDbDictionary
280
     1
281
     1
  3
ADSK_XREC_LAYER_RECONCILED
360
1798
  0
DICTIONARY
  5
1799
330
1FB
100
AcDbDictionary
280
     1
281
     1
  3
ADSK_XREC_LAYER_RECONCILED
360
179A
  0
DICTIONARY
  5
179B
330
1FC
100
AcDbDictionary
280
     1
281
     1
  3
ADSK_XREC_LAYER_RECONCILED
360
179C
  0
DICTIONARY
  5
179D
330
1FD
100
AcDbDictionary
280
     1
281
     1
  3
ADSK_XREC_LAYER_RECONCILED
360
179E
  0
DICTIONARY
  5
179F
330
1FE
100
AcDbDictionary
280
     1
281
     1
  3
ADSK_XREC_LAYER_RECONCILED
360
17A0
  0
DICTIONARY
  5
17A1
330
1FF
100
AcDbDictionary
280
     1
281
     1
  3
ADSK_XREC_LAYER_RECONCILED
360
17A2
  0
DICTIONARY
  5
17A3
330
200
100
AcDbDictionary
280
     1
281
     1
  3
ADSK_XREC_LAYER_RECONCILED
360
17A4
  0
DICTIONARY
  5
17A5
330
201
100
AcDbDictionary
280
     1
281
     1
  3
ADSK_XREC_LAYER_RECONCILED
360
17A6
  0
DICTIONARY
  5
17A7
330
202
100
AcDbDictionary
280
     1
281
     1
  3
ADSK_XREC_LAYER_RECONCILED
360
17A8
  0
DICTIONARY
  5
17A9
330
203
100
AcDbDictionary
280
     1
281
     1
  3
ADSK_XREC_LAYER_RECONCILED
360
17AA
  0
DICTIONARY
  5
17AB
330
204
100
AcDbDictionary
280
     1
281
     1
  3
ADSK_XREC_LAYER_RECONCILED
360
17AC
  0
DICTIONARY
  5
17AD
330
205
100
AcDbDictionary
280
     1
281
     1
  3
ADSK_XREC_LAYER_RECONCILED
360
17AE
  0
DICTIONARY
  5
17AF
330
206
100
AcDbDictionary
280
     1
281
     1
  3
ADSK_XREC_LAYER_RECONCILED
360
17B0
  0
DICTIONARY
  5
17B1
330
207
100
AcDbDictionary
280
     1
281
     1
  3
ADSK_XREC_LAYER_RECONCILED
360
17B2
  0
DICTIONARY
  5
17B3
330
208
100
AcDbDictionary
280
     1
281
     1
  3
ADSK_XREC_LAYER_RECONCILED
360
17B4
  0
DICTIONARY
  5
17B5
330
209
100
AcDbDictionary
280
     1
281
     1
  3
ADSK_XREC_LAYER_RECONCILED
360
17B6
  0
DICTIONARY
  5
17B7
330
20A
100
AcDbDictionary
280
     1
281
     1
  3
ADSK_XREC_LAYER_RECONCILED
360
17B8
  0
DICTIONARY
  5
17B9
330
20B
100
AcDbDictionary
280
     1
281
     1
  3
ADSK_XREC_LAYER_RECONCILED
360
17BA
  0
DICTIONARY
  5
17BB
330
20C
100
AcDbDictionary
280
     1
281
     1
  3
ADSK_XREC_LAYER_RECONCILED
360
17BC
  0
DICTIONARY
  5
17BD
330
20D
100
AcDbDictionary
280
     1
281
     1
  3
ADSK_XREC_LAYER_RECONCILED
360
17BE
  0
DICTIONARY
  5
17BF
330
20E
100
AcDbDictionary
280
     1
281
     1
  3
ADSK_XREC_LAYER_RECONCILED
360
17C0
  0
DICTIONARY
  5
17C1
330
20F
100
AcDbDictionary
280
     1
281
     1
  3
ADSK_XREC_LAYER_RECONCILED
360
17C2
  0
DICTIONARY
  5
17C3
330
210
100
AcDbDictionary
280
     1
281
     1
  3
ADSK_XREC_LAYER_RECONCILED
360
17C4
  0
DICTIONARY
  5
17C5
330
211
100
AcDbDictionary
280
     1
281
     1
  3
ADSK_XREC_LAYER_RECONCILED
360
17C6
  0
DICTIONARY
  5
17C7
330
212
100
AcDbDictionary
280
     1
281
     1
  3
ADSK_XREC_LAYER_RECONCILED
360
17C8
  0
DICTIONARY
  5
17C9
330
213
100
AcDbDictionary
280
     1
281
     1
  3
ADSK_XREC_LAYER_RECONCILED
360
17CA
  0
DICTIONARY
  5
17CB
330
214
100
AcDbDictionary
280
     1
281
     1
  3
ADSK_XREC_LAYER_RECONCILED
360
17CC
  0
DICTIONARY
  5
17CD
330
215
100
AcDbDictionary
280
     1
281
     1
  3
ADSK_XREC_LAYER_RECONCILED
360
17CE
  0
DICTIONARY
  5
17CF
330
216
100
AcDbDictionary
280
     1
281
     1
  3
ADSK_XREC_LAYER_RECONCILED
360
17D0
  0
DICTIONARY
  5
17D1
330
217
100
AcDbDictionary
280
     1
281
     1
  3
ADSK_XREC_LAYER_RECONCILED
360
17D2
  0
DICTIONARY
  5
17D3
330
218
100
AcDbDictionary
280
     1
281
     1
  3
ADSK_XREC_LAYER_RECONCILED
360
17D4
  0
DICTIONARY
  5
17D5
330
219
100
AcDbDictionary
280
     1
281
     1
  3
ADSK_XREC_LAYER_RECONCILED
360
17D6
  0
DICTIONARY
  5
17D7
330
21A
100
AcDbDictionary
280
     1
281
     1
  3
ADSK_XREC_LAYER_RECONCILED
360
17D8
  0
DICTIONARY
  5
17D9
330
21B
100
AcDbDictionary
280
     1
281
     1
  3
ADSK_XREC_LAYER_RECONCILED
360
17DA
  0
DICTIONARY
  5
17DB
330
21C
100
AcDbDictionary
280
     1
281
     1
  3
ADSK_XREC_LAYER_RECONCILED
360
17DC
  0
DICTIONARY
  5
17DD
330
21D
100
AcDbDictionary
280
     1
281
     1
  3
ADSK_XREC_LAYER_RECONCILED
360
17DE
  0
DICTIONARY
  5
17DF
330
21E
100
AcDbDictionary
280
     1
281
     1
  3
ADSK_XREC_LAYER_RECONCILED
360
17E0
  0
DICTIONARY
  5
17E1
330
21F
100
AcDbDictionary
280
     1
281
     1
  3
ADSK_XREC_LAYER_RECONCILED
360
17E2
  0
DICTIONARY
  5
17E3
330
220
100
AcDbDictionary
280
     1
281
     1
  3
ADSK_XREC_LAYER_RECONCILED
360
17E4
  0
DICTIONARY
  5
17E5
330
221
100
AcDbDictionary
280
     1
281
     1
  3
ADSK_XREC_LAYER_RECONCILED
360
17E6
  0
DICTIONARY
  5
17E7
330
222
100
AcDbDictionary
280
     1
281
     1
  3
ADSK_XREC_LAYER_RECONCILED
360
17E8
  0
DICTIONARY
  5
172B
102
{ACAD_REACTORS
330
C
102
}
330
C
100
AcDbDictionary
281
     1
  0
DICTIONARY
  5
D
102
{ACAD_REACTORS
330
C
102
}
330
C
100
AcDbDictionary
281
     1
  0
DICTIONARY
  5
1A
102
{ACAD_REACTORS
330
C
102
}
330
C
100
AcDbDictionary
281
     1
  3
Layout1
350
16FB
  3
Model
350
16FA
  0
DICTIONARY
  5
16FE
102
{ACAD_REACTORS
330
C
102
}
330
C
100
AcDbDictionary
281
     1
  3
ByBlock
350
1707
  3
ByLayer
350
16FF
  3
Global
350
170F
  0
DICTIONARY
  5
1750
102
{ACAD_REACTORS
330
C
102
}
330
C
100
AcDbDictionary
281
     1
  3
Standard
350
1751
  0
DICTIONARY
  5
17
102
{ACAD_REACTORS
330
C
102
}
330
C
100
AcDbDictionary
281
     1
  3
Standard
350
18
  0
DICTIONARY
  5
19
102
{ACAD_REACTORS
330
C
102
}
330
C
100
AcDbDictionary
281
     1
  0
ACDBDICTIONARYWDFLT
  5
E
102
{ACAD_REACTORS
330
C
102
}
330
C
100
AcDbDictionary
281
     1
  3
Normal
350
F
100
AcDbDictionaryWithDefault
340
F
  0
DICTIONARY
  5
172E
102
{ACAD_REACTORS
330
C
102
}
330
C
100
AcDbDictionary
281
     1
  3
A0
350
172F
  3
A1
350
1730
  3
A2
350
1731
  3
A3
350
1732
  3
A4
350
1733
  3
A5
350
1734
  3
A6
350
1735
  3
A7
350
1736
  3
A8
350
1737
  3
A9
350
1738
  3
B0
350
1739
  3
B1
350
173A
  3
B2
350
173B
  3
B3
350
173C
  3
B4
350
173D
  3
B5
350
173E
  3
B6
350
173F
  3
B7
350
1740
  3
B8
350
1741
  3
B9
350
1742
  3
C0
350
1743
  3
C1
350
1744
  3
C2
350
1745
  3
C3
350
1746
  3
C4
350
1747
  3
C5
350
1748
  3
C6
350
1749
  3
C7
350
174A
  3
C8
350
174B
  3
C9
350
174C
  3
D0
350
174D
  3
D1
350
174E
  3
D2
350
174F
  0
DICTIONARY
  5
172C
102
{ACAD_REACTORS
330
C
102
}
330
C
100
AcDbDictionary
281
     1
  3
Standard
350
172D
  0
DICTIONARY
  5
1717
102
{ACAD_REACTORS
330
C
102
}
330
C
100
AcDbDictionary
281
     1
  3
2dWireframe
350
171D
  3
3D Hidden
350
171F
  3
3dWireframe
350
171E
  3
Basic
350
171C
  3
Brighten
350
1723
  3
ColorChange
350
1727
  3
Conceptual
350
1720
  3
Dim
350
1722
  3
EdgeColorOff
350
172A
  3
Facepattern
350
1726
  3
Flat
350
1718
  3
FlatWithEdges
350
1719
  3
Gouraud
350
171A
  3
GouraudWithEdges
350
171B
  3
JitterOff
350
1728
  3
Linepattern
350
1725
  3
OverhangOff
350
1729
  3
Realistic
350
1721
  3
Thicken
350
1724
  0
XRECORD
  5
1754
102
{ACAD_REACTORS
330
C
102
}
330
C
100
AcDbXrecord
280
     1
 90
        1
330
172D
  0
DICTIONARY
  5
1786
102
{ACAD_REACTORS
330
C
102
}
330
C
100
AcDbDictionary
281
     1
  3
CANNOSCALE
350
1789
  3
CMLEADERSTYLE
350
1788
  3
CTABLESTYLE
350
1787
  3
DIMASSOC
350
178C
  3
INDEXCTL
350
178B
  3
LAYEREVAL
350
17EC
  3
LAYERNOTIFY
350
17ED
  3
LIGHTINGUNITS
350
17EB
  3
MSLTSCALE
350
17EA
  3
SORTENTS
350
178A
  3
XCLIPFRAME
350
178D
  0
XRECORD
  5
1796
102
{ACAD_REACTORS
330
1795
102
}
330
1795
100
AcDbXrecord
280
     1
290
     1
  0
XRECORD
  5
1798
102
{ACAD_REACTORS
330
1797
102
}
330
1797
100
AcDbXrecord
280
     1
290
     1
  0
XRECORD
  5
179A
102
{ACAD_REACTORS
330
1799
102
}
330
1799
100
AcDbXrecord
280
     1
290
     1
  0
XRECORD
  5
179C
102
{ACAD_REACTORS
330
179B
102
}
330
179B
100
AcDbXrecord
280
     1
290
     1
  0
XRECORD
  5
179E
102
{ACAD_REACTORS
330
179D
102
}
330
179D
100
AcDbXrecord
280
     1
290
     1
  0
XRECORD
  5
17A0
102
{ACAD_REACTORS
330
179F
102
}
330
179F
100
AcDbXrecord
280
     1
290
     1
  0
XRECORD
  5
17A2
102
{ACAD_REACTORS
330
17A1
102
}
330
17A1
100
AcDbXrecord
280
     1
290
     1
  0
XRECORD
  5
17A4
102
{ACAD_REACTORS
330
17A3
102
}
330
17A3
100
AcDbXrecord
280
     1
290
     1
  0
XRECORD
  5
17A6
102
{ACAD_REACTORS
330
17A5
102
}
330
17A5
100
AcDbXrecord
280
     1
290
     1
  0
XRECORD
  5
17A8
102
{ACAD_REACTORS
330
17A7
102
}
330
17A7
100
AcDbXrecord
280
     1
290
     1
  0
XRECORD
  5
17AA
102
{ACAD_REACTORS
330
17A9
102
}
330
17A9
100
AcDbXrecord
280
     1
290
     1
  0
XRECORD
  5
17AC
102
{ACAD_REACTORS
330
17AB
102
}
330
17AB
100
AcDbXrecord
280
     1
290
     1
  0
XRECORD
  5
17AE
102
{ACAD_REACTORS
330
17AD
102
}
330
17AD
100
AcDbXrecord
280
     1
290
     1
  0
XRECORD
  5
17B0
102
{ACAD_REACTORS
330
17AF
102
}
330
17AF
100
AcDbXrecord
280
     1
290
     1
  0
XRECORD
  5
17B2
102
{ACAD_REACTORS
330
17B1
102
}
330
17B1
100
AcDbXrecord
280
     1
290
     1
  0
XRECORD
  5
17B4
102
{ACAD_REACTORS
330
17B3
102
}
330
17B3
100
AcDbXrecord
280
     1
290
     1
  0
XRECORD
  5
17B6
102
{ACAD_REACTORS
330
17B5
102
}
330
17B5
100
AcDbXrecord
280
     1
290
     1
  0
XRECORD
  5
17B8
102
{ACAD_REACTORS
330
17B7
102
}
330
17B7
100
AcDbXrecord
280
     1
290
     1
  0
XRECORD
  5
17BA
102
{ACAD_REACTORS
330
17B9
102
}
330
17B9
100
AcDbXrecord
280
     1
290
     1
  0
XRECORD
  5
17BC
102
{ACAD_REACTORS
330
17BB
102
}
330
17BB
100
AcDbXrecord
280
     1
290
     1
  0
XRECORD
  5
17BE
102
{ACAD_REACTORS
330
17BD
102
}
330
17BD
100
AcDbXrecord
280
     1
290
     1
  0
XRECORD
  5
17C0
102
{ACAD_REACTORS
330
17BF
102
}
330
17BF
100
AcDbXrecord
280
     1
290
     1
  0
XRECORD
  5
17C2
102
{ACAD_REACTORS
330
17C1
102
}
330
17C1
100
AcDbXrecord
280
     1
290
     1
  0
XRECORD
  5
17C4
102
{ACAD_REACTORS
330
17C3
102
}
330
17C3
100
AcDbXrecord
280
     1
290
     1
  0
XRECORD
  5
17C6
102
{ACAD_REACTORS
330
17C5
102
}
330
17C5
100
AcDbXrecord
280
     1
290
     1
  0
XRECORD
  5
17C8
102
{ACAD_REACTORS
330
17C7
102
}
330
17C7
100
AcDbXrecord
280
     1
290
     1
  0
XRECORD
  5
17CA
102
{ACAD_REACTORS
330
17C9
102
}
330
17C9
100
AcDbXrecord
280
     1
290
     1
  0
XRECORD
  5
17CC
102
{ACAD_REACTORS
330
17CB
102
}
330
17CB
100
AcDbXrecord
280
     1
290
     1
  0
XRECORD
  5
17CE
102
{ACAD_REACTORS
330
17CD
102
}
330
17CD
100
AcDbXrecord
280
     1
290
     1
  0
XRECORD
  5
17D0
102
{ACAD_REACTORS
330
17CF
102
}
330
17CF
100
AcDbXrecord
280
     1
290
     1
  0
XRECORD
  5
17D2
102
{ACAD_REACTORS
330
17D1
102
}
330
17D1
100
AcDbXrecord
280
     1
290
     1
  0
XRECORD
  5
17D4
102
{ACAD_REACTORS
330
17D3
102
}
330
17D3
100
AcDbXrecord
280
     1
290
     1
  0
XRECORD
  5
17D6
102
{ACAD_REACTORS
330
17D5
102
}
330
17D5
100
AcDbXrecord
280
     1
290
     1
  0
XRECORD
  5
17D8
102
{ACAD_REACTORS
330
17D7
102
}
330
17D7
100
AcDbXrecord
280
     1
290
     1
  0
XRECORD
  5
17DA
102
{ACAD_REACTORS
330
17D9
102
}
330
17D9
100
AcDbXrecord
280
     1
290
     1
  0
XRECORD
  5
17DC
102
{ACAD_REACTORS
330
17DB
102
}
330
17DB
100
AcDbXrecord
280
     1
290
     1
  0
XRECORD
  5
17DE
102
{ACAD_REACTORS
330
17DD
102
}
330
17DD
100
AcDbXrecord
280
     1
290
     1
  0
XRECORD
  5
17E0
102
{ACAD_REACTORS
330
17DF
102
}
330
17DF
100
AcDbXrecord
280
     1
290
     1
  0
XRECORD
  5
17E2
102
{ACAD_REACTORS
330
17E1
102
}
330
17E1
100
AcDbXrecord
280
     1
290
     1
  0
XRECORD
  5
17E4
102
{ACAD_REACTORS
330
17E3
102
}
330
17E3
100
AcDbXrecord
280
     1
290
     1
  0
XRECORD
  5
17E6
102
{ACAD_REACTORS
330
17E5
102
}
330
17E5
100
AcDbXrecord
280
     1
290
     1
  0
XRECORD
  5
17E8
102
{ACAD_REACTORS
330
17E7
102
}
330
17E7
100
AcDbXrecord
280
     1
290
     1
  0
LAYOUT
  5
16FB
102
{ACAD_REACTORS
330
1A
102
}
330
1A
100
AcDbPlotSettings
  1

  2
none_device
  4
ANSI_B_(17.00_x_11.00_Inches)
  6

 40
0.0
 41
0.0
 42
0.0
 43
0.0
 44
431.8
 45
279.4
 46
0.0
 47
0.0
 48
0.0
 49
0.0
140
0.0
141
0.0
142
1.0
143
1.0
 70
     0
 72
     0
 73
     0
 74
     0
  7

 75
     0
147
1.0
 76
     0
 77
     2
 78
   300
148
0.0
149
0.0
100
AcDbLayout
  1
Layout1
 70
     1
 71
     1
 10
0.0
 20
0.0
 11
12.0
 21
9.0
 12
0.0
 22
0.0
 32
0.0
 14
1.000000000000000E+20
 24
1.000000000000000E+20
 34
1.000000000000000E+20
 15
-1.000000000000000E+20
 25
-1.000000000000000E+20
 35
-1.000000000000000E+20
146
0.0
 13
0.0
 23
0.0
 33
0.0
 16
1.0
 26
0.0
 36
0.0
 17
0.0
 27
1.0
 37
0.0
 76
     0
330
22C
  0
LAYOUT
  5
16FA
102
{ACAD_REACTORS
330
1A
102
}
330
1A
100
AcDbPlotSettings
  1

  2
none_device
  4
ANSI_B_(17.00_x_11.00_Inches)
  6

 40
0.0
 41
0.0
 42
0.0
 43
0.0
 44
431.8
 45
279.4
 46
0.0
 47
0.0
 48
0.0
 49
0.0
140
0.0
141
0.0
142
1.0
143
1.0
 70
  1024
 72
     0
 73
     0
 74
     0
  7

 75
     0
147
1.0
 76
     0
 77
     2
 78
   300
148
0.0
149
0.0
100
AcDbLayout
  1
Model
 70
     0
 71
     0
 10
0.0
 20
0.0
 11
17.0
 21
11.0
 12
0.0
 22
0.0
 32
0.0
 14
0.0
 24
0.0
 34
0.0
 15
0.0
 25
0.0
 35
0.0
146
0.0
 13
0.0
 23
0.0
 33
0.0
 16
1.0
 26
0.0
 36
0.0
 17
0.0
 27
1.0
 37
0.0
 76
     0
330
22B
331
1F4
  0
MATERIAL
  5
1707
102
{ACAD_XDICTIONARY
360
1708
102
}
102
{ACAD_REACTORS
330
16FE
102
}
330
16FE
100
AcDbMaterial
  1
ByBlock
 72
     0
 43
0.0208333333333333
 43
0.0
 43
0.0
 43
0.0
 43
0.0
 43
0.0208333333333333
 43
0.0
 43
0.0
 43
0.0
 43
0.0
 43
1.0
 43
0.0
 43
0.0
 43
0.0
 43
0.0
 43
1.0
 77
     0
 47
0.0208333333333333
 47
0.0
 47
0.0
 47
0.0
 47
0.0
 47
0.0208333333333333
 47
0.0
 47
0.0
 47
0.0
 47
0.0
 47
1.0
 47
0.0
 47
0.0
 47
0.0
 47
0.0
 47
1.0
171
     0
 49
0.0208333333333333
 49
0.0
 49
0.0
 49
0.0
 49
0.0
 49
0.0208333333333333
 49
0.0
 49
0.0
 49
0.0
 49
0.0
 49
1.0
 49
0.0
 49
0.0
 49
0.0
 49
0.0
 49
1.0
175
     0
142
0.0208333333333333
142
0.0
142
0.0
142
0.0
142
0.0
142
0.0208333333333333
142
0.0
142
0.0
142
0.0
142
0.0
142
1.0
142
0.0
142
0.0
142
0.0
142
0.0
142
1.0
179
     0
144
0.0208333333333333
144
0.0
144
0.0
144
0.0
144
0.0
144
0.0208333333333333
144
0.0
144
0.0
144
0.0
144
0.0
144
1.0
144
0.0
144
0.0
144
0.0
144
0.0
144
1.0
147
0.0208333333333333
147
0.0
147
0.0
147
0.0
147
0.0
147
0.0208333333333333
147
0.0
147
0.0
147
0.0
147
0.0
147
1.0
147
0.0
147
0.0
147
0.0
147
0.0
147
1.0
  0
MATERIAL
  5
16FF
102
{ACAD_XDICTIONARY
360
1700
102
}
102
{ACAD_REACTORS
330
16FE
102
}
330
16FE
100
AcDbMaterial
  1
ByLayer
 72
     0
 43
0.0208333333333333
 43
0.0
 43
0.0
 43
0.0
 43
0.0
 43
0.0208333333333333
 43
0.0
 43
0.0
 43
0.0
 43
0.0
 43
1.0
 43
0.0
 43
0.0
 43
0.0
 43
0.0
 43
1.0
 77
     0
 47
0.0208333333333333
 47
0.0
 47
0.0
 47
0.0
 47
0.0
 47
0.0208333333333333
 47
0.0
 47
0.0
 47
0.0
 47
0.0
 47
1.0
 47
0.0
 47
0.0
 47
0.0
 47
0.0
 47
1.0
171
     0
 49
0.0208333333333333
 49
0.0
 49
0.0
 49
0.0
 49
0.0
 49
0.0208333333333333
 49
0.0
 49
0.0
 49
0.0
 49
0.0
 49
1.0
 49
0.0
 49
0.0
 49
0.0
 49
0.0
 49
1.0
175
     0
142
0.0208333333333333
142
0.0
142
0.0
142
0.0
142
0.0
142
0.0208333333333333
142
0.0
142
0.0
142
0.0
142
0.0
142
1.0
142
0.0
142
0.0
142
0.0
142
0.0
142
1.0
179
     0
144
0.0208333333333333
144
0.0
144
0.0
144
0.0
144
0.0
144
0.0208333333333333
144
0.0
144
0.0
144
0.0
144
0.0
144
1.0
144
0.0
144
0.0
144
0.0
144
0.0
144
1.0
147
0.0208333333333333
147
0.0
147
0.0
147
0.0
147
0.0
147
0.0208333333333333
147
0.0
147
0.0
147
0.0
147
0.0
147
1.0
147
0.0
147
0.0
147
0.0
147
0.0
147
1.0
  0
MATERIAL
  5
170F
102
{ACAD_XDICTIONARY
360
1710
102
}
102
{ACAD_REACTORS
330
16FE
102
}
330
16FE
100
AcDbMaterial
  1
Global
 72
     0
 43
0.0208333333333333
 43
0.0
 43
0.0
 43
0.0
 43
0.0
 43
0.0208333333333333
 43
0.0
 43
0.0
 43
0.0
 43
0.0
 43
1.0
 43
0.0
 43
0.0
 43
0.0
 43
0.0
 43
1.0
 77
     0
 47
0.0208333333333333
 47
0.0
 47
0.0
 47
0.0
 47
0.0
 47
0.0208333333333333
 47
0.0
 47
0.0
 47
0.0
 47
0.0
 47
1.0
 47
0.0
 47
0.0
 47
0.0
 47
0.0
 47
1.0
171
     0
 49
0.0208333333333333
 49
0.0
 49
0.0
 49
0.0
 49
0.0
 49
0.0208333333333333
 49
0.0
 49
0.0
 49
0.0
 49
0.0
 49
1.0
 49
0.0
 49
0.0
 49
0.0
 49
0.0
 49
1.0
175
     0
142
0.0208333333333333
142
0.0
142
0.0
142
0.0
142
0.0
142
0.0208333333333333
142
0.0
142
0.0
142
0.0
142
0.0
142
1.0
142
0.0
142
0.0
142
0.0
142
0.0
142
1.0
179
     0
144
0.0208333333333333
144
0.0
144
0.0
144
0.0
144
0.0
144
0.0208333333333333
144
0.0
144
0.0
144
0.0
144
0.0
144
1.0
144
0.0
144
0.0
144
0.0
144
0.0
144
1.0
147
0.0208333333333333
147
0.0
147
0.0
147
0.0
147
0.0
147
0.0208333333333333
147
0.0
147
0.0
147
0.0
147
0.0
147
1.0
147
0.0
147
0.0
147
0.0
147
0.0
147
1.0
  0
MLEADERSTYLE
  5
1751
102
{ACAD_REACTORS
330
1750
102
}
330
1750
100
AcDbMLeaderStyle
170
     2
171
     1
172
     0
 90
        2
 40
0.0
 41
0.0
173
     1
 91
-1056964608
340
14
 92
       -2
290
     1
 42
0.09
291
     1
 43
0.36
  3
Standard
 44
0.18
300

342
11
174
     1
178
     6
175
     1
176
     0
 93
-1056964608
 45
0.18
292
     0
297
     0
 46
0.18
 94
-1056964608
 47
1.0
 49
1.0
140
1.0
293
     1
141
0.0
294
     1
177
     0
142
1.0
295
     0
296
     0
143
0.125
1001
ACAD_MLEADERVER
1070
     2
  0
MLINESTYLE
  5
18
102
{ACAD_REACTORS
330
17
102
}
330
17
100
AcDbMlineStyle
  2
STANDARD
 70
     0
  3

 62
   256
 51
90.0
 52
90.0
 71
     2
 49
0.5
 62
   256
  6
BYLAYER
 49
-0.5
 62
   256
  6
BYLAYER
  0
ACDBPLACEHOLDER
  5
F
102
{ACAD_REACTORS
330
E
102
}
330
E
  0
SCALE
  5
172F
102
{ACAD_REACTORS
330
172E
102
}
330
172E
100
AcDbScale
 70
     0
300
1:1
140
1.0
141
1.0
290
     1
  0
SCALE
  5
1730
102
{ACAD_REACTORS
330
172E
102
}
330
172E
100
AcDbScale
 70
     0
300
1:2
140
1.0
141
2.0
290
     0
  0
SCALE
  5
1731
102
{ACAD_REACTORS
330
172E
102
}
330
172E
100
AcDbScale
 70
     0
300
1:4
140
1.0
141
4.0
290
     0
  0
SCALE
  5
1732
102
{ACAD_REACTORS
330
172E
102
}
330
172E
100
AcDbScale
 70
     0
300
1:5
140
1.0
141
5.0
290
     0
  0
SCALE
  5
1733
102
{ACAD_REACTORS
330
172E
102
}
330
172E
100
AcDbScale
 70
     0
300
1:8
140
1.0
141
8.0
290
     0
  0
SCALE
  5
1734
102
{ACAD_REACTORS
330
172E
102
}
330
172E
100
AcDbScale
 70
     0
300
1:10
140
1.0
141
10.0
290
     0
  0
SCALE
  5
1735
102
{ACAD_REACTORS
330
172E
102
}
330
172E
100
AcDbScale
 70
     0
300
1:16
140
1.0
141
16.0
290
     0
  0
SCALE
  5
1736
102
{ACAD_REACTORS
330
172E
102
}
330
172E
100
AcDbScale
 70
     0
300
1:20
140
1.0
141
20.0
290
     0
  0
SCALE
  5
1737
102
{ACAD_REACTORS
330
172E
102
}
330
172E
100
AcDbScale
 70
     0
300
1:30
140
1.0
141
30.0
290
     0
  0
SCALE
  5
1738
102
{ACAD_REACTORS
330
172E
102
}
330
172E
100
AcDbScale
 70
     0
300
1:40
140
1.0
141
40.0
290
     0
  0
SCALE
  5
1739
102
{ACAD_REACTORS
330
172E
102
}
330
172E
100
AcDbScale
 70
     0
300
1:50
140
1.0
141
50.0
290
     0
  0
SCALE
  5
173A
102
{ACAD_REACTORS
330
172E
102
}
330
172E
100
AcDbScale
 70
     0
300
1:100
140
1.0
141
100.0
290
     0
  0
SCALE
  5
173B
102
{ACAD_REACTORS
330
172E
102
}
330
172E
100
AcDbScale
 70
     0
300
2:1
140
2.0
141
1.0
290
     0
  0
SCALE
  5
173C
102
{ACAD_REACTORS
330
172E
102
}
330
172E
100
AcDbScale
 70
     0
300
4:1
140
4.0
141
1.0
290
     0
  0
SCALE
  5
173D
102
{ACAD_REACTORS
330
172E
102
}
330
172E
100
AcDbScale
 70
     0
300
8:1
140
8.0
141
1.0
290
     0
  0
SCALE
  5
173E
102
{ACAD_REACTORS
330
172E
102
}
330
172E
100
AcDbScale
 70
     0
300
10:1
140
10.0
141
1.0
290
     0
  0
SCALE
  5
173F
102
{ACAD_REACTORS
330
172E
102
}
330
172E
100
AcDbScale
 70
     0
300
100:1
140
100.0
141
1.0
290
     0
  0
SCALE
  5
1740
102
{ACAD_REACTORS
330
172E
102
}
330
172E
100
AcDbScale
 70
     0
300
1/128" = 1'-0"
140
0.0078125
141
12.0
290
     0
  0
SCALE
  5
1741
102
{ACAD_REACTORS
330
172E
102
}
330
172E
100
AcDbScale
 70
     0
300
1/64" = 1'-0"
140
0.015625
141
12.0
290
     0
  0
SCALE
  5
1742
102
{ACAD_REACTORS
330
172E
102
}
330
172E
100
AcDbScale
 70
     0
300
1/32" = 1'-0"
140
0.03125
141
12.0
290
     0
  0
SCALE
  5
1743
102
{ACAD_REACTORS
330
172E
102
}
330
172E
100
AcDbScale
 70
     0
300
1/16" = 1'-0"
140
0.0625
141
12.0
290
     0
  0
SCALE
  5
1744
102
{ACAD_REACTORS
330
172E
102
}
330
172E
100
AcDbScale
 70
     0
300
3/32" = 1'-0"
140
0.09375
141
12.0
290
     0
  0
SCALE
  5
1745
102
{ACAD_REACTORS
330
172E
102
}
330
172E
100
AcDbScale
 70
     0
300
1/8" = 1'-0"
140
0.125
141
12.0
290
     0
  0
SCALE
  5
1746
102
{ACAD_REACTORS
330
172E
102
}
330
172E
100
AcDbScale
 70
     0
300
3/16" = 1'-0"
140
0.1875
141
12.0
290
     0
  0
SCALE
  5
1747
102
{ACAD_REACTORS
330
172E
102
}
330
172E
100
AcDbScale
 70
     0
300
1/4" = 1'-0"
140
0.25
141
12.0
290
     0
  0
SCALE
  5
1748
102
{ACAD_REACTORS
330
172E
102
}
330
172E
100
AcDbScale
 70
     0
300
3/8" = 1'-0"
140
0.375
141
12.0
290
     0
  0
SCALE
  5
1749
102
{ACAD_REACTORS
330
172E
102
}
330
172E
100
AcDbScale
 70
     0
300
1/2" = 1'-0"
140
0.5
141
12.0
290
     0
  0
SCALE
  5
174A
102
{ACAD_REACTORS
330
172E
102
}
330
172E
100
AcDbScale
 70
     0
300
3/4" = 1'-0"
140
0.75
141
12.0
290
     0
  0
SCALE
  5
174B
102
{ACAD_REACTORS
330
172E
102
}
330
172E
100
AcDbScale
 70
     0
300
1" = 1'-0"
140
1.0
141
12.0
290
     0
  0
SCALE
  5
174C
102
{ACAD_REACTORS
330
172E
102
}
330
172E
100
AcDbScale
 70
     0
300
1-1/2" = 1'-0"
140
1.5
141
12.0
290
     0
  0
SCALE
  5
174D
102
{ACAD_REACTORS
330
172E
102
}
330
172E
100
AcDbScale
 70
     0
300
3" = 1'-0"
140
3.0
141
12.0
290
     0
  0
SCALE
  5
174E
102
{ACAD_REACTORS
330
172E
102
}
330
172E
100
AcDbScale
 70
     0
300
6" = 1'-0"
140
6.0
141
12.0
290
     0
  0
SCALE
  5
174F
102
{ACAD_REACTORS
330
172E
102
}
330
172E
100
AcDbScale
 70
     0
300
1'-0" = 1'-0"
140
12.0
141
12.0
290
     0
  0
TABLESTYLE
  5
172D
102
{ACAD_XDICTIONARY
360
1752
102
}
102
{ACAD_REACTORS
330
172C
102
}
330
172C
100
AcDbTableStyle
  3
Standard
 70
     0
 71
     0
 40
0.06
 41
0.06
280
     0
281
     0
  7
STANDARD
140
0.18
170
     2
 62
     0
 63
     7
283
     0
 90
      512
 91
        0
  1

274
    -2
284
     1
 64
     0
275
    -2
285
     1
 65
     0
276
    -2
286
     1
 66
     0
277
    -2
287
     1
 67
     0
278
    -2
288
     1
 68
     0
279
    -2
289
     1
 69
     0
  7
STANDARD
140
0.25
170
     5
 62
     0
 63
     7
283
     0
 90
      512
 91
        0
  1

274
    -2
284
     1
 64
     0
275
    -2
285
     1
 65
     0
276
    -2
286
     1
 66
     0
277
    -2
287
     1
 67
     0
278
    -2
288
     1
 68
     0
279
    -2
289
     1
 69
     0
  7
STANDARD
140
0.18
170
     5
 62
     0
 63
     7
283
     0
 90
      512
 91
        0
  1

274
    -2
284
     1
 64
     0
275
    -2
285
     1
 65
     0
276
    -2
286
     1
 66
     0
277
    -2
287
     1
 67
     0
278
    -2
288
     1
 68
     0
279
    -2
289
     1
 69
     0
  0
VISUALSTYLE
  5
171D
102
{ACAD_XDICTIONARY
360
1768
102
}
102
{ACAD_REACTORS
330
1717
102
}
330
1717
100
AcDbVisualStyle
  2
2dWireframe
 70
     4
 71
     0
 72
     2
 73
     0
 90
        0
 40
-0.6
 41
-30.0
 62
     5
 63
     7
 74
     1
 91
        4
 64
     7
 65
   257
 75
     1
175
     1
 42
1.0
 92
        0
 66
   257
 43
1.0
 76
     1
 77
     6
 78
     2
 67
     7
 79
     5
170
     0
171
     0
290
     0
174
     0
 93
        1
 44
0.0
173
     0
291
     0
 45
0.0
  0
VISUALSTYLE
  5
171F
102
{ACAD_XDICTIONARY
360
176C
102
}
102
{ACAD_REACTORS
330
1717
102
}
330
1717
100
AcDbVisualStyle
  2
3D Hidden
 70
     6
 71
     1
 72
     2
 73
     2
 90
        0
 40
-0.6
 41
-30.0
 62
     5
 63
     7
 74
     2
 91
        2
 64
     7
 65
   257
 75
     2
175
     1
 42
179.0
 92
        0
 66
   257
 43
1.0
 76
     1
 77
     6
 78
     2
 67
     7
 79
     3
170
     0
171
     0
290
     0
174
     0
 93
        1
 44
0.0
173
     0
291
     0
 45
0.0
  0
VISUALSTYLE
  5
171E
102
{ACAD_XDICTIONARY
360
176A
102
}
102
{ACAD_REACTORS
330
1717
102
}
330
1717
100
AcDbVisualStyle
  2
3dWireframe
 70
     5
 71
     0
 72
     2
 73
     0
 90
        0
 40
-0.6
 41
-30.0
 62
     5
 63
     7
 74
     1
 91
        4
 64
     7
 65
   257
 75
     1
175
     1
 42
1.0
 92
        0
 66
   257
 43
1.0
 76
     1
 77
     6
 78
     2
 67
     7
 79
     5
170
     0
171
     0
290
     0
174
     0
 93
        1
 44
0.0
173
     0
291
     0
 45
0.0
  0
VISUALSTYLE
  5
171C
102
{ACAD_XDICTIONARY
360
1766
102
}
102
{ACAD_REACTORS
330
1717
102
}
330
1717
100
AcDbVisualStyle
  2
Basic
 70
     7
 71
     1
 72
     0
 73
     1
 90
        0
 40
-0.6
 41
-30.0
 62
     5
 63
     7
 74
     0
 91
        4
 64
     7
 65
   257
 75
     1
175
     1
 42
1.0
 92
        8
 66
     7
 43
1.0
 76
     1
 77
     6
 78
     2
 67
     7
 79
     5
170
     0
171
     0
290
     0
174
     0
 93
        1
 44
0.0
173
     0
291
     1
 45
0.0
  0
VISUALSTYLE
  5
1723
102
{ACAD_XDICTIONARY
360
1774
102
}
102
{ACAD_REACTORS
330
1717
102
}
330
1717
100
AcDbVisualStyle
  2
Brighten
 70
    12
 71
     2
 72
     2
 73
     0
 90
        0
 40
-0.6
 41
-30.0
 62
     5
 63
     7
 74
     1
 91
        4
 64
     7
 65
   257
 75
     1
175
     1
 42
1.0
 92
        8
 66
     7
 43
1.0
 76
     1
 77
     6
 78
     2
 67
     7
 79
     5
170
     0
171
     0
290
     0
174
     0
 93
        1
 44
50.0
173
     0
291
     1
 45
0.0
  0
VISUALSTYLE
  5
1727
102
{ACAD_XDICTIONARY
360
177C
102
}
102
{ACAD_REACTORS
330
1717
102
}
330
1717
100
AcDbVisualStyle
  2
ColorChange
 70
    16
 71
     2
 72
     2
 73
     3
 90
        0
 40
-0.6
 41
-30.0
 62
     5
 63
     8
 74
     1
 91
        4
 64
     7
 65
   257
 75
     1
175
     1
 42
1.0
 92
        8
 66
     8
 43
1.0
 76
     1
 77
     6
 78
     2
 67
     7
 79
     5
170
     0
171
     0
290
     0
174
     0
 93
        1
 44
0.0
173
     0
291
     1
 45
0.0
  0
VISUALSTYLE
  5
1720
102
{ACAD_XDICTIONARY
360
176E
102
}
102
{ACAD_REACTORS
330
1717
102
}
330
1717
100
AcDbVisualStyle
  2
Conceptual
 70
     9
 71
     3
 72
     2
 73
     0
 90
        0
 40
-0.6
 41
-30.0
 62
     5
 63
     7
 74
     2
 91
        2
 64
     7
 65
   257
 75
     1
175
     1
 42
179.0
 92
        8
 66
     7
 43
1.0
 76
     1
 77
     6
 78
     2
 67
     7
 79
     3
170
     0
171
     0
290
     0
174
     0
 93
        1
 44
0.0
173
     0
291
     0
 45
0.0
  0
VISUALSTYLE
  5
1722
102
{ACAD_XDICTIONARY
360
1772
102
}
102
{ACAD_REACTORS
330
1717
102
}
330
1717
100
AcDbVisualStyle
  2
Dim
 70
    11
 71
     2
 72
     2
 73
     0
 90
        0
 40
-0.6
 41
-30.0
 62
     5
 63
     7
 74
     1
 91
        4
 64
     7
 65
   257
 75
     1
175
     1
 42
1.0
 92
        8
 66
     7
 43
1.0
 76
     1
 77
     6
 78
     2
 67
     7
 79
     5
170
     0
171
     0
290
     0
174
     0
 93
        1
 44
-50.0
173
     0
291
     1
 45
0.0
  0
VISUALSTYLE
  5
172A
102
{ACAD_XDICTIONARY
360
1782
102
}
102
{ACAD_REACTORS
330
1717
102
}
330
1717
100
AcDbVisualStyle
  2
EdgeColorOff
 70
    22
 71
     2
 72
     2
 73
     0
 90
        0
 40
-0.6
 41
-30.0
 62
     5
 63
     7
 74
     1
 91
        4
 64
     7
 65
   257
 75
     1
175
     1
 42
1.0
 92
        8
 66
     7
 43
1.0
 76
     1
 77
     6
 78
     2
 67
     7
 79
     5
170
     0
171
     0
290
     0
174
     0
 93
        1
 44
0.0
173
     0
291
     1
 45
0.0
  0
VISUALSTYLE
  5
1726
102
{ACAD_XDICTIONARY
360
177A
102
}
102
{ACAD_REACTORS
330
1717
102
}
330
1717
100
AcDbVisualStyle
  2
Facepattern
 70
    15
 71
     2
 72
     2
 73
     0
 90
        0
 40
-0.6
 41
-30.0
 62
     5
 63
     7
 74
     1
 91
        4
 64
     7
 65
   257
 75
     1
175
     1
 42
1.0
 92
        8
 66
     7
 43
1.0
 76
     1
 77
     6
 78
     2
 67
     7
 79
     5
170
     0
171
     0
290
     0
174
     0
 93
        1
 44
0.0
173
     0
291
     1
 45
0.0
  0
VISUALSTYLE
  5
1718
102
{ACAD_XDICTIONARY
360
175E
102
}
102
{ACAD_REACTORS
330
1717
102
}
330
1717
100
AcDbVisualStyle
  2
Flat
 70
     0
 71
     2
 72
     1
 73
     1
 90
        2
 40
-0.6
 41
30.0
 62
     5
 63
     7
 74
     0
 91
        4
 64
     7
 65
   257
 75
     1
175
     1
 42
1.0
 92
        8
 66
     7
 43
1.0
 76
     1
 77
     6
 78
     2
 67
     7
 79
     5
170
     0
171
     0
290
     0
174
     0
 93
       13
 44
0.0
173
     0
291
     1
 45
0.0
  0
VISUALSTYLE
  5
1719
102
{ACAD_XDICTIONARY
360
1760
102
}
102
{ACAD_REACTORS
330
1717
102
}
330
1717
100
AcDbVisualStyle
  2
FlatWithEdges
 70
     1
 71
     2
 72
     1
 73
     1
 90
        2
 40
-0.6
 41
30.0
 62
     5
 63
     7
 74
     1
 91
        4
 64
     7
 65
   257
 75
     1
175
     1
 42
1.0
 92
        0
 66
   257
 43
1.0
 76
     1
 77
     6
 78
     2
 67
     7
 79
     5
170
     0
171
     0
290
     0
174
     0
 93
       13
 44
0.0
173
     0
291
     1
 45
0.0
  0
VISUALSTYLE
  5
171A
102
{ACAD_XDICTIONARY
360
1762
102
}
102
{ACAD_REACTORS
330
1717
102
}
330
1717
100
AcDbVisualStyle
  2
Gouraud
 70
     2
 71
     2
 72
     2
 73
     1
 90
        2
 40
-0.6
 41
30.0
 62
     5
 63
     7
 74
     0
 91
        4
 64
     7
 65
   257
 75
     1
175
     1
 42
1.0
 92
        0
 66
     7
 43
1.0
 76
     1
 77
     6
 78
     2
 67
     7
 79
     5
170
     0
171
     0
290
     0
174
     0
 93
       13
 44
0.0
173
     0
291
     1
 45
0.0
  0
VISUALSTYLE
  5
171B
102
{ACAD_XDICTIONARY
360
1764
102
}
102
{ACAD_REACTORS
330
1717
102
}
330
1717
100
AcDbVisualStyle
  2
GouraudWithEdges
 70
     3
 71
     2
 72
     2
 73
     1
 90
        2
 40
-0.6
 41
30.0
 62
     5
 63
     7
 74
     1
 91
        4
 64
     7
 65
   257
 75
     1
175
     1
 42
1.0
 92
        0
 66
   257
 43
1.0
 76
     1
 77
     6
 78
     2
 67
     7
 79
     5
170
     0
171
     0
290
     0
174
     0
 93
       13
 44
0.0
173
     0
291
     1
 45
0.0
  0
VISUALSTYLE
  5
1728
102
{ACAD_XDICTIONARY
360
177E
102
}
102
{ACAD_REACTORS
330
1717
102
}
330
1717
100
AcDbVisualStyle
  2
JitterOff
 70
    20
 71
     2
 72
     2
 73
     0
 90
        0
 40
-0.6
 41
-30.0
 62
     5
 63
     7
 74
     1
 91
        4
 64
     7
 65
   257
 75
     1
175
     1
 42
1.0
 92
       10
 66
     7
 43
1.0
 76
     1
 77
     6
 78
     2
 67
     7
 79
     5
170
     0
171
     0
290
     0
174
     0
 93
        1
 44
0.0
173
     0
291
     1
 45
0.0
  0
VISUALSTYLE
  5
1725
102
{ACAD_XDICTIONARY
360
1778
102
}
102
{ACAD_REACTORS
330
1717
102
}
330
1717
100
AcDbVisualStyle
  2
Linepattern
 70
    14
 71
     2
 72
     2
 73
     0
 90
        0
 40
-0.6
 41
-30.0
 62
     5
 63
     7
 74
     1
 91
        4
 64
     7
 65
   257
 75
     7
175
     7
 42
1.0
 92
        8
 66
     7
 43
1.0
 76
     1
 77
     6
 78
     2
 67
     7
 79
     5
170
     0
171
     0
290
     0
174
     0
 93
        1
 44
0.0
173
     0
291
     1
 45
0.0
  0
VISUALSTYLE
  5
1729
102
{ACAD_XDICTIONARY
360
1780
102
}
102
{ACAD_REACTORS
330
1717
102
}
330
1717
100
AcDbVisualStyle
  2
OverhangOff
 70
    21
 71
     2
 72
     2
 73
     0
 90
        0
 40
-0.6
 41
-30.0
 62
     5
 63
     7
 74
     1
 91
        4
 64
     7
 65
   257
 75
     1
175
     1
 42
1.0
 92
        9
 66
     7
 43
1.0
 76
     1
 77
     6
 78
     2
 67
     7
 79
     5
170
     0
171
     0
290
     0
174
     0
 93
        1
 44
0.0
173
     0
291
     1
 45
0.0
  0
VISUALSTYLE
  5
1721
102
{ACAD_XDICTIONARY
360
1770
102
}
102
{ACAD_REACTORS
330
1717
102
}
330
1717
100
AcDbVisualStyle
  2
Realistic
 70
     8
 71
     2
 72
     2
 73
     0
 90
        0
 40
-0.6
 41
-30.0
 62
     5
 63
     7
 74
     1
 91
        0
 64
     7
 65
   257
 75
     1
175
     1
 42
1.0
 92
        8
 66
     8
 43
1.0
 76
     1
 77
     6
 78
     2
 67
     7
 79
     5
170
     0
171
     0
290
     0
174
     0
 93
       13
 44
0.0
173
     0
291
     0
 45
0.0
  0
VISUALSTYLE
  5
1724
102
{ACAD_XDICTIONARY
360
1776
102
}
102
{ACAD_REACTORS
330
1717
102
}
330
1717
100
AcDbVisualStyle
  2
Thicken
 70
    13
 71
     2
 72
     2
 73
     0
 90
        0
 40
-0.6
 41
-30.0
 62
     5
 63
     7
 74
     1
 91
        4
 64
     7
 65
   257
 75
     1
175
     1
 42
1.0
 92
       12
 66
     7
 43
1.0
 76
     1
 77
     6
 78
     2
 67
     7
 79
     5
170
     0
171
     0
290
     0
174
     0
 93
        1
 44
0.0
173
     0
291
     1
 45
0.0
  0
DICTIONARYVAR
  5
1789
102
{ACAD_REACTORS
330
1786
102
}
330
1786
100
DictionaryVariables
280
     0
  1
1:1
  0
DICTIONARYVAR
  5
1788
102
{ACAD_REACTORS
330
1786
102
}
330
1786
100
DictionaryVariables
280
     0
  1
STANDARD
  0
DICTIONARYVAR
  5
1787
102
{ACAD_REACTORS
330
1786
102
}
330
1786
100
DictionaryVariables
280
     0
  1
STANDARD
  0
DICTIONARYVAR
  5
178C
102
{ACAD_REACTORS
330
1786
102
}
330
1786
100
DictionaryVariables
280
     0
  1
1
  0
DICTIONARYVAR
  5
178B
102
{ACAD_REACTORS
330
1786
102
}
330
1786
100
DictionaryVariables
280
     0
  1
0
  0
DICTIONARYVAR
  5
17EC
102
{ACAD_REACTORS
330
1786
102
}
330
1786
100
DictionaryVariables
280
     0
  1
1
  0
DICTIONARYVAR
  5
17ED
102
{ACAD_REACTORS
330
1786
102
}
330
1786
100
DictionaryVariables
280
     0
  1
15
  0
DICTIONARYVAR
  5
17EB
102
{ACAD_REACTORS
330
1786
102
}
330
1786
100
DictionaryVariables
280
     0
  1
0
  0
DICTIONARYVAR
  5
17EA
102
{ACAD_REACTORS
330
1786
102
}
330
1786
100
DictionaryVariables
280
     0
  1
0
  0
DICTIONARYVAR
  5
178A
102
{ACAD_REACTORS
330
1786
102
}
330
1786
100
DictionaryVariables
280
     0
  1
127
  0
DICTIONARYVAR
  5
178D
102
{ACAD_REACTORS
330
1786
102
}
330
1786
100
DictionaryVariables
280
     0
  1
2
  0
DICTIONARY
  5
1708
330
1707
100
AcDbDictionary
280
     1
281
     1
  3
BUMPTILE
360
170A
  3
DIFFUSETILE
360
1709
  3
OPACITYTILE
360
170D
  3
REFLECTIONTILE
360
170C
  3
REFRACTIONTILE
360
170E
  3
SPECULARTILE
360
170B
  0
DICTIONARY
  5
1700
330
16FF
100
AcDbDictionary
280
     1
281
     1
  3
BUMPTILE
360
1702
  3
DIFFUSETILE
360
1701
  3
OPACITYTILE
360
1705
  3
REFLECTIONTILE
360
1704
  3
REFRACTIONTILE
360
1706
  3
SPECULARTILE
360
1703
  0
DICTIONARY
  5
1710
330
170F
100
AcDbDictionary
280
     1
281
     1
  3
BUMPTILE
360
1712
  3
DIFFUSETILE
360
1711
  3
OPACITYTILE
360
1715
  3
REFLECTIONTILE
360
1714
  3
REFRACTIONTILE
360
1716
  3
SPECULARTILE
360
1713
  0
DICTIONARY
  5
1752
330
172D
100
AcDbDictionary
280
     1
281
     1
  3
ACAD_ROUNDTRIP_2008_TABLESTYLE_CELLSTYLEMAP
360
17FF
  0
DICTIONARY
  5
1768
330
171D
100
AcDbDictionary
280
     1
281
     1
  3
ACAD_XREC_ROUNDTRIP
360
1769
  0
DICTIONARY
  5
176C
330
171F
100
AcDbDictionary
280
     1
281
     1
  3
ACAD_XREC_ROUNDTRIP
360
176D
  0
DICTIONARY
  5
176A
330
171E
100
AcDbDictionary
280
     1
281
     1
  3
ACAD_XREC_ROUNDTRIP
360
176B
  0
DICTIONARY
  5
1766
330
171C
100
AcDbDictionary
280
     1
281
     1
  3
ACAD_XREC_ROUNDTRIP
360
1767
  0
DICTIONARY
  5
1774
330
1723
100
AcDbDictionary
280
     1
281
     1
  3
ACAD_XREC_ROUNDTRIP
360
1775
  0
DICTIONARY
  5
177C
330
1727
100
AcDbDictionary
280
     1
281
     1
  3
ACAD_XREC_ROUNDTRIP
360
177D
  0
DICTIONARY
  5
176E
330
1720
100
AcDbDictionary
280
     1
281
     1
  3
ACAD_XREC_ROUNDTRIP
360
176F
  0
DICTIONARY
  5
1772
330
1722
100
AcDbDictionary
280
     1
281
     1
  3
ACAD_XREC_ROUNDTRIP
360
1773
  0
DICTIONARY
  5
1782
330
172A
100
AcDbDictionary
280
     1
281
     1
  3
ACAD_XREC_ROUNDTRIP
360
1783
  0
DICTIONARY
  5
177A
330
1726
100
AcDbDictionary
280
     1
281
     1
  3
ACAD_XREC_ROUNDTRIP
360
177B
  0
DICTIONARY
  5
175E
330
1718
100
AcDbDictionary
280
     1
281
     1
  3
ACAD_XREC_ROUNDTRIP
360
175F
  0
DICTIONARY
  5
1760
330
1719
100
AcDbDictionary
280
     1
281
     1
  3
ACAD_XREC_ROUNDTRIP
360
1761
  0
DICTIONARY
  5
1762
330
171A
100
AcDbDictionary
280
     1
281
     1
  3
ACAD_XREC_ROUNDTRIP
360
1763
  0
DICTIONARY
  5
1764
330
171B
100
AcDbDictionary
280
     1
281
     1
  3
ACAD_XREC_ROUNDTRIP
360
1765
  0
DICTIONARY
  5
177E
330
1728
100
AcDbDictionary
280
     1
281
     1
  3
ACAD_XREC_ROUNDTRIP
360
177F
  0
DICTIONARY
  5
1778
330
1725
100
AcDbDictionary
280
     1
281
     1
  3
ACAD_XREC_ROUNDTRIP
360
1779
  0
DICTIONARY
  5
1780
330
1729
100
AcDbDictionary
280
     1
281
     1
  3
ACAD_XREC_ROUNDTRIP
360
1781
  0
DICTIONARY
  5
1770
330
1721
100
AcDbDictionary
280
     1
281
     1
  3
ACAD_XREC_ROUNDTRIP
360
1771
  0
DICTIONARY
  5
1776
330
1724
100
AcDbDictionary
280
     1
281
     1
  3
ACAD_XREC_ROUNDTRIP
360
1777
  0
XRECORD
  5
170A
102
{ACAD_REACTORS
330
1708
102
}
330
1708
100
AcDbXrecord
280
     1
270
     1
271
     1
  0
XRECORD
  5
1709
102
{ACAD_REACTORS
330
1708
102
}
330
1708
100
AcDbXrecord
280
     1
270
     1
271
     1
  0
XRECORD
  5
170D
102
{ACAD_REACTORS
330
1708
102
}
330
1708
100
AcDbXrecord
280
     1
270
     1
271
     1
  0
XRECORD
  5
170C
102
{ACAD_REACTORS
330
1708
102
}
330
1708
100
AcDbXrecord
280
     1
270
     1
271
     1
  0
XRECORD
  5
170E
102
{ACAD_REACTORS
330
1708
102
}
330
1708
100
AcDbXrecord
280
     1
270
     1
271
     1
  0
XRECORD
  5
170B
102
{ACAD_REACTORS
330
1708
102
}
330
1708
100
AcDbXrecord
280
     1
270
     1
271
     1
  0
XRECORD
  5
1702
102
{ACAD_REACTORS
330
1700
102
}
330
1700
100
AcDbXrecord
280
     1
270
     1
271
     1
  0
XRECORD
  5
1701
102
{ACAD_REACTORS
330
1700
102
}
330
1700
100
AcDbXrecord
280
     1
270
     1
271
     1
  0
XRECORD
  5
1705
102
{ACAD_REACTORS
330
1700
102
}
330
1700
100
AcDbXrecord
280
     1
270
     1
271
     1
  0
XRECORD
  5
1704
102
{ACAD_REACTORS
330
1700
102
}
330
1700
100
AcDbXrecord
280
     1
270
     1
271
     1
  0
XRECORD
  5
1706
102
{ACAD_REACTORS
330
1700
102
}
330
1700
100
AcDbXrecord
280
     1
270
     1
271
     1
  0
XRECORD
  5
1703
102
{ACAD_REACTORS
330
1700
102
}
330
1700
100
AcDbXrecord
280
     1
270
     1
271
     1
  0
XRECORD
  5
1712
102
{ACAD_REACTORS
330
1710
102
}
330
1710
100
AcDbXrecord
280
     1
270
     1
271
     1
  0
XRECORD
  5
1711
102
{ACAD_REACTORS
330
1710
102
}
330
1710
100
AcDbXrecord
280
     1
270
     1
271
     1
  0
XRECORD
  5
1715
102
{ACAD_REACTORS
330
1710
102
}
330
1710
100
AcDbXrecord
280
     1
270
     1
271
     1
  0
XRECORD
  5
1714
102
{ACAD_REACTORS
330
1710
102
}
330
1710
100
AcDbXrecord
280
     1
270
     1
271
     1
  0
XRECORD
  5
1716
102
{ACAD_REACTORS
330
1710
102
}
330
1710
100
AcDbXrecord
280
     1
270
     1
271
     1
  0
XRECORD
  5
1713
102
{ACAD_REACTORS
330
1710
102
}
330
1710
100
AcDbXrecord
280
     1
270
     1
271
     1
  0
CELLSTYLEMAP
  5
17FF
102
{ACAD_REACTORS
330
1752
102
}
330
1752
100
AcDbCellStyleMap
 90
        3
300
CELLSTYLE
  1
TABLEFORMAT_BEGIN
 90
        5
170
     1
 91
        0
 92
    32768
 62
   257
 93
        1
300
CONTENTFORMAT
  1
CONTENTFORMAT_BEGIN
 90
        0
 91
        0
 92
      512
 93
        0
300

 40
0.0
140
1.0
 94
        5
 62
     0
340
11
144
0.25
309
CONTENTFORMAT_END
171
     0
 94
        0
309
TABLEFORMAT_END
  1
CELLSTYLE_BEGIN
 90
        1
 91
        1
300
_TITLE
309
CELLSTYLE_END
300
CELLSTYLE
  1
TABLEFORMAT_BEGIN
 90
        5
170
     1
 91
        0
 92
        0
 62
   257
 93
        1
300
CONTENTFORMAT
  1
CONTENTFORMAT_BEGIN
 90
        0
 91
        0
 92
      512
 93
        0
300

 40
0.0
140
1.0
 94
        5
 62
     0
340
11
144
0.18
309
CONTENTFORMAT_END
171
     0
 94
        0
309
TABLEFORMAT_END
  1
CELLSTYLE_BEGIN
 90
        2
 91
        1
300
_HEADER
309
CELLSTYLE_END
300
CELLSTYLE
  1
TABLEFORMAT_BEGIN
 90
        5
170
     1
 91
        0
 92
        0
 62
   257
 93
        1
300
CONTENTFORMAT
  1
CONTENTFORMAT_BEGIN
 90
        0
 91
        0
 92
      512
 93
        0
300

 40
0.0
140
1.0
 94
        2
 62
     0
340
11
144
0.18
309
CONTENTFORMAT_END
171
     0
 94
        0
309
TABLEFORMAT_END
  1
CELLSTYLE_BEGIN
 90
        3
 91
        2
300
_DATA
309
CELLSTYLE_END
  0
XRECORD
  5
1769
102
{ACAD_REACTORS
330
1768
102
}
330
1768
100
AcDbXrecord
280
     1
102
RTVSPropertyOp0
 70
     1
102
RTVSPropertyOp1
 70
     1
102
RTVSPropertyOp2
 70
     1
102
RTVSPropertyOp3
 70
     1
102
RTVSPropertyOp4
 70
     1
102
RTVSPropertyOp5
 70
     1
102
RTVSPropertyOp6
 70
     1
102
RTVSPropertyOp7
 70
     1
102
RTVSPropertyOp8
 70
     1
102
RTVSPropertyOp9
 70
     1
102
RTVSPropertyOp10
 70
     1
102
RTVSPropertyOp11
 70
     1
102
RTVSPropertyOp12
 70
     1
102
RTVSPropertyOp13
 70
     1
102
RTVSPropertyOp14
 70
     1
102
RTVSPropertyOp15
 70
     1
102
RTVSPropertyOp16
 70
     1
102
RTVSPropertyOp17
 70
     1
102
RTVSPropertyOp18
 70
     1
102
RTVSPropertyOp19
 70
     1
102
RTVSPropertyOp20
 70
     1
102
RTVSPropertyOp21
 70
     1
102
RTVSPropertyOp22
 70
     1
102
RTVSPropertyOp23
 70
     1
102
RTVSPropertyOp24
 70
     1
102
RTVSPropertyOp25
 70
     1
102
RTVSPropertyOp26
 70
     1
102
RTVSPropertyOp27
 70
     1
  0
XRECORD
  5
176D
102
{ACAD_REACTORS
330
176C
102
}
330
176C
100
AcDbXrecord
280
     1
102
RTVSPropertyOp0
 70
     1
102
RTVSPropertyOp1
 70
     1
102
RTVSPropertyOp2
 70
     1
102
RTVSPropertyOp3
 70
     1
102
RTVSPropertyOp4
 70
     1
102
RTVSPropertyOp5
 70
     1
102
RTVSPropertyOp6
 70
     1
102
RTVSPropertyOp7
 70
     1
102
RTVSPropertyOp8
 70
     1
102
RTVSPropertyOp9
 70
     1
102
RTVSPropertyOp10
 70
     1
102
RTVSPropertyOp11
 70
     1
102
RTVSPropertyOp12
 70
     1
102
RTVSPropertyOp13
 70
     1
102
RTVSPropertyOp14
 70
     1
102
RTVSPropertyOp15
 70
     1
102
RTVSPropertyOp16
 70
     1
102
RTVSPropertyOp17
 70
     1
102
RTVSPropertyOp18
 70
     1
102
RTVSPropertyOp19
 70
     1
102
RTVSPropertyOp20
 70
     1
102
RTVSPropertyOp21
 70
     1
102
RTVSPropertyOp22
 70
     1
102
RTVSPropertyOp23
 70
     1
102
RTVSPropertyOp24
 70
     1
102
RTVSPropertyOp25
 70
     1
102
RTVSPropertyOp26
 70
     1
102
RTVSPropertyOp27
 70
     1
  0
XRECORD
  5
176B
102
{ACAD_REACTORS
330
176A
102
}
330
176A
100
AcDbXrecord
280
     1
102
RTVSPropertyOp0
 70
     1
102
RTVSPropertyOp1
 70
     1
102
RTVSPropertyOp2
 70
     1
102
RTVSPropertyOp3
 70
     1
102
RTVSPropertyOp4
 70
     1
102
RTVSPropertyOp5
 70
     1
102
RTVSPropertyOp6
 70
     1
102
RTVSPropertyOp7
 70
     1
102
RTVSPropertyOp8
 70
     1
102
RTVSPropertyOp9
 70
     1
102
RTVSPropertyOp10
 70
     1
102
RTVSPropertyOp11
 70
     1
102
RTVSPropertyOp12
 70
     1
102
RTVSPropertyOp13
 70
     1
102
RTVSPropertyOp14
 70
     1
102
RTVSPropertyOp15
 70
     1
102
RTVSPropertyOp16
 70
     1
102
RTVSPropertyOp17
 70
     1
102
RTVSPropertyOp18
 70
     1
102
RTVSPropertyOp19
 70
     1
102
RTVSPropertyOp20
 70
     1
102
RTVSPropertyOp21
 70
     1
102
RTVSPropertyOp22
 70
     1
102
RTVSPropertyOp23
 70
     1
102
RTVSPropertyOp24
 70
     1
102
RTVSPropertyOp25
 70
     1
102
RTVSPropertyOp26
 70
     1
102
RTVSPropertyOp27
 70
     1
  0
XRECORD
  5
1767
102
{ACAD_REACTORS
330
1766
102
}
330
1766
100
AcDbXrecord
280
     1
102
RTVSPropertyOp0
 70
     1
102
RTVSPropertyOp1
 70
     1
102
RTVSPropertyOp2
 70
     1
102
RTVSPropertyOp3
 70
     1
102
RTVSPropertyOp4
 70
     1
102
RTVSPropertyOp5
 70
     1
102
RTVSPropertyOp6
 70
     1
102
RTVSPropertyOp7
 70
     1
102
RTVSPropertyOp8
 70
     1
102
RTVSPropertyOp9
 70
     1
102
RTVSPropertyOp10
 70
     1
102
RTVSPropertyOp11
 70
     1
102
RTVSPropertyOp12
 70
     1
102
RTVSPropertyOp13
 70
     1
102
RTVSPropertyOp14
 70
     1
102
RTVSPropertyOp15
 70
     1
102
RTVSPropertyOp16
 70
     1
102
RTVSPropertyOp17
 70
     1
102
RTVSPropertyOp18
 70
     1
102
RTVSPropertyOp19
 70
     1
102
RTVSPropertyOp20
 70
     1
102
RTVSPropertyOp21
 70
     1
102
RTVSPropertyOp22
 70
     1
102
RTVSPropertyOp23
 70
     1
102
RTVSPropertyOp24
 70
     1
102
RTVSPropertyOp25
 70
     1
102
RTVSPropertyOp26
 70
     1
102
RTVSPropertyOp27
 70
     1
  0
XRECORD
  5
1775
102
{ACAD_REACTORS
330
1774
102
}
330
1774
100
AcDbXrecord
280
     1
102
RTVSPropertyOp0
 70
     1
102
RTVSPropertyOp1
 70
     1
102
RTVSPropertyOp2
 70
     1
102
RTVSPropertyOp3
 70
     1
102
RTVSPropertyOp4
 70
     1
102
RTVSPropertyOp5
 70
     1
102
RTVSPropertyOp6
 70
     1
102
RTVSPropertyOp7
 70
     1
102
RTVSPropertyOp8
 70
     1
102
RTVSPropertyOp9
 70
     1
102
RTVSPropertyOp10
 70
     1
102
RTVSPropertyOp11
 70
     1
102
RTVSPropertyOp12
 70
     1
102
RTVSPropertyOp13
 70
     1
102
RTVSPropertyOp14
 70
     1
102
RTVSPropertyOp15
 70
     1
102
RTVSPropertyOp16
 70
     1
102
RTVSPropertyOp17
 70
     1
102
RTVSPropertyOp18
 70
     1
102
RTVSPropertyOp19
 70
     1
102
RTVSPropertyOp20
 70
     1
102
RTVSPropertyOp21
 70
     1
102
RTVSPropertyOp22
 70
     1
102
RTVSPropertyOp23
 70
     1
102
RTVSPropertyOp24
 70
     1
102
RTVSPropertyOp25
 70
     1
102
RTVSPropertyOp26
 70
     1
102
RTVSPropertyOp27
 70
     1
  0
XRECORD
  5
177D
102
{ACAD_REACTORS
330
177C
102
}
330
177C
100
AcDbXrecord
280
     1
102
RTVSPropertyOp0
 70
     1
102
RTVSPropertyOp1
 70
     1
102
RTVSPropertyOp2
 70
     1
102
RTVSPropertyOp3
 70
     1
102
RTVSPropertyOp4
 70
     1
102
RTVSPropertyOp5
 70
     1
102
RTVSPropertyOp6
 70
     1
102
RTVSPropertyOp7
 70
     1
102
RTVSPropertyOp8
 70
     1
102
RTVSPropertyOp9
 70
     1
102
RTVSPropertyOp10
 70
     1
102
RTVSPropertyOp11
 70
     1
102
RTVSPropertyOp12
 70
     1
102
RTVSPropertyOp13
 70
     1
102
RTVSPropertyOp14
 70
     1
102
RTVSPropertyOp15
 70
     1
102
RTVSPropertyOp16
 70
     1
102
RTVSPropertyOp17
 70
     1
102
RTVSPropertyOp18
 70
     1
102
RTVSPropertyOp19
 70
     1
102
RTVSPropertyOp20
 70
     1
102
RTVSPropertyOp21
 70
     1
102
RTVSPropertyOp22
 70
     1
102
RTVSPropertyOp23
 70
     1
102
RTVSPropertyOp24
 70
     1
102
RTVSPropertyOp25
 70
     1
102
RTVSPropertyOp26
 70
     1
102
RTVSPropertyOp27
 70
     1
  0
XRECORD
  5
176F
102
{ACAD_REACTORS
330
176E
102
}
330
176E
100
AcDbXrecord
280
     1
102
RTVSPropertyOp0
 70
     1
102
RTVSPropertyOp1
 70
     1
102
RTVSPropertyOp2
 70
     1
102
RTVSPropertyOp3
 70
     1
102
RTVSPropertyOp4
 70
     1
102
RTVSPropertyOp5
 70
     1
102
RTVSPropertyOp6
 70
     1
102
RTVSPropertyOp7
 70
     1
102
RTVSPropertyOp8
 70
     1
102
RTVSPropertyOp9
 70
     1
102
RTVSPropertyOp10
 70
     1
102
RTVSPropertyOp11
 70
     1
102
RTVSPropertyOp12
 70
     1
102
RTVSPropertyOp13
 70
     1
102
RTVSPropertyOp14
 70
     1
102
RTVSPropertyOp15
 70
     1
102
RTVSPropertyOp16
 70
     1
102
RTVSPropertyOp17
 70
     1
102
RTVSPropertyOp18
 70
     1
102
RTVSPropertyOp19
 70
     1
102
RTVSPropertyOp20
 70
     1
102
RTVSPropertyOp21
 70
     1
102
RTVSPropertyOp22
 70
     1
102
RTVSPropertyOp23
 70
     1
102
RTVSPropertyOp24
 70
     1
102
RTVSPropertyOp25
 70
     1
102
RTVSPropertyOp26
 70
     1
102
RTVSPropertyOp27
 70
     1
  0
XRECORD
  5
1773
102
{ACAD_REACTORS
330
1772
102
}
330
1772
100
AcDbXrecord
280
     1
102
RTVSPropertyOp0
 70
     1
102
RTVSPropertyOp1
 70
     1
102
RTVSPropertyOp2
 70
     1
102
RTVSPropertyOp3
 70
     1
102
RTVSPropertyOp4
 70
     1
102
RTVSPropertyOp5
 70
     1
102
RTVSPropertyOp6
 70
     1
102
RTVSPropertyOp7
 70
     1
102
RTVSPropertyOp8
 70
     1
102
RTVSPropertyOp9
 70
     1
102
RTVSPropertyOp10
 70
     1
102
RTVSPropertyOp11
 70
     1
102
RTVSPropertyOp12
 70
     1
102
RTVSPropertyOp13
 70
     1
102
RTVSPropertyOp14
 70
     1
102
RTVSPropertyOp15
 70
     1
102
RTVSPropertyOp16
 70
     1
102
RTVSPropertyOp17
 70
     1
102
RTVSPropertyOp18
 70
     1
102
RTVSPropertyOp19
 70
     1
102
RTVSPropertyOp20
 70
     1
102
RTVSPropertyOp21
 70
     1
102
RTVSPropertyOp22
 70
     1
102
RTVSPropertyOp23
 70
     1
102
RTVSPropertyOp24
 70
     1
102
RTVSPropertyOp25
 70
     1
102
RTVSPropertyOp26
 70
     1
102
RTVSPropertyOp27
 70
     1
  0
XRECORD
  5
1783
102
{ACAD_REACTORS
330
1782
102
}
330
1782
100
AcDbXrecord
280
     1
102
RTVSPropertyOp0
 70
     0
102
RTVSPropertyOp1
 70
     0
102
RTVSPropertyOp2
 70
     0
102
RTVSPropertyOp3
 70
     0
102
RTVSPropertyOp4
 70
     0
102
RTVSPropertyOp5
 70
     0
102
RTVSPropertyOp6
 70
     0
102
RTVSPropertyOp7
 70
     0
102
RTVSPropertyOp8
 70
     0
102
RTVSPropertyOp9
 70
     0
102
RTVSPropertyOp10
 70
     0
102
RTVSPropertyOp11
 70
     0
102
RTVSPropertyOp12
 70
     0
102
RTVSPropertyOp13
 70
     0
102
RTVSPropertyOp14
 70
     2
102
RTVSPropertyOp15
 70
     0
102
RTVSPropertyOp16
 70
     0
102
RTVSPropertyOp17
 70
     0
102
RTVSPropertyOp18
 70
     0
102
RTVSPropertyOp19
 70
     0
102
RTVSPropertyOp20
 70
     0
102
RTVSPropertyOp21
 70
     0
102
RTVSPropertyOp22
 70
     0
102
RTVSPropertyOp23
 70
     0
102
RTVSPropertyOp24
 70
     0
102
RTVSPropertyOp25
 70
     0
102
RTVSPropertyOp26
 70
     0
102
RTVSPropertyOp27
 70
     0
  0
XRECORD
  5
177B
102
{ACAD_REACTORS
330
177A
102
}
330
177A
100
AcDbXrecord
280
     1
102
RTVSPropertyOp0
 70
     1
102
RTVSPropertyOp1
 70
     1
102
RTVSPropertyOp2
 70
     1
102
RTVSPropertyOp3
 70
     1
102
RTVSPropertyOp4
 70
     1
102
RTVSPropertyOp5
 70
     1
102
RTVSPropertyOp6
 70
     1
102
RTVSPropertyOp7
 70
     1
102
RTVSPropertyOp8
 70
     1
102
RTVSPropertyOp9
 70
     1
102
RTVSPropertyOp10
 70
     1
102
RTVSPropertyOp11
 70
     1
102
RTVSPropertyOp12
 70
     1
102
RTVSPropertyOp13
 70
     1
102
RTVSPropertyOp14
 70
     1
102
RTVSPropertyOp15
 70
     1
102
RTVSPropertyOp16
 70
     1
102
RTVSPropertyOp17
 70
     1
102
RTVSPropertyOp18
 70
     1
102
RTVSPropertyOp19
 70
     1
102
RTVSPropertyOp20
 70
     1
102
RTVSPropertyOp21
 70
     1
102
RTVSPropertyOp22
 70
     1
102
RTVSPropertyOp23
 70
     1
102
RTVSPropertyOp24
 70
     1
102
RTVSPropertyOp25
 70
     1
102
RTVSPropertyOp26
 70
     1
102
RTVSPropertyOp27
 70
     1
  0
XRECORD
  5
175F
102
{ACAD_REACTORS
330
175E
102
}
330
175E
100
AcDbXrecord
280
     1
102
RTVSPropertyOp0
 70
     1
102
RTVSPropertyOp1
 70
     1
102
RTVSPropertyOp2
 70
     1
102
RTVSPropertyOp3
 70
     1
102
RTVSPropertyOp4
 70
     1
102
RTVSPropertyOp5
 70
     1
102
RTVSPropertyOp6
 70
     1
102
RTVSPropertyOp7
 70
     1
102
RTVSPropertyOp8
 70
     1
102
RTVSPropertyOp9
 70
     1
102
RTVSPropertyOp10
 70
     1
102
RTVSPropertyOp11
 70
     1
102
RTVSPropertyOp12
 70
     1
102
RTVSPropertyOp13
 70
     1
102
RTVSPropertyOp14
 70
     1
102
RTVSPropertyOp15
 70
     1
102
RTVSPropertyOp16
 70
     1
102
RTVSPropertyOp17
 70
     1
102
RTVSPropertyOp18
 70
     1
102
RTVSPropertyOp19
 70
     1
102
RTVSPropertyOp20
 70
     1
102
RTVSPropertyOp21
 70
     1
102
RTVSPropertyOp22
 70
     1
102
RTVSPropertyOp23
 70
     1
102
RTVSPropertyOp24
 70
     1
102
RTVSPropertyOp25
 70
     1
102
RTVSPropertyOp26
 70
     1
102
RTVSPropertyOp27
 70
     1
  0
XRECORD
  5
1761
102
{ACAD_REACTORS
330
1760
102
}
330
1760
100
AcDbXrecord
280
     1
102
RTVSPropertyOp0
 70
     1
102
RTVSPropertyOp1
 70
     1
102
RTVSPropertyOp2
 70
     1
102
RTVSPropertyOp3
 70
     1
102
RTVSPropertyOp4
 70
     1
102
RTVSPropertyOp5
 70
     1
102
RTVSPropertyOp6
 70
     1
102
RTVSPropertyOp7
 70
     1
102
RTVSPropertyOp8
 70
     1
102
RTVSPropertyOp9
 70
     1
102
RTVSPropertyOp10
 70
     1
102
RTVSPropertyOp11
 70
     1
102
RTVSPropertyOp12
 70
     1
102
RTVSPropertyOp13
 70
     1
102
RTVSPropertyOp14
 70
     1
102
RTVSPropertyOp15
 70
     1
102
RTVSPropertyOp16
 70
     1
102
RTVSPropertyOp17
 70
     1
102
RTVSPropertyOp18
 70
     1
102
RTVSPropertyOp19
 70
     1
102
RTVSPropertyOp20
 70
     1
102
RTVSPropertyOp21
 70
     1
102
RTVSPropertyOp22
 70
     1
102
RTVSPropertyOp23
 70
     1
102
RTVSPropertyOp24
 70
     1
102
RTVSPropertyOp25
 70
     1
102
RTVSPropertyOp26
 70
     1
102
RTVSPropertyOp27
 70
     1
  0
XRECORD
  5
1763
102
{ACAD_REACTORS
330
1762
102
}
330
1762
100
AcDbXrecord
280
     1
102
RTVSPropertyOp0
 70
     1
102
RTVSPropertyOp1
 70
     1
102
RTVSPropertyOp2
 70
     1
102
RTVSPropertyOp3
 70
     1
102
RTVSPropertyOp4
 70
     1
102
RTVSPropertyOp5
 70
     1
102
RTVSPropertyOp6
 70
     1
102
RTVSPropertyOp7
 70
     1
102
RTVSPropertyOp8
 70
     1
102
RTVSPropertyOp9
 70
     1
102
RTVSPropertyOp10
 70
     1
102
RTVSPropertyOp11
 70
     1
102
RTVSPropertyOp12
 70
     1
102
RTVSPropertyOp13
 70
     1
102
RTVSPropertyOp14
 70
     1
102
RTVSPropertyOp15
 70
     1
102
RTVSPropertyOp16
 70
     1
102
RTVSPropertyOp17
 70
     1
102
RTVSPropertyOp18
 70
     1
102
RTVSPropertyOp19
 70
     1
102
RTVSPropertyOp20
 70
     1
102
RTVSPropertyOp21
 70
     1
102
RTVSPropertyOp22
 70
     1
102
RTVSPropertyOp23
 70
     1
102
RTVSPropertyOp24
 70
     1
102
RTVSPropertyOp25
 70
     1
102
RTVSPropertyOp26
 70
     1
102
RTVSPropertyOp27
 70
     1
  0
XRECORD
  5
1765
102
{ACAD_REACTORS
330
1764
102
}
330
1764
100
AcDbXrecord
280
     1
102
RTVSPropertyOp0
 70
     1
102
RTVSPropertyOp1
 70
     1
102
RTVSPropertyOp2
 70
     1
102
RTVSPropertyOp3
 70
     1
102
RTVSPropertyOp4
 70
     1
102
RTVSPropertyOp5
 70
     1
102
RTVSPropertyOp6
 70
     1
102
RTVSPropertyOp7
 70
     1
102
RTVSPropertyOp8
 70
     1
102
RTVSPropertyOp9
 70
     1
102
RTVSPropertyOp10
 70
     1
102
RTVSPropertyOp11
 70
     1
102
RTVSPropertyOp12
 70
     1
102
RTVSPropertyOp13
 70
     1
102
RTVSPropertyOp14
 70
     1
102
RTVSPropertyOp15
 70
     1
102
RTVSPropertyOp16
 70
     1
102
RTVSPropertyOp17
 70
     1
102
RTVSPropertyOp18
 70
     1
102
RTVSPropertyOp19
 70
     1
102
RTVSPropertyOp20
 70
     1
102
RTVSPropertyOp21
 70
     1
102
RTVSPropertyOp22
 70
     1
102
RTVSPropertyOp23
 70
     1
102
RTVSPropertyOp24
 70
     1
102
RTVSPropertyOp25
 70
     1
102
RTVSPropertyOp26
 70
     1
102
RTVSPropertyOp27
 70
     1
  0
XRECORD
  5
177F
102
{ACAD_REACTORS
330
177E
102
}
330
177E
100
AcDbXrecord
280
     1
102
RTVSPropertyOp0
 70
     0
102
RTVSPropertyOp1
 70
     0
102
RTVSPropertyOp2
 70
     0
102
RTVSPropertyOp3
 70
     0
102
RTVSPropertyOp4
 70
     0
102
RTVSPropertyOp5
 70
     0
102
RTVSPropertyOp6
 70
     0
102
RTVSPropertyOp7
 70
     0
102
RTVSPropertyOp8
 70
     0
102
RTVSPropertyOp9
 70
     0
102
RTVSPropertyOp10
 70
     0
102
RTVSPropertyOp11
 70
     0
102
RTVSPropertyOp12
 70
     0
102
RTVSPropertyOp13
 70
     0
102
RTVSPropertyOp14
 70
     2
102
RTVSPropertyOp15
 70
     0
102
RTVSPropertyOp16
 70
     0
102
RTVSPropertyOp17
 70
     0
102
RTVSPropertyOp18
 70
     0
102
RTVSPropertyOp19
 70
     0
102
RTVSPropertyOp20
 70
     0
102
RTVSPropertyOp21
 70
     0
102
RTVSPropertyOp22
 70
     0
102
RTVSPropertyOp23
 70
     0
102
RTVSPropertyOp24
 70
     0
102
RTVSPropertyOp25
 70
     0
102
RTVSPropertyOp26
 70
     0
102
RTVSPropertyOp27
 70
     0
  0
XRECORD
  5
1779
102
{ACAD_REACTORS
330
1778
102
}
330
1778
100
AcDbXrecord
280
     1
102
RTVSPropertyOp0
 70
     1
102
RTVSPropertyOp1
 70
     1
102
RTVSPropertyOp2
 70
     1
102
RTVSPropertyOp3
 70
     1
102
RTVSPropertyOp4
 70
     1
102
RTVSPropertyOp5
 70
     1
102
RTVSPropertyOp6
 70
     1
102
RTVSPropertyOp7
 70
     1
102
RTVSPropertyOp8
 70
     1
102
RTVSPropertyOp9
 70
     1
102
RTVSPropertyOp10
 70
     1
102
RTVSPropertyOp11
 70
     1
102
RTVSPropertyOp12
 70
     1
102
RTVSPropertyOp13
 70
     1
102
RTVSPropertyOp14
 70
     1
102
RTVSPropertyOp15
 70
     1
102
RTVSPropertyOp16
 70
     1
102
RTVSPropertyOp17
 70
     1
102
RTVSPropertyOp18
 70
     1
102
RTVSPropertyOp19
 70
     1
102
RTVSPropertyOp20
 70
     1
102
RTVSPropertyOp21
 70
     1
102
RTVSPropertyOp22
 70
     1
102
RTVSPropertyOp23
 70
     1
102
RTVSPropertyOp24
 70
     1
102
RTVSPropertyOp25
 70
     1
102
RTVSPropertyOp26
 70
     1
102
RTVSPropertyOp27
 70
     1
  0
XRECORD
  5
1781
102
{ACAD_REACTORS
330
1780
102
}
330
1780
100
AcDbXrecord
280
     1
102
RTVSPropertyOp0
 70
     0
102
RTVSPropertyOp1
 70
     0
102
RTVSPropertyOp2
 70
     0
102
RTVSPropertyOp3
 70
     0
102
RTVSPropertyOp4
 70
     0
102
RTVSPropertyOp5
 70
     0
102
RTVSPropertyOp6
 70
     0
102
RTVSPropertyOp7
 70
     0
102
RTVSPropertyOp8
 70
     0
102
RTVSPropertyOp9
 70
     0
102
RTVSPropertyOp10
 70
     0
102
RTVSPropertyOp11
 70
     0
102
RTVSPropertyOp12
 70
     0
102
RTVSPropertyOp13
 70
     0
102
RTVSPropertyOp14
 70
     2
102
RTVSPropertyOp15
 70
     0
102
RTVSPropertyOp16
 70
     0
102
RTVSPropertyOp17
 70
     0
102
RTVSPropertyOp18
 70
     0
102
RTVSPropertyOp19
 70
     0
102
RTVSPropertyOp20
 70
     0
102
RTVSPropertyOp21
 70
     0
102
RTVSPropertyOp22
 70
     0
102
RTVSPropertyOp23
 70
     0
102
RTVSPropertyOp24
 70
     0
102
RTVSPropertyOp25
 70
     0
102
RTVSPropertyOp26
 70
     0
102
RTVSPropertyOp27
 70
     0
  0
XRECORD
  5
1771
102
{ACAD_REACTORS
330
1770
102
}
330
1770
100
AcDbXrecord
280
     1
102
RTVSPropertyOp0
 70
     1
102
RTVSPropertyOp1
 70
     1
102
RTVSPropertyOp2
 70
     1
102
RTVSPropertyOp3
 70
     1
102
RTVSPropertyOp4
 70
     1
102
RTVSPropertyOp5
 70
     1
102
RTVSPropertyOp6
 70
     1
102
RTVSPropertyOp7
 70
     1
102
RTVSPropertyOp8
 70
     1
102
RTVSPropertyOp9
 70
     1
102
RTVSPropertyOp10
 70
     1
102
RTVSPropertyOp11
 70
     1
102
RTVSPropertyOp12
 70
     1
102
RTVSPropertyOp13
 70
     1
102
RTVSPropertyOp14
 70
     1
102
RTVSPropertyOp15
 70
     1
102
RTVSPropertyOp16
 70
     1
102
RTVSPropertyOp17
 70
     1
102
RTVSPropertyOp18
 70
     1
102
RTVSPropertyOp19
 70
     1
102
RTVSPropertyOp20
 70
     1
102
RTVSPropertyOp21
 70
     1
102
RTVSPropertyOp22
 70
     1
102
RTVSPropertyOp23
 70
     1
102
RTVSPropertyOp24
 70
     1
102
RTVSPropertyOp25
 70
     1
102
RTVSPropertyOp26
 70
     1
102
RTVSPropertyOp27
 70
     1
  0
XRECORD
  5
1777
102
{ACAD_REACTORS
330
1776
102
}
330
1776
100
AcDbXrecord
280
     1
102
RTVSPropertyOp0
 70
     1
102
RTVSPropertyOp1
 70
     1
102
RTVSPropertyOp2
 70
     1
102
RTVSPropertyOp3
 70
     1
102
RTVSPropertyOp4
 70
     1
102
RTVSPropertyOp5
 70
     1
102
RTVSPropertyOp6
 70
     1
102
RTVSPropertyOp7
 70
     1
102
RTVSPropertyOp8
 70
     1
102
RTVSPropertyOp9
 70
     1
102
RTVSPropertyOp10
 70
     1
102
RTVSPropertyOp11
 70
     1
102
RTVSPropertyOp12
 70
     1
102
RTVSPropertyOp13
 70
     1
102
RTVSPropertyOp14
 70
     1
102
RTVSPropertyOp15
 70
     1
102
RTVSPropertyOp16
 70
     1
102
RTVSPropertyOp17
 70
     1
102
RTVSPropertyOp18
 70
     1
102
RTVSPropertyOp19
 70
     1
102
RTVSPropertyOp20
 70
     1
102
RTVSPropertyOp21
 70
     1
102
RTVSPropertyOp22
 70
     1
102
RTVSPropertyOp23
 70
     1
102
RTVSPropertyOp24
 70
     1
102
RTVSPropertyOp25
 70
     1
102
RTVSPropertyOp26
 70
     1
102
RTVSPropertyOp27
 70
     1
  0
ENDSEC
  0
EOF
