  0
SECTION
  2
HEADER
  9
$ACADVER
  1
AC1021
  9
$ACADMAINTVER
 70
    50
  9
$DWGCODEPAGE
  3
ANSI_1252
  9
$LASTSAVEDBY
  1
francoisbu
  9
$INSBASE
 10
0.0
 20
0.0
 30
0.0
  9
$EXTMIN
 10
90.70193716834285
 20
19.11751331627158
 30
-0.0015258207003583
  9
$EXTMAX
 10
123.3930843116601
 20
44.19156919844385
 30
0.0000000349246037
  9
$LIMMIN
 10
0.0
 20
0.0
  9
$LIMMAX
 10
181.3333333333
 20
117.3333333333
  9
$ORTHOMODE
 70
     0
  9
$REGENMODE
 70
     1
  9
$FILLMODE
 70
     1
  9
$QTEXTMODE
 70
     0
  9
$MIRRTEXT
 70
     0
  9
$LTSCALE
 40
9.973333333300001
  9
$ATTMODE
 70
     1
  9
$TEXTSIZE
 40
0.2
  9
$TRACEWID
 40
0.05
  9
$TEXTSTYLE
  7
STANDARD
  9
$CLAYER
  8
0
  9
$CELTYPE
  6
BYLAYER
  9
$CECOLOR
 62
   256
  9
$CELTSCALE
 40
1.0
  9
$DISPSILH
 70
     0
  9
$DIMSCALE
 40
1.0
  9
$DIMASZ
 40
2.0
  9
$DIMEXO
 40
0.0625
  9
$DIMDLI
 40
6.890666666699999
  9
$DIMRND
 40
0.0
  9
$DIMDLE
 40
0.0
  9
$DIMEXE
 40
0.125
  9
$DIMTP
 40
0.00001
  9
$DIMTM
 40
0.00001
  9
$DIMTXT
 40
1.333333333299999
  9
$DIMCEN
 40
1.631999999999999
  9
$DIMTSZ
 40
0.0
  9
$DIMTOL
 70
     1
  9
$DIMLIM
 70
     0
  9
$DIMTIH
 70
     1
  9
$DIMTOH
 70
     1
  9
$DIMSE1
 70
     0
  9
$DIMSE2
 70
     0
  9
$DIMTAD
 70
     0
  9
$DIMZIN
 70
     0
  9
$DIMBLK
  1
_FILLED
  9
$DIMASO
 70
     1
  9
$DIMSHO
 70
     1
  9
$DIMPOST
  1

  9
$DIMAPOST
  1

  9
$DIMALT
 70
     0
  9
$DIMALTD
 70
     2
  9
$DIMALTF
 40
25.4
  9
$DIMLFAC
 40
1.0
  9
$DIMTOFL
 70
     0
  9
$DIMTVP
 40
0.0
  9
$DIMTIX
 70
     0
  9
$DIMSOXD
 70
     0
  9
$DIMSAH
 70
     0
  9
$DIMBLK1
  1

  9
$DIMBLK2
  1

  9
$DIMSTYLE
  2
STANDARD
  9
$DIMCLRD
 70
     0
  9
$DIMCLRE
 70
     0
  9
$DIMCLRT
 70
     0
  9
$DIMTFAC
 40
1.0
  9
$DIMGAP
 40
0.09
  9
$DIMJUST
 70
     0
  9
$DIMSD1
 70
     0
  9
$DIMSD2
 70
     0
  9
$DIMTOLJ
 70
     1
  9
$DIMTZIN
 70
     0
  9
$DIMALTZ
 70
     0
  9
$DIMALTTZ
 70
     0
  9
$DIMUPT
 70
     0
  9
$DIMDEC
 70
     4
  9
$DIMTDEC
 70
     4
  9
$DIMALTU
 70
     2
  9
$DIMALTTD
 70
     2
  9
$DIMTXSTY
  7
STANDARD
  9
$DIMAUNIT
 70
     0
  9
$DIMADEC
 70
     0
  9
$DIMALTRND
 40
0.0
  9
$DIMAZIN
 70
     0
  9
$DIMDSEP
 70
    46
  9
$DIMATFIT
 70
     3
  9
$DIMFRAC
 70
     0
  9
$DIMLDRBLK
  1

  9
$DIMLUNIT
 70
     2
  9
$DIMLWD
 70
    -2
  9
$DIMLWE
 70
    -2
  9
$DIMTMOVE
 70
     0
  9
$DIMFXL
 40
1.0
  9
$DIMFXLON
 70
     0
  9
$DIMJOGANG
 40
0.7853981633974483
  9
$DIMTFILL
 70
     0
  9
$DIMTFILLCLR
 70
     0
  9
$DIMARCSYM
 70
     0
  9
$DIMLTYPE
  6

  9
$DIMLTEX1
  6

  9
$DIMLTEX2
  6

  9
$LUNITS
 70
     2
  9
$LUPREC
 70
     4
  9
$SKETCHINC
 40
0.1
  9
$FILLETRAD
 40
0.0
  9
$AUNITS
 70
     0
  9
$AUPREC
 70
     0
  9
$MENU
  1
.
  9
$ELEVATION
 40
0.0
  9
$PELEVATION
 40
0.0
  9
$THICKNESS
 40
0.0
  9
$LIMCHECK
 70
     0
  9
$CHAMFERA
 40
0.0
  9
$CHAMFERB
 40
0.0
  9
$CHAMFERC
 40
0.0
  9
$CHAMFERD
 40
0.0
  9
$SKPOLY
 70
     0
  9
$TDCREATE
 40
2456638.634747315
  9
$TDUCREATE
 40
2456638.843080648
  9
$TDUPDATE
 40
2456639.642965683
  9
$TDUUPDATE
 40
2456639.851299017
  9
$TDINDWG
 40
0.0019135417
  9
$TDUSRTIMER
 40
0.0019135417
  9
$USRTIMER
 70
     1
  9
$ANGBASE
 50
0.0
  9
$ANGDIR
 70
     0
  9
$PDMODE
 70
     3
  9
$PDSIZE
 40
0.03125
  9
$PLINEWID
 40
0.0
  9
$SPLFRAME
 70
     0
  9
$SPLINETYPE
 70
     6
  9
$SPLINESEGS
 70
     8
  9
$HANDSEED
  5
17F8
  9
$SURFTAB1
 70
     6
  9
$SURFTAB2
 70
     6
  9
$SURFTYPE
 70
     6
  9
$SURFU
 70
     6
  9
$SURFV
 70
     6
  9
$UCSBASE
  2

  9
$UCSNAME
  2

  9
$UCSORG
 10
0.0
 20
0.0
 30
0.0
  9
$UCSXDIR
 10
1.0
 20
0.0
 30
0.0
  9
$UCSYDIR
 10
0.0
 20
1.0
 30
0.0
  9
$UCSORTHOREF
  2

  9
$UCSORTHOVIEW
 70
     0
  9
$UCSORGTOP
 10
0.0
 20
0.0
 30
0.0
  9
$UCSORGBOTTOM
 10
0.0
 20
0.0
 30
0.0
  9
$UCSORGLEFT
 10
0.0
 20
0.0
 30
0.0
  9
$UCSORGRIGHT
 10
0.0
 20
0.0
 30
0.0
  9
$UCSORGFRONT
 10
0.0
 20
0.0
 30
0.0
  9
$UCSORGBACK
 10
0.0
 20
0.0
 30
0.0
  9
$PUCSBASE
  2

  9
$PUCSNAME
  2

  9
$PUCSORG
 10
0.0
 20
0.0
 30
0.0
  9
$PUCSXDIR
 10
1.0
 20
0.0
 30
0.0
  9
$PUCSYDIR
 10
0.0
 20
1.0
 30
0.0
  9
$PUCSORTHOREF
  2

  9
$PUCSORTHOVIEW
 70
     0
  9
$PUCSORGTOP
 10
0.0
 20
0.0
 30
0.0
  9
$PUCSORGBOTTOM
 10
0.0
 20
0.0
 30
0.0
  9
$PUCSORGLEFT
 10
0.0
 20
0.0
 30
0.0
  9
$PUCSORGRIGHT
 10
0.0
 20
0.0
 30
0.0
  9
$PUCSORGFRONT
 10
0.0
 20
0.0
 30
0.0
  9
$PUCSORGBACK
 10
0.0
 20
0.0
 30
0.0
  9
$USERI1
 70
     0
  9
$USERI2
 70
     0
  9
$USERI3
 70
     0
  9
$USERI4
 70
     0
  9
$USERI5
 70
     0
  9
$USERR1
 40
0.0
  9
$USERR2
 40
0.0
  9
$USERR3
 40
0.0
  9
$USERR4
 40
0.0
  9
$USERR5
 40
0.0
  9
$WORLDVIEW
 70
     1
  9
$SHADEDGE
 70
     3
  9
$SHADEDIF
 70
    70
  9
$TILEMODE
 70
     1
  9
$MAXACTVP
 70
    64
  9
$PINSBASE
 10
0.0
 20
0.0
 30
0.0
  9
$PLIMCHECK
 70
     0
  9
$PEXTMIN
 10
1.000000000000000E+20
 20
1.000000000000000E+20
 30
1.000000000000000E+20
  9
$PEXTMAX
 10
-1.000000000000000E+20
 20
-1.000000000000000E+20
 30
-1.000000000000000E+20
  9
$PLIMMIN
 10
0.0
 20
0.0
  9
$PLIMMAX
 10
12.0
 20
9.0
  9
$UNITMODE
 70
     0
  9
$VISRETAIN
 70
     1
  9
$PLINEGEN
 70
     0
  9
$PSLTSCALE
 70
     1
  9
$TREEDEPTH
 70
  3020
  9
$CMLSTYLE
  2
Standard
  9
$CMLJUST
 70
     0
  9
$CMLSCALE
 40
1.0
  9
$PROXYGRAPHICS
 70
     1
  9
$MEASUREMENT
 70
     0
  9
$CELWEIGHT
370
    -1
  9
$ENDCAPS
280
     0
  9
$JOINSTYLE
280
     0
  9
$LWDISPLAY
290
     0
  9
$INSUNITS
 70
     1
  9
$HYPERLINKBASE
  1

  9
$STYLESHEET
  1

  9
$XEDIT
290
     1
  9
$CEPSNTYPE
380
     0
  9
$PSTYLEMODE
290
     1
  9
$FINGERPRINTGUID
  2
{0AEA682C-ADCF-4887-A010-D663D1ECA4A6}
  9
$VERSIONGUID
  2
{DF73ACC4-DDE4-4C23-8553-985B06C0AD49}
  9
$EXTNAMES
290
     1
  9
$PSVPSCALE
 40
0.0
  9
$OLESTARTUP
290
     0
  9
$SORTENTS
280
   127
  9
$INDEXCTL
280
     0
  9
$HIDETEXT
280
     0
  9
$XCLIPFRAME
290
     0
  9
$HALOGAP
280
     0
  9
$OBSCOLOR
 70
   257
  9
$OBSLTYPE
280
     0
  9
$INTERSECTIONDISPLAY
280
     0
  9
$INTERSECTIONCOLOR
 70
   257
  9
$DIMASSOC
280
     1
  9
$PROJECTNAME
  1

  9
$CAMERADISPLAY
290
     0
  9
$LENSLENGTH
 40
50.0
  9
$CAMERAHEIGHT
 40
0.0
  9
$STEPSPERSEC
 40
2.0
  9
$STEPSIZE
 40
6.0
  9
$3DDWFPREC
 40
2.0
  9
$PSOLWIDTH
 40
0.25
  9
$PSOLHEIGHT
 40
4.0
  9
$LOFTANG1
 40
1.570796326794896
  9
$LOFTANG2
 40
1.570796326794896
  9
$LOFTMAG1
 40
0.0
  9
$LOFTMAG2
 40
0.0
  9
$LOFTPARAM
 70
     7
  9
$LOFTNORMALS
280
     1
  9
$LATITUDE
 40
37.795
  9
$LONGITUDE
 40
-122.394
  9
$NORTHDIRECTION
 40
0.0
  9
$TIMEZONE
 70
 -8000
  9
$LIGHTGLYPHDISPLAY
280
     1
  9
$TILEMODELIGHTSYNCH
280
     1
  9
$CMATERIAL
347
16FF
  9
$SOLIDHIST
280
     1
  9
$SHOWHIST
280
     1
  9
$DWFFRAME
280
     2
  9
$DGNFRAME
280
     0
  9
$REALWORLDSCALE
290
     1
  9
$INTERFERECOLOR
 62
     1
  9
$INTERFEREOBJVS
345
1721
  9
$INTERFEREVPVS
346
171E
  9
$CSHADOW
280
     0
  9
$SHADOWPLANELOCATION
 40
0.0
  0
ENDSEC
  0
SECTION
  2
CLASSES
  0
CLASS
  1
ACDBDICTIONARYWDFLT
  2
AcDbDictionaryWithDefault
  3
ObjectDBX Classes
 90
        0
 91
        1
280
     0
281
     0
  0
CLASS
  1
MATERIAL
  2
AcDbMaterial
  3
ObjectDBX Classes
 90
     1153
 91
        3
280
     0
281
     0
  0
CLASS
  1
VISUALSTYLE
  2
AcDbVisualStyle
  3
ObjectDBX Classes
 90
     4095
 91
       19
280
     0
281
     0
  0
CLASS
  1
TABLESTYLE
  2
AcDbTableStyle
  3
ObjectDBX Classes
 90
     4095
 91
        1
280
     0
281
     0
  0
CLASS
  1
SCALE
  2
AcDbScale
  3
ObjectDBX Classes
 90
     1153
 91
       33
280
     0
281
     0
  0
CLASS
  1
MLEADERSTYLE
  2
AcDbMLeaderStyle
  3
ACDB_MLEADERSTYLE_CLASS
 90
     4095
 91
        1
280
     0
281
     0
  0
CLASS
  1
CELLSTYLEMAP
  2
AcDbCellStyleMap
  3
ObjectDBX Classes
 90
     1152
 91
        3
280
     0
281
     0
  0
CLASS
  1
DICTIONARYVAR
  2
AcDbDictionaryVar
  3
ObjectDBX Classes
 90
        0
 91
       11
280
     0
281
     0
  0
ENDSEC
  0
SECTION
  2
TABLES
  0
TABLE
  2
VPORT
  5
8
102
{ACAD_XDICTIONARY
360
1755
102
}
330
0
100
AcDbSymbolTable
 70
     1
  0
VPORT
  5
1F4
330
8
100
AcDbSymbolTableRecord
100
AcDbViewportTableRecord
  2
*ACTIVE
 70
     0
 10
0.0
 20
0.0
 11
1.0
 21
1.0
 12
107.0475107400015
 22
31.65454125735772
 13
0.0
 23
0.0
 14
1.0
 24
1.0
 15
0.0
 25
0.0
 16
0.0
 26
0.0
 36
1.0
 17
0.0
 27
0.0
 37
0.0
 40
25.28099444516131
 41
1.957300275482093
 42
50.0
 43
0.0
 44
0.0
 50
0.0
 51
0.0
 71
     0
 72
   100
 73
     1
 74
     1
 75
     0
 76
     0
 77
     0
 78
     0
281
     0
 65
     1
110
0.0
120
0.0
130
0.0
111
1.0
121
0.0
131
0.0
112
0.0
122
1.0
132
0.0
 79
     0
146
0.0
348
171D
 60
     3
 61
     5
292
     1
282
     1
141
0.0
142
0.0
 63
   250
421
  3355443
  0
ENDTAB
  0
TABLE
  2
LTYPE
  5
5
330
0
100
AcDbSymbolTable
 70
     6
  0
LTYPE
  5
14
330
5
100
AcDbSymbolTableRecord
100
AcDbLinetypeTableRecord
  2
BYBLOCK
 70
     0
  3

 72
    65
 73
     0
 40
0.0
  0
LTYPE
  5
15
330
5
100
AcDbSymbolTableRecord
100
AcDbLinetypeTableRecord
  2
BYLAYER
 70
     0
  3

 72
    65
 73
     0
 40
0.0
  0
LTYPE
  5
16
330
5
100
AcDbSymbolTableRecord
100
AcDbLinetypeTableRecord
  2
CONTINUOUS
 70
     0
  3
Solid line
 72
    65
 73
     0
 40
0.0
  0
LTYPE
  5
1F5
330
5
100
AcDbSymbolTableRecord
100
AcDbLinetypeTableRecord
  2
CENTER
 70
     0
  3
____ _ ____ _ ____ _ ____ _ ____ _ ____ _ ____
 72
    65
 73
     4
 40
0.6
 49
0.375
 74
     0
 49
-0.075
 74
     0
 49
0.075
 74
     0
 49
-0.075
 74
     0
  0
LTYPE
  5
1F6
330
5
100
AcDbSymbolTableRecord
100
AcDbLinetypeTableRecord
  2
HIDDEN
 70
     0
  3
- - - - - - - - - - - - - - - - - - - -
 72
    65
 73
     2
 40
0.2
 49
0.1
 74
     0
 49
-0.1
 74
     0
  0
LTYPE
  5
1F7
330
5
100
AcDbSymbolTableRecord
100
AcDbLinetypeTableRecord
  2
PHANTOM
 70
     0
  3
_____ _ _ _____ _ _ _____ _ _ _____
 72
    65
 73
     6
 40
0.8
 49
0.45
 74
     0
 49
-0.05
 74
     0
 49
0.1
 74
     0
 49
-0.05
 74
     0
 49
0.1
 74
     0
 49
-0.05
 74
     0
  0
LTYPE
  5
1F8
330
5
100
AcDbSymbolTableRecord
100
AcDbLinetypeTableRecord
  2
DOT
 70
     0
  3
. . . . . . . . . . . . . . . . . . . .
 72
    65
 73
     2
 40
0.2
 49
0.1
 74
     0
 49
-0.1
 74
     0
  0
LTYPE
  5
1F9
330
5
100
AcDbSymbolTableRecord
100
AcDbLinetypeTableRecord
  2
DASHED
 70
     0
  3
- - - - - - - - - - - - - - - - - - - -
 72
    65
 73
     2
 40
0.2
 49
0.1
 74
     0
 49
-0.1
 74
     0
  0
ENDTAB
  0
TABLE
  2
LAYER
  5
2
330
0
100
AcDbSymbolTable
 70
    42
  0
LAYER
  5
10
102
{ACAD_XDICTIONARY
360
1795
102
}
330
2
100
AcDbSymbolTableRecord
100
AcDbLayerTableRecord
  2
0
 70
     0
 62
     7
  6
CONTINUOUS
370
    -3
390
F
347
170F
  0
LAYER
  5
1FA
102
{ACAD_XDICTIONARY
360
1797
102
}
330
2
100
AcDbSymbolTableRecord
100
AcDbLayerTableRecord
  2
DEFAULT_1
 70
     0
 62
     7
  6
CENTER
370
    -3
390
F
347
170F
  0
LAYER
  5
1FB
102
{ACAD_XDICTIONARY
360
1799
102
}
330
2
100
AcDbSymbolTableRecord
100
AcDbLayerTableRecord
  2
DEFAULT_2
 70
     0
 62
     7
  6
HIDDEN
370
    -3
390
F
347
170F
  0
LAYER
  5
1FC
102
{ACAD_XDICTIONARY
360
179B
102
}
330
2
100
AcDbSymbolTableRecord
100
AcDbLayerTableRecord
  2
DEFAULT_3
 70
     0
 62
     7
  6
PHANTOM
370
    -3
390
F
347
170F
  0
LAYER
  5
1FD
102
{ACAD_XDICTIONARY
360
179D
102
}
330
2
100
AcDbSymbolTableRecord
100
AcDbLayerTableRecord
  2
1_CURCES_SPECS_FRONT_GAUCHE_INS
 70
     0
 62
     7
  6
CONTINUOUS
370
    -3
390
F
347
170F
  0
LAYER
  5
1FE
102
{ACAD_XDICTIONARY
360
179F
102
}
330
2
100
AcDbSymbolTableRecord
100
AcDbLayerTableRecord
  2
1_CURVES
 70
     0
 62
     7
  6
CONTINUOUS
370
    -3
390
F
347
170F
  0
LAYER
  5
1FF
102
{ACAD_XDICTIONARY
360
17A1
102
}
330
2
100
AcDbSymbolTableRecord
100
AcDbLayerTableRecord
  2
1_CURVES_CONDUIT
 70
     0
 62
     7
  6
CONTINUOUS
370
    -3
390
F
347
170F
  0
LAYER
  5
200
102
{ACAD_XDICTIONARY
360
17A3
102
}
330
2
100
AcDbSymbolTableRecord
100
AcDbLayerTableRecord
  2
1_CURVES_JETS
 70
     0
 62
     7
  6
CONTINUOUS
370
    -3
390
F
347
170F
  0
LAYER
  5
201
102
{ACAD_XDICTIONARY
360
17A5
102
}
330
2
100
AcDbSymbolTableRecord
100
AcDbLayerTableRecord
  2
1_CURVES_JETS-1
 70
     0
 62
     7
  6
CONTINUOUS
370
    -3
390
F
347
170F
  0
LAYER
  5
202
102
{ACAD_XDICTIONARY
360
17A7
102
}
330
2
100
AcDbSymbolTableRecord
100
AcDbLayerTableRecord
  2
1_CURVES_JETS-2
 70
     0
 62
     7
  6
CONTINUOUS
370
    -3
390
F
347
170F
  0
LAYER
  5
203
102
{ACAD_XDICTIONARY
360
17A9
102
}
330
2
100
AcDbSymbolTableRecord
100
AcDbLayerTableRecord
  2
1_CURVES_PATINS
 70
     0
 62
     7
  6
CONTINUOUS
370
    -3
390
F
347
170F
  0
LAYER
  5
204
102
{ACAD_XDICTIONARY
360
17AB
102
}
330
2
100
AcDbSymbolTableRecord
100
AcDbLayerTableRecord
  2
1_CURVES_RESURFACAGE
 70
     0
 62
     7
  6
CONTINUOUS
370
    -3
390
F
347
170F
  0
LAYER
  5
205
102
{ACAD_XDICTIONARY
360
17AD
102
}
330
2
100
AcDbSymbolTableRecord
100
AcDbLayerTableRecord
  2
1_CURVES_SPECS_FRONT-GAUCHE
 70
     0
 62
     7
  6
CONTINUOUS
370
    -3
390
F
347
170F
  0
LAYER
  5
206
102
{ACAD_XDICTIONARY
360
17AF
102
}
330
2
100
AcDbSymbolTableRecord
100
AcDbLayerTableRecord
  2
1_CURVES_SPECS_RIGHT-GAUCHE
 70
     0
 62
     7
  6
CONTINUOUS
370
    -3
390
F
347
170F
  0
LAYER
  5
207
102
{ACAD_XDICTIONARY
360
17B1
102
}
330
2
100
AcDbSymbolTableRecord
100
AcDbLayerTableRecord
  2
2_PLANES
 70
     0
 62
     7
  6
CONTINUOUS
370
    -3
390
F
347
170F
  0
LAYER
  5
208
102
{ACAD_XDICTIONARY
360
17B3
102
}
330
2
100
AcDbSymbolTableRecord
100
AcDbLayerTableRecord
  2
2_PLANES_JETS-1
 70
     0
 62
     7
  6
CONTINUOUS
370
    -3
390
F
347
170F
  0
LAYER
  5
209
102
{ACAD_XDICTIONARY
360
17B5
102
}
330
2
100
AcDbSymbolTableRecord
100
AcDbLayerTableRecord
  2
2_PLANES_JETS-2
 70
     0
 62
     7
  6
CONTINUOUS
370
    -3
390
F
347
170F
  0
LAYER
  5
20A
102
{ACAD_XDICTIONARY
360
17B7
102
}
330
2
100
AcDbSymbolTableRecord
100
AcDbLayerTableRecord
  2
3_POINTS
 70
     0
 62
     7
  6
CONTINUOUS
370
    -3
390
F
347
170F
  0
LAYER
  5
20B
102
{ACAD_XDICTIONARY
360
17B9
102
}
330
2
100
AcDbSymbolTableRecord
100
AcDbLayerTableRecord
  2
3_POINTS_JETS-1
 70
     0
 62
     7
  6
CONTINUOUS
370
    -3
390
F
347
170F
  0
LAYER
  5
20C
102
{ACAD_XDICTIONARY
360
17BB
102
}
330
2
100
AcDbSymbolTableRecord
100
AcDbLayerTableRecord
  2
3_POINTS_JETS-2
 70
     0
 62
     7
  6
CONTINUOUS
370
    -3
390
F
347
170F
  0
LAYER
  5
20D
102
{ACAD_XDICTIONARY
360
17BD
102
}
330
2
100
AcDbSymbolTableRecord
100
AcDbLayerTableRecord
  2
4_CSYS
 70
     0
 62
     7
  6
CONTINUOUS
370
    -3
390
F
347
170F
  0
LAYER
  5
20E
102
{ACAD_XDICTIONARY
360
17BF
102
}
330
2
100
AcDbSymbolTableRecord
100
AcDbLayerTableRecord
  2
5_AXIS
 70
     0
 62
     7
  6
CONTINUOUS
370
    -3
390
F
347
170F
  0
LAYER
  5
20F
102
{ACAD_XDICTIONARY
360
17C1
102
}
330
2
100
AcDbSymbolTableRecord
100
AcDbLayerTableRecord
  2
5_AXIS_JETS-1
 70
     0
 62
     7
  6
CONTINUOUS
370
    -3
390
F
347
170F
  0
LAYER
  5
210
102
{ACAD_XDICTIONARY
360
17C3
102
}
330
2
100
AcDbSymbolTableRecord
100
AcDbLayerTableRecord
  2
5_AXIS_JETS-2
 70
     0
 62
     7
  6
CONTINUOUS
370
    -3
390
F
347
170F
  0
LAYER
  5
211
102
{ACAD_XDICTIONARY
360
17C5
102
}
330
2
100
AcDbSymbolTableRecord
100
AcDbLayerTableRecord
  2
6_AIRE_CONDUIT
 70
     0
 62
     7
  6
CONTINUOUS
370
    -3
390
F
347
170F
  0
LAYER
  5
212
102
{ACAD_XDICTIONARY
360
17C7
102
}
330
2
100
AcDbSymbolTableRecord
100
AcDbLayerTableRecord
  2
6_SURFACES
 70
     0
 62
     7
  6
CONTINUOUS
370
    -3
390
F
347
170F
  0
LAYER
  5
213
102
{ACAD_XDICTIONARY
360
17C9
102
}
330
2
100
AcDbSymbolTableRecord
100
AcDbLayerTableRecord
  2
6_SURFACES-TOOLING
 70
     0
 62
     7
  6
CONTINUOUS
370
    -3
390
F
347
170F
  0
LAYER
  5
214
102
{ACAD_XDICTIONARY
360
17CB
102
}
330
2
100
AcDbSymbolTableRecord
100
AcDbLayerTableRecord
  2
6_SURFACES_AIRE
 70
     0
 62
     7
  6
CONTINUOUS
370
    -3
390
F
347
170F
  0
LAYER
  5
215
102
{ACAD_XDICTIONARY
360
17CD
102
}
330
2
100
AcDbSymbolTableRecord
100
AcDbLayerTableRecord
  2
6_SURFACES_BAIN_DROIT
 70
     0
 62
     7
  6
CONTINUOUS
370
    -3
390
F
347
170F
  0
LAYER
  5
216
102
{ACAD_XDICTIONARY
360
17CF
102
}
330
2
100
AcDbSymbolTableRecord
100
AcDbLayerTableRecord
  2
6_SURFACES_BAIN_DROIT_INSERT
 70
     0
 62
     7
  6
CONTINUOUS
370
    -3
390
F
347
170F
  0
LAYER
  5
217
102
{ACAD_XDICTIONARY
360
17D1
102
}
330
2
100
AcDbSymbolTableRecord
100
AcDbLayerTableRecord
  2
6_SURFACES_BAIN_GAUCHE
 70
     0
 62
     7
  6
CONTINUOUS
370
    -3
390
F
347
170F
  0
LAYER
  5
218
102
{ACAD_XDICTIONARY
360
17D3
102
}
330
2
100
AcDbSymbolTableRecord
100
AcDbLayerTableRecord
  2
6_SURFACES_BAIN_GAUCHE_INSERT
 70
     0
 62
     7
  6
CONTINUOUS
370
    -3
390
F
347
170F
  0
LAYER
  5
219
102
{ACAD_XDICTIONARY
360
17D5
102
}
330
2
100
AcDbSymbolTableRecord
100
AcDbLayerTableRecord
  2
6_SURFACES_OFFSET_FIBRE_ACRYLIQ
 70
     0
 62
     7
  6
CONTINUOUS
370
    -3
390
F
347
170F
  0
LAYER
  5
21A
102
{ACAD_XDICTIONARY
360
17D7
102
}
330
2
100
AcDbSymbolTableRecord
100
AcDbLayerTableRecord
  2
6_SURFACES_PATINS_SPECS
 70
     0
 62
     7
  6
CONTINUOUS
370
    -3
390
F
347
170F
  0
LAYER
  5
21B
102
{ACAD_XDICTIONARY
360
17D9
102
}
330
2
100
AcDbSymbolTableRecord
100
AcDbLayerTableRecord
  2
6_SURFACES_POUR_CONDUIT
 70
     0
 62
     7
  6
CONTINUOUS
370
    -3
390
F
347
170F
  0
LAYER
  5
21C
102
{ACAD_XDICTIONARY
360
17DB
102
}
330
2
100
AcDbSymbolTableRecord
100
AcDbLayerTableRecord
  2
6_SURFACES_POUR_HFL
 70
     0
 62
     7
  6
CONTINUOUS
370
    -3
390
F
347
170F
  0
LAYER
  5
21D
102
{ACAD_XDICTIONARY
360
17DD
102
}
330
2
100
AcDbSymbolTableRecord
100
AcDbLayerTableRecord
  2
6_SURFACES_POUR_TROP_PLEIN
 70
     0
 62
     7
  6
CONTINUOUS
370
    -3
390
F
347
170F
  0
LAYER
  5
21E
102
{ACAD_XDICTIONARY
360
17DF
102
}
330
2
100
AcDbSymbolTableRecord
100
AcDbLayerTableRecord
  2
6_SURFACES_TOOLING
 70
     0
 62
     7
  6
CONTINUOUS
370
    -3
390
F
347
170F
  0
LAYER
  5
21F
102
{ACAD_XDICTIONARY
360
17E1
102
}
330
2
100
AcDbSymbolTableRecord
100
AcDbLayerTableRecord
  2
7_NOTES
 70
     0
 62
     7
  6
CONTINUOUS
370
    -3
390
F
347
170F
  0
LAYER
  5
220
102
{ACAD_XDICTIONARY
360
17E3
102
}
330
2
100
AcDbSymbolTableRecord
100
AcDbLayerTableRecord
  2
8_TOL_GEOM
 70
     0
 62
     7
  6
CONTINUOUS
370
    -3
390
F
347
170F
  0
LAYER
  5
221
102
{ACAD_XDICTIONARY
360
17E5
102
}
330
2
100
AcDbSymbolTableRecord
100
AcDbLayerTableRecord
  2
NONE
 70
     0
 62
     7
  6
CONTINUOUS
370
    -3
390
F
347
170F
  0
LAYER
  5
222
102
{ACAD_XDICTIONARY
360
17E7
102
}
330
2
100
AcDbSymbolTableRecord
100
AcDbLayerTableRecord
  2
XSEC_DATUMS
 70
     0
 62
     7
  6
CONTINUOUS
370
    -3
390
F
347
170F
  0
ENDTAB
  0
TABLE
  2
STYLE
  5
3
330
0
100
AcDbSymbolTable
 70
     8
  0
STYLE
  5
11
330
3
100
AcDbSymbolTableRecord
100
AcDbTextStyleTableRecord
  2
STANDARD
 70
     0
 40
0.0
 41
0.8
 50
0.0
 71
     0
 42
0.2
  3
txt
  4

  0
STYLE
  5
223
330
3
100
AcDbSymbolTableRecord
100
AcDbTextStyleTableRecord
  2
TEXTSTYLE_1
 70
     0
 40
0.0
 41
0.8
 50
0.0
 71
     0
 42
0.2
  3
gdt
  4

  0
STYLE
  5
224
330
3
100
AcDbSymbolTableRecord
100
AcDbTextStyleTableRecord
  2
TEXTSTYLE_2
 70
     0
 40
0.0
 41
1.0
 50
0.0
 71
     0
 42
0.2
  3
trium.ttf
  4

  0
STYLE
  5
225
330
3
100
AcDbSymbolTableRecord
100
AcDbTextStyleTableRecord
  2
TEXTSTYLE_3
 70
     0
 40
0.0
 41
1.0
 50
0.0
 71
     0
 42
0.2
  3
trium.ttf
  4

  0
STYLE
  5
226
330
3
100
AcDbSymbolTableRecord
100
AcDbTextStyleTableRecord
  2
TEXTSTYLE_4
 70
     0
 40
0.0
 41
1.0
 50
0.0
 71
     0
 42
0.2
  3
txt_____.ttf
  4

1001
ACAD
1000
txt
1071
        2
  0
STYLE
  5
227
330
3
100
AcDbSymbolTableRecord
100
AcDbTextStyleTableRecord
  2
TEXTSTYLE_5
 70
     0
 40
0.0
 41
1.0
 50
0.0
 71
     0
 42
0.2
  3
txt
  4

  0
STYLE
  5
228
330
3
100
AcDbSymbolTableRecord
100
AcDbTextStyleTableRecord
  2
TEXTSTYLE_6
 70
     0
 40
0.0
 41
1.0
 50
0.0
 71
     0
 42
0.2
  3
trium.ttf
  4

  0
STYLE
  5
229
330
3
100
AcDbSymbolTableRecord
100
AcDbTextStyleTableRecord
  2
TEXTSTYLE_7
 70
     0
 40
0.0
 41
0.8
 50
0.0
 71
     0
 42
0.2
  3
txt
  4

  0
ENDTAB
  0
TABLE
  2
VIEW
  5
6
330
0
100
AcDbSymbolTable
 70
     0
  0
ENDTAB
  0
TABLE
  2
UCS
  5
7
330
0
100
AcDbSymbolTable
 70
     0
  0
ENDTAB
  0
TABLE
  2
APPID
  5
9
330
0
100
AcDbSymbolTable
 70
     2
  0
APPID
  5
22A
330
9
100
AcDbSymbolTableRecord
100
AcDbRegAppTableRecord
  2
ACAD
 70
     0
  0
APPID
  5
1785
330
9
100
AcDbSymbolTableRecord
100
AcDbRegAppTableRecord
  2
ACAD_MLEADERVER
 70
     0
  0
ENDTAB
  0
TABLE
  2
DIMSTYLE
  5
A
330
0
100
AcDbSymbolTable
 70
     6
100
AcDbDimStyleTable
 71
     0
  0
DIMSTYLE
105
247
330
A
100
AcDbSymbolTableRecord
100
AcDbDimStyleTableRecord
  2
STANDARD
 70
     0
 41
2.0
 44
0.125
 47
0.00001
 48
0.00001
 71
     1
 78
     4
140
1.333333333299999
271
     5
272
     5
284
     4
340
11
341
22D
342
22D
343
22D
344
22D
  0
DIMSTYLE
105
248
330
A
100
AcDbSymbolTableRecord
100
AcDbDimStyleTableRecord
  2
DIMSTYLE_1
 70
     0
 41
2.0
 44
0.125
 47
0.001
 48
0.001
 78
     4
140
1.333333333299999
147
0.0625
271
     6
272
     6
284
     4
340
11
341
22D
342
22D
343
22D
344
22D
  0
DIMSTYLE
105
249
330
A
100
AcDbSymbolTableRecord
100
AcDbDimStyleTableRecord
  2
DIMSTYLE_2
 70
     0
 41
2.0
 44
0.125
 47
0.001
 48
0.001
 78
     4
140
1.333333333299999
147
0.0625
271
     3
272
     3
284
     4
340
11
341
22D
342
22D
343
22D
344
22D
  0
DIMSTYLE
105
24A
330
A
100
AcDbSymbolTableRecord
100
AcDbDimStyleTableRecord
  2
DIMSTYLE_3
 70
     0
 41
2.0
 44
0.125
 47
0.001
 48
0.001
 78
     4
140
1.333333333299999
147
0.0625
284
     4
340
11
341
22D
342
22D
343
22D
344
22D
  0
DIMSTYLE
105
24B
330
A
100
AcDbSymbolTableRecord
100
AcDbDimStyleTableRecord
  2
DIMSTYLE_4
 70
     0
 41
2.0
 44
0.125
 47
1.0
 48
1.0
 78
     4
140
1.333333333299999
271
     0
272
     0
284
     4
340
11
341
22D
342
22D
343
22D
344
22D
  0
DIMSTYLE
105
24C
330
A
100
AcDbSymbolTableRecord
100
AcDbDimStyleTableRecord
  2
DIMSTYLE_5
 70
     0
 41
2.0
 44
0.125
 47
0.00001
 48
0.00001
 78
     4
140
1.333333333299999
147
0.0625
271
     6
272
     6
284
     4
340
11
341
22D
342
22D
343
22D
344
22D
  0
ENDTAB
  0
TABLE
  2
BLOCK_RECORD
  5
1
330
0
100
AcDbSymbolTable
 70
    26
  0
BLOCK_RECORD
  5
22B
330
1
100
AcDbSymbolTableRecord
100
AcDbBlockTableRecord
  2
*Model_Space
340
16FA
 70
     0
280
     1
281
     0
  0
BLOCK_RECORD
  5
22C
330
1
100
AcDbSymbolTableRecord
100
AcDbBlockTableRecord
  2
*Paper_Space
340
16FB
 70
     0
280
     1
281
     0
  0
BLOCK_RECORD
  5
22D
330
1
100
AcDbSymbolTableRecord
100
AcDbBlockTableRecord
  2
_FILLED
340
0
102
{BLKREFS
331
349
331
34A
331
353
331
354
331
35C
331
35D
331
365
331
366
331
36E
331
36F
331
377
331
378
331
381
331
382
331
38A
331
38B
331
393
331
394
331
39D
331
39E
331
3A6
331
3A7
331
3B6
331
3B7
331
3BF
331
3C0
331
3C8
331
3C9
102
}
 70
     0
280
     1
281
     0
  0
BLOCK_RECORD
  5
22E
330
1
100
AcDbSymbolTableRecord
100
AcDbBlockTableRecord
  2
*D1
340
0
 70
     0
280
     1
281
     0
  0
BLOCK_RECORD
  5
22F
330
1
100
AcDbSymbolTableRecord
100
AcDbBlockTableRecord
  2
*D2
340
0
 70
     0
280
     1
281
     0
  0
BLOCK_RECORD
  5
230
330
1
100
AcDbSymbolTableRecord
100
AcDbBlockTableRecord
  2
*D3
340
0
 70
     0
280
     1
281
     0
  0
BLOCK_RECORD
  5
231
330
1
100
AcDbSymbolTableRecord
100
AcDbBlockTableRecord
  2
*D4
340
0
 70
     0
280
     1
281
     0
  0
BLOCK_RECORD
  5
232
330
1
100
AcDbSymbolTableRecord
100
AcDbBlockTableRecord
  2
*D5
340
0
 70
     0
280
     1
281
     0
  0
BLOCK_RECORD
  5
233
330
1
100
AcDbSymbolTableRecord
100
AcDbBlockTableRecord
  2
*D6
340
0
 70
     0
280
     1
281
     0
  0
BLOCK_RECORD
  5
234
330
1
100
AcDbSymbolTableRecord
100
AcDbBlockTableRecord
  2
*D7
340
0
 70
     0
280
     1
281
     0
  0
BLOCK_RECORD
  5
235
330
1
100
AcDbSymbolTableRecord
100
AcDbBlockTableRecord
  2
*D8
340
0
 70
     0
280
     1
281
     0
  0
BLOCK_RECORD
  5
236
330
1
100
AcDbSymbolTableRecord
100
AcDbBlockTableRecord
  2
*D9
340
0
 70
     0
280
     1
281
     0
  0
BLOCK_RECORD
  5
237
330
1
100
AcDbSymbolTableRecord
100
AcDbBlockTableRecord
  2
*D10
340
0
 70
     0
280
     1
281
     0
  0
BLOCK_RECORD
  5
238
330
1
100
AcDbSymbolTableRecord
100
AcDbBlockTableRecord
  2
*D11
340
0
 70
     0
280
     1
281
     0
  0
BLOCK_RECORD
  5
239
330
1
100
AcDbSymbolTableRecord
100
AcDbBlockTableRecord
  2
*D12
340
0
 70
     0
280
     1
281
     0
  0
BLOCK_RECORD
  5
23A
330
1
100
AcDbSymbolTableRecord
100
AcDbBlockTableRecord
  2
*D13
340
0
 70
     0
280
     1
281
     0
  0
BLOCK_RECORD
  5
23B
330
1
100
AcDbSymbolTableRecord
100
AcDbBlockTableRecord
  2
*D14
340
0
 70
     0
280
     1
281
     0
  0
BLOCK_RECORD
  5
23C
330
1
100
AcDbSymbolTableRecord
100
AcDbBlockTableRecord
  2
*D15
340
0
 70
     0
280
     1
281
     0
  0
BLOCK_RECORD
  5
23D
330
1
100
AcDbSymbolTableRecord
100
AcDbBlockTableRecord
  2
SYMBOL_25_BL9
340
0
 70
     0
280
     1
281
     0
  0
BLOCK_RECORD
  5
23E
330
1
100
AcDbSymbolTableRecord
100
AcDbBlockTableRecord
  2
SYMBOL_24_BL8
340
0
 70
     0
280
     1
281
     0
  0
BLOCK_RECORD
  5
23F
330
1
100
AcDbSymbolTableRecord
100
AcDbBlockTableRecord
  2
SYMBOL_8_BL7
340
0
 70
     0
280
     1
281
     0
  0
BLOCK_RECORD
  5
240
330
1
100
AcDbSymbolTableRecord
100
AcDbBlockTableRecord
  2
SYMBOL_7_BL6
340
0
 70
     0
280
     1
281
     0
  0
BLOCK_RECORD
  5
241
330
1
100
AcDbSymbolTableRecord
100
AcDbBlockTableRecord
  2
SYMBOL_22_BL5
340
0
 70
     0
280
     1
281
     0
  0
BLOCK_RECORD
  5
242
330
1
100
AcDbSymbolTableRecord
100
AcDbBlockTableRecord
  2
SYMBOL_21_BL4
340
0
 70
     0
280
     1
281
     0
  0
BLOCK_RECORD
  5
243
330
1
100
AcDbSymbolTableRecord
100
AcDbBlockTableRecord
  2
SYMBOL_6_BL3
340
0
 70
     0
280
     1
281
     0
  0
BLOCK_RECORD
  5
244
330
1
100
AcDbSymbolTableRecord
100
AcDbBlockTableRecord
  2
SYMBOL_5_BL2
340
0
 70
     0
280
     1
281
     0
  0
BLOCK_RECORD
  5
245
330
1
100
AcDbSymbolTableRecord
100
AcDbBlockTableRecord
  2
SYMBOL_2_BL1
340
0
 70
     0
280
     1
281
     0
  0
BLOCK_RECORD
  5
246
330
1
100
AcDbSymbolTableRecord
100
AcDbBlockTableRecord
  2
SYMBOL_0_BL0
340
0
 70
     0
280
     1
281
     0
  0
ENDTAB
  0
ENDSEC
  0
SECTION
  2
BLOCKS
  0
BLOCK
  5
20
330
22B
100
AcDbEntity
  8
0
100
AcDbBlockBegin
  2
*Model_Space
 70
     0
 10
0.0
 20
0.0
 30
0.0
  3
*Model_Space
  1

  0
ENDBLK
  5
21
330
22B
100
AcDbEntity
  8
0
100
AcDbBlockEnd
  0
BLOCK
  5
1C
330
22C
100
AcDbEntity
 67
     1
  8
0
100
AcDbBlockBegin
  2
*Paper_Space
 70
     0
 10
0.0
 20
0.0
 30
0.0
  3
*Paper_Space
  1

  0
ENDBLK
  5
1D
330
22C
100
AcDbEntity
 67
     1
  8
0
100
AcDbBlockEnd
  0
BLOCK
  5
340
330
22D
100
AcDbEntity
  8
0
100
AcDbBlockBegin
  2
_FILLED
 70
     0
 10
0.0
 20
0.0
 30
0.0
  3
_FILLED
  1

  0
SOLID
  5
341
330
22D
100
AcDbEntity
  8
0
  6
ByBlock
 62
     0
100
AcDbTrace
 10
0.0
 20
0.0
 30
0.0
 11
-1.0
 21
0.1666666667
 31
0.0
 12
-1.0
 22
-0.1666666667
 32
0.0
 13
-1.0
 23
-0.1666666667
 33
0.0
  0
ENDBLK
  5
342
330
22D
100
AcDbEntity
  8
0
  6
ByBlock
 62
     0
100
AcDbBlockEnd
  0
BLOCK
  5
343
330
22E
100
AcDbEntity
  8
0
  6
Continuous
 62
     7
100
AcDbBlockBegin
  2
*D1
 70
     1
 10
0.0
 20
0.0
 30
0.0
  3
*D1
  1

  0
MTEXT
  5
344
330
22E
100
AcDbEntity
  8
0
  6
Continuous
 62
     7
100
AcDbMText
 10
8.3991010922
 20
33.8513445419
 30
0.0
 40
1.333333333299999
 41
6.4
 46
0.0
 71
     2
 72
     1
  1
20\P[50,8]
 73
     1
 44
0.9
  0
LINE
  5
345
330
22E
100
AcDbEntity
  8
0
  6
Continuous
 62
     7
100
AcDbLine
 10
17.3791764556
 20
23.1846778752
 30
0.0
 11
9.199101092200001
 21
23.1846778752
 31
0.0
  0
LINE
  5
346
330
22E
100
AcDbEntity
  8
0
  6
Continuous
 62
     7
100
AcDbLine
 10
17.3791764556
 20
43.1846778752
 30
0.0
 11
9.199101092200001
 21
43.1846778752
 31
0.0
  0
LINE
  5
347
330
22E
100
AcDbEntity
  8
0
  6
Continuous
 62
     7
100
AcDbLine
 10
10.5324344255
 20
23.1846778752
 30
0.0
 11
10.5324344255
 21
29.8513445419
 31
0.0
  0
LINE
  5
348
330
22E
100
AcDbEntity
  8
0
  6
Continuous
 62
     7
100
AcDbLine
 10
10.5324344255
 20
43.1846778752
 30
0.0
 11
10.5324344255
 21
34.5180112085
 31
0.0
  0
INSERT
  5
349
330
22E
100
AcDbEntity
  8
0
  6
Continuous
 62
     7
100
AcDbBlockReference
  2
_FILLED
 10
10.5324344255
 20
23.1846778752
 30
0.0
 41
2.0
 42
2.0
 43
2.0
 50
270.0
  0
INSERT
  5
34A
330
22E
100
AcDbEntity
  8
0
  6
Continuous
 62
     7
100
AcDbBlockReference
  2
_FILLED
 10
10.5324344255
 20
43.1846778752
 30
0.0
 41
2.0
 42
2.0
 43
2.0
 50
90.0
  0
ENDBLK
  5
34B
330
22E
100
AcDbEntity
  8
0
  6
ByBlock
 62
     0
100
AcDbBlockEnd
  0
BLOCK
  5
34C
330
22F
100
AcDbEntity
  8
0
  6
Continuous
 62
     7
100
AcDbBlockBegin
  2
*D2
 70
     1
 10
0.0
 20
0.0
 30
0.0
  3
*D2
  1

  0
MTEXT
  5
34D
330
22F
100
AcDbEntity
  8
0
  6
Continuous
 62
     7
100
AcDbMText
 10
7.5914346512
 20
49.82213504859999
 30
0.0
 40
1.333333333299999
 41
5.333333333299999
 46
0.0
 71
     3
 72
     1
  1
1\P[2,5]
 73
     1
 44
0.9
  0
LINE
  5
34E
330
22F
100
AcDbEntity
  8
0
  6
Continuous
 62
     7
100
AcDbLine
 10
17.3791764556
 20
43.1846778752
 30
0.0
 11
13.1914346512
 21
43.1846778752
 31
0.0
  0
LINE
  5
34F
330
22F
100
AcDbEntity
  8
0
  6
Continuous
 62
     7
100
AcDbLine
 10
17.3791764556
 20
44.1846778752
 30
0.0
 11
13.1914346512
 21
44.1846778752
 31
0.0
  0
LINE
  5
350
330
22F
100
AcDbEntity
  8
0
  6
Continuous
 62
     7
100
AcDbLine
 10
14.5247679846
 20
43.1846778752
 30
0.0
 11
14.5247679846
 21
37.8513445419
 31
0.0
  0
LINE
  5
351
330
22F
100
AcDbEntity
  8
0
  6
Continuous
 62
     7
100
AcDbLine
 10
14.5247679846
 20
44.1846778752
 30
0.0
 11
14.5247679846
 21
49.155468382
 31
0.0
  0
LINE
  5
352
330
22F
100
AcDbEntity
  8
0
  6
Continuous
 62
     7
100
AcDbLine
 10
14.5247679846
 20
49.155468382
 30
0.0
 11
12.5247679846
 21
49.155468382
 31
0.0
  0
INSERT
  5
353
330
22F
100
AcDbEntity
  8
0
  6
Continuous
 62
     7
100
AcDbBlockReference
  2
_FILLED
 10
14.5247679846
 20
43.1846778752
 30
0.0
 41
2.0
 42
2.0
 43
2.0
 50
90.0
  0
INSERT
  5
354
330
22F
100
AcDbEntity
  8
0
  6
Continuous
 62
     7
100
AcDbBlockReference
  2
_FILLED
 10
14.5247679846
 20
44.1846778752
 30
0.0
 41
2.0
 42
2.0
 43
2.0
 50
270.0
  0
ENDBLK
  5
355
330
22F
100
AcDbEntity
  8
0
  6
ByBlock
 62
     0
100
AcDbBlockEnd
  0
BLOCK
  5
356
330
230
100
AcDbEntity
  8
0
  6
Continuous
 62
     7
100
AcDbBlockBegin
  2
*D3
 70
     1
 10
0.0
 20
0.0
 30
0.0
  3
*D3
  1

  0
MTEXT
  5
357
330
230
100
AcDbEntity
  8
0
  6
Continuous
 62
     7
100
AcDbMText
 10
134.7739998302
 20
34.7575945419
 30
0.0
 40
1.333333333299999
 41
6.4
 46
0.0
 71
     2
 72
     1
  1
17-3/4\P[45]
 73
     1
 44
0.9
  0
LINE
  5
358
330
230
100
AcDbEntity
  8
0
  6
Continuous
 62
     7
100
AcDbLine
 10
124.9235974057
 20
42.9971778752
 30
0.0
 11
136.1073331635
 21
42.9971778752
 31
0.0
  0
LINE
  5
359
330
230
100
AcDbEntity
  8
0
  6
Continuous
 62
     7
100
AcDbLine
 10
124.9235974057
 20
25.1846778752
 30
0.0
 11
136.1073331635
 21
25.1846778752
 31
0.0
  0
LINE
  5
35A
330
230
100
AcDbEntity
  8
0
  6
Continuous
 62
     7
100
AcDbLine
 10
134.7739998302
 20
42.9971778752
 30
0.0
 11
134.7739998302
 21
35.4242612085
 31
0.0
  0
LINE
  5
35B
330
230
100
AcDbEntity
  8
0
  6
Continuous
 62
     7
100
AcDbLine
 10
134.7739998302
 20
25.1846778752
 30
0.0
 11
134.7739998302
 21
30.7575945419
 31
0.0
  0
INSERT
  5
35C
330
230
100
AcDbEntity
  8
0
  6
Continuous
 62
     7
100
AcDbBlockReference
  2
_FILLED
 10
134.7739998302
 20
42.9971778752
 30
0.0
 41
2.0
 42
2.0
 43
2.0
 50
90.0
  0
INSERT
  5
35D
330
230
100
AcDbEntity
  8
0
  6
Continuous
 62
     7
100
AcDbBlockReference
  2
_FILLED
 10
134.7739998302
 20
25.1846778752
 30
0.0
 41
2.0
 42
2.0
 43
2.0
 50
270.0
  0
ENDBLK
  5
35E
330
230
100
AcDbEntity
  8
0
  6
ByBlock
 62
     0
100
AcDbBlockEnd
  0
BLOCK
  5
35F
330
231
100
AcDbEntity
  8
0
  6
Continuous
 62
     7
100
AcDbBlockBegin
  2
*D4
 70
     1
 10
0.0
 20
0.0
 30
0.0
  3
*D4
  1

  0
MTEXT
  5
360
330
231
100
AcDbEntity
  8
0
  6
Continuous
 62
     7
100
AcDbMText
 10
126.6683025229
 20
33.1013445419
 30
0.0
 40
1.333333333299999
 41
6.4
 46
0.0
 71
     2
 72
     1
  1
14-1/2\P[36,8]
 73
     1
 44
0.9
  0
LINE
  5
361
330
231
100
AcDbEntity
  8
0
  6
Continuous
 62
     7
100
AcDbLine
 10
117.8841077754
 20
25.1846778752
 30
0.0
 11
128.0016358563
 21
25.1846778752
 31
0.0
  0
LINE
  5
362
330
231
100
AcDbEntity
  8
0
  6
Continuous
 62
     7
100
AcDbLine
 10
121.5391077754
 20
39.6846778752
 30
0.0
 11
128.0016358563
 21
39.6846778752
 31
0.0
  0
LINE
  5
363
330
231
100
AcDbEntity
  8
0
  6
Continuous
 62
     7
100
AcDbLine
 10
126.6683025229
 20
25.1846778752
 30
0.0
 11
126.6683025229
 21
29.1013445419
 31
0.0
  0
LINE
  5
364
330
231
100
AcDbEntity
  8
0
  6
Continuous
 62
     7
100
AcDbLine
 10
126.6683025229
 20
39.6846778752
 30
0.0
 11
126.6683025229
 21
33.7680112085
 31
0.0
  0
INSERT
  5
365
330
231
100
AcDbEntity
  8
0
  6
Continuous
 62
     7
100
AcDbBlockReference
  2
_FILLED
 10
126.6683025229
 20
25.1846778752
 30
0.0
 41
2.0
 42
2.0
 43
2.0
 50
270.0
  0
INSERT
  5
366
330
231
100
AcDbEntity
  8
0
  6
Continuous
 62
     7
100
AcDbBlockReference
  2
_FILLED
 10
126.6683025229
 20
39.6846778752
 30
0.0
 41
2.0
 42
2.0
 43
2.0
 50
90.0
  0
ENDBLK
  5
367
330
231
100
AcDbEntity
  8
0
  6
ByBlock
 62
     0
100
AcDbBlockEnd
  0
BLOCK
  5
368
330
232
100
AcDbEntity
  8
0
  6
Continuous
 62
     7
100
AcDbBlockBegin
  2
*D5
 70
     1
 10
0.0
 20
0.0
 30
0.0
  3
*D5
  1

  0
MTEXT
  5
369
330
232
100
AcDbEntity
  8
0
  6
Continuous
 62
     7
100
AcDbMText
 10
47.0969890155
 20
65.798641999
 30
0.0
 40
1.333333333299999
 41
6.4
 46
0.0
 71
     2
 72
     1
  1
49-1/4\P[125]
 73
     1
 44
0.9
  0
LINE
  5
36A
330
232
100
AcDbEntity
  8
0
  6
Continuous
 62
     7
100
AcDbLine
 10
22.5014460999
 20
67.87785491460001
 30
0.0
 11
22.5014460999
 21
63.798641999
 31
0.0
  0
LINE
  5
36B
330
232
100
AcDbEntity
  8
0
  6
Continuous
 62
     7
100
AcDbLine
 10
71.69253193109999
 20
67.8275215813
 30
0.0
 11
71.69253193109999
 21
63.798641999
 31
0.0
  0
LINE
  5
36C
330
232
100
AcDbEntity
  8
0
  6
Continuous
 62
     7
100
AcDbLine
 10
22.5014460999
 20
65.1319753324
 30
0.0
 11
43.2303223489
 21
65.1319753324
 31
0.0
  0
LINE
  5
36D
330
232
100
AcDbEntity
  8
0
  6
Continuous
 62
     7
100
AcDbLine
 10
71.69253193109999
 20
65.1319753324
 30
0.0
 11
50.96365568220001
 21
65.1319753324
 31
0.0
  0
INSERT
  5
36E
330
232
100
AcDbEntity
  8
0
  6
Continuous
 62
     7
100
AcDbBlockReference
  2
_FILLED
 10
22.5014460999
 20
65.1319753324
 30
0.0
 41
2.0
 42
2.0
 43
2.0
 50
180.0
  0
INSERT
  5
36F
330
232
100
AcDbEntity
  8
0
  6
Continuous
 62
     7
100
AcDbBlockReference
  2
_FILLED
 10
71.69253193109999
 20
65.1319753324
 30
0.0
 41
2.0
 42
2.0
 43
2.0
  0
ENDBLK
  5
370
330
232
100
AcDbEntity
  8
0
  6
ByBlock
 62
     0
100
AcDbBlockEnd
  0
BLOCK
  5
371
330
233
100
AcDbEntity
  8
0
  6
Continuous
 62
     7
100
AcDbBlockBegin
  2
*D6
 70
     1
 10
0.0
 20
0.0
 30
0.0
  3
*D6
  1

  0
MTEXT
  5
372
330
233
100
AcDbEntity
  8
0
  6
Continuous
 62
     7
100
AcDbMText
 10
86.43164923
 20
86.446313248
 30
0.0
 40
1.333333333299999
 41
6.4
 46
0.0
 71
     2
 72
     1
  1
21-1/8\P[54]
 73
     1
 44
0.9
  0
LINE
  5
373
330
233
100
AcDbEntity
  8
0
  6
Continuous
 62
     7
100
AcDbLine
 10
78.8438847889
 20
75.20154275420001
 30
0.0
 11
87.76498256329999
 21
75.20154275420001
 31
0.0
  0
LINE
  5
374
330
233
100
AcDbEntity
  8
0
  6
Continuous
 62
     7
100
AcDbLine
 10
79.04788478890001
 20
96.35775040840002
 30
0.0
 11
87.76498256329999
 21
96.35775040840002
 31
0.0
  0
LINE
  5
375
330
233
100
AcDbEntity
  8
0
  6
Continuous
 62
     7
100
AcDbLine
 10
86.43164923
 20
75.20154275420001
 30
0.0
 11
86.43164923
 21
82.446313248
 31
0.0
  0
LINE
  5
376
330
233
100
AcDbEntity
  8
0
  6
Continuous
 62
     7
100
AcDbLine
 10
86.43164923
 20
96.35775040840002
 30
0.0
 11
86.43164923
 21
87.11297991459998
 31
0.0
  0
INSERT
  5
377
330
233
100
AcDbEntity
  8
0
  6
Continuous
 62
     7
100
AcDbBlockReference
  2
_FILLED
 10
86.43164923
 20
75.20154275420001
 30
0.0
 41
2.0
 42
2.0
 43
2.0
 50
270.0
  0
INSERT
  5
378
330
233
100
AcDbEntity
  8
0
  6
Continuous
 62
     7
100
AcDbBlockReference
  2
_FILLED
 10
86.43164923
 20
96.35775040840002
 30
0.0
 41
2.0
 42
2.0
 43
2.0
 50
90.0
  0
ENDBLK
  5
379
330
233
100
AcDbEntity
  8
0
  6
ByBlock
 62
     0
100
AcDbBlockEnd
  0
BLOCK
  5
37A
330
234
100
AcDbEntity
  8
0
  6
Continuous
 62
     7
100
AcDbBlockBegin
  2
*D7
 70
     1
 10
0.0
 20
0.0
 30
0.0
  3
*D7
  1

  0
MTEXT
  5
37B
330
234
100
AcDbEntity
  8
0
  6
Continuous
 62
     7
100
AcDbMText
 10
92.93625792610001
 20
64.41404381729999
 30
0.0
 40
1.333333333299999
 41
5.333333333299999
 46
0.0
 71
     1
 72
     1
  1
3-3/4\P[10]
 73
     1
 44
0.9
  0
LINE
  5
37C
330
234
100
AcDbEntity
  8
0
  6
Continuous
 62
     7
100
AcDbLine
 10
71.22343085629999
 20
68.8733965813
 30
0.0
 11
91.60292459270001
 21
68.8733965813
 31
0.0
  0
LINE
  5
37D
330
234
100
AcDbEntity
  8
0
  6
Continuous
 62
     7
100
AcDbLine
 10
75.59976418959999
 20
72.63208707529999
 30
0.0
 11
91.60292459270001
 21
72.63208707529999
 31
0.0
  0
LINE
  5
37E
330
234
100
AcDbEntity
  8
0
  6
Continuous
 62
     7
100
AcDbLine
 10
90.26959125940001
 20
68.8733965813
 30
0.0
 11
90.26959125940001
 21
63.7473771507
 31
0.0
  0
LINE
  5
37F
330
234
100
AcDbEntity
  8
0
  6
Continuous
 62
     7
100
AcDbLine
 10
90.26959125940001
 20
63.7473771507
 30
0.0
 11
92.2695912594
 21
63.7473771507
 31
0.0
  0
LINE
  5
380
330
234
100
AcDbEntity
  8
0
  6
Continuous
 62
     7
100
AcDbLine
 10
90.26959125940001
 20
72.63208707529999
 30
0.0
 11
90.26959125940001
 21
77.9654204086
 31
0.0
  0
INSERT
  5
381
330
234
100
AcDbEntity
  8
0
  6
Continuous
 62
     7
100
AcDbBlockReference
  2
_FILLED
 10
90.26959125940001
 20
68.8733965813
 30
0.0
 41
2.0
 42
2.0
 43
2.0
 50
90.0
  0
INSERT
  5
382
330
234
100
AcDbEntity
  8
0
  6
Continuous
 62
     7
100
AcDbBlockReference
  2
_FILLED
 10
90.26959125940001
 20
72.63208707529999
 30
0.0
 41
2.0
 42
2.0
 43
2.0
 50
270.0
  0
ENDBLK
  5
383
330
234
100
AcDbEntity
  8
0
  6
ByBlock
 62
     0
100
AcDbBlockEnd
  0
BLOCK
  5
384
330
235
100
AcDbEntity
  8
0
  6
Continuous
 62
     7
100
AcDbBlockBegin
  2
*D8
 70
     1
 10
0.0
 20
0.0
 30
0.0
  3
*D8
  1

  0
MTEXT
  5
385
330
235
100
AcDbEntity
  8
0
  6
Continuous
 62
     7
100
AcDbMText
 10
70.3431890957
 20
61.6475584171
 30
0.0
 40
1.333333333299999
 41
5.333333333299999
 46
0.0
 71
     3
 72
     1
  1
2-1/8\P[5]
 73
     1
 44
0.9
  0
LINE
  5
386
330
235
100
AcDbEntity
  8
0
  6
Continuous
 62
     7
100
AcDbLine
 10
75.9478985928
 20
68.13225865869999
 30
0.0
 11
75.9478985928
 21
59.6475584171
 31
0.0
  0
LINE
  5
387
330
235
100
AcDbEntity
  8
0
  6
Continuous
 62
     7
100
AcDbLine
 10
78.0458431222
 20
68.2514946578
 30
0.0
 11
78.0458431222
 21
59.6475584171
 31
0.0
  0
LINE
  5
388
330
235
100
AcDbEntity
  8
0
  6
Continuous
 62
     7
100
AcDbLine
 10
75.9478985928
 20
60.9808917504
 30
0.0
 11
71.00985576239999
 21
60.9808917504
 31
0.0
  0
LINE
  5
389
330
235
100
AcDbEntity
  8
0
  6
Continuous
 62
     7
100
AcDbLine
 10
78.0458431222
 20
60.9808917504
 30
0.0
 11
83.37917645560001
 21
60.9808917504
 31
0.0
  0
INSERT
  5
38A
330
235
100
AcDbEntity
  8
0
  6
Continuous
 62
     7
100
AcDbBlockReference
  2
_FILLED
 10
75.9478985928
 20
60.9808917504
 30
0.0
 41
2.0
 42
2.0
 43
2.0
  0
INSERT
  5
38B
330
235
100
AcDbEntity
  8
0
  6
Continuous
 62
     7
100
AcDbBlockReference
  2
_FILLED
 10
78.0458431222
 20
60.9808917504
 30
0.0
 41
2.0
 42
2.0
 43
2.0
 50
180.0
  0
ENDBLK
  5
38C
330
235
100
AcDbEntity
  8
0
  6
ByBlock
 62
     0
100
AcDbBlockEnd
  0
BLOCK
  5
38D
330
236
100
AcDbEntity
  8
0
  6
Continuous
 62
     7
100
AcDbBlockBegin
  2
*D9
 70
     1
 10
0.0
 20
0.0
 30
0.0
  3
*D9
  1

  0
MTEXT
  5
38E
330
236
100
AcDbEntity
  8
0
  6
Continuous
 62
     7
100
AcDbMText
 10
26.8484673468
 20
62.3453971009
 30
0.0
 40
1.333333333299999
 41
3.2
 46
0.0
 71
     1
 72
     1
  1
2\P[5]
 73
     1
 44
0.9
  0
LINE
  5
38F
330
236
100
AcDbEntity
  8
0
  6
Continuous
 62
     7
100
AcDbLine
 10
20.1065629363
 20
68.2353380188
 30
0.0
 11
20.1065629363
 21
60.3453971009
 31
0.0
  0
LINE
  5
390
330
236
100
AcDbEntity
  8
0
  6
Continuous
 62
     7
100
AcDbLine
 10
18.0458431222
 20
68.2514946578
 30
0.0
 11
18.0458431222
 21
60.3453971009
 31
0.0
  0
LINE
  5
391
330
236
100
AcDbEntity
  8
0
  6
Continuous
 62
     7
100
AcDbLine
 10
20.1065629363
 20
61.6787304342
 30
0.0
 11
26.1818006801
 21
61.6787304342
 31
0.0
  0
LINE
  5
392
330
236
100
AcDbEntity
  8
0
  6
Continuous
 62
     7
100
AcDbLine
 10
18.0458431222
 20
61.6787304342
 30
0.0
 11
12.7125097889
 21
61.6787304342
 31
0.0
  0
INSERT
  5
393
330
236
100
AcDbEntity
  8
0
  6
Continuous
 62
     7
100
AcDbBlockReference
  2
_FILLED
 10
20.1065629363
 20
61.6787304342
 30
0.0
 41
2.0
 42
2.0
 43
2.0
 50
180.0
  0
INSERT
  5
394
330
236
100
AcDbEntity
  8
0
  6
Continuous
 62
     7
100
AcDbBlockReference
  2
_FILLED
 10
18.0458431222
 20
61.6787304342
 30
0.0
 41
2.0
 42
2.0
 43
2.0
  0
ENDBLK
  5
395
330
236
100
AcDbEntity
  8
0
  6
ByBlock
 62
     0
100
AcDbBlockEnd
  0
BLOCK
  5
396
330
237
100
AcDbEntity
  8
0
  6
Continuous
 62
     7
100
AcDbBlockBegin
  2
*D10
 70
     1
 10
0.0
 20
0.0
 30
0.0
  3
*D10
  1

  0
MTEXT
  5
397
330
237
100
AcDbEntity
  8
0
  6
Continuous
 62
     7
100
AcDbMText
 10
94.5316949506
 20
106.9972482853
 30
0.0
 40
1.333333333299999
 41
5.333333333299999
 46
0.0
 71
     1
 72
     1
  1
2-1/8\P[5]
 73
     1
 44
0.9
  0
LINE
  5
398
330
237
100
AcDbEntity
  8
0
  6
Continuous
 62
     7
100
AcDbLine
 10
78.7125097889
 20
100.8733965813
 30
0.0
 11
93.1983616173
 21
100.8733965813
 31
0.0
  0
LINE
  5
399
330
237
100
AcDbEntity
  8
0
  6
Continuous
 62
     7
100
AcDbLine
 10
75.60513285520001
 20
98.8072014401
 30
0.0
 11
93.1983616173
 21
98.8072014401
 31
0.0
  0
LINE
  5
39A
330
237
100
AcDbEntity
  8
0
  6
Continuous
 62
     7
100
AcDbLine
 10
91.86502828389999
 20
100.8733965813
 30
0.0
 11
91.86502828389999
 21
106.3305816186
 31
0.0
  0
LINE
  5
39B
330
237
100
AcDbEntity
  8
0
  6
Continuous
 62
     7
100
AcDbLine
 10
91.86502828389999
 20
106.3305816186
 30
0.0
 11
93.86502828389998
 21
106.3305816186
 31
0.0
  0
LINE
  5
39C
330
237
100
AcDbEntity
  8
0
  6
Continuous
 62
     7
100
AcDbLine
 10
91.86502828389999
 20
98.8072014401
 30
0.0
 11
91.86502828389999
 21
93.4738681067
 31
0.0
  0
INSERT
  5
39D
330
237
100
AcDbEntity
  8
0
  6
Continuous
 62
     7
100
AcDbBlockReference
  2
_FILLED
 10
91.86502828389999
 20
100.8733965813
 30
0.0
 41
2.0
 42
2.0
 43
2.0
 50
270.0
  0
INSERT
  5
39E
330
237
100
AcDbEntity
  8
0
  6
Continuous
 62
     7
100
AcDbBlockReference
  2
_FILLED
 10
91.86502828389999
 20
98.8072014401
 30
0.0
 41
2.0
 42
2.0
 43
2.0
 50
90.0
  0
ENDBLK
  5
39F
330
237
100
AcDbEntity
  8
0
  6
ByBlock
 62
     0
100
AcDbBlockEnd
  0
BLOCK
  5
3A0
330
238
100
AcDbEntity
  8
0
  6
Continuous
 62
     7
100
AcDbBlockBegin
  2
*D11
 70
     1
 10
0.0
 20
0.0
 30
0.0
  3
*D11
  1

  0
MTEXT
  5
3A1
330
238
100
AcDbEntity
  8
0
  6
Continuous
 62
     7
100
AcDbMText
 10
23.4564545439
 20
108.7212460474
 30
0.0
 40
1.333333333299999
 41
6.4
 46
0.0
 71
     2
 72
     1
  1
10-7/8\P[27]
 73
     1
 44
0.9
  0
LINE
  5
3A2
330
238
100
AcDbEntity
  8
0
  6
Continuous
 62
     7
100
AcDbLine
 10
28.8670659655
 20
101.3876043645
 30
0.0
 11
28.8670659655
 21
109.387912714
 31
0.0
  0
LINE
  5
3A3
330
238
100
AcDbEntity
  8
0
  6
Continuous
 62
     7
100
AcDbLine
 10
18.0458431222
 20
101.4668601871
 30
0.0
 11
18.0458431222
 21
109.387912714
 31
0.0
  0
LINE
  5
3A4
330
238
100
AcDbEntity
  8
0
  6
Continuous
 62
     7
100
AcDbLine
 10
28.8670659655
 20
108.0545793807
 30
0.0
 11
34.2003992989
 21
108.0545793807
 31
0.0
  0
LINE
  5
3A5
330
238
100
AcDbEntity
  8
0
  6
Continuous
 62
     7
100
AcDbLine
 10
18.0458431222
 20
108.0545793807
 30
0.0
 11
12.7125097889
 21
108.0545793807
 31
0.0
  0
INSERT
  5
3A6
330
238
100
AcDbEntity
  8
0
  6
Continuous
 62
     7
100
AcDbBlockReference
  2
_FILLED
 10
28.8670659655
 20
108.0545793807
 30
0.0
 41
2.0
 42
2.0
 43
2.0
 50
180.0
  0
INSERT
  5
3A7
330
238
100
AcDbEntity
  8
0
  6
Continuous
 62
     7
100
AcDbBlockReference
  2
_FILLED
 10
18.0458431222
 20
108.0545793807
 30
0.0
 41
2.0
 42
2.0
 43
2.0
  0
ENDBLK
  5
3A8
330
238
100
AcDbEntity
  8
0
  6
ByBlock
 62
     0
100
AcDbBlockEnd
  0
BLOCK
  5
3A9
330
239
100
AcDbEntity
  8
0
  6
Continuous
 62
     7
100
AcDbBlockBegin
  2
*D12
 70
     1
 10
0.0
 20
0.0
 30
0.0
  3
*D12
  1

  0
MTEXT
  5
3AA
330
239
100
AcDbEntity
  8
0
  6
Continuous
 62
     7
100
AcDbMText
 10
50.5619542579
 20
30.6550033485
 30
0.0
 40
1.333333333299999
 41
1.955555555599999
 46
0.0
 71
     3
 72
     1
  1
1\Fgdt;{\Fgdt;~}
 73
     1
 44
0.9
  0
ARC
  5
3AB
330
239
100
AcDbEntity
  8
0
  6
Continuous
 62
     7
100
AcDbCircle
 10
-67.1339963735
 20
23.1846778752
 30
0.0
 40
120.5547569198
100
AcDbArc
 50
357.4652390454
 51
360.0
  0
ARC
  5
3AC
330
239
100
AcDbEntity
  8
0
  6
Continuous
 62
     7
100
AcDbCircle
 10
-67.1339963735
 20
23.1846778752
 30
0.0
 40
120.5547569198
100
AcDbArc
 50
1.193476227199999
 51
3.2352781029
  0
SOLID
  5
3AD
330
239
100
AcDbEntity
  8
0
  6
Continuous
 62
     7
100
AcDbTrace
 10
53.7374926305
 20
21.181981718
 30
0.0
 11
53.4207605463
 21
23.1846778752
 31
0.0
 12
53.0708488993
 22
21.1875116452
 32
0.0
 13
53.0708488993
 23
21.1875116452
 33
0.0
  0
SOLID
  5
3AE
330
239
100
AcDbEntity
  8
0
  6
Continuous
 62
     7
100
AcDbTrace
 10
53.0031737002
 20
27.6851074883
 30
0.0
 11
53.3946075813
 21
25.6956626844
 31
0.0
 12
53.6695576302
 22
27.7045214604
 32
0.0
 13
53.6695576302
 23
27.7045214604
 33
0.0
  0
ENDBLK
  5
3AF
330
239
100
AcDbEntity
  8
0
  6
ByBlock
 62
     0
100
AcDbBlockEnd
  0
BLOCK
  5
3B0
330
23A
100
AcDbEntity
  8
0
  6
Continuous
 62
     7
100
AcDbBlockBegin
  2
*D13
 70
     1
 10
0.0
 20
0.0
 30
0.0
  3
*D13
  1

  0
MTEXT
  5
3B1
330
23A
100
AcDbEntity
  8
0
  6
Continuous
 62
     7
100
AcDbMText
 10
12.2659531785
 20
103.9841171511
 30
0.0
 40
1.333333333299999
 41
5.333333333299999
 46
0.0
 71
     3
 72
     1
  1
2-3/4\P[7]
 73
     1
 44
0.9
  0
LINE
  5
3B2
330
23A
100
AcDbEntity
  8
0
  6
Continuous
 62
     7
100
AcDbLine
 10
20.7958431222
 20
101.3439799146
 30
0.0
 11
20.7958431222
 21
104.6507838178
 31
0.0
  0
LINE
  5
3B3
330
23A
100
AcDbEntity
  8
0
  6
Continuous
 62
     7
100
AcDbLine
 10
18.0458431222
 20
101.540063248
 30
0.0
 11
18.0458431222
 21
104.6507838178
 31
0.0
  0
LINE
  5
3B4
330
23A
100
AcDbEntity
  8
0
  6
Continuous
 62
     7
100
AcDbLine
 10
20.7958431222
 20
103.3174504845
 30
0.0
 11
26.1291764556
 21
103.3174504845
 31
0.0
  0
LINE
  5
3B5
330
23A
100
AcDbEntity
  8
0
  6
Continuous
 62
     7
100
AcDbLine
 10
18.0458431222
 20
103.3174504845
 30
0.0
 11
12.9326198451
 21
103.3174504845
 31
0.0
  0
INSERT
  5
3B6
330
23A
100
AcDbEntity
  8
0
  6
Continuous
 62
     7
100
AcDbBlockReference
  2
_FILLED
 10
20.7958431222
 20
103.3174504845
 30
0.0
 41
2.0
 42
2.0
 43
2.0
 50
180.0
  0
INSERT
  5
3B7
330
23A
100
AcDbEntity
  8
0
  6
Continuous
 62
     7
100
AcDbBlockReference
  2
_FILLED
 10
18.0458431222
 20
103.3174504845
 30
0.0
 41
2.0
 42
2.0
 43
2.0
  0
ENDBLK
  5
3B8
330
23A
100
AcDbEntity
  8
0
  6
ByBlock
 62
     0
100
AcDbBlockEnd
  0
BLOCK
  5
3B9
330
23B
100
AcDbEntity
  8
0
  6
Continuous
 62
     7
100
AcDbBlockBegin
  2
*D14
 70
     1
 10
0.0
 20
0.0
 30
0.0
  3
*D14
  1

  0
MTEXT
  5
3BA
330
23B
100
AcDbEntity
  8
0
  6
Continuous
 62
     7
100
AcDbMText
 10
97.7570747813
 20
85.54006324799999
 30
0.0
 40
1.333333333299999
 41
6.4
 46
0.0
 71
     2
 72
     1
  1
32\P[81,3]
 73
     1
 44
0.9
  0
LINE
  5
3BB
330
23B
100
AcDbEntity
  8
0
  6
Continuous
 62
     7
100
AcDbLine
 10
78.7125097889
 20
100.8733965813
 30
0.0
 11
101.223741448
 21
100.8733965813
 31
0.0
  0
LINE
  5
3BC
330
23B
100
AcDbEntity
  8
0
  6
Continuous
 62
     7
100
AcDbLine
 10
78.7125097889
 20
68.8733965813
 30
0.0
 11
101.223741448
 21
68.8733965813
 31
0.0
  0
LINE
  5
3BD
330
23B
100
AcDbEntity
  8
0
  6
Continuous
 62
     7
100
AcDbLine
 10
99.89040811469999
 20
100.8733965813
 30
0.0
 11
99.89040811469999
 21
86.20672991459999
 31
0.0
  0
LINE
  5
3BE
330
23B
100
AcDbEntity
  8
0
  6
Continuous
 62
     7
100
AcDbLine
 10
99.89040811469999
 20
68.8733965813
 30
0.0
 11
99.89040811469999
 21
81.54006324799999
 31
0.0
  0
INSERT
  5
3BF
330
23B
100
AcDbEntity
  8
0
  6
Continuous
 62
     7
100
AcDbBlockReference
  2
_FILLED
 10
99.89040811469999
 20
100.8733965813
 30
0.0
 41
2.0
 42
2.0
 43
2.0
 50
90.0
  0
INSERT
  5
3C0
330
23B
100
AcDbEntity
  8
0
  6
Continuous
 62
     7
100
AcDbBlockReference
  2
_FILLED
 10
99.89040811469999
 20
68.8733965813
 30
0.0
 41
2.0
 42
2.0
 43
2.0
 50
270.0
  0
ENDBLK
  5
3C1
330
23B
100
AcDbEntity
  8
0
  6
ByBlock
 62
     0
100
AcDbBlockEnd
  0
BLOCK
  5
3C2
330
23C
100
AcDbEntity
  8
0
  6
Continuous
 62
     7
100
AcDbBlockBegin
  2
*D15
 70
     1
 10
0.0
 20
0.0
 30
0.0
  3
*D15
  1

  0
MTEXT
  5
3C3
330
23C
100
AcDbEntity
  8
0
  6
Continuous
 62
     7
100
AcDbMText
 10
45.3791764556
 20
110.8170619671
 30
0.0
 40
1.333333333299999
 41
7.466666666699999
 46
0.0
 71
     2
 72
     1
  1
60\P[152,4]
 73
     1
 44
0.9
  0
LINE
  5
3C4
330
23C
100
AcDbEntity
  8
0
  6
Continuous
 62
     7
100
AcDbLine
 10
18.0458431222
 20
101.540063248
 30
0.0
 11
18.0458431222
 21
111.4837286338
 31
0.0
  0
LINE
  5
3C5
330
23C
100
AcDbEntity
  8
0
  6
Continuous
 62
     7
100
AcDbLine
 10
78.0458431222
 20
101.540063248
 30
0.0
 11
78.0458431222
 21
111.4837286338
 31
0.0
  0
LINE
  5
3C6
330
23C
100
AcDbEntity
  8
0
  6
Continuous
 62
     7
100
AcDbLine
 10
18.0458431222
 20
110.1503953004
 30
0.0
 11
43.6458431222
 21
110.1503953004
 31
0.0
  0
LINE
  5
3C7
330
23C
100
AcDbEntity
  8
0
  6
Continuous
 62
     7
100
AcDbLine
 10
78.0458431222
 20
110.1503953004
 30
0.0
 11
52.4458431222
 21
110.1503953004
 31
0.0
  0
INSERT
  5
3C8
330
23C
100
AcDbEntity
  8
0
  6
Continuous
 62
     7
100
AcDbBlockReference
  2
_FILLED
 10
18.0458431222
 20
110.1503953004
 30
0.0
 41
2.0
 42
2.0
 43
2.0
 50
180.0
  0
INSERT
  5
3C9
330
23C
100
AcDbEntity
  8
0
  6
Continuous
 62
     7
100
AcDbBlockReference
  2
_FILLED
 10
78.0458431222
 20
110.1503953004
 30
0.0
 41
2.0
 42
2.0
 43
2.0
  0
ENDBLK
  5
3CA
330
23C
100
AcDbEntity
  8
0
  6
ByBlock
 62
     0
100
AcDbBlockEnd
  0
BLOCK
  5
24D
330
23D
100
AcDbEntity
  8
0
  6
Continuous
 62
     7
100
AcDbBlockBegin
  2
SYMBOL_25_BL9
 70
     0
 10
129.641570543
 20
70.46977435229999
 30
0.0
  3
SYMBOL_25_BL9
  1

  0
TEXT
  5
24E
330
23D
100
AcDbEntity
  8
0
  6
Continuous
 62
     7
100
AcDbText
 10
129.026755489
 20
69.8031074263
 30
0.0
 40
1.333333852099999
  1
A
  7
TEXTSTYLE_2
100
AcDbText
  0
ELLIPSE
  5
24F
330
23D
100
AcDbEntity
  8
0
  6
Continuous
 62
     7
100
AcDbEllipse
 10
129.641570543
 20
70.46977435229999
 30
0.0
 11
-1.942887567899999
 21
0.0
 31
0.0
210
0.0
220
0.0
230
1.0
 40
0.6606458385
 41
0.0
 42
6.283185307179586
  0
ENDBLK
  5
250
330
23D
100
AcDbEntity
  8
0
  6
ByBlock
 62
     0
100
AcDbBlockEnd
  0
BLOCK
  5
251
330
23E
100
AcDbEntity
  8
0
  6
Continuous
 62
     7
100
AcDbBlockBegin
  2
SYMBOL_24_BL8
 70
     0
 10
119.64843757
 20
70.5151668885
 30
0.0
  3
SYMBOL_24_BL8
  1

  0
TEXT
  5
252
330
23E
100
AcDbEntity
  8
0
  6
Continuous
 62
     7
100
AcDbText
 10
118.981770644
 20
69.8484999625
 30
0.0
 40
1.333333852099999
  1
C
  7
TEXTSTYLE_2
100
AcDbText
  0
ELLIPSE
  5
253
330
23E
100
AcDbEntity
  8
0
  6
Continuous
 62
     7
100
AcDbEllipse
 10
119.64843757
 20
70.5151668885
 30
0.0
 11
-1.942887567899999
 21
0.0
 31
0.0
210
0.0
220
0.0
230
1.0
 40
0.6606458385
 41
0.0
 42
6.283185307179586
  0
ENDBLK
  5
254
330
23E
100
AcDbEntity
  8
0
  6
ByBlock
 62
     0
100
AcDbBlockEnd
  0
BLOCK
  5
255
330
23F
100
AcDbEntity
  8
0
  6
Continuous
 62
     7
100
AcDbBlockBegin
  2
SYMBOL_8_BL7
 70
     0
 10
148.6485547499
 20
97.5428180886
 30
0.0
  3
SYMBOL_8_BL7
  1

  0
TEXT
  5
256
330
23F
100
AcDbEntity
  8
0
  6
Continuous
 62
     7
100
AcDbText
 10
148.0990795499
 20
96.86994574860001
 30
0.0
 40
1.333333852099999
  1
L
  7
TEXTSTYLE_2
100
AcDbText
  0
TEXT
  5
257
330
23F
100
AcDbEntity
  8
0
  6
Continuous
 62
     7
100
AcDbText
 10
144.4144932716
 20
96.88235657660001
 30
0.0
 40
1.333333852099999
  1
8
  7
TEXTSTYLE_2
100
AcDbText
  0
TEXT
  5
258
330
23F
100
AcDbEntity
  8
0
  6
Continuous
 62
     7
100
AcDbText
 10
151.8603936083
 20
96.88235657660001
 30
0.0
 40
1.333333852099999
  1
7
  7
TEXTSTYLE_2
100
AcDbText
  0
ELLIPSE
  5
259
330
23F
100
AcDbEntity
  8
0
  6
Continuous
 62
     7
100
AcDbEllipse
 10
148.6274748171999
 20
97.5366126746
 30
0.0
 11
-1.942887567899999
 21
0.0
 31
0.0
210
0.0
220
0.0
230
1.0
 40
0.6606458385
 41
0.0
 42
6.283185307179586
  0
ENDBLK
  5
25A
330
23F
100
AcDbEntity
  8
0
  6
ByBlock
 62
     0
100
AcDbBlockEnd
  0
BLOCK
  5
25B
330
240
100
AcDbEntity
  8
0
  6
Continuous
 62
     7
100
AcDbBlockBegin
  2
SYMBOL_7_BL6
 70
     0
 10
121.589001051
 20
73.8682697456
 30
0.0
  3
SYMBOL_7_BL6
  1

  0
TEXT
  5
25C
330
240
100
AcDbEntity
  8
0
  6
Continuous
 62
     7
100
AcDbText
 10
121.039525851
 20
73.1953974056
 30
0.0
 40
1.333333852099999
  1
L
  7
TEXTSTYLE_2
100
AcDbText
  0
TEXT
  5
25D
330
240
100
AcDbEntity
  8
0
  6
Continuous
 62
     7
100
AcDbText
 10
116.8438282628
 20
73.20780823359999
 30
0.0
 40
1.333333852099999
  1
16
  7
TEXTSTYLE_2
100
AcDbText
  0
TEXT
  5
25E
330
240
100
AcDbEntity
  8
0
  6
Continuous
 62
     7
100
AcDbText
 10
124.2897285995
 20
73.20780823359999
 30
0.0
 40
1.333333852099999
  1
15
  7
TEXTSTYLE_2
100
AcDbText
  0
ELLIPSE
  5
25F
330
240
100
AcDbEntity
  8
0
  6
Continuous
 62
     7
100
AcDbEllipse
 10
121.5679211183
 20
73.86206433159999
 30
0.0
 11
-1.942887567899999
 21
0.0
 31
0.0
210
0.0
220
0.0
230
1.0
 40
0.6606458385
 41
0.0
 42
6.283185307179586
  0
ENDBLK
  5
260
330
240
100
AcDbEntity
  8
0
  6
ByBlock
 62
     0
100
AcDbBlockEnd
  0
BLOCK
  5
261
330
241
100
AcDbEntity
  8
0
  6
Continuous
 62
     7
100
AcDbBlockBegin
  2
SYMBOL_22_BL5
 70
     0
 10
54.11940283959999
 20
70.58639429919999
 30
0.0
  3
SYMBOL_22_BL5
  1

  0
TEXT
  5
262
330
241
100
AcDbEntity
  8
0
  6
Continuous
 62
     7
100
AcDbText
 10
53.5045877856
 20
69.91972737319999
 30
0.0
 40
1.333333852099999
  1
A
  7
TEXTSTYLE_2
100
AcDbText
  0
ELLIPSE
  5
263
330
241
100
AcDbEntity
  8
0
  6
Continuous
 62
     7
100
AcDbEllipse
 10
54.11940283959999
 20
70.58639429919999
 30
0.0
 11
-1.942887567899999
 21
0.0
 31
0.0
210
0.0
220
0.0
230
1.0
 40
0.6606458385
 41
0.0
 42
6.283185307179586
  0
ENDBLK
  5
264
330
241
100
AcDbEntity
  8
0
  6
ByBlock
 62
     0
100
AcDbBlockEnd
  0
BLOCK
  5
265
330
242
100
AcDbEntity
  8
0
  6
Continuous
 62
     7
100
AcDbBlockBegin
  2
SYMBOL_21_BL4
 70
     0
 10
64.09221079640001
 20
70.58639429919999
 30
0.0
  3
SYMBOL_21_BL4
  1

  0
TEXT
  5
266
330
242
100
AcDbEntity
  8
0
  6
Continuous
 62
     7
100
AcDbText
 10
63.42554387039999
 20
69.91972737319999
 30
0.0
 40
1.333333852099999
  1
C
  7
TEXTSTYLE_2
100
AcDbText
  0
ELLIPSE
  5
267
330
242
100
AcDbEntity
  8
0
  6
Continuous
 62
     7
100
AcDbEllipse
 10
64.09221079640001
 20
70.58639429919999
 30
0.0
 11
-1.942887567899999
 21
0.0
 31
0.0
210
0.0
220
0.0
230
1.0
 40
0.6606458385
 41
0.0
 42
6.283185307179586
  0
ENDBLK
  5
268
330
242
100
AcDbEntity
  8
0
  6
ByBlock
 62
     0
100
AcDbBlockEnd
  0
BLOCK
  5
269
330
243
100
AcDbEntity
  8
0
  6
Continuous
 62
     7
100
AcDbBlockBegin
  2
SYMBOL_6_BL3
 70
     0
 10
33.4385583993
 20
73.82690505380001
 30
0.0
  3
SYMBOL_6_BL3
  1

  0
TEXT
  5
26A
330
243
100
AcDbEntity
  8
0
  6
Continuous
 62
     7
100
AcDbText
 10
32.8890831993
 20
73.15403271370001
 30
0.0
 40
1.333333852099999
  1
L
  7
TEXTSTYLE_2
100
AcDbText
  0
TEXT
  5
26B
330
243
100
AcDbEntity
  8
0
  6
Continuous
 62
     7
100
AcDbText
 10
29.204496921
 20
73.16644354170001
 30
0.0
 40
1.333333852099999
  1
7
  7
TEXTSTYLE_2
100
AcDbText
  0
TEXT
  5
26C
330
243
100
AcDbEntity
  8
0
  6
Continuous
 62
     7
100
AcDbText
 10
36.6503972577
 20
73.16644354170001
 30
0.0
 40
1.333333852099999
  1
8
  7
TEXTSTYLE_2
100
AcDbText
  0
ELLIPSE
  5
26D
330
243
100
AcDbEntity
  8
0
  6
Continuous
 62
     7
100
AcDbEllipse
 10
33.4174784666
 20
73.82069963970001
 30
0.0
 11
-1.942887567899999
 21
0.0
 31
0.0
210
0.0
220
0.0
230
1.0
 40
0.6606458385
 41
0.0
 42
6.283185307179586
  0
ENDBLK
  5
26E
330
243
100
AcDbEntity
  8
0
  6
ByBlock
 62
     0
100
AcDbBlockEnd
  0
BLOCK
  5
26F
330
244
100
AcDbEntity
  8
0
  6
Continuous
 62
     7
100
AcDbBlockBegin
  2
SYMBOL_5_BL2
 70
     0
 10
61.5667068575
 20
97.65801435829999
 30
0.0
  3
SYMBOL_5_BL2
  1

  0
TEXT
  5
270
330
244
100
AcDbEntity
  8
0
  6
Continuous
 62
     7
100
AcDbText
 10
61.0172316575
 20
96.98514201830001
 30
0.0
 40
1.333333852099999
  1
L
  7
TEXTSTYLE_2
100
AcDbText
  0
TEXT
  5
271
330
244
100
AcDbEntity
  8
0
  6
Continuous
 62
     7
100
AcDbText
 10
56.8215340692
 20
96.99755284630001
 30
0.0
 40
1.333333852099999
  1
15
  7
TEXTSTYLE_2
100
AcDbText
  0
TEXT
  5
272
330
244
100
AcDbEntity
  8
0
  6
Continuous
 62
     7
100
AcDbText
 10
64.26743440590001
 20
96.99755284630001
 30
0.0
 40
1.333333852099999
  1
16
  7
TEXTSTYLE_2
100
AcDbText
  0
ELLIPSE
  5
273
330
244
100
AcDbEntity
  8
0
  6
Continuous
 62
     7
100
AcDbEllipse
 10
61.5456269247
 20
97.65180894430001
 30
0.0
 11
-1.942887567899999
 21
0.0
 31
0.0
210
0.0
220
0.0
230
1.0
 40
0.6606458385
 41
0.0
 42
6.283185307179586
  0
ENDBLK
  5
274
330
244
100
AcDbEntity
  8
0
  6
ByBlock
 62
     0
100
AcDbBlockEnd
  0
BLOCK
  5
275
330
245
100
AcDbEntity
  8
0
  6
Continuous
 62
     7
100
AcDbBlockBegin
  2
SYMBOL_2_BL1
 70
     0
 10
124.0039900067
 20
49.01303612180001
 30
0.0
  3
SYMBOL_2_BL1
  1

  0
TEXT
  5
276
330
245
100
AcDbEntity
  8
0
  6
Continuous
 62
     7
100
AcDbText
 10
117.6899297049
 20
51.2580701076
 30
0.0
 40
1.1626666667
  1
INTERNAL USE 
 50
10.0
  7
TEXTSTYLE_3
100
AcDbText
  0
TEXT
  5
277
330
245
100
AcDbEntity
  8
0
  6
Continuous
 62
     7
100
AcDbText
 10
116.9462455009
 20
49.25654892989999
 30
0.0
 40
1.1626666667
  1
DOCUMENT ONLY
 50
10.0
  7
TEXTSTYLE_3
100
AcDbText
  0
TEXT
  5
278
330
245
100
AcDbEntity
  8
0
  6
Continuous
 62
     7
100
AcDbText
 10
122.7309730642
 20
49.0081208794
 30
0.0
 40
1.1626666667
  1
 
 50
10.0
  7
TEXTSTYLE_5
100
AcDbText
  0
TEXT
  5
279
330
245
100
AcDbEntity
  8
0
  6
Continuous
 62
     7
100
AcDbText
 10
114.2863251812
 20
44.8310264731
 30
0.0
 40
1.1626666667
  1
DOCUMENT POUR USAGE
 50
10.0
  7
TEXTSTYLE_3
100
AcDbText
  0
TEXT
  5
27A
330
245
100
AcDbEntity
  8
0
  6
Continuous
 62
     7
100
AcDbText
 10
114.7154246272
 20
42.8142780127
 30
0.0
 40
1.1626666667
  1
A L'INTERNE SEULEMENT
 50
10.0
  7
TEXTSTYLE_3
100
AcDbText
  0
LINE
  5
27B
330
245
100
AcDbEntity
  8
0
  6
Continuous
 62
     7
100
AcDbLine
 10
137.86054173
 20
44.6695025038
 30
0.0
 11
137.8673006627
 21
44.6762614365
 31
0.0
  0
LINE
  5
27C
330
245
100
AcDbEntity
  8
0
  6
Continuous
 62
     7
100
AcDbLine
 10
137.1279721636
 20
44.54033072399999
 30
0.0
 11
137.7768536087
 21
45.18921216919999
 31
0.0
  0
LINE
  5
27D
330
245
100
AcDbEntity
  8
0
  6
Continuous
 62
     7
100
AcDbLine
 10
136.3954025972
 20
44.4111589442
 30
0.0
 11
137.6864065548
 21
45.7021629018
 31
0.0
  0
LINE
  5
27E
330
245
100
AcDbEntity
  8
0
  6
Continuous
 62
     7
100
AcDbLine
 10
135.6628330308
 20
44.28198716439999
 30
0.0
 11
137.5959595009
 21
46.21511363449999
 31
0.0
  0
LINE
  5
27F
330
245
100
AcDbEntity
  8
0
  6
Continuous
 62
     7
100
AcDbLine
 10
134.9302634644
 20
44.1528153846
 30
0.0
 11
137.5055124469
 21
46.72806436720001
 31
0.0
  0
LINE
  5
280
330
245
100
AcDbEntity
  8
0
  6
Continuous
 62
     7
100
AcDbLine
 10
134.1976938979
 20
44.02364360479999
 30
0.0
 11
135.7386977127
 21
45.5646474196
 31
0.0
  0
LINE
  5
281
330
245
100
AcDbEntity
  8
0
  6
Continuous
 62
     7
100
AcDbLine
 10
136.3360429054
 20
46.1619926123
 30
0.0
 11
137.415065393
 21
47.24101509979999
 31
0.0
  0
LINE
  5
282
330
245
100
AcDbEntity
  8
0
  6
Continuous
 62
     7
100
AcDbLine
 10
133.4651243315
 20
43.89447182499999
 30
0.0
 11
135.0061281463
 21
45.43547563979999
 31
0.0
  0
LINE
  5
283
330
245
100
AcDbEntity
  8
0
  6
Continuous
 62
     7
100
AcDbLine
 10
136.2455958515
 20
46.674943345
 30
0.0
 11
137.324618339
 21
47.7539658325
 31
0.0
  0
LINE
  5
284
330
245
100
AcDbEntity
  8
0
  6
Continuous
 62
     7
100
AcDbLine
 10
132.7325547651
 20
43.76530004520001
 30
0.0
 11
134.2735585799
 21
45.30630386
 31
0.0
  0
LINE
  5
285
330
245
100
AcDbEntity
  8
0
  6
Continuous
 62
     7
100
AcDbLine
 10
136.1551487976
 20
47.1878940777
 30
0.0
 11
137.2341712851
 21
48.26691656520001
 31
0.0
  0
LINE
  5
286
330
245
100
AcDbEntity
  8
0
  6
Continuous
 62
     7
100
AcDbLine
 10
131.9999851987
 20
43.63612826539999
 30
0.0
 11
133.5409890135
 21
45.1771320802
 31
0.0
  0
LINE
  5
287
330
245
100
AcDbEntity
  8
0
  6
Continuous
 62
     7
100
AcDbLine
 10
136.0647017436
 20
47.70084481029999
 30
0.0
 11
137.1437242311
 21
48.77986729779999
 31
0.0
  0
LINE
  5
288
330
245
100
AcDbEntity
  8
0
  6
Continuous
 62
     7
100
AcDbLine
 10
131.2674156323
 20
43.50695648560001
 30
0.0
 11
132.8084194471
 21
45.0479603004
 31
0.0
  0
LINE
  5
289
330
245
100
AcDbEntity
  8
0
  6
Continuous
 62
     7
100
AcDbLine
 10
135.9742546897
 20
48.213795543
 30
0.0
 11
137.0532771772
 21
49.2928180305
 31
0.0
  0
LINE
  5
28A
330
245
100
AcDbEntity
  8
0
  6
Continuous
 62
     7
100
AcDbLine
 10
130.5348460659
 20
43.37778470579999
 30
0.0
 11
132.0758498806
 21
44.9187885206
 31
0.0
  0
LINE
  5
28B
330
245
100
AcDbEntity
  8
0
  6
Continuous
 62
     7
100
AcDbLine
 10
135.8838076357
 20
48.72674627569999
 30
0.0
 11
136.9628301232
 21
49.8057687632
 31
0.0
  0
LINE
  5
28C
330
245
100
AcDbEntity
  8
0
  6
Continuous
 62
     7
100
AcDbLine
 10
129.8022764994
 20
43.248612926
 30
0.0
 11
131.3432803142
 21
44.78961674079999
 31
0.0
  0
LINE
  5
28D
330
245
100
AcDbEntity
  8
0
  6
Continuous
 62
     7
100
AcDbLine
 10
135.7933605818
 20
49.23969700829999
 30
0.0
 11
136.8723830693
 21
50.3187194959
 31
0.0
  0
LINE
  5
28E
330
245
100
AcDbEntity
  8
0
  6
Continuous
 62
     7
100
AcDbLine
 10
129.069706933
 20
43.1194411462
 30
0.0
 11
130.6107107478
 21
44.660444961
 31
0.0
  0
LINE
  5
28F
330
245
100
AcDbEntity
  8
0
  6
Continuous
 62
     7
100
AcDbLine
 10
135.7029135278
 20
49.75264774100001
 30
0.0
 11
136.7819360154
 21
50.8316702285
 31
0.0
  0
LINE
  5
290
330
245
100
AcDbEntity
  8
0
  6
Continuous
 62
     7
100
AcDbLine
 10
128.3371373666
 20
42.9902693664
 30
0.0
 11
129.8781411814
 21
44.53127318119999
 31
0.0
  0
LINE
  5
291
330
245
100
AcDbEntity
  8
0
  6
Continuous
 62
     7
100
AcDbLine
 10
135.6124664739
 20
50.26559847369999
 30
0.0
 11
136.6914889613999
 21
51.3446209612
 31
0.0
  0
LINE
  5
292
330
245
100
AcDbEntity
  8
0
  6
Continuous
 62
     7
100
AcDbLine
 10
127.6045678002
 20
42.86109758659999
 30
0.0
 11
129.145571615
 21
44.4021014014
 31
0.0
  0
LINE
  5
293
330
245
100
AcDbEntity
  8
0
  6
Continuous
 62
     7
100
AcDbLine
 10
135.3095868741
 20
50.5661166605
 30
0.0
 11
136.6010419075
 21
51.85757169390001
 31
0.0
  0
LINE
  5
294
330
245
100
AcDbEntity
  8
0
  6
Continuous
 62
     7
100
AcDbLine
 10
126.8719982338
 20
42.73192580679999
 30
0.0
 11
128.4130020485
 21
44.2729296215
 31
0.0
  0
LINE
  5
295
330
245
100
AcDbEntity
  8
0
  6
Continuous
 62
     7
100
AcDbLine
 10
134.5770173077
 20
50.43694488069999
 30
0.0
 11
136.5105948535
 21
52.37052242649999
 31
0.0
  0
LINE
  5
296
330
245
100
AcDbEntity
  8
0
  6
Continuous
 62
     7
100
AcDbLine
 10
126.1394286673
 20
42.60275402699999
 30
0.0
 11
127.6804324821
 21
44.1437578417
 31
0.0
  0
LINE
  5
297
330
245
100
AcDbEntity
  8
0
  6
Continuous
 62
     7
100
AcDbLine
 10
133.8444477412
 20
50.3077731008
 30
0.0
 11
134.8717900395
 21
51.33511539909999
 31
0.0
  0
LINE
  5
298
330
245
100
AcDbEntity
  8
0
  6
Continuous
 62
     7
100
AcDbLine
 10
135.3411253121
 20
51.8044506717
 30
0.0
 11
136.4201477996
 21
52.8834731592
 31
0.0
  0
LINE
  5
299
330
245
100
AcDbEntity
  8
0
  6
Continuous
 62
     7
100
AcDbLine
 10
125.4068591009
 20
42.4735822472
 30
0.0
 11
126.9478629157
 21
44.0145860619
 31
0.0
  0
LINE
  5
29A
330
245
100
AcDbEntity
  8
0
  6
Continuous
 62
     7
100
AcDbLine
 10
133.1118781748
 20
50.178601321
 30
0.0
 11
134.1392202635
 21
51.20594340970001
 31
0.0
  0
LINE
  5
29B
330
245
100
AcDbEntity
  8
0
  6
Continuous
 62
     7
100
AcDbLine
 10
135.2506782580999
 20
52.3174014043
 30
0.0
 11
136.3297007456
 21
53.39642389189999
 31
0.0
  0
LINE
  5
29C
330
245
100
AcDbEntity
  8
0
  6
Continuous
 62
     7
100
AcDbLine
 10
124.6742895345
 20
42.34441046739999
 30
0.0
 11
126.2152933493
 21
43.88541428209999
 31
0.0
  0
LINE
  5
29D
330
245
100
AcDbEntity
  8
0
  6
Continuous
 62
     7
100
AcDbLine
 10
132.3793086084
 20
50.0494295412
 30
0.0
 11
133.4066504874
 21
51.0767714203
 31
0.0
  0
LINE
  5
29E
330
245
100
AcDbEntity
  8
0
  6
Continuous
 62
     7
100
AcDbLine
 10
135.1602312042
 20
52.83035213699999
 30
0.0
 11
136.2392536917
 21
53.9093746245
 31
0.0
  0
LINE
  5
29F
330
245
100
AcDbEntity
  8
0
  6
Continuous
 62
     7
100
AcDbLine
 10
123.9417199681
 20
42.2152386875
 30
0.0
 11
125.4827237829
 21
43.75624250229999
 31
0.0
  0
LINE
  5
2A0
330
245
100
AcDbEntity
  8
0
  6
Continuous
 62
     7
100
AcDbLine
 10
131.646739042
 20
49.9202577614
 30
0.0
 11
132.6740807114
 21
50.9475994309
 31
0.0
  0
LINE
  5
2A1
330
245
100
AcDbEntity
  8
0
  6
Continuous
 62
     7
100
AcDbLine
 10
135.0697841502
 20
53.34330286970001
 30
0.0
 11
136.1488066378
 21
54.4223253572
 31
0.0
  0
LINE
  5
2A2
330
245
100
AcDbEntity
  8
0
  6
Continuous
 62
     7
100
AcDbLine
 10
123.2091504017
 20
42.08606690769999
 30
0.0
 11
124.7501542165
 21
43.6270707225
 31
0.0
  0
LINE
  5
2A3
330
245
100
AcDbEntity
  8
0
  6
Continuous
 62
     7
100
AcDbLine
 10
130.9141694756
 20
49.79108598159999
 30
0.0
 11
131.9415109354
 21
50.81842744140001
 31
0.0
  0
LINE
  5
2A4
330
245
100
AcDbEntity
  8
0
  6
Continuous
 62
     7
100
AcDbLine
 10
134.9793370963
 20
53.85625360239999
 30
0.0
 11
136.0583595838
 21
54.9352760899
 31
0.0
  0
LINE
  5
2A5
330
245
100
AcDbEntity
  8
0
  6
Continuous
 62
     7
100
AcDbLine
 10
122.4765808353
 20
41.95689512789999
 30
0.0
 11
124.01758465
 21
43.4978989427
 31
0.0
  0
LINE
  5
2A6
330
245
100
AcDbEntity
  8
0
  6
Continuous
 62
     7
100
AcDbLine
 10
130.1815999091
 20
49.6619142018
 30
0.0
 11
131.2089411594
 21
50.68925545199999
 31
0.0
  0
LINE
  5
2A7
330
245
100
AcDbEntity
  8
0
  6
Continuous
 62
     7
100
AcDbLine
 10
134.8888900423
 20
54.369204335
 30
0.0
 11
135.9679125299
 21
55.4482268225
 31
0.0
  0
LINE
  5
2A8
330
245
100
AcDbEntity
  8
0
  6
Continuous
 62
     7
100
AcDbLine
 10
121.7440112688
 20
41.8277233481
 30
0.0
 11
123.2850150836
 21
43.3687271629
 31
0.0
  0
LINE
  5
2A9
330
245
100
AcDbEntity
  8
0
  6
Continuous
 62
     7
100
AcDbLine
 10
129.4490303427
 20
49.532742422
 30
0.0
 11
130.4763713833
 21
50.5600834626
 31
0.0
  0
LINE
  5
2AA
330
245
100
AcDbEntity
  8
0
  6
Continuous
 62
     7
100
AcDbLine
 10
134.7984429884
 20
54.8821550677
 30
0.0
 11
135.8774654759
 21
55.9611775552
 31
0.0
  0
LINE
  5
2AB
330
245
100
AcDbEntity
  8
0
  6
Continuous
 62
     7
100
AcDbLine
 10
121.0114417024
 20
41.69855156829999
 30
0.0
 11
122.5524455172
 21
43.2395553831
 31
0.0
  0
LINE
  5
2AC
330
245
100
AcDbEntity
  8
0
  6
Continuous
 62
     7
100
AcDbLine
 10
128.7164607763
 20
49.4035706422
 30
0.0
 11
129.7438016073
 21
50.4309114732
 31
0.0
  0
LINE
  5
2AD
330
245
100
AcDbEntity
  8
0
  6
Continuous
 62
     7
100
AcDbLine
 10
134.7079959345
 20
55.39510580039999
 30
0.0
 11
135.787018422
 21
56.4741282879
 31
0.0
  0
LINE
  5
2AE
330
245
100
AcDbEntity
  8
0
  6
Continuous
 62
     7
100
AcDbLine
 10
120.278872136
 20
41.5693797885
 30
0.0
 11
121.8198759508
 21
43.1103836033
 31
0.0
  0
LINE
  5
2AF
330
245
100
AcDbEntity
  8
0
  6
Continuous
 62
     7
100
AcDbLine
 10
127.9838912099
 20
49.2743988624
 30
0.0
 11
129.0112318313
 21
50.30173948379999
 31
0.0
  0
LINE
  5
2B0
330
245
100
AcDbEntity
  8
0
  6
Continuous
 62
     7
100
AcDbLine
 10
134.6175488805
 20
55.908056533
 30
0.0
 11
135.6965713679999
 21
56.9870790205
 31
0.0
  0
LINE
  5
2B1
330
245
100
AcDbEntity
  8
0
  6
Continuous
 62
     7
100
AcDbLine
 10
119.5463025696
 20
41.44020800869999
 30
0.0
 11
121.0873063844
 21
42.9812118235
 31
0.0
  0
LINE
  5
2B2
330
245
100
AcDbEntity
  8
0
  6
Continuous
 62
     7
100
AcDbLine
 10
127.2513216435
 20
49.1452270826
 30
0.0
 11
128.2786620552
 21
50.1725674944
 31
0.0
  0
LINE
  5
2B3
330
245
100
AcDbEntity
  8
0
  6
Continuous
 62
     7
100
AcDbLine
 10
134.4426727791
 20
56.33657821819999
 30
0.0
 11
135.6061243141
 21
57.5000297532
 31
0.0
  0
LINE
  5
2B4
330
245
100
AcDbEntity
  8
0
  6
Continuous
 62
     7
100
AcDbLine
 10
118.8137330032
 20
41.3110362289
 30
0.0
 11
120.3547368179
 21
42.8520400437
 31
0.0
  0
LINE
  5
2B5
330
245
100
AcDbEntity
  8
0
  6
Continuous
 62
     7
100
AcDbLine
 10
126.5187520771
 20
49.0160553028
 30
0.0
 11
127.5460922792
 21
50.0433955049
 31
0.0
  0
LINE
  5
2B6
330
245
100
AcDbEntity
  8
0
  6
Continuous
 62
     7
100
AcDbLine
 10
133.7101032127
 20
56.2074064384
 30
0.0
 11
135.2511070275
 21
57.7484102532
 31
0.0
  0
LINE
  5
2B7
330
245
100
AcDbEntity
  8
0
  6
Continuous
 62
     7
100
AcDbLine
 10
118.0811634368
 20
41.1818644491
 30
0.0
 11
119.6221672515
 21
42.7228682639
 31
0.0
  0
LINE
  5
2B8
330
245
100
AcDbEntity
  8
0
  6
Continuous
 62
     7
100
AcDbLine
 10
125.7861825106
 20
48.886883523
 30
0.0
 11
126.8135225032
 21
49.9142235155
 31
0.0
  0
LINE
  5
2B9
330
245
100
AcDbEntity
  8
0
  6
Continuous
 62
     7
100
AcDbLine
 10
132.9775336463
 20
56.0782346586
 30
0.0
 11
134.518537461
 21
57.6192384734
 31
0.0
  0
LINE
  5
2BA
330
245
100
AcDbEntity
  8
0
  6
Continuous
 62
     7
100
AcDbLine
 10
117.3485938703
 20
41.0526926693
 30
0.0
 11
118.8895976851
 21
42.59369648409999
 31
0.0
  0
LINE
  5
2BB
330
245
100
AcDbEntity
  8
0
  6
Continuous
 62
     7
100
AcDbLine
 10
125.0536129442
 20
48.7577117432
 30
0.0
 11
126.0809527272
 21
49.7850515261
 31
0.0
  0
LINE
  5
2BC
330
245
100
AcDbEntity
  8
0
  6
Continuous
 62
     7
100
AcDbLine
 10
132.2449640798
 20
55.9490628788
 30
0.0
 11
133.7859678946
 21
57.49006669359999
 31
0.0
  0
LINE
  5
2BD
330
245
100
AcDbEntity
  8
0
  6
Continuous
 62
     7
100
AcDbLine
 10
116.6160243039
 20
40.9235208895
 30
0.0
 11
118.1570281187
 21
42.46452470429999
 31
0.0
  0
LINE
  5
2BE
330
245
100
AcDbEntity
  8
0
  6
Continuous
 62
     7
100
AcDbLine
 10
124.3210433778
 20
48.6285399634
 30
0.0
 11
125.3483829511
 21
49.6558795367
 31
0.0
  0
LINE
  5
2BF
330
245
100
AcDbEntity
  8
0
  6
Continuous
 62
     7
100
AcDbLine
 10
131.5123945134
 20
55.819891099
 30
0.0
 11
133.0533983282
 21
57.3608949138
 31
0.0
  0
LINE
  5
2C0
330
245
100
AcDbEntity
  8
0
  6
Continuous
 62
     7
100
AcDbLine
 10
115.8834547375
 20
40.79434910969999
 30
0.0
 11
117.4244585523
 21
42.3353529245
 31
0.0
  0
LINE
  5
2C1
330
245
100
AcDbEntity
  8
0
  6
Continuous
 62
     7
100
AcDbLine
 10
123.5884738114
 20
48.49936818359999
 30
0.0
 11
124.6158131751
 21
49.52670754729999
 31
0.0
  0
LINE
  5
2C2
330
245
100
AcDbEntity
  8
0
  6
Continuous
 62
     7
100
AcDbLine
 10
130.779824947
 20
55.69071931919999
 30
0.0
 11
132.3208287618
 21
57.231723134
 31
0.0
  0
LINE
  5
2C3
330
245
100
AcDbEntity
  8
0
  6
Continuous
 62
     7
100
AcDbLine
 10
115.1508851711
 20
40.66517732989999
 30
0.0
 11
116.6918889859
 21
42.20618114469999
 31
0.0
  0
LINE
  5
2C4
330
245
100
AcDbEntity
  8
0
  6
Continuous
 62
     7
100
AcDbLine
 10
122.855904245
 20
48.3701964038
 30
0.0
 11
123.8832433991
 21
49.3975355579
 31
0.0
  0
LINE
  5
2C5
330
245
100
AcDbEntity
  8
0
  6
Continuous
 62
     7
100
AcDbLine
 10
130.0472553806
 20
55.56154753939999
 30
0.0
 11
131.5882591954
 21
57.1025513542
 31
0.0
  0
LINE
  5
2C6
330
245
100
AcDbEntity
  8
0
  6
Continuous
 62
     7
100
AcDbLine
 10
114.4183156047
 20
40.5360055501
 30
0.0
 11
115.9593194194
 21
42.0770093649
 31
0.0
  0
LINE
  5
2C7
330
245
100
AcDbEntity
  8
0
  6
Continuous
 62
     7
100
AcDbLine
 10
122.1233346785
 20
48.24102462399999
 30
0.0
 11
123.150673623
 21
49.2683635685
 31
0.0
  0
LINE
  5
2C8
330
245
100
AcDbEntity
  8
0
  6
Continuous
 62
     7
100
AcDbLine
 10
129.3146858142
 20
55.4323757596
 30
0.0
 11
130.855689629
 21
56.9733795744
 31
0.0
  0
LINE
  5
2C9
330
245
100
AcDbEntity
  8
0
  6
Continuous
 62
     7
100
AcDbLine
 10
113.6857460382
 20
40.4068337703
 30
0.0
 11
115.226749853
 21
41.947837585
 31
0.0
  0
LINE
  5
2CA
330
245
100
AcDbEntity
  8
0
  6
Continuous
 62
     7
100
AcDbLine
 10
121.3907651121
 20
48.1118528442
 30
0.0
 11
122.418103847
 21
49.139191579
 31
0.0
  0
LINE
  5
2CB
330
245
100
AcDbEntity
  8
0
  6
Continuous
 62
     7
100
AcDbLine
 10
128.5821162478
 20
55.30320397979999
 30
0.0
 11
130.1231200625
 21
56.8442077946
 31
0.0
  0
LINE
  5
2CC
330
245
100
AcDbEntity
  8
0
  6
Continuous
 62
     7
100
AcDbLine
 10
112.9531764718
 20
40.2776619905
 30
0.0
 11
114.4941802866
 21
41.8186658052
 31
0.0
  0
LINE
  5
2CD
330
245
100
AcDbEntity
  8
0
  6
Continuous
 62
     7
100
AcDbLine
 10
120.6581955457
 20
47.9826810644
 30
0.0
 11
121.685534071
 21
49.0100195896
 31
0.0
  0
LINE
  5
2CE
330
245
100
AcDbEntity
  8
0
  6
Continuous
 62
     7
100
AcDbLine
 10
127.8495466813
 20
55.17403220000001
 30
0.0
 11
129.3905504961
 21
56.71503601479999
 31
0.0
  0
LINE
  5
2CF
330
245
100
AcDbEntity
  8
0
  6
Continuous
 62
     7
100
AcDbLine
 10
112.4018556993
 20
40.3297390046
 30
0.0
 11
113.7616107202
 21
41.6894940254
 31
0.0
  0
LINE
  5
2D0
330
245
100
AcDbEntity
  8
0
  6
Continuous
 62
     7
100
AcDbLine
 10
119.9256259793
 20
47.85350928449999
 30
0.0
 11
120.952964295
 21
48.8808476002
 31
0.0
  0
LINE
  5
2D1
330
245
100
AcDbEntity
  8
0
  6
Continuous
 62
     7
100
AcDbLine
 10
127.1169771149
 20
55.0448604202
 30
0.0
 11
128.6579809297
 21
56.5858642349
 31
0.0
  0
LINE
  5
2D2
330
245
100
AcDbEntity
  8
0
  6
Continuous
 62
     7
100
AcDbLine
 10
112.3114086454
 20
40.84268973719999
 30
0.0
 11
113.3904311329
 21
41.92171222469999
 31
0.0
  0
LINE
  5
2D3
330
245
100
AcDbEntity
  8
0
  6
Continuous
 62
     7
100
AcDbLine
 10
119.1930564129
 20
47.7243375047
 30
0.0
 11
120.2203945189
 21
48.7516756108
 31
0.0
  0
LINE
  5
2D4
330
245
100
AcDbEntity
  8
0
  6
Continuous
 62
     7
100
AcDbLine
 10
126.3844075485
 20
54.9156886404
 30
0.0
 11
127.9254113633
 21
56.4566924551
 31
0.0
  0
LINE
  5
2D5
330
245
100
AcDbEntity
  8
0
  6
Continuous
 62
     7
100
AcDbLine
 10
112.2209615914
 20
41.35564046989999
 30
0.0
 11
113.2999840789
 21
42.4346629574
 31
0.0
  0
LINE
  5
2D6
330
245
100
AcDbEntity
  8
0
  6
Continuous
 62
     7
100
AcDbLine
 10
118.4604868465
 20
47.59516572489999
 30
0.0
 11
119.4878247429
 21
48.6225036214
 31
0.0
  0
LINE
  5
2D7
330
245
100
AcDbEntity
  8
0
  6
Continuous
 62
     7
100
AcDbLine
 10
125.6518379821
 20
54.7865168606
 30
0.0
 11
127.1928417969
 21
56.3275206753
 31
0.0
  0
LINE
  5
2D8
330
245
100
AcDbEntity
  8
0
  6
Continuous
 62
     7
100
AcDbLine
 10
112.1305145375
 20
41.8685912026
 30
0.0
 11
113.209537025
 21
42.94761369009999
 31
0.0
  0
LINE
  5
2D9
330
245
100
AcDbEntity
  8
0
  6
Continuous
 62
     7
100
AcDbLine
 10
117.72791728
 20
47.4659939451
 30
0.0
 11
118.7552549669
 21
48.493331632
 31
0.0
  0
LINE
  5
2DA
330
245
100
AcDbEntity
  8
0
  6
Continuous
 62
     7
100
AcDbLine
 10
124.9192684157
 20
54.6573450808
 30
0.0
 11
126.4602722304
 21
56.1983488955
 31
0.0
  0
LINE
  5
2DB
330
245
100
AcDbEntity
  8
0
  6
Continuous
 62
     7
100
AcDbLine
 10
112.0400674835
 20
42.38154193519999
 30
0.0
 11
113.119089971
 21
43.4605644228
 31
0.0
  0
LINE
  5
2DC
330
245
100
AcDbEntity
  8
0
  6
Continuous
 62
     7
100
AcDbLine
 10
116.9953477136
 20
47.3368221653
 30
0.0
 11
118.0226851908
 21
48.3641596425
 31
0.0
  0
LINE
  5
2DD
330
245
100
AcDbEntity
  8
0
  6
Continuous
 62
     7
100
AcDbLine
 10
124.1866988492
 20
54.528173301
 30
0.0
 11
125.727702664
 21
56.06917711569999
 31
0.0
  0
LINE
  5
2DE
330
245
100
AcDbEntity
  8
0
  6
Continuous
 62
     7
100
AcDbLine
 10
111.9496204296
 20
42.8944926679
 30
0.0
 11
113.0286429171
 21
43.9735151554
 31
0.0
  0
LINE
  5
2DF
330
245
100
AcDbEntity
  8
0
  6
Continuous
 62
     7
100
AcDbLine
 10
116.2627781472
 20
47.2076503855
 30
0.0
 11
117.2901154148
 21
48.2349876531
 31
0.0
  0
LINE
  5
2E0
330
245
100
AcDbEntity
  8
0
  6
Continuous
 62
     7
100
AcDbLine
 10
123.4541292828
 20
54.39900152109999
 30
0.0
 11
124.9951330976
 21
55.9400053359
 31
0.0
  0
LINE
  5
2E1
330
245
100
AcDbEntity
  8
0
  6
Continuous
 62
     7
100
AcDbLine
 10
111.8591733756
 20
43.4074434006
 30
0.0
 11
112.9381958632
 21
44.4864658881
 31
0.0
  0
LINE
  5
2E2
330
245
100
AcDbEntity
  8
0
  6
Continuous
 62
     7
100
AcDbLine
 10
115.5302085808
 20
47.0784786057
 30
0.0
 11
116.5575456388
 21
48.1058156637
 31
0.0
  0
LINE
  5
2E3
330
245
100
AcDbEntity
  8
0
  6
Continuous
 62
     7
100
AcDbLine
 10
122.7215597164
 20
54.2698297413
 30
0.0
 11
124.2625635312
 21
55.81083355609999
 31
0.0
  0
LINE
  5
2E4
330
245
100
AcDbEntity
  8
0
  6
Continuous
 62
     7
100
AcDbLine
 10
111.7687263217
 20
43.9203941332
 30
0.0
 11
112.8477488092
 21
44.9994166208
 31
0.0
  0
LINE
  5
2E5
330
245
100
AcDbEntity
  8
0
  6
Continuous
 62
     7
100
AcDbLine
 10
114.7976390144
 20
46.9493068259
 30
0.0
 11
115.8249758628
 21
47.9766436743
 31
0.0
  0
LINE
  5
2E6
330
245
100
AcDbEntity
  8
0
  6
Continuous
 62
     7
100
AcDbLine
 10
121.98899015
 20
54.1406579615
 30
0.0
 11
123.5299939648
 21
55.68166177630001
 31
0.0
  0
LINE
  5
2E7
330
245
100
AcDbEntity
  8
0
  6
Continuous
 62
     7
100
AcDbLine
 10
111.6782792678
 20
44.4333448659
 30
0.0
 11
112.7573017553
 21
45.5123673534
 31
0.0
  0
LINE
  5
2E8
330
245
100
AcDbEntity
  8
0
  6
Continuous
 62
     7
100
AcDbLine
 10
114.065069448
 20
46.8201350461
 30
0.0
 11
115.0924060867
 21
47.8474716849
 31
0.0
  0
LINE
  5
2E9
330
245
100
AcDbEntity
  8
0
  6
Continuous
 62
     7
100
AcDbLine
 10
121.2564205836
 20
54.0114861817
 30
0.0
 11
122.7974243984
 21
55.55248999649999
 31
0.0
  0
LINE
  5
2EA
330
245
100
AcDbEntity
  8
0
  6
Continuous
 62
     7
100
AcDbLine
 10
111.5878322138
 20
44.94629559859999
 30
0.0
 11
112.6668547013
 21
46.02531808609999
 31
0.0
  0
LINE
  5
2EB
330
245
100
AcDbEntity
  8
0
  6
Continuous
 62
     7
100
AcDbLine
 10
113.3324998815
 20
46.6909632663
 30
0.0
 11
114.3598363107
 21
47.7182996955
 31
0.0
  0
LINE
  5
2EC
330
245
100
AcDbEntity
  8
0
  6
Continuous
 62
     7
100
AcDbLine
 10
120.5238510172
 20
53.8823144019
 30
0.0
 11
122.0648548319
 21
55.4233182167
 31
0.0
  0
LINE
  5
2ED
330
245
100
AcDbEntity
  8
0
  6
Continuous
 62
     7
100
AcDbLine
 10
111.4973851599
 20
45.4592463312
 30
0.0
 11
112.5764076474
 21
46.53826881879999
 31
0.0
  0
LINE
  5
2EE
330
245
100
AcDbEntity
  8
0
  6
Continuous
 62
     7
100
AcDbLine
 10
112.5999303151
 20
46.56179148649999
 30
0.0
 11
113.6272665347
 21
47.58912770600001
 31
0.0
  0
LINE
  5
2EF
330
245
100
AcDbEntity
  8
0
  6
Continuous
 62
     7
100
AcDbLine
 10
119.7912814507
 20
53.7531426221
 30
0.0
 11
121.3322852655
 21
55.2941464369
 31
0.0
  0
LINE
  5
2F0
330
245
100
AcDbEntity
  8
0
  6
Continuous
 62
     7
100
AcDbLine
 10
111.4069381059
 20
45.9721970639
 30
0.0
 11
112.8946967586
 21
47.45995571659999
 31
0.0
  0
LINE
  5
2F1
330
245
100
AcDbEntity
  8
0
  6
Continuous
 62
     7
100
AcDbLine
 10
119.0587118843
 20
53.6239708423
 30
0.0
 11
120.5997156991
 21
55.1649746571
 31
0.0
  0
LINE
  5
2F2
330
245
100
AcDbEntity
  8
0
  6
Continuous
 62
     7
100
AcDbLine
 10
111.316491052
 20
46.4851477966
 30
0.0
 11
112.3955135395
 21
47.5641702841
 31
0.0
  0
LINE
  5
2F3
330
245
100
AcDbEntity
  8
0
  6
Continuous
 62
     7
100
AcDbLine
 10
118.3261423179
 20
53.4947990625
 30
0.0
 11
119.8671461327
 21
55.03580287729999
 31
0.0
  0
LINE
  5
2F4
330
245
100
AcDbEntity
  8
0
  6
Continuous
 62
     7
100
AcDbLine
 10
111.226043998
 20
46.9980985293
 30
0.0
 11
112.3050664856
 21
48.07712101679999
 31
0.0
  0
LINE
  5
2F5
330
245
100
AcDbEntity
  8
0
  6
Continuous
 62
     7
100
AcDbLine
 10
117.5935727515
 20
53.3656272827
 30
0.0
 11
119.1345765663
 21
54.90663109749999
 31
0.0
  0
LINE
  5
2F6
330
245
100
AcDbEntity
  8
0
  6
Continuous
 62
     7
100
AcDbLine
 10
111.1355969441
 20
47.5110492619
 30
0.0
 11
112.2146194316
 21
48.5900717494
 31
0.0
  0
LINE
  5
2F7
330
245
100
AcDbEntity
  8
0
  6
Continuous
 62
     7
100
AcDbLine
 10
116.8610031851
 20
53.2364555029
 30
0.0
 11
118.4020069998
 21
54.77745931770001
 31
0.0
  0
LINE
  5
2F8
330
245
100
AcDbEntity
  8
0
  6
Continuous
 62
     7
100
AcDbLine
 10
111.0451498902
 20
48.0239999946
 30
0.0
 11
112.1241723777
 21
49.1030224821
 31
0.0
  0
LINE
  5
2F9
330
245
100
AcDbEntity
  8
0
  6
Continuous
 62
     7
100
AcDbLine
 10
116.1284336187
 20
53.1072837231
 30
0.0
 11
117.6694374334
 21
54.64828753789999
 31
0.0
  0
LINE
  5
2FA
330
245
100
AcDbEntity
  8
0
  6
Continuous
 62
     7
100
AcDbLine
 10
110.9547028362
 20
48.53695072729999
 30
0.0
 11
112.0337253237
 21
49.61597321479999
 31
0.0
  0
LINE
  5
2FB
330
245
100
AcDbEntity
  8
0
  6
Continuous
 62
     7
100
AcDbLine
 10
115.3958640522
 20
52.9781119433
 30
0.0
 11
116.936867867
 21
54.51911575810001
 31
0.0
  0
LINE
  5
2FC
330
245
100
AcDbEntity
  8
0
  6
Continuous
 62
     7
100
AcDbLine
 10
110.8642557823
 20
49.0499014599
 30
0.0
 11
111.9432782698
 21
50.12892394739999
 31
0.0
  0
LINE
  5
2FD
330
245
100
AcDbEntity
  8
0
  6
Continuous
 62
     7
100
AcDbLine
 10
114.6632944858
 20
52.8489401635
 30
0.0
 11
116.2042983006
 21
54.3899439783
 31
0.0
  0
LINE
  5
2FE
330
245
100
AcDbEntity
  8
0
  6
Continuous
 62
     7
100
AcDbLine
 10
110.7738087283
 20
49.5628521926
 30
0.0
 11
111.8528312158
 21
50.6418746801
 31
0.0
  0
LINE
  5
2FF
330
245
100
AcDbEntity
  8
0
  6
Continuous
 62
     7
100
AcDbLine
 10
113.9307249194
 20
52.7197683837
 30
0.0
 11
115.4717287342
 21
54.2607721985
 31
0.0
  0
LINE
  5
300
330
245
100
AcDbEntity
  8
0
  6
Continuous
 62
     7
100
AcDbLine
 10
110.6833616744
 20
50.0758029253
 30
0.0
 11
111.7623841619
 21
51.15482541279999
 31
0.0
  0
LINE
  5
301
330
245
100
AcDbEntity
  8
0
  6
Continuous
 62
     7
100
AcDbLine
 10
113.198155353
 20
52.59059660390001
 30
0.0
 11
114.7391591678
 21
54.13160041859999
 31
0.0
  0
LINE
  5
302
330
245
100
AcDbEntity
  8
0
  6
Continuous
 62
     7
100
AcDbLine
 10
110.5929146204
 20
50.5887536579
 30
0.0
 11
111.6719371079
 21
51.66777614549999
 31
0.0
  0
LINE
  5
303
330
245
100
AcDbEntity
  8
0
  6
Continuous
 62
     7
100
AcDbLine
 10
112.4655857866
 20
52.4614248241
 30
0.0
 11
114.0065896013
 21
54.00242863879999
 31
0.0
  0
LINE
  5
304
330
245
100
AcDbEntity
  8
0
  6
Continuous
 62
     7
100
AcDbLine
 10
110.5024675665
 20
51.1017043906
 30
0.0
 11
111.581490054
 21
52.1807268781
 31
0.0
  0
LINE
  5
305
330
245
100
AcDbEntity
  8
0
  6
Continuous
 62
     7
100
AcDbLine
 10
111.7330162201
 20
52.3322530443
 30
0.0
 11
113.2740200349
 21
53.87325685899999
 31
0.0
  0
LINE
  5
306
330
245
100
AcDbEntity
  8
0
  6
Continuous
 62
     7
100
AcDbLine
 10
110.4120205125
 20
51.6146551233
 30
0.0
 11
112.5414504685
 21
53.7440850792
 31
0.0
  0
LINE
  5
307
330
245
100
AcDbEntity
  8
0
  6
Continuous
 62
     7
100
AcDbLine
 10
110.3215734586
 20
52.1276058559
 30
0.0
 11
111.8088809021
 21
53.61491329939999
 31
0.0
  0
LINE
  5
308
330
245
100
AcDbEntity
  8
0
  6
Continuous
 62
     7
100
AcDbLine
 10
110.2311264047
 20
52.6405565886
 30
0.0
 11
111.0763113357
 21
53.4857415196
 31
0.0
  0
LINE
  5
309
330
245
100
AcDbEntity
  8
0
  6
Continuous
 62
     7
100
AcDbLine
 10
110.1406793507
 20
53.1535073213
 30
0.0
 11
110.3437417693
 21
53.35656973979999
 31
0.0
  0
ENDBLK
  5
30A
330
245
100
AcDbEntity
  8
0
  6
ByBlock
 62
     0
100
AcDbBlockEnd
  0
BLOCK
  5
30B
330
246
100
AcDbEntity
  8
0
  6
Continuous
 62
     7
100
AcDbBlockBegin
  2
SYMBOL_0_BL0
 70
     0
 10
160.6664912223
 20
55.3345526721
 30
0.0
  3
SYMBOL_0_BL0
  1

  0
TEXT
  5
30C
330
246
100
AcDbEntity
  8
0
  6
Continuous
 62
     7
100
AcDbText
 10
144.4187061461
 20
63.10798606319999
 30
0.0
 40
0.5
  1
Infomations Techniques/Technical Infomations
  7
TEXTSTYLE_2
100
AcDbText
  0
TEXT
  5
30D
330
246
100
AcDbEntity
  8
0
  6
Continuous
 62
     7
100
AcDbText
 10
144.6664912222999
 20
61.6678860054
 30
0.0
 40
0.6666666667
  1
NOMBRE DE JETS:     
  7
TEXTSTYLE_2
100
AcDbText
  0
TEXT
  5
30E
330
246
100
AcDbEntity
  8
0
  6
Continuous
 62
     7
100
AcDbText
 10
154.5109356667
 20
61.6678860054
 30
0.0
 40
0.6666666667
  1
44
  7
TEXTSTYLE_2
100
AcDbText
  0
TEXT
  5
30F
330
246
100
AcDbEntity
  8
0
  6
Continuous
 62
     7
100
AcDbText
 10
144.6664912222999
 20
60.6678860054
 30
0.0
 40
0.6666666667
  1
 
  7
TEXTSTYLE_2
100
AcDbText
  0
TEXT
  5
310
330
246
100
AcDbEntity
  8
0
  6
Continuous
 62
     7
100
AcDbText
 10
144.6664912222999
 20
59.6678860054
 30
0.0
 40
0.6666666667
  1
NIVEAU D'EAU              GALLONS(US)        LITRES        GALLONS(UK)
  7
TEXTSTYLE_2
100
AcDbText
  0
TEXT
  5
311
330
246
100
AcDbEntity
  8
0
  6
Continuous
 62
     7
100
AcDbText
 10
144.6664912222999
 20
58.6678860054
 30
0.0
 40
0.6666666667
  1
PLEIN
  7
TEXTSTYLE_2
100
AcDbText
  0
TEXT
  5
312
330
246
100
AcDbEntity
  8
0
  6
Continuous
 62
     7
100
AcDbText
 10
144.6664912222999
 20
57.66788600539999
 30
0.0
 40
0.6666666667
  1
HAUT T.PLEIN
  7
TEXTSTYLE_2
100
AcDbText
  0
TEXT
  5
313
330
246
100
AcDbEntity
  8
0
  6
Continuous
 62
     7
100
AcDbText
 10
144.6664912222999
 20
56.6678860054
 30
0.0
 40
0.6666666667
  1
MILIEU T.PLEIN
  7
TEXTSTYLE_2
100
AcDbText
  0
TEXT
  5
314
330
246
100
AcDbEntity
  8
0
  6
Continuous
 62
     7
100
AcDbText
 10
144.6664912222999
 20
55.6678860054
 30
0.0
 40
0.6666666667
  1
BAS T.PLEIN
  7
TEXTSTYLE_2
100
AcDbText
  0
TEXT
  5
315
330
246
100
AcDbEntity
  8
0
  6
Continuous
 62
     7
100
AcDbText
 10
144.6664912222999
 20
54.6678860054
 30
0.0
 40
0.6666666667
  1
3" EN BAS T.PLEIN
  7
TEXTSTYLE_2
100
AcDbText
  0
TEXT
  5
316
330
246
100
AcDbEntity
  8
0
  6
Continuous
 62
     7
100
AcDbText
 10
144.6664912222999
 20
53.6678860054
 30
0.0
 40
0.6666666667
  1
 
  7
TEXTSTYLE_2
100
AcDbText
  0
TEXT
  5
317
330
246
100
AcDbEntity
  8
0
  6
Continuous
 62
     7
100
AcDbText
 10
144.4663297167
 20
53.1210990806
 30
0.0
 40
0.5
  1
Legende/Legend
  7
TEXTSTYLE_2
100
AcDbText
  0
TEXT
  5
318
330
246
100
AcDbEntity
  8
0
  6
Continuous
 62
     7
100
AcDbText
 10
150.9951646608
 20
51.6098341029
 30
0.0
 40
0.6666666667
  1
ZONE DE ROBINETTERIE
  7
TEXTSTYLE_2
100
AcDbText
  0
TEXT
  5
319
330
246
100
AcDbEntity
  8
0
  6
Continuous
 62
     7
100
AcDbText
 10
145.9154400938
 20
50.1145895885
 30
0.0
 40
0.6666666667
  1
L   :  SYSTEME LED       DC   :  DOUBLE DOSSIER CHAUFFANT
  7
TEXTSTYLE_2
100
AcDbText
  0
TEXT
  5
31A
330
246
100
AcDbEntity
  8
0
  6
Continuous
 62
     7
100
AcDbText
 10
145.9154400938
 20
48.7812562551
 30
0.0
 40
0.6666666667
  1
C   :  CONTROLE
  7
TEXTSTYLE_2
100
AcDbText
  0
TEXT
  5
31B
330
246
100
AcDbEntity
  8
0
  6
Continuous
 62
     7
100
AcDbText
 10
145.9154400938
 20
47.4479229218
 30
0.0
 40
0.6666666667
  1
T   :  MOTEUR
  7
TEXTSTYLE_2
100
AcDbText
  0
TEXT
  5
31C
330
246
100
AcDbEntity
  8
0
  6
Continuous
 62
     7
100
AcDbText
 10
157.4991879216
 20
58.6678860054
 30
0.0
 40
0.6666666667
  1
91
  7
TEXTSTYLE_2
100
AcDbText
  0
TEXT
  5
31D
330
246
100
AcDbEntity
  8
0
  6
Continuous
 62
     7
100
AcDbText
 10
157.4991879216
 20
57.66788600539999
 30
0.0
 40
0.6666666667
  1
71
  7
TEXTSTYLE_2
100
AcDbText
  0
TEXT
  5
31E
330
246
100
AcDbEntity
  8
0
  6
Continuous
 62
     7
100
AcDbText
 10
157.4991879216
 20
56.6678860054
 30
0.0
 40
0.6666666667
  1
70
  7
TEXTSTYLE_2
100
AcDbText
  0
TEXT
  5
31F
330
246
100
AcDbEntity
  8
0
  6
Continuous
 62
     7
100
AcDbText
 10
157.4991879216
 20
55.6678860054
 30
0.0
 40
0.6666666667
  1
69
  7
TEXTSTYLE_2
100
AcDbText
  0
TEXT
  5
320
330
246
100
AcDbEntity
  8
0
  6
Continuous
 62
     7
100
AcDbText
 10
157.4991879216
 20
54.6678860054
 30
0.0
 40
0.6666666667
  1
53
  7
TEXTSTYLE_2
100
AcDbText
  0
TEXT
  5
321
330
246
100
AcDbEntity
  8
0
  6
Continuous
 62
     7
100
AcDbText
 10
164.4193938653
 20
58.6849654075
 30
0.0
 40
0.6666666667
  1
346
  7
TEXTSTYLE_2
100
AcDbText
  0
TEXT
  5
322
330
246
100
AcDbEntity
  8
0
  6
Continuous
 62
     7
100
AcDbText
 10
164.4193938653
 20
57.6849654075
 30
0.0
 40
0.6666666667
  1
269
  7
TEXTSTYLE_2
100
AcDbText
  0
TEXT
  5
323
330
246
100
AcDbEntity
  8
0
  6
Continuous
 62
     7
100
AcDbText
 10
164.4193938653
 20
56.6849654075
 30
0.0
 40
0.6666666667
  1
265
  7
TEXTSTYLE_2
100
AcDbText
  0
TEXT
  5
324
330
246
100
AcDbEntity
  8
0
  6
Continuous
 62
     7
100
AcDbText
 10
164.4193938653
 20
55.6849654075
 30
0.0
 40
0.6666666667
  1
261
  7
TEXTSTYLE_2
100
AcDbText
  0
TEXT
  5
325
330
246
100
AcDbEntity
  8
0
  6
Continuous
 62
     7
100
AcDbText
 10
164.4193938653
 20
54.6849654075
 30
0.0
 40
0.6666666667
  1
200
  7
TEXTSTYLE_2
100
AcDbText
  0
TEXT
  5
326
330
246
100
AcDbEntity
  8
0
  6
Continuous
 62
     7
100
AcDbText
 10
171.3640328028
 20
58.6678860054
 30
0.0
 40
0.6666666667
  1
76
  7
TEXTSTYLE_2
100
AcDbText
  0
TEXT
  5
327
330
246
100
AcDbEntity
  8
0
  6
Continuous
 62
     7
100
AcDbText
 10
171.3640328028
 20
57.66788600539999
 30
0.0
 40
0.6666666667
  1
59
  7
TEXTSTYLE_2
100
AcDbText
  0
TEXT
  5
328
330
246
100
AcDbEntity
  8
0
  6
Continuous
 62
     7
100
AcDbText
 10
171.3640328028
 20
56.6678860054
 30
0.0
 40
0.6666666667
  1
58
  7
TEXTSTYLE_2
100
AcDbText
  0
TEXT
  5
329
330
246
100
AcDbEntity
  8
0
  6
Continuous
 62
     7
100
AcDbText
 10
171.3640328028
 20
55.6678860054
 30
0.0
 40
0.6666666667
  1
57
  7
TEXTSTYLE_2
100
AcDbText
  0
TEXT
  5
32A
330
246
100
AcDbEntity
  8
0
  6
Continuous
 62
     7
100
AcDbText
 10
171.3640328028
 20
54.6678860054
 30
0.0
 40
0.6666666667
  1
44
  7
TEXTSTYLE_2
100
AcDbText
  0
LINE
  5
32B
330
246
100
AcDbEntity
  8
0
  6
Continuous
 62
     7
100
AcDbLine
 10
143.9998245556
 20
64.0012193387
 30
0.0
 11
143.9998245556
 21
46.6678860054
 31
0.0
  0
LINE
  5
32C
330
246
100
AcDbEntity
  8
0
  6
Continuous
 62
     7
100
AcDbLine
 10
143.9998245556
 20
64.0012193387
 30
0.0
 11
177.333157889
 21
64.0012193387
 31
0.0
  0
LINE
  5
32D
330
246
100
AcDbEntity
  8
0
  6
Continuous
 62
     7
100
AcDbLine
 10
177.333157889
 20
64.0012193387
 30
0.0
 11
177.333157889
 21
46.6678860054
 31
0.0
  0
LINE
  5
32E
330
246
100
AcDbEntity
  8
0
  6
Continuous
 62
     7
100
AcDbLine
 10
143.9998245556
 20
46.6678860054
 30
0.0
 11
177.333157889
 21
46.6678860054
 31
0.0
  0
LINE
  5
32F
330
246
100
AcDbEntity
  8
0
  6
Continuous
 62
     7
100
AcDbLine
 10
145.333157889
 20
54.0012193387
 30
0.0
 11
175.9998245556
 21
54.0012193387
 31
0.0
  0
LINE
  5
330
330
246
100
AcDbEntity
  8
0
  6
Continuous
 62
     7
100
AcDbLine
 10
145.333157889
 20
61.00121933869999
 30
0.0
 11
175.9998245556
 21
61.00121933869999
 31
0.0
  0
LINE
  5
331
330
246
100
AcDbEntity
  8
0
  6
Continuous
 62
     7
100
AcDbLine
 10
144.8087311149
 20
52.3793838431
 30
0.0
 11
144.4397103726
 21
52.0103631008
 31
0.0
  0
LINE
  5
332
330
246
100
AcDbEntity
  8
0
  6
Continuous
 62
     7
100
AcDbLine
 10
145.4753977816
 20
52.3793838431
 30
0.0
 11
144.6773819911
 21
51.5813680526
 31
0.0
  0
LINE
  5
333
330
246
100
AcDbEntity
  8
0
  6
Continuous
 62
     7
100
AcDbLine
 10
146.1420644482
 20
52.3793838431
 30
0.0
 11
145.3440486578
 21
51.5813680526
 31
0.0
  0
LINE
  5
334
330
246
100
AcDbEntity
  8
0
  6
Continuous
 62
     7
100
AcDbLine
 10
146.8087311149
 20
52.3793838431
 30
0.0
 11
146.0107153245
 21
51.5813680526
 31
0.0
  0
LINE
  5
335
330
246
100
AcDbEntity
  8
0
  6
Continuous
 62
     7
100
AcDbLine
 10
147.4753977816
 20
52.3793838431
 30
0.0
 11
146.6773819911
 21
51.5813680526
 31
0.0
  0
LINE
  5
336
330
246
100
AcDbEntity
  8
0
  6
Continuous
 62
     7
100
AcDbLine
 10
148.1420644482
 20
52.3793838431
 30
0.0
 11
147.3440486578
 21
51.5813680526
 31
0.0
  0
LINE
  5
337
330
246
100
AcDbEntity
  8
0
  6
Continuous
 62
     7
100
AcDbLine
 10
148.8087311149
 20
52.3793838431
 30
0.0
 11
148.0107153245
 21
51.5813680526
 31
0.0
  0
LINE
  5
338
330
246
100
AcDbEntity
  8
0
  6
Continuous
 62
     7
100
AcDbLine
 10
149.4753977816
 20
52.3793838431
 30
0.0
 11
148.6773819911
 21
51.5813680526
 31
0.0
  0
LINE
  5
339
330
246
100
AcDbEntity
  8
0
  6
Continuous
 62
     7
100
AcDbLine
 10
150.1420644482
 20
52.3793838431
 30
0.0
 11
149.3440486578
 21
51.5813680526
 31
0.0
  0
LINE
  5
33A
330
246
100
AcDbEntity
  8
0
  6
Continuous
 62
     7
100
AcDbLine
 10
150.5855518824
 20
52.15620461060001
 30
0.0
 11
150.0107153245
 21
51.5813680526
 31
0.0
  0
ELLIPSE
  5
33B
330
246
100
AcDbEntity
  8
0
  6
Continuous
 62
     7
100
AcDbEllipse
 10
146.1452270378
 20
50.43216704569999
 30
0.0
 11
1.0473539356
 21
0.0
 31
0.0
210
0.0
220
0.0
230
1.0
 40
0.4938647983
 41
0.0
 42
6.283185307179586
  0
ELLIPSE
  5
33C
330
246
100
AcDbEntity
  8
0
  6
Continuous
 62
     7
100
AcDbEllipse
 10
146.1452270378
 20
49.09883371229999
 30
0.0
 11
1.0473539356
 21
0.0
 31
0.0
210
0.0
220
0.0
230
1.0
 40
0.4938647983
 41
0.0
 42
6.283185307179586
  0
ELLIPSE
  5
33D
330
246
100
AcDbEntity
  8
0
  6
Continuous
 62
     7
100
AcDbEllipse
 10
146.1452270378
 20
47.76550037899999
 30
0.0
 11
1.0473539356
 21
0.0
 31
0.0
210
0.0
220
0.0
230
1.0
 40
0.4938647983
 41
0.0
 42
6.283185307179586
  0
ELLIPSE
  5
33E
330
246
100
AcDbEntity
  8
0
  6
Continuous
 62
     7
100
AcDbEllipse
 10
157.1638626189
 20
50.45168840270001
 30
0.0
 11
1.0473539356
 21
0.0
 31
0.0
210
0.0
220
0.0
230
1.0
 40
0.4938647983
 41
0.0
 42
6.283185307179586
  0
ENDBLK
  5
33F
330
246
100
AcDbEntity
  8
0
  6
ByBlock
 62
     0
100
AcDbBlockEnd
  0
ENDSEC
  0
SECTION
  2
ENTITIES
  0
LWPOLYLINE
  5
4FF
330
22B
100
AcDbEntity
  8
DEFAULT_2
  6
HIDDEN
 62
     7
100
AcDbPolyline
 90
       55
 70
     0
 43
0.0
 10
116.8389046767
 20
25.4974731416
 10
116.8877388137
 20
25.5016793249
 10
116.936402488
 20
25.5070752069
 10
116.9849141088
 20
25.513662531
 10
117.0332798719
 20
25.5214410758
 10
117.0814571186
 20
25.5304027615
 10
117.129390977
 20
25.5405375437
 10
117.1770350987
 20
25.5518369215
 10
117.2243772291
 20
25.5642985694
 10
117.2714136376
 20
25.5779217054
 10
117.3181321999
 20
25.5927025504
 10
117.3644872187
 20
25.6086253358
 10
117.4104246031
 20
25.6256712956
 10
117.4558992033
 20
25.6438247486
 10
117.5009016327
 20
25.6630823515
 10
117.5454314457
 20
25.6834438456
 10
117.5894798736
 20
25.7049047466
 10
117.6330048562
 20
25.7274436687
 10
117.6759560103
 20
25.7510350008
 10
117.7182904475
 20
25.7756566995
 10
117.7599952586
 20
25.8013009939
 10
117.8010650288
 20
25.8279636812
 10
117.8414891319
 20
25.8556370795
 10
117.8812360952
 20
25.8842995906
 10
117.9202692343
 20
25.9139261372
 10
117.9585550253
 20
25.9444930693
 10
117.9960725879
 20
25.9759824456
 10
118.0328042021
 20
26.0083777518
 10
118.0687320636
 20
26.0416625672
 10
118.1038380296
 20
26.0758208439
 10
118.1381038731
 20
26.1108366273
 10
118.1715096279
 20
26.1466909608
 10
118.2040283726
 20
26.1833528797
 10
118.2356314471
 20
26.2207884173
 10
118.2662941769
 20
26.2589684414
 10
118.2960078311
 20
26.2978831579
 10
118.3247676643
 20
26.3375276075
 10
118.3525646268
 20
26.3778897318
 10
118.37937245
 20
26.4189290784
 10
118.4051605605
 20
26.4605980956
 10
118.4299034269
 20
26.5028570871
 10
118.4535956851
 20
26.5456977756
 10
118.476237013
 20
26.5891197389
 10
118.4978231194
 20
26.6331139682
 10
118.5183338376
 20
26.6776371095
 10
118.5377450322
 20
26.7226372224
 10
118.5560363954
 20
26.7680704156
 10
118.5732029296
 20
26.8139249944
 10
118.589243465
 20
26.8601973132
 10
118.6041544383
 20
26.9068754001
 10
118.6179227108
 20
26.9539139764
 10
118.6305327506
 20
27.001259437
 10
118.6419722111
 20
27.048870136
 10
118.6522414883
 20
27.096752264
 10
118.6613441639
 20
27.1449239709
  0
LWPOLYLINE
  5
501
330
22B
100
AcDbEntity
  8
DEFAULT_2
  6
HIDDEN
 62
     7
100
AcDbPolyline
 90
       10
 70
     0
 43
0.0
 10
110.3543171205
 20
25.20192128030001
 10
111.0745842143
 20
25.2166663238
 10
111.794893785
 20
25.2359304938
 10
112.5152301556
 20
25.2597143406
 10
113.2355880845
 20
25.2880189808
 10
113.9560040699
 20
25.3208477951
 10
114.6765250452
 20
25.3582047304
 10
115.3971874781
 20
25.4000933424
 10
116.1179859744
 20
25.4465156228
 10
116.8389046744
 20
25.4974731723
  0
LINE
  5
504
330
22B
100
AcDbEntity
  8
DEFAULT_2
  6
HIDDEN
 62
     7
100
AcDbLine
 10
107.0913276229
 20
24.6846778752
 30
0.0
 11
109.6342208417
 21
24.6846778752
 31
0.0
  0
LWPOLYLINE
  5
507
330
22B
100
AcDbEntity
  8
DEFAULT_2
  6
HIDDEN
 62
     7
100
AcDbPolyline
 90
       37
 70
     0
 43
0.0
 10
106.371231389
 20
25.2019211434
 10
106.3765854328
 20
25.2017713474
 10
106.3819219905
 20
25.2015079952
 10
106.3872421729
 20
25.2011312229
 10
106.3925470911
 20
25.2006411665
 10
106.3978378558
 20
25.2000379621
 10
106.4031155779
 20
25.199321746
 10
106.4083806303
 20
25.1984927156
 10
106.4136304345
 20
25.197551315
 10
106.4188616739
 20
25.1964980497
 10
106.424071032
 20
25.1953334254
 10
106.4292551921
 20
25.1940579474
 10
106.4344108377
 20
25.1926721215
 10
106.4395348567
 20
25.1911765098
 10
106.4446249544
 20
25.189571902
 10
106.4496790404
 20
25.1878591441
 10
106.4546950243
 20
25.1860390824
 10
106.4596708159
 20
25.1841125632
 10
106.4646043249
 20
25.1820804326
 10
106.4694934651
 20
25.1799435477
 10
106.4743361681
 20
25.177702809
 10
106.4791303695
 20
25.1753591277
 10
106.483874005
 20
25.1729134152
 10
106.4885650104
 20
25.1703665826
 10
106.4932013213
 20
25.1677195413
 10
106.4977807726
 20
25.1649733889
 10
106.5023007949
 20
25.1621299679
 10
106.506758718
 20
25.1591913073
 10
106.5111518718
 20
25.1561594359
 10
106.5154775859
 20
25.15303638280001
 10
106.5197331902
 20
25.1498241769
 10
106.523916571
 20
25.1465243591
 10
106.5280278402
 20
25.1431365195
 10
106.5320676664
 20
25.13965976
 10
106.5360367183
 20
25.1360931827
 10
106.5399356642
 20
25.1324358896
 10
106.5437651729
 20
25.1286869829
  0
LWPOLYLINE
  5
508
330
22B
100
AcDbEntity
  8
DEFAULT_2
  6
HIDDEN
 62
     7
100
AcDbPolyline
 90
       10
 70
     0
 43
0.0
 10
99.88664378220001
 20
25.4974731729
 10
100.6075624884
 20
25.4465156229
 10
101.3283609909
 20
25.4000933421
 10
102.04902343
 20
25.3582047298
 10
102.7695444115
 20
25.3208477943
 10
103.4899604031
 20
25.2880189798
 10
104.2103183381
 20
25.2597143395
 10
104.9306547149
 20
25.2359304927
 10
105.6509642915
 20
25.2166663229
 10
106.3712313913
 20
25.2019212795
  0
LINE
  5
56A
330
22B
100
AcDbEntity
  8
DEFAULT_2
  6
HIDDEN
 62
     7
100
AcDbLine
 10
121.8360626132
 20
43.03275959839999
 30
0.0
 11
122.990270255
 21
43.14096656479999
 31
0.0
  0
LINE
  5
600
330
22B
100
AcDbEntity
  8
DEFAULT_2
  6
HIDDEN
 62
     7
100
AcDbLine
 10
91.84566025290001
 20
43.1655400381
 30
0.0
 11
94.8704722985
 21
43.01677878999999
 31
0.0
  0
LINE
  5
64F
330
22B
100
AcDbEntity
  8
DEFAULT_2
  6
HIDDEN
 62
     7
100
AcDbLine
 10
120.796470031
 20
39.2538244832
 30
0.0
 11
120.7730808468
 21
39.2579486275
 31
0.0
  0
LINE
  5
650
330
22B
100
AcDbEntity
  8
DEFAULT_2
  6
HIDDEN
 62
     7
100
AcDbLine
 10
120.9484121864
 20
40.1155312671
 30
0.0
 11
120.9250230023
 21
40.11965541139999
 31
0.0
  0
LINE
  5
65E
330
22B
100
AcDbEntity
  8
DEFAULT_2
  6
HIDDEN
 62
     7
100
AcDbLine
 10
106.5437651487
 20
25.1286869587
 30
0.0
 11
106.9145509276
 21
24.7579011799
 31
0.0
  0
LINE
  5
6C2
330
22B
100
AcDbEntity
  8
DEFAULT_2
  6
HIDDEN
 62
     7
100
AcDbLine
 10
91.45652079719999
 20
42.8066786727
 30
0.0
 11
91.45652037290002
 21
42.80584018769999
 31
0.0
  0
LWPOLYLINE
  5
6C3
330
22B
100
AcDbEntity
  8
DEFAULT_2
  6
HIDDEN
 62
     7
100
AcDbPolyline
 90
        3
 70
     0
 43
0.0
 10
91.45652037290002
 20
42.80584018769999
 10
91.45651947999999
 20
42.80426658369999
 10
91.45651900950001
 20
42.8035330268
  0
LWPOLYLINE
  5
6C4
330
22B
100
AcDbEntity
  8
DEFAULT_2
  6
HIDDEN
 62
     7
100
AcDbPolyline
 90
        3
 70
     0
 43
0.0
 10
91.45651900950001
 20
42.8035330268
 10
91.45651800530002
 20
42.80216345889999
 10
91.4565174728
 20
42.8015247512
  0
LINE
  5
6C5
330
22B
100
AcDbEntity
  8
DEFAULT_2
  6
HIDDEN
 62
     7
100
AcDbLine
 10
91.4565174728
 20
42.8015247512
 30
0.0
 11
91.456516354
 21
42.8003343893
 31
0.0
  0
LWPOLYLINE
  5
6C6
330
22B
100
AcDbEntity
  8
DEFAULT_2
  6
HIDDEN
 62
     7
100
AcDbPolyline
 90
        3
 70
     0
 43
0.0
 10
91.456516354
 20
42.8003343893
 10
91.45651517700001
 20
42.7992490442
 10
91.45651457739999
 20
42.7987455585
  0
LINE
  5
6C7
330
22B
100
AcDbEntity
  8
DEFAULT_2
  6
HIDDEN
 62
     7
100
AcDbLine
 10
91.45651457739999
 20
42.7987455585
 30
0.0
 11
91.45651275559998
 21
42.79740199079999
 31
0.0
  0
LINE
  5
6C8
330
22B
100
AcDbEntity
  8
DEFAULT_2
  6
HIDDEN
 62
     7
100
AcDbLine
 10
91.45651275559998
 20
42.79740199079999
 30
0.0
 11
91.4565115124
 21
42.79663265009999
 31
0.0
  0
LINE
  5
6C9
330
22B
100
AcDbEntity
  8
DEFAULT_2
  6
HIDDEN
 62
     7
100
AcDbLine
 10
91.4565115124
 20
42.79663265009999
 30
0.0
 11
91.4565090265
 21
42.7953687134
 31
0.0
  0
LWPOLYLINE
  5
6CA
330
22B
100
AcDbEntity
  8
DEFAULT_2
  6
HIDDEN
 62
     7
100
AcDbPolyline
 90
        3
 70
     0
 43
0.0
 10
91.4565090265
 20
42.7953687134
 10
91.45650575469998
 20
42.7941545247
 10
91.45650541249999
 20
42.79404910199999
  0
LINE
  5
72B
330
22B
100
AcDbEntity
  8
DEFAULT_2
  6
HIDDEN
 62
     7
100
AcDbLine
 10
91.45650428389998
 20
42.7937673461
 30
0.0
 11
91.4565091192
 21
42.79443622099999
 31
0.0
  0
LINE
  5
72C
330
22B
100
AcDbEntity
  8
DEFAULT_2
  6
HIDDEN
 62
     7
100
AcDbLine
 10
91.4565091192
 20
42.79443622099999
 30
0.0
 11
91.45652558040001
 21
42.795933554
 31
0.0
  0
LINE
  5
72D
330
22B
100
AcDbEntity
  8
DEFAULT_2
  6
HIDDEN
 62
     7
100
AcDbLine
 10
91.45652558040001
 20
42.795933554
 30
0.0
 11
91.4565470868
 21
42.7973461965
 31
0.0
  0
LWPOLYLINE
  5
72E
330
22B
100
AcDbEntity
  8
DEFAULT_2
  6
HIDDEN
 62
     7
100
AcDbPolyline
 90
       71
 70
     0
 43
0.0
 10
91.4565470868
 20
42.7973461965
 10
91.45659249209998
 20
42.7995869416
 10
91.45663532769999
 20
42.80126188599999
 10
91.45670495719999
 20
42.8035177628
 10
91.45682039649999
 20
42.8065578128
 10
91.4570158144
 20
42.81066707959999
 10
91.45734749989999
 20
42.8161561698
 10
91.45787406290001
 20
42.8229952998
 10
91.4586278912
 20
42.8307882336
 10
91.45961893370001
 20
42.839141389
 10
91.46086147030001
 20
42.84788954569999
 10
91.46237564540001
 20
42.8569743165
 10
91.46417985559999
 20
42.8663474186
 10
91.466286709
 20
42.87594931570001
 10
91.46870073509999
 20
42.8857077695
 10
91.4714209075
 20
42.8955542993
 10
91.4744622865
 20
42.9054913232
 10
91.4778448396
 20
42.9155303302
 10
91.4815882769
 20
42.9256740147
 10
91.48571385370001
 20
42.9359231453
 10
91.4902444187
 20
42.946276599
 10
91.4952043194
 20
42.9567310212
 10
91.50062006049999
 20
42.9672819633
 10
91.50652041929999
 20
42.97792349859999
 10
91.51293596549999
 20
42.9886468744
 10
91.51637118229999
 20
42.99407321100001
 10
91.51989882669999
 20
42.9994399307
 10
91.52362302040002
 20
43.00489672859999
 10
91.52744277049999
 20
43.01028708119999
 10
91.53147265740001
 20
43.01576376329999
 10
91.5356011859
 20
43.0211664879
 10
91.53995049169999
 20
43.0266461922
 10
91.54440126969999
 20
43.03204381729999
 10
91.54908147459998
 20
43.03750578459999
 10
91.55386558469999
 20
43.04287699199999
 10
91.5588872734
 20
43.0482988926
 10
91.56401483729998
 20
43.0536207948
 10
91.5693876509
 20
43.05897884319999
 10
91.5748677818
 20
43.0642270979
 10
91.5806000104
 20
43.06949581149999
 10
91.5864403936
 20
43.074644397
 10
91.5925386418
 20
43.07979654479999
 10
91.5987451928
 20
43.08481772199999
 10
91.60521438159999
 20
43.0898246084
 10
91.61179125569999
 20
43.0946892049
 10
91.61863456479999
 20
43.0995208451
 10
91.62558410249999
 20
43.1041984326
 10
91.6328027798
 20
43.1088236133
 10
91.6401253154
 20
43.1132825775
 10
91.6477182074
 20
43.1176687858
 10
91.6554115918
 20
43.1218762765
 10
91.66337773770001
 20
43.1259912889
 10
91.6714400018
 20
43.1299146864
 10
91.6797839424
 20
43.13372838649999
 10
91.68821869469999
 20
43.1373368488
 10
91.696947601
 20
43.14081805599999
 10
91.70576101700001
 20
43.1440794611
 10
91.7148801163
 20
43.1471932399
 10
91.72407623199999
 20
43.150071705
 10
91.7335882507
 20
43.1527792613
 10
91.74316838850002
 20
43.1552350592
 10
91.75307302049999
 20
43.15749370129999
 10
91.76303522499999
 20
43.15948324189999
 10
91.77332845989999
 20
43.16124637069999
 10
91.78366685290001
 20
43.1627222154
 10
91.79434035899999
 20
43.16393937119999
 10
91.80504431500001
 20
43.1648503232
 10
91.8160843008
 20
43.1654673354
 10
91.82713801610001
 20
43.1657585918
 10
91.8385267899
 20
43.1657177156
 10
91.8499079871
 20
43.1653311332
  0
LWPOLYLINE
  5
78E
330
22B
100
AcDbEntity
  8
DEFAULT_2
  6
HIDDEN
 62
     7
100
AcDbPolyline
 90
       55
 70
     0
 43
0.0
 10
98.06420429280002
 20
27.1449240155
 10
98.07330696840001
 20
27.0967523088
 10
98.08357624560001
 20
27.0488701809
 10
98.09501570610001
 20
27.0012594819
 10
98.1076257459
 20
26.9539140213
 10
98.12139401839999
 20
26.9068754451
 10
98.1363049916
 20
26.8601973583
 10
98.1523455271
 20
26.8139250394
 10
98.1695120614
 20
26.7680704606
 10
98.1878034246
 20
26.7226372674
 10
98.20721461920001
 20
26.6776371545
 10
98.22772533750001
 20
26.6331140131
 10
98.249311444
 20
26.5891197836
 10
98.2719527719
 20
26.5456978203
 10
98.29564503030001
 20
26.5028571317
 10
98.3203878968
 20
26.4605981401
 10
98.34617600740001
 20
26.4189291227
 10
98.37298383069999
 20
26.377889776
 10
98.40078079340001
 20
26.3375276515
 10
98.4295406268
 20
26.2978832018
 10
98.4592542811
 20
26.2589684851
 10
98.48991701110001
 20
26.2207884609
 10
98.5215200858
 20
26.1833529231
 10
98.5540388307
 20
26.146691004
 10
98.58744458570001
 20
26.1108366703
 10
98.62171042940001
 20
26.0758208868
 10
98.65681639569999
 20
26.0416626099
 10
98.6927442574
 20
26.0083777944
 10
98.72947587190001
 20
25.9759824879
 10
98.7669934346
 20
25.9444931115
 10
98.80527922600002
 20
25.9139261793
 10
98.84431236520001
 20
25.8842996325
 10
98.88405932879999
 20
25.8556371213
 10
98.92448343219999
 20
25.8279637229
 10
98.9655532026
 20
25.80130103550001
 10
99.0072580138
 20
25.775656741
 10
99.04959245129999
 20
25.7510350423
 10
99.09254360570001
 20
25.7274437102
 10
99.13606858850002
 20
25.704904788
 10
99.18011701659999
 20
25.6834438869
 10
99.2246468297
 20
25.6630823928
 10
99.26964925930001
 20
25.6438247899
 10
99.31512385959999
 20
25.6256713369
 10
99.36106124410001
 20
25.6086253771
 10
99.40741626299999
 20
25.5927025917
 10
99.45413482540001
 20
25.5779217468
 10
99.501171234
 20
25.5642986108
 10
99.54851336459999
 20
25.5518369629
 10
99.59615748620002
 20
25.5405375851
 10
99.64409134440002
 20
25.5304028031
 10
99.6922685908
 20
25.5214411175
 10
99.7406343533
 20
25.5136625728
 10
99.7891459735
 20
25.5070752489
 10
99.83780964700002
 20
25.5016793669
 10
99.88664378300001
 20
25.4974731837
  0
LINE
  5
78F
330
22B
100
AcDbEntity
  8
DEFAULT_2
  6
HIDDEN
 62
     7
100
AcDbLine
 10
95.33831569540001
 20
42.6042064603
 30
0.0
 11
98.06420429280002
 21
27.1449240155
 31
0.0
  0
LINE
  5
93C
330
22B
100
AcDbEntity
  8
DEFAULT_2
  6
HIDDEN
 62
     7
100
AcDbLine
 10
120.8439310871
 20
40.0628742411
 30
0.0
 11
120.7162996766
 21
39.33904054260001
 31
0.0
  0
LINE
  5
93D
330
22B
100
AcDbEntity
  8
DEFAULT_2
  6
HIDDEN
 62
     7
100
AcDbLine
 10
118.6613441639
 20
27.1449239709
 30
0.0
 11
121.3903290911
 21
42.6217665742
 31
0.0
  0
LINE
  5
93E
330
22B
100
AcDbEntity
  8
DEFAULT_2
  6
HIDDEN
 62
     7
100
AcDbLine
 10
109.810997537
 20
24.7579011799
 30
0.0
 11
110.1817833519
 21
25.1286869948
 31
0.0
  0
LWPOLYLINE
  5
93F
330
22B
100
AcDbEntity
  8
DEFAULT_2
  6
HIDDEN
 62
     7
100
AcDbPolyline
 90
       37
 70
     0
 43
0.0
 10
110.1817833194
 20
25.1286870274
 10
110.1856128287
 20
25.1324359348
 10
110.1895117754
 20
25.1360932284
 10
110.1934808279
 20
25.1396598063
 10
110.1975206548
 20
25.1431365663
 10
110.2016319246
 20
25.1465244065
 10
110.205815306
 20
25.1498242248
 10
110.2100709109
 20
25.1530364312
 10
110.2143966257
 20
25.1561594847
 10
110.2187897801
 20
25.1591913565
 10
110.2232477038
 20
25.1621300175
 10
110.2277677267
 20
25.1649734388
 10
110.2323471786
 20
25.1677195916
 10
110.2369834901
 20
25.1703666332
 10
110.241674496
 20
25.1729134661
 10
110.2464181321
 20
25.1753591789
 10
110.251212334
 20
25.1777028604
 10
110.2560550375
 20
25.1799435994
 10
110.2609441783
 20
25.1820804845
 10
110.2658776878
 20
25.1841126153
 10
110.2708534799
 20
25.1860391348
 10
110.2758694644
 20
25.1878591966
 10
110.2809235509
 20
25.1895719547
 10
110.2860136491
 20
25.1911765627
 10
110.2911376686
 20
25.1926721745
 10
110.2962933147
 20
25.1940580006
 10
110.3014774753
 20
25.1953334786
 10
110.3066868337
 20
25.1964981031
 10
110.3119180736
 20
25.1975513685
 10
110.3171678782
 20
25.1984927691
 10
110.3224329311
 20
25.1993217996
 10
110.3277106535
 20
25.2000380158
 10
110.3330014186
 20
25.2006412202
 10
110.338306337
 20
25.2011312766
 10
110.3436265198
 20
25.201508049
 10
110.3489630778
 20
25.2017714012
 10
110.3543171219
 20
25.2019211972
  0
LWPOLYLINE
  5
15A3
330
22B
100
AcDbEntity
  8
0
  6
Continuous
 62
     7
100
AcDbPolyline
 90
       22
 70
     0
 43
0.0
 10
91.60883495520002
 20
42.9044752744
 10
91.6132962294
 20
42.912818555
 10
91.61820555790001
 20
42.9212089888
 10
91.62359296099999
 20
42.9296354545
 10
91.6294892009
 20
42.93808150199999
 10
91.6359142151
 20
42.9465111918
 10
91.64287742559999
 20
42.95487577
 10
91.65038431399999
 20
42.96312524939999
 10
91.6584363427
 20
42.97120896609999
 10
91.66703195489999
 20
42.9790769802
 10
91.67617261389999
 20
42.9866848941
 10
91.68585926450001
 20
42.9939890509
 10
91.6960898233
 20
43.00094428779999
 10
91.70685893519999
 20
43.0075040963
 10
91.7181577348
 20
43.0136208142
 10
91.72997361450001
 20
43.0192458455
 10
91.74229
 20
43.02432991069999
 10
91.75508613819999
 20
43.02882332689999
 10
91.76833691129999
 20
43.03267632199999
 10
91.78201264290001
 20
43.03583936959999
 10
91.79607893729999
 20
43.0382635607
 10
91.81049654620002
 20
43.0399010067
  0
LWPOLYLINE
  5
15A4
330
22B
100
AcDbEntity
  8
0
  6
Continuous
 62
     7
100
AcDbPolyline
 90
        5
 70
     0
 43
0.0
 10
91.4565241975
 20
42.9545157852
 10
91.45570217639999
 20
42.9530146425
 10
91.4391842156
 20
42.91202661769999
 10
91.4276024866
 20
42.8693789582
 10
91.42221192399999
 20
42.83629218899999
  0
LINE
  5
15A5
330
22B
100
AcDbEntity
  8
0
  6
Continuous
 62
     7
100
AcDbLine
 10
91.6994184458
 20
42.3135135565
 30
0.0
 11
92.1834263108
 21
42.89033166849999
 31
0.0
  0
LINE
  5
15A6
330
22B
100
AcDbEntity
  8
0
  6
Continuous
 62
     7
100
AcDbLine
 10
91.73894633899999
 20
42.2803457159
 30
0.0
 11
92.22295420409999
 21
42.8571638279
 31
0.0
  0
LINE
  5
15A7
330
22B
100
AcDbEntity
  8
0
  6
Continuous
 62
     7
100
AcDbLine
 10
91.4565242323
 20
23.1846778752
 30
0.0
 11
91.4565242323
 21
43.041635717
 31
0.0
  0
LINE
  5
15A8
330
22B
100
AcDbEntity
  8
0
  6
Continuous
 62
     7
100
AcDbLine
 10
91.58152423229999
 20
43.0416357169
 30
0.0
 11
91.58152423229999
 21
23.1846778752
 31
0.0
  0
LINE
  5
15A9
330
22B
100
AcDbEntity
  8
0
  6
Continuous
 62
     7
100
AcDbLine
 10
91.6752742323
 20
23.7471778752
 30
0.0
 11
91.6752742323
 21
42.2471778752
 31
0.0
  0
LINE
  5
15AA
330
22B
100
AcDbEntity
  8
0
  6
Continuous
 62
     7
100
AcDbLine
 10
91.7268742323
 20
23.7471778752
 30
0.0
 11
91.7268742323
 21
42.2471778752
 31
0.0
  0
LWPOLYLINE
  5
15AB
330
22B
100
AcDbEntity
  8
0
  6
Continuous
 62
     7
100
AcDbPolyline
 90
        9
 70
     0
 43
0.0
 10
91.4565242323
 20
43.041635717
 10
91.45760349459999
 20
43.0888735178
 10
91.4605320953
 20
43.1367303005
 10
91.46471254879999
 20
43.1844500334
 10
91.46945042290001
 20
43.23142548479999
 10
91.47405677469999
 20
43.2771086866
 10
91.47799130840001
 20
43.3214993442
 10
91.48087237010001
 20
43.3648943705
 10
91.48245005579999
 20
43.40764375569999
  0
LWPOLYLINE
  5
15AC
330
22B
100
AcDbEntity
  8
0
  6
Continuous
 62
     7
100
AcDbPolyline
 90
       14
 70
     0
 43
0.0
 10
91.58152150620001
 20
42.80820164949999
 10
91.5834264375
 20
42.8388902907
 10
91.5891113324
 20
42.86920586029999
 10
91.59848955540001
 20
42.898590452
 10
91.6114182197
 20
42.92659636599999
 10
91.62770034419999
 20
42.95279690850001
 10
91.6470878552
 20
42.9767928926
 10
91.66928536629999
 20
42.99821872009999
 10
91.69395467840001
 20
43.01674795159999
 10
91.72071993320001
 20
43.0320982802
 10
91.74917333939999
 20
43.0440358321
 10
91.77888138559998
 20
43.0523787303
 10
91.8093914455
 20
43.0569998645
 10
91.84023867219998
 20
43.05782882889999
  0
LWPOLYLINE
  5
15AD
330
22B
100
AcDbEntity
  8
0
  6
Continuous
 62
     7
100
AcDbPolyline
 90
        8
 70
     0
 43
0.0
 10
91.62241234680001
 20
43.40764375569999
 10
91.61954228419999
 20
43.3621077888
 10
91.6139541407
 20
43.3131926834
 10
91.6062573556
 20
43.2616994839
 10
91.5976636301
 20
43.20835273180001
 10
91.58964190729999
 20
43.1534709786
 10
91.5837672431
 20
43.0975947775
 10
91.58152423229999
 20
43.0416357169
  0
LINE
  5
15AE
330
22B
100
AcDbEntity
  8
0
  6
Continuous
 62
     7
100
AcDbLine
 10
91.5825282782
 20
42.81356621429999
 30
0.0
 11
91.58311681790001
 21
42.81927549639999
 31
0.0
  0
LINE
  5
15AF
330
22B
100
AcDbEntity
  8
0
  6
Continuous
 62
     7
100
AcDbLine
 10
91.5826630647
 20
42.81499383269999
 30
0.0
 11
91.58332690679999
 21
42.82105065869999
 31
0.0
  0
LWPOLYLINE
  5
15B0
330
22B
100
AcDbEntity
  8
0
  6
Continuous
 62
     7
100
AcDbPolyline
 90
        4
 70
     0
 43
0.0
 10
91.42221183709999
 20
42.8362921996
 10
91.41319281280001
 20
42.76004121649999
 10
91.40122327150001
 20
42.6601708206
 10
91.38838325440001
 20
42.55394236279999
  0
LWPOLYLINE
  5
15B1
330
22B
100
AcDbEntity
  8
0
  6
Continuous
 62
     7
100
AcDbPolyline
 90
       80
 70
     0
 43
0.0
 10
91.38838325440001
 20
42.55394236279999
 10
91.36046155509999
 20
42.32393245099999
 10
91.34553310940001
 20
42.2007688394
 10
91.32979071940001
 20
42.0703824314
 10
91.3128687612
 20
41.92941627739999
 10
91.29453261690001
 20
41.7754985675
 10
91.2749549693
 20
41.60958911869999
 10
91.25451369430001
 20
41.4344018512
 10
91.23358684200001
 20
41.25275059469999
 10
91.21248385969998
 20
41.0669821182
 10
91.1913218369
 20
40.87785135159999
 10
91.17012350080001
 20
40.68530138839999
 10
91.14890145830001
 20
40.489178442
 10
91.12765914239998
 20
40.28922806179999
 10
91.10639156280001
 20
40.08508847789999
 10
91.08508582290001
 20
39.8762798361
 10
91.06372150899998
 20
39.6621892169
 10
91.0422727349
 20
39.4420684921
 10
91.0207271514
 20
39.2152097994
 10
90.9989992332
 20
38.979986411
 10
90.97700442969999
 20
38.734531845
 10
90.95481297259999
 20
38.4784671987
 10
90.9326003253
 20
38.2125395111
 10
90.91053947229999
 20
37.9374758571
 10
90.88879748990001
 20
37.653941059
 10
90.86751805729999
 20
37.3622828363
 10
90.84678046950001
 20
37.0618310208
 10
90.82666845090001
 20
36.7516426866
 10
90.80729268309999
 20
36.430730437
 10
90.7887960873
 20
36.0980572618
 10
90.7713580493
 20
35.7524807575
 10
90.75520421719998
 20
35.3927468328
 10
90.74062213159999
 20
35.0175715894
 10
90.72801346620002
 20
34.6269979029
 10
90.7178915409
 20
34.2238989388
 10
90.71074253629999
 20
33.81149316760001
 10
90.70699994909999
 20
33.392990331
 10
90.70702285480001
 20
32.9716027893
 10
90.7108634779
 20
32.5506985083
 10
90.7182516111
 20
32.1337850026
 10
90.7288130703
 20
31.7243852313
 10
90.7420920308
 20
31.3260499604
 10
90.75756582430001
 20
30.9423125278
 10
90.77475443590001
 20
30.5747739984
 10
90.79332894590001
 20
30.2223681184
 10
90.81303094639999
 20
29.8838782073
 10
90.8336532294
 20
29.5581540564
 10
90.85502681920001
 20
29.2441644557
 10
90.8770162683
 20
28.9409422918
 10
90.89951440950001
 20
28.6475722286
 10
90.9224267325
 20
28.3633194703
 10
90.94563222399999
 20
28.0880086026
 10
90.96900496619999
 20
27.82164883570001
 10
90.99242114129998
 20
27.5643150144
 10
91.01575980339999
 20
27.3161230084
 10
91.03894074420001
 20
27.0768344214
 10
91.06193662649999
 20
26.8457784791
 10
91.0847278578
 20
26.6223309363
 10
91.10729104639998
 20
26.4060043388
 10
91.12962451979999
 20
26.1961851208
 10
91.1517438901
 20
25.9921755981
 10
91.17365823330001
 20
25.7934040601
 10
91.1953698783
 20
25.5994056815
 10
91.21687390309999
 20
25.4098094016
 10
91.23813195569999
 20
25.2245493081
 10
91.2590433925
 20
25.0440881968
 10
91.27947227559999
 20
24.8691615209
 10
91.29924985329999
 20
24.7007521363
 10
91.3181879615
 20
24.5399837145
 10
91.3362203137
 20
24.3869406863
 10
91.35336608729998
 20
24.2409841108
 10
91.36960453639998
 20
24.1017965294
 10
91.38500725670001
 20
23.9682081917
 10
91.3995527582
 20
23.83971701550001
 10
91.4131168405
 20
23.7165304335
 10
91.42556025360001
 20
23.598692147
 10
91.43672236139998
 20
23.4858177765
 10
91.4458530745
 20
23.382931557
 10
91.45309390520001
 20
23.2819877313
 10
91.4565242323
 20
23.1846778752
  0
LWPOLYLINE
  5
15B2
330
22B
100
AcDbEntity
  8
0
  6
Continuous
 62
     7
100
AcDbPolyline
 90
       11
 70
     0
 43
0.0
 10
91.58311681790001
 20
42.81927549639999
 10
91.5839571234
 20
42.82583398399999
 10
91.5850740417
 20
42.83297660729999
 10
91.58646488889999
 20
42.8404201033
 10
91.5881308232
 20
42.8480322387
 10
91.59008790540001
 20
42.8557922795
 10
91.59235251469999
 20
42.8636832821
 10
91.59494065670001
 20
42.87168790559999
 10
91.59786724959998
 20
42.8797864335
 10
91.6011457409
 20
42.8879566887
 10
91.6047935325
 20
42.8961865844
  0
LWPOLYLINE
  5
15B3
330
22B
100
AcDbEntity
  8
0
  6
Continuous
 62
     7
100
AcDbPolyline
 90
       29
 70
     0
 43
0.0
 10
91.58332690679999
 20
42.82105065869999
 10
91.5842627273
 20
42.82792814949999
 10
91.58549285040001
 20
42.8353533466
 10
91.58703503899999
 20
42.8431557644
 10
91.58892150540001
 20
42.8512947876
 10
91.59118180520001
 20
42.8597259869
 10
91.59384511889999
 20
42.86841085659999
 10
91.59693893729999
 20
42.8773103333
 10
91.6004884784
 20
42.8863836349
 10
91.6045160061
 20
42.8955875401
 10
91.6090463948
 20
42.9048883303
 10
91.6141214729
 20
42.9142824042
 10
91.61979035999999
 20
42.923765835
 10
91.62610670659999
 20
42.93332725309999
 10
91.6331202387
 20
42.9429361631
 10
91.6408504211
 20
42.95251636239999
 10
91.6493023375
 20
42.961981025
 10
91.65847225600002
 20
42.97124336439999
 10
91.6683504743
 20
42.9802204535
 10
91.67893682959999
 20
42.98884498689999
 10
91.69023189399998
 20
42.997052558
 10
91.7022311292
 20
43.0047761912
 10
91.71492441019999
 20
43.0119466476
 10
91.7282955567
 20
43.0184927989
 10
91.74232187639999
 20
43.0243420653
 10
91.7569737268
 20
43.0294209215
 10
91.77221411899999
 20
43.0336554759
 10
91.78799831920001
 20
43.0369721066
 10
91.80427350989999
 20
43.0392981788
  0
LINE
  5
15B4
330
22B
100
AcDbEntity
  8
0
  6
Continuous
 62
     7
100
AcDbLine
 10
92.2708319818
 20
42.93108960219999
 30
0.0
 11
92.2708319818
 21
42.87948960219999
 31
0.0
  0
LINE
  5
15B5
330
22B
100
AcDbEntity
  8
0
  6
Continuous
 62
     7
100
AcDbLine
 10
92.42527423229999
 20
23.7471778752
 30
0.0
 11
92.42527423229999
 21
42.2471778752
 31
0.0
  0
LINE
  5
15B6
330
22B
100
AcDbEntity
  8
0
  6
Continuous
 62
     7
100
AcDbLine
 10
92.842626278
 20
42.93108960219999
 30
0.0
 11
92.842626278
 21
42.87948960219999
 31
0.0
  0
LINE
  5
15B7
330
22B
100
AcDbEntity
  8
0
  6
Continuous
 62
     7
100
AcDbLine
 10
92.9167951376
 20
25.4455778752
 30
0.0
 11
92.9167951376
 21
25.3939778752
 31
0.0
  0
LINE
  5
15B8
330
22B
100
AcDbEntity
  8
0
  6
Continuous
 62
     7
100
AcDbLine
 10
92.9336601914
 20
25.4443245852
 30
0.0
 11
92.92603322579999
 21
25.3932913667
 31
0.0
  0
LINE
  5
15B9
330
22B
100
AcDbEntity
  8
0
  6
Continuous
 62
     7
100
AcDbLine
 10
92.8228031331
 20
24.7025626877
 30
0.0
 11
92.92603322579999
 21
25.3932913667
 31
0.0
  0
LINE
  5
15BA
330
22B
100
AcDbEntity
  8
0
  6
Continuous
 62
     7
100
AcDbLine
 10
91.58152423229999
 20
23.1846778752
 30
0.0
 11
91.4565242323
 21
23.1846778752
 31
0.0
  0
LINE
  5
15BB
330
22B
100
AcDbEntity
  8
0
  6
Continuous
 62
     7
100
AcDbLine
 10
91.6752742323
 20
23.7471778752
 30
0.0
 11
92.42527423229999
 21
23.7471778752
 31
0.0
  0
LINE
  5
15BC
330
22B
100
AcDbEntity
  8
0
  6
Continuous
 62
     7
100
AcDbLine
 10
100.9821840058
 20
23.4831350459
 30
0.0
 11
92.8228031331
 21
24.7025626877
 31
0.0
  0
LINE
  5
15BD
330
22B
100
AcDbEntity
  8
0
  6
Continuous
 62
     7
100
AcDbLine
 10
101.0761760104
 20
24.1120502334
 30
0.0
 11
92.9167951376
 21
25.3314778752
 31
0.0
  0
LINE
  5
15BE
330
22B
100
AcDbEntity
  8
0
  6
Continuous
 62
     7
100
AcDbLine
 10
101.1546575416
 20
24.1635152229
 30
0.0
 11
92.92603322579999
 21
25.3932913667
 31
0.0
  0
LINE
  5
15BF
330
22B
100
AcDbEntity
  8
0
  6
Continuous
 62
     7
100
AcDbLine
 10
92.9336601914
 20
25.4443245852
 30
0.0
 11
101.1345757303
 21
24.2186895459
 31
0.0
  0
LINE
  5
15C0
330
22B
100
AcDbEntity
  8
6_SURFACES_PATINS_SPECS
  6
Continuous
 62
     7
100
AcDbLine
 10
100.5437701084
 20
25.1873670787
 30
0.0
 11
100.5406468207
 21
25.1909406771
 31
0.0
  0
LWPOLYLINE
  5
15C1
330
22B
100
AcDbEntity
  8
0
  6
Continuous
 62
     7
100
AcDbPolyline
 90
        7
 70
     0
 43
0.0
 10
91.45578566140001
 20
42.7922886291
 10
91.4553845418
 20
42.79308787699999
 10
91.4548546612
 20
42.7941254131
 10
91.45416616570001
 20
42.79544443459999
 10
91.45328108120001
 20
42.79709499059999
 10
91.4521530949
 20
42.7991302212
 10
91.45073032239999
 20
42.8015966203
  0
LINE
  5
15C2
330
22B
100
AcDbEntity
  8
0
  6
Continuous
 62
     7
100
AcDbLine
 10
91.4562843508
 20
42.7912768611
 30
0.0
 11
91.45578566140001
 21
42.7922886291
 31
0.0
  0
LINE
  5
15C3
330
22B
100
AcDbEntity
  8
0
  6
Continuous
 62
     7
100
AcDbLine
 10
91.4564876516
 20
42.79085790199999
 30
0.0
 11
91.4562843508
 21
42.7912768611
 31
0.0
  0
LINE
  5
15C4
330
22B
100
AcDbEntity
  8
0
  6
Continuous
 62
     7
100
AcDbLine
 10
97.9438192301
 20
27.1078153225
 30
0.0
 11
95.21521472629999
 21
42.5825004381
 31
0.0
  0
LWPOLYLINE
  5
15C5
330
22B
100
AcDbEntity
  8
6_SURFACES_PATINS_SPECS
  6
Continuous
 62
     7
100
AcDbPolyline
 90
        5
 70
     0
 43
0.0
 10
109.355763623
 20
25.0402740617
 10
109.3115457405
 20
25.0318603168
 10
109.268654743
 20
25.0182103574
 10
109.2277085807
 20
24.9995208449
 10
109.189297184
 20
24.9760610475
  0
LWPOLYLINE
  5
15C6
330
22B
100
AcDbEntity
  8
0
  6
Continuous
 62
     7
100
AcDbPolyline
 90
       18
 70
     0
 43
0.0
 10
110.3226481633
 20
25.0706956787
 10
110.3442616141
 20
25.0733165472
 10
110.3552500502
 20
25.0761056572
 10
110.3556683082
 20
25.078965157
 10
110.3455938306
 20
25.0817652236
 10
110.3250895011
 20
25.0843753138
 10
110.2942183559
 20
25.0867330158
 10
110.2530919894
 20
25.0888631989
 10
110.2018803491
 20
25.0907926165
 10
110.1408496529
 20
25.092530676
 10
110.0703339425
 20
25.0940792466
 10
109.9907171749
 20
25.0954436287
 10
109.9024184816
 20
25.096632099
 10
109.8058830911
 20
25.0976552221
 10
109.7015950018
 20
25.0985250989
 10
109.5900879561
 20
25.0992553372
 10
109.4719564775
 20
25.0998604643
 10
109.4019900023
 20
25.1001391383
  0
LINE
  5
15C7
330
22B
100
AcDbEntity
  8
6_SURFACES_PATINS_SPECS
  6
Continuous
 62
     7
100
AcDbLine
 10
116.1814017441
 20
25.1905231027
 30
0.0
 11
116.1849016337
 21
25.1909408439
 31
0.0
  0
LINE
  5
15C8
330
22B
100
AcDbEntity
  8
0
  6
Continuous
 62
     7
100
AcDbLine
 10
110.3214557159
 20
25.070608041
 30
0.0
 11
110.3226481633
 21
25.0706956787
 31
0.0
  0
LWPOLYLINE
  5
15C9
330
22B
100
AcDbEntity
  8
6_SURFACES_PATINS_SPECS
  6
Continuous
 62
     7
100
AcDbPolyline
 90
        5
 70
     0
 43
0.0
 10
109.3380455297
 20
25.0354980869
 10
109.3653434898
 20
25.03750081550001
 10
109.3849612753
 20
25.0394892572
 10
109.3967398768
 20
25.0414396735
 10
109.4006713239
 20
25.0433302396
  0
LINE
  5
15CA
330
22B
100
AcDbEntity
  8
6_SURFACES_PATINS_SPECS
  6
Continuous
 62
     7
100
AcDbLine
 10
109.4006713229
 20
25.0433303715
 30
0.0
 11
109.355763623
 21
25.0402740617
 31
0.0
  0
LWPOLYLINE
  5
15CB
330
22B
100
AcDbEntity
  8
0
  6
Continuous
 62
     7
100
AcDbPolyline
 90
        6
 70
     0
 43
0.0
 10
116.2323773504
 20
25.3160027409
 10
116.3045054752
 20
25.3207705915
 10
116.464572776
 20
25.3315122549
 10
116.6094931558
 20
25.3413534521
 10
116.7395034208
 20
25.350259357
 10
116.8352625267
 20
25.3568542115
  0
LINE
  5
15CC
330
22B
100
AcDbEntity
  8
6_SURFACES_PATINS_SPECS
  6
Continuous
 62
     7
100
AcDbLine
 10
109.3311952098
 20
25.0351046418
 30
0.0
 11
109.3380455297
 21
25.0354980869
 31
0.0
  0
LWPOLYLINE
  5
15CD
330
22B
100
AcDbEntity
  8
6_SURFACES_PATINS_SPECS
  6
Continuous
 62
     7
100
AcDbPolyline
 90
       11
 70
     0
 43
0.0
 10
108.3940242323
 20
25.1765419193
 10
108.4778495785
 20
25.1806845248
 10
108.5608576877
 20
25.1930719538
 10
108.6422392904
 20
25.2135834379
 10
108.7212009743
 20
25.2420190046
 10
108.7969729196
 20
25.2781014278
 10
108.8688164042
 20
25.3214789295
 10
108.9360310057
 20
25.37172861030001
 10
108.9979614299
 20
25.4283605719
 10
109.0540038995
 20
25.4908226932
 10
109.1036120622
 20
25.55850604570001
  0
LWPOLYLINE
  5
15CE
330
22B
100
AcDbEntity
  8
6_SURFACES_PATINS_SPECS
  6
Continuous
 62
     7
100
AcDbPolyline
 90
        4
 70
     0
 43
0.0
 10
108.3940242323
 20
24.5122087964
 10
108.4762392381
 20
24.516193395
 10
108.5576832787
 20
24.5281098255
 10
108.6375926187
 20
24.5478463425
  0
LWPOLYLINE
  5
15CF
330
22B
100
AcDbEntity
  8
6_SURFACES_PATINS_SPECS
  6
Continuous
 62
     7
100
AcDbPolyline
 90
       26
 70
     0
 43
0.0
 10
108.4080497908
 20
24.5118998265
 10
108.4160392559
 20
24.5121245678
 10
108.4238518604
 20
24.5124008643
 10
108.4322297002
 20
24.5127651898
 10
108.4416030479
 20
24.5132615412
 10
108.4520405568
 20
24.5139290703
 10
108.4635127083
 20
24.5148060822
 10
108.4778318633
 20
24.5161151946
 10
108.4910748318
 20
24.5175406457
 10
108.5110805035
 20
24.5200899763
 10
108.52379891
 20
24.5219609239
 10
108.5393351796
 20
24.5245130408
 10
108.5617751496
 20
24.5287227346
 10
108.5970541462
 20
24.5366146659
 10
108.6299578049
 20
24.5454147816
 10
108.6607890028
 20
24.5549631552
 10
108.695840076
 20
24.5674085316
 10
108.7407358323
 20
24.585948236
 10
108.7711688251
 20
24.6002744815
 10
108.809026556
 20
24.6202212941
 10
108.8568347204
 20
24.6490706509
 10
108.9154506587
 20
24.690750144
 10
108.9580388489
 20
24.7261146956
 10
109.0052181774
 20
24.7713173242
 10
109.0475307635
 20
24.8184972689
 10
109.0945013405
 20
24.8805430169
  0
LWPOLYLINE
  5
15D0
330
22B
100
AcDbEntity
  8
0
  6
Continuous
 62
     7
100
AcDbPolyline
 90
        9
 70
     0
 43
0.0
 10
110.3077800739
 20
25.0658036471
 10
110.503098682
 20
25.0690558401
 10
110.9016627796
 20
25.0771568838
 10
111.2895513682
 20
25.0863639602
 10
111.6667237675
 20
25.0965669415
 10
112.0331441131
 20
25.1076581527
 10
112.3887785987
 20
25.1195323821
 10
112.7335860863
 20
25.1320865792
 10
113.0223897733
 20
25.1434445887
  0
LWPOLYLINE
  5
15D1
330
22B
100
AcDbEntity
  8
6_SURFACES_PATINS_SPECS
  6
Continuous
 62
     7
100
AcDbPolyline
 90
        3
 70
     0
 43
0.0
 10
108.3886740067
 20
24.5115537728
 10
108.3991114611
 20
24.5117090296
 10
108.4080497908
 20
24.5118998265
  0
LWPOLYLINE
  5
15D2
330
22B
100
AcDbEntity
  8
0
  6
Continuous
 62
     7
100
AcDbPolyline
 90
       17
 70
     0
 43
0.0
 10
107.3235584656
 20
25.1001389799
 10
107.2591413373
 20
25.0998853766
 10
107.1408165443
 20
25.0992861655
 10
107.0290901073
 20
25.0985628217
 10
106.9245345268
 20
25.0977007141
 10
106.8276755245
 20
25.0966860318
 10
106.7390024726
 20
25.0955065335
 10
106.6589817211
 20
25.094151766
 10
106.5880498195
 20
25.0926137437
 10
106.5266020668
 20
25.0908877013
 10
106.4749612999
 20
25.0889721009
 10
106.4333372561
 20
25.0868564573
 10
106.4018734719
 20
25.08451002
 10
106.380744888
 20
25.0819033827
 10
106.3701093069
 20
25.0790938329
 10
106.3700862902
 20
25.0762156596
 10
106.3807599679
 20
25.0734055141
  0
LINE
  5
15D3
330
22B
100
AcDbEntity
  8
0
  6
Continuous
 62
     7
100
AcDbLine
 10
107.0913291715
 20
24.5596778752
 30
0.0
 11
108.0512537194
 21
24.5596778752
 31
0.0
  0
LINE
  5
15D4
330
22B
100
AcDbEntity
  8
0
  6
Continuous
 62
     7
100
AcDbLine
 10
108.674067508
 20
24.5596778752
 30
0.0
 11
109.6342192931
 21
24.5596778752
 31
0.0
  0
LINE
  5
15D5
330
22B
100
AcDbEntity
  8
0
  6
Continuous
 62
     7
100
AcDbLine
 10
106.8261625799
 20
24.6695128322
 30
0.0
 11
107.8396705982
 21
24.6695128322
 31
0.0
  0
LWPOLYLINE
  5
15D6
330
22B
100
AcDbEntity
  8
6_SURFACES_PATINS_SPECS
  6
Continuous
 62
     7
100
AcDbPolyline
 90
       12
 70
     0
 43
0.0
 10
113.0649789389
 20
25.0200111511
 10
113.0988029477
 20
25.0198609966
 10
113.1424576429
 20
25.0151219018
 10
113.1852576154
 20
25.00531269150001
 10
113.2266178756
 20
24.9905676503
 10
113.2659729092
 20
24.9710879177
 10
113.3027841397
 20
24.9471388821
 10
113.3365436521
 20
24.9190500094
 10
113.3667817494
 20
24.8872140502
 10
113.3930802436
 20
24.852078797
 10
113.4150784586
 20
24.8141418959
 10
113.4324859235
 20
24.7739277213
  0
LWPOLYLINE
  5
15D7
330
22B
100
AcDbEntity
  8
6_SURFACES_PATINS_SPECS
  6
Continuous
 62
     7
100
AcDbPolyline
 90
        5
 70
     0
 43
0.0
 10
108.3368220055
 20
24.5115543944
 10
108.3498367561
 20
24.51144268
 10
108.3631415399
 20
24.5114074642
 10
108.3763811558
 20
24.5114464701
 10
108.3886740067
 20
24.5115537728
  0
LINE
  5
15D8
330
22B
100
AcDbEntity
  8
0
  6
Continuous
 62
     7
100
AcDbLine
 10
106.2224500208
 20
25.0690558357
 30
0.0
 11
106.4177512492
 21
25.0658039322
 31
0.0
  0
LWPOLYLINE
  5
15D9
330
22B
100
AcDbEntity
  8
6_SURFACES_PATINS_SPECS
  6
Continuous
 62
     7
100
AcDbPolyline
 90
        3
 70
     0
 43
0.0
 10
108.3163125757
 20
24.51192975570001
 10
108.3257980546
 20
24.51172075880001
 10
108.3368220055
 20
24.5115543944
  0
LWPOLYLINE
  5
15DA
330
22B
100
AcDbEntity
  8
0
  6
Continuous
 62
     7
100
AcDbPolyline
 90
        8
 70
     0
 43
0.0
 10
103.7031586906
 20
25.1434445882
 10
103.9919628563
 20
25.13208656110001
 10
104.3367703079
 20
25.1195323666
 10
104.6924047558
 20
25.1076581398
 10
105.0588250622
 20
25.096566931
 10
105.4359974207
 20
25.086363952
 10
105.8238859668
 20
25.07715687760001
 10
106.2224500208
 20
25.0690558357
  0
LWPOLYLINE
  5
15DB
330
22B
100
AcDbEntity
  8
6_SURFACES_PATINS_SPECS
  6
Continuous
 62
     7
100
AcDbPolyline
 90
        5
 70
     0
 43
0.0
 10
108.3315242323
 20
24.5122087964
 10
108.2493092245
 20
24.5161933952
 10
108.167865182
 20
24.5281098263
 10
108.0879558403
 20
24.5478463442
 10
108.0103305433
 20
24.5752178712
  0
LWPOLYLINE
  5
15DC
330
22B
100
AcDbEntity
  8
6_SURFACES_PATINS_SPECS
  6
Continuous
 62
     7
100
AcDbPolyline
 90
       11
 70
     0
 43
0.0
 10
108.3315242323
 20
25.1765419193
 10
108.2476988879
 20
25.1806845246
 10
108.1646907806
 20
25.1930719531
 10
108.0833091796
 20
25.2135834362
 10
108.0043474972
 20
25.2420190017
 10
107.9285755533
 20
25.2781014233
 10
107.8567320697
 20
25.3214789232
 10
107.789517469
 20
25.3717286019
 10
107.7275870453
 20
25.4283605612
 10
107.6715445757
 20
25.49082268
 10
107.6219364024
 20
25.55850604570001
  0
LINE
  5
15DD
330
22B
100
AcDbEntity
  8
6_SURFACES_PATINS_SPECS
  6
Continuous
 62
     7
100
AcDbLine
 10
107.3874684285
 20
25.0355003302
 30
0.0
 11
107.3945295204
 21
25.0350946925
 31
0.0
  0
LWPOLYLINE
  5
15DE
330
22B
100
AcDbEntity
  8
6_SURFACES_PATINS_SPECS
  6
Continuous
 62
     7
100
AcDbPolyline
 90
       11
 70
     0
 43
0.0
 10
100.3129035668
 20
25.76060179340001
 10
100.3583772518
 20
25.7575774473
 10
100.4031477873
 20
25.749059539
 10
100.4465538968
 20
25.735173881
 10
100.487954457
 20
25.7161255694
 10
100.5267379671
 20
25.6921959543
 10
100.5623315812
 20
25.6637384845
 10
100.5942095692
 20
25.6311734867
 10
100.621901082
 20
25.5949819574
 10
100.6449971065
 20
25.555698458
 10
100.6631565061
 20
25.5139032195
  0
LINE
  5
15DF
330
22B
100
AcDbEntity
  8
6_SURFACES_PATINS_SPECS
  6
Continuous
 62
     7
100
AcDbLine
 10
107.324877141
 20
25.0433302853
 30
0.0
 11
107.3697848485
 21
25.0402740053
 31
0.0
  0
LWPOLYLINE
  5
15E0
330
22B
100
AcDbEntity
  8
0
  6
Continuous
 62
     7
100
AcDbPolyline
 90
        6
 70
     0
 43
0.0
 10
99.8902859873
 20
25.3568542081
 10
99.98604582649999
 20
25.3502593032
 10
100.1160560774
 20
25.3413533997
 10
100.2609764524
 20
25.3315122033
 10
100.4210437513
 20
25.32077054070001
 10
100.4931710981
 20
25.3160027419
  0
LINE
  5
15E1
330
22B
100
AcDbEntity
  8
6_SURFACES_PATINS_SPECS
  6
Continuous
 62
     7
100
AcDbLine
 10
107.3601751879
 20
25.037503368
 30
0.0
 11
107.3874684285
 21
25.0355003302
 31
0.0
  0
LINE
  5
15E2
330
22B
100
AcDbEntity
  8
0
  6
Continuous
 62
     7
100
AcDbLine
 10
106.4021455721
 20
25.0707664548
 30
0.0
 11
106.4040184362
 21
25.07062712110001
 31
0.0
  0
LWPOLYLINE
  5
15E3
330
22B
100
AcDbEntity
  8
6_SURFACES_PATINS_SPECS
  6
Continuous
 62
     7
100
AcDbPolyline
 90
       20
 70
     0
 43
0.0
 10
107.3843194237
 20
25.0366786727
 10
107.3836374521
 20
25.0367492565
 10
107.3838388788
 20
25.0367246878
 10
107.3856630447
 20
25.0364894087
 10
107.389252505
 20
25.0359675628
 10
107.3947067359
 20
25.0350653793
 10
107.4020379369
 20
25.0336774852
 10
107.4114038581
 20
25.0316380044
 10
107.4231681628
 20
25.028672309
 10
107.4375874537
 20
25.0244329639
 10
107.4544199981
 20
25.0186328207
 10
107.4731551995
 20
25.0110610153
 10
107.4932599688
 20
25.0015514875
 10
107.5141879329
 20
24.9900047571
 10
107.5355378011
 20
24.9763052025
 10
107.5569785126
 20
24.9603264292
 10
107.5781600648
 20
24.9419776884
 10
107.5987336223
 20
24.9211918226
 10
107.6183523503
 20
24.8979196339
 10
107.6310471255
 20
24.8805433605
  0
LWPOLYLINE
  5
15E4
330
22B
100
AcDbEntity
  8
6_SURFACES_PATINS_SPECS
  6
Continuous
 62
     7
100
AcDbPolyline
 90
       12
 70
     0
 43
0.0
 10
100.5437701659
 20
25.187367075
 10
100.5733780708
 20
25.1842331766
 10
100.6132824591
 20
25.1761661276
 10
100.6520480367
 20
25.1638318599
 10
100.6892514875
 20
25.1473699757
 10
100.7244826375
 20
25.1269552257
 10
100.7573460219
 20
25.1027971049
 10
100.7874186678
 20
25.0751847223
 10
100.8142149651
 20
25.0445897781
 10
100.8373377356
 20
25.011598211
 10
100.8565022324
 20
24.9769061033
 10
100.8715179583
 20
24.9414347395
  0
LINE
  5
15E5
330
22B
100
AcDbEntity
  8
6_SURFACES_PATINS_SPECS
  6
Continuous
 62
     7
100
AcDbLine
 10
100.5406468308
 20
25.1909408424
 30
0.0
 11
100.544146805
 21
25.1905230911
 31
0.0
  0
LINE
  5
15E6
330
22B
100
AcDbEntity
  8
0
  6
Continuous
 62
     7
100
AcDbLine
 10
106.3807599679
 20
25.0734055141
 30
0.0
 11
106.4021455721
 21
25.0707664548
 31
0.0
  0
LWPOLYLINE
  5
15E7
330
22B
100
AcDbEntity
  8
0
  6
Continuous
 62
     7
100
AcDbPolyline
 90
       13
 70
     0
 43
0.0
 10
106.3999951587
 20
25.0716000482
 10
106.3996800605
 20
25.0716513442
 10
106.3998861059
 20
25.0716125647
 10
106.4009001777
 20
25.0714026809
 10
106.4028426699
 20
25.0709457273
 10
106.4058978967
 20
25.0701178295
 10
106.410242025
 20
25.0687434497
 10
106.4160130801
 20
25.066583279
 10
106.4232407472
 20
25.0633425938
 10
106.4317526169
 20
25.0587225573
 10
106.4413386049
 20
25.0523583105
 10
106.4517130528
 20
25.0438138558
 10
106.4553768623
 20
25.0402986005
  0
LWPOLYLINE
  5
15E8
330
22B
100
AcDbEntity
  8
6_SURFACES_PATINS_SPECS
  6
Continuous
 62
     7
100
AcDbPolyline
 90
       15
 70
     0
 43
0.0
 10
108.3315242323
 20
24.5122087964
 10
108.332307735
 20
24.5120688077
 10
108.3346189552
 20
24.5119358387
 10
108.3383419985
 20
24.5118165569
 10
108.343290176
 20
24.5117169436
 10
108.3492153654
 20
24.5116419939
 10
108.3558204531
 20
24.511595466
 10
108.3627742323
 20
24.5115796931
 10
108.3697280115
 20
24.511595466
 10
108.3763330991
 20
24.5116419939
 10
108.3822582886
 20
24.5117169436
 10
108.3872064661
 20
24.5118165569
 10
108.3909295094
 20
24.5119358387
 10
108.3932407295
 20
24.5120688077
 10
108.3940242323
 20
24.5122087964
  0
LWPOLYLINE
  5
15E9
330
22B
100
AcDbEntity
  8
6_SURFACES_PATINS_SPECS
  6
Continuous
 62
     7
100
AcDbPolyline
 90
        5
 70
     0
 43
0.0
 10
107.3697848485
 20
25.0402740053
 10
107.414002741
 20
25.0318602875
 10
107.4568937506
 20
25.0182103524
 10
107.4978399263
 20
24.9995208611
 10
107.5362513374
 20
24.9760610817
  0
LWPOLYLINE
  5
15EA
330
22B
100
AcDbEntity
  8
6_SURFACES_PATINS_SPECS
  6
Continuous
 62
     7
100
AcDbPolyline
 90
       21
 70
     0
 43
0.0
 10
103.9101715367
 20
25.74468172
 10
103.9054430225
 20
25.7473879925
 10
103.8895247776
 20
25.7501014784
 10
103.8626284906
 20
25.7528018204
 10
103.8249769148
 20
25.755468158
 10
103.7767971294
 20
25.7580830923
 10
103.7183380935
 20
25.7606294296
 10
103.649939214
 20
25.7630935761
 10
103.5720044295
 20
25.7654616842
 10
103.4851252605
 20
25.76771351630001
 10
103.3898458176
 20
25.7698345131
 10
103.2865465919
 20
25.7718144837
 10
103.1757165465
 20
25.7736454149
 10
103.0581567522
 20
25.7753156197
 10
102.9348183635
 20
25.7768136367
 10
102.8064809934
 20
25.778132174
 10
102.6738760291
 20
25.7792667877
 10
102.5368605525
 20
25.7802223922
 10
102.39651861
 20
25.7809933394
 10
102.2547592454
 20
25.7815742997
 10
102.1135628977
 20
25.7819654626
  0
LWPOLYLINE
  5
15EB
330
22B
100
AcDbEntity
  8
0
  6
Continuous
 62
     7
100
AcDbPolyline
 90
       13
 70
     0
 43
0.0
 10
91.45073032239999
 20
42.8015966203
 10
91.44896641219999
 20
42.804511734
 10
91.44682850909999
 20
42.80785322309999
 10
91.44431978629999
 20
42.81153377979999
 10
91.4414979336
 20
42.81539816409999
 10
91.4384734242
 20
42.8192546177
 10
91.43540095719998
 20
42.82290657579999
 10
91.43241027950001
 20
42.8262358327
 10
91.42960265000001
 20
42.8291839215
 10
91.42709464139999
 20
42.8316901446
 10
91.425005438
 20
42.8336977045
 10
91.42344271499998
 20
42.83515904699999
 10
91.4222118001
 20
42.83629188409999
  0
LINE
  5
15EC
330
22B
100
AcDbEntity
  8
6_SURFACES_PATINS_SPECS
  6
Continuous
 62
     7
100
AcDbLine
 10
100.3129035668
 20
25.76060179340001
 30
0.0
 11
100.3512150751
 21
25.6664235679
 31
0.0
  0
LINE
  5
15ED
330
22B
100
AcDbEntity
  8
6_SURFACES_PATINS_SPECS
  6
Continuous
 62
     7
100
AcDbLine
 10
100.3512150751
 20
25.6664235679
 30
0.0
 11
100.3842585094
 21
25.5850618951
 31
0.0
  0
LINE
  5
15EE
330
22B
100
AcDbEntity
  8
6_SURFACES_PATINS_SPECS
  6
Continuous
 62
     7
100
AcDbLine
 10
100.3842585094
 20
25.5850618951
 30
0.0
 11
100.4127719262
 21
25.5147541151
 31
0.0
  0
LINE
  5
15EF
330
22B
100
AcDbEntity
  8
6_SURFACES_PATINS_SPECS
  6
Continuous
 62
     7
100
AcDbLine
 10
100.4127719262
 20
25.5147541151
 30
0.0
 11
100.4483962614
 21
25.4267810512
 31
0.0
  0
LINE
  5
15F0
330
22B
100
AcDbEntity
  8
6_SURFACES_PATINS_SPECS
  6
Continuous
 62
     7
100
AcDbLine
 10
100.4483962614
 20
25.4267810512
 30
0.0
 11
100.4769776918
 21
25.3560941243
 31
0.0
  0
LINE
  5
15F1
330
22B
100
AcDbEntity
  8
6_SURFACES_PATINS_SPECS
  6
Continuous
 62
     7
100
AcDbLine
 10
100.4769776918
 20
25.3560941243
 30
0.0
 11
100.4998728109
 21
25.2994020533
 31
0.0
  0
LINE
  5
15F2
330
22B
100
AcDbEntity
  8
6_SURFACES_PATINS_SPECS
  6
Continuous
 62
     7
100
AcDbLine
 10
100.4998728109
 20
25.2994020533
 30
0.0
 11
100.518120759
 21
25.2541734395
 31
0.0
  0
LINE
  5
15F3
330
22B
100
AcDbEntity
  8
6_SURFACES_PATINS_SPECS
  6
Continuous
 62
     7
100
AcDbLine
 10
100.518120759
 20
25.2541734395
 30
0.0
 11
100.5278741729
 21
25.2299823235
 31
0.0
  0
LWPOLYLINE
  5
15F4
330
22B
100
AcDbEntity
  8
6_SURFACES_PATINS_SPECS
  6
Continuous
 62
     7
100
AcDbPolyline
 90
        4
 70
     0
 43
0.0
 10
100.5278741729
 20
25.2299823235
 10
100.5406060825
 20
25.1983636009
 10
100.5434865919
 20
25.1904090628
 10
100.5437701084
 20
25.1873670787
  0
LINE
  5
15F5
330
22B
100
AcDbEntity
  8
6_SURFACES_PATINS_SPECS
  6
Continuous
 62
     7
100
AcDbLine
 10
101.2318124003
 20
23.9515339908
 30
0.0
 11
100.6631565302
 21
25.5139031533
 31
0.0
  0
LINE
  5
15F6
330
22B
100
AcDbEntity
  8
6_SURFACES_PATINS_SPECS
  6
Continuous
 62
     7
100
AcDbLine
 10
100.5406468308
 20
25.1909408424
 30
0.0
 11
100.5450107993
 21
25.1916733977
 31
0.0
  0
LWPOLYLINE
  5
15F7
330
22B
100
AcDbEntity
  8
6_SURFACES_PATINS_SPECS
  6
Continuous
 62
     7
100
AcDbPolyline
 90
        9
 70
     0
 43
0.0
 10
109.4163430498
 20
25.7270149379
 10
109.3702005964
 20
25.7241263087
 10
109.3247643991
 20
25.715582874
 10
109.2807250806
 20
25.7015144926
 10
109.2387520312
 20
25.6821350017
 10
109.1994832346
 20
25.6577389663
 10
109.16351557
 20
25.6286972022
 10
109.1313957399
 20
25.5954511394
 10
109.1036119606
 20
25.5585061127
  0
LWPOLYLINE
  5
15F8
330
22B
100
AcDbEntity
  8
6_SURFACES_PATINS_SPECS
  6
Continuous
 62
     7
100
AcDbPolyline
 90
       11
 70
     0
 43
0.0
 10
103.9101715367
 20
25.74468172
 10
103.8643434252
 20
25.7420224391
 10
103.8191844069
 20
25.7337842463
 10
103.7753712392
 20
25.7200905999
 10
103.7335605102
 20
25.7011467141
 10
103.6943787994
 20
25.6772364838
 10
103.6584132877
 20
25.64871823
 10
103.6262029573
 20
25.6160193297
 10
103.5982305155
 20
25.5796298119
 10
103.5749151598
 20
25.5400950131
 10
103.5566062963
 20
25.4980074056
  0
LWPOLYLINE
  5
15F9
330
22B
100
AcDbEntity
  8
6_SURFACES_PATINS_SPECS
  6
Continuous
 62
     7
100
AcDbPolyline
 90
       21
 70
     0
 43
0.0
 10
114.6119855669
 20
25.7819654642
 10
114.7543872464
 20
25.7821772698
 10
114.8960393507
 20
25.7822112801
 10
115.0358048176
 20
25.7820744267
 10
115.1725811441
 20
25.7817739813
 10
115.3054462808
 20
25.7813184775
 10
115.4339574579
 20
25.7807139507
 10
115.557649203
 20
25.7799669068
 10
115.6754956673
 20
25.7790879838
 10
115.7864671891
 20
25.7780874146
 10
115.889992548
 20
25.7769719308
 10
115.9855462693
 20
25.7757462708
 10
116.0726989293
 20
25.7744160493
 10
116.1510220741
 20
25.7729855157
 10
116.2198140054
 20
25.7714635786
 10
116.2784892144
 20
25.7698577445
 10
116.3268195912
 20
25.7681677391
 10
116.3646739351
 20
25.766392429
 10
116.3917655315
 20
25.7645350716
 10
116.4078193116
 20
25.7626026196
 10
116.4126448977
 20
25.7606018112
  0
LWPOLYLINE
  5
15FA
330
22B
100
AcDbEntity
  8
6_SURFACES_PATINS_SPECS
  6
Continuous
 62
     7
100
AcDbPolyline
 90
       19
 70
     0
 43
0.0
 10
108.3627742323
 20
25.7485161779
 10
108.2710063207
 20
25.7484353334
 10
108.1798188001
 20
25.7481929091
 10
108.0900217613
 20
25.74779072530001
 10
108.002318191
 20
25.7472318525
 10
107.9173435898
 20
25.7465201875
 10
107.8357419389
 20
25.7456607984
 10
107.7581678891
 20
25.7446602609
 10
107.6852241933
 20
25.7435261171
 10
107.6174398798
 20
25.7422662287
 10
107.5553132265
 20
25.7408891868
 10
107.4993500122
 20
25.7394054854
 10
107.4500099779
 20
25.7378270043
 10
107.407626984
 20
25.7361641634
 10
107.3724654536
 20
25.7344258519
 10
107.3448233802
 20
25.7326239974
 10
107.324985808
 20
25.7307755074
 10
107.3131111282
 20
25.7288994702
 10
107.3092054148
 20
25.7270148928
  0
LINE
  5
15FB
330
22B
100
AcDbEntity
  8
0
  6
Continuous
 62
     7
100
AcDbLine
 10
92.42527423229999
 20
25.3939778752
 30
0.0
 11
92.9167951376
 21
25.3939778752
 31
0.0
  0
LINE
  5
15FC
330
22B
100
AcDbEntity
  8
0
  6
Continuous
 62
     7
100
AcDbLine
 10
92.42527423229999
 20
25.4455778752
 30
0.0
 11
92.9167951376
 21
25.4455778752
 31
0.0
  0
LWPOLYLINE
  5
15FD
330
22B
100
AcDbEntity
  8
6_SURFACES_PATINS_SPECS
  6
Continuous
 62
     7
100
AcDbPolyline
 90
       21
 70
     0
 43
0.0
 10
102.1135628977
 20
25.7819654709
 10
101.9711855863
 20
25.7821772689
 10
101.8295360239
 20
25.7822112796
 10
101.6897652852
 20
25.7820745018
 10
101.5529856599
 20
25.781773988
 10
101.4201198509
 20
25.7813184634
 10
101.291604251
 20
25.7807141533
 10
101.1679130097
 20
25.7799669325
 10
101.0500692481
 20
25.7790881739
 10
100.9390940901
 20
25.7780874815
 10
100.83556401
 20
25.7769719933
 10
100.7400099035
 20
25.7757464676
 10
100.6528579391
 20
25.774416138
 10
100.5745327969
 20
25.7729856866
 10
100.5057394515
 20
25.7714636437
 10
100.4470632387
 20
25.7698578754
 10
100.3987311039
 20
25.7681678718
 10
100.3608762328
 20
25.7663925014
 10
100.3337844491
 20
25.7645352114
 10
100.3177298895
 20
25.7626027517
 10
100.3129035669
 20
25.7606018096
  0
LWPOLYLINE
  5
15FE
330
22B
100
AcDbEntity
  8
6_SURFACES_PATINS_SPECS
  6
Continuous
 62
     7
100
AcDbPolyline
 90
        9
 70
     0
 43
0.0
 10
107.3092054149
 20
25.727015021
 10
107.3553478606
 20
25.7241263622
 10
107.4007840476
 20
25.7155829007
 10
107.4448233538
 20
25.7015144955
 10
107.4867963893
 20
25.6821349839
 10
107.5260651714
 20
25.6577389312
 10
107.5620328212
 20
25.6286971532
 10
107.5941526368
 20
25.5954510799
 10
107.6219364024
 20
25.55850604570001
  0
LWPOLYLINE
  5
15FF
330
22B
100
AcDbEntity
  8
6_SURFACES_PATINS_SPECS
  6
Continuous
 62
     7
100
AcDbPolyline
 90
       15
 70
     0
 43
0.0
 10
108.3940242323
 20
25.1765419193
 10
108.3932407295
 20
25.176681908
 10
108.3909295094
 20
25.176814877
 10
108.3872064661
 20
25.1769341588
 10
108.3822582886
 20
25.1770337721
 10
108.3763330991
 20
25.1771087218
 10
108.3697280115
 20
25.1771552497
 10
108.3627742323
 20
25.17717102260001
 10
108.3558204531
 20
25.1771552497
 10
108.3492153654
 20
25.1771087218
 10
108.343290176
 20
25.1770337721
 10
108.3383419985
 20
25.1769341588
 10
108.3346189552
 20
25.176814877
 10
108.332307735
 20
25.176681908
 10
108.3315242323
 20
25.1765419193
  0
LINE
  5
1600
330
22B
100
AcDbEntity
  8
6_SURFACES_PATINS_SPECS
  6
Continuous
 62
     7
100
AcDbLine
 10
108.0103305433
 20
24.5752178712
 30
0.0
 11
107.9357172167
 21
24.6099677327
 31
0.0
  0
LWPOLYLINE
  5
1601
330
22B
100
AcDbEntity
  8
6_SURFACES_PATINS_SPECS
  6
Continuous
 62
     7
100
AcDbPolyline
 90
        4
 70
     0
 43
0.0
 10
107.324877141
 20
25.0433302853
 10
107.328803156
 20
25.0414410119
 10
107.3405695353
 20
25.039491495
 10
107.3601751879
 20
25.037503368
  0
LINE
  5
1602
330
22B
100
AcDbEntity
  8
6_SURFACES_PATINS_SPECS
  6
Continuous
 62
     7
100
AcDbLine
 10
107.9357172167
 20
24.6099677327
 30
0.0
 11
107.8648155415
 21
24.6517700646
 31
0.0
  0
LINE
  5
1603
330
22B
100
AcDbEntity
  8
6_SURFACES_PATINS_SPECS
  6
Continuous
 62
     7
100
AcDbLine
 10
116.1849016337
 20
25.1909408439
 30
0.0
 11
116.1824024772
 21
25.1913603789
 31
0.0
  0
LWPOLYLINE
  5
1604
330
22B
100
AcDbEntity
  8
6_SURFACES_PATINS_SPECS
  6
Continuous
 62
     7
100
AcDbPolyline
 90
       19
 70
     0
 43
0.0
 10
109.4163430498
 20
25.7270149379
 10
109.4124426383
 20
25.7288982206
 10
109.4005799745
 20
25.7307735086
 10
109.3807543162
 20
25.7326217737
 10
109.3531168666
 20
25.7344239682
 10
109.3179529626
 20
25.7361628035
 10
109.2755698308
 20
25.7378259152
 10
109.226234377
 20
25.7394044567
 10
109.1702737001
 20
25.7408882687
 10
109.1081442175
 20
25.7422655166
 10
109.0403555218
 20
25.7435255942
 10
108.9674096052
 20
25.7446598557
 10
108.8898344021
 20
25.745660477
 10
108.8082267906
 20
25.7465199835
 10
108.7232390747
 20
25.7472317882
 10
108.6355238162
 20
25.7477907418
 10
108.545728775
 20
25.7481929102
 10
108.4545498692
 20
25.7484353205
 10
108.3627742323
 20
25.748516178
  0
LINE
  5
1605
330
22B
100
AcDbEntity
  8
6_SURFACES_PATINS_SPECS
  6
Continuous
 62
     7
100
AcDbLine
 10
107.8648155415
 20
24.6517700646
 30
0.0
 11
107.7982903929
 21
24.7002328684
 31
0.0
  0
LINE
  5
1606
330
22B
100
AcDbEntity
  8
6_SURFACES_PATINS_SPECS
  6
Continuous
 62
     7
100
AcDbLine
 10
107.5362513374
 20
24.9760610817
 30
0.0
 11
107.5715745727
 21
24.9481690103
 31
0.0
  0
LINE
  5
1607
330
22B
100
AcDbEntity
  8
6_SURFACES_PATINS_SPECS
  6
Continuous
 62
     7
100
AcDbLine
 10
107.7982903929
 20
24.7002328684
 30
0.0
 11
107.7367656057
 21
24.7549016878
 31
0.0
  0
LINE
  5
1608
330
22B
100
AcDbEntity
  8
0
  6
Continuous
 62
     7
100
AcDbLine
 10
106.8261625799
 20
24.6695128322
 30
0.0
 11
106.4553682112
 21
25.040307201
 31
0.0
  0
LINE
  5
1609
330
22B
100
AcDbEntity
  8
6_SURFACES_PATINS_SPECS
  6
Continuous
 62
     7
100
AcDbLine
 10
107.5715745727
 20
24.9481690103
 30
0.0
 11
107.6033007136
 21
24.9162465012
 31
0.0
  0
LINE
  5
160A
330
22B
100
AcDbEntity
  8
6_SURFACES_PATINS_SPECS
  6
Continuous
 62
     7
100
AcDbLine
 10
107.7367656057
 20
24.7549016878
 30
0.0
 11
107.6808181241
 21
24.8152638699
 31
0.0
  0
LINE
  5
160B
330
22B
100
AcDbEntity
  8
0
  6
Continuous
 62
     7
100
AcDbLine
 10
100.9821840058
 20
23.4831350459
 30
0.0
 11
101.0854140986
 21
24.1738637248
 31
0.0
  0
LINE
  5
160C
330
22B
100
AcDbEntity
  8
6_SURFACES_PATINS_SPECS
  6
Continuous
 62
     7
100
AcDbLine
 10
107.6033007136
 20
24.9162465012
 30
0.0
 11
107.6309726667
 21
24.8807534769
 31
0.0
  0
LINE
  5
160D
330
22B
100
AcDbEntity
  8
6_SURFACES_PATINS_SPECS
  6
Continuous
 62
     7
100
AcDbLine
 10
107.6808181241
 20
24.8152638699
 30
0.0
 11
107.630972567
 21
24.8807534084
 31
0.0
  0
LWPOLYLINE
  5
160E
330
22B
100
AcDbEntity
  8
6_SURFACES_PATINS_SPECS
  6
Continuous
 62
     7
100
AcDbPolyline
 90
       25
 70
     0
 43
0.0
 10
107.6310471308
 20
24.8805430071
 10
107.6778667374
 20
24.8186788312
 10
107.7237050242
 20
24.7678453531
 10
107.766247408
 20
24.7272364616
 10
107.8126673238
 20
24.6887620258
 10
107.8643075644
 20
24.6519504536
 10
107.905006888
 20
24.6267821606
 10
107.9590433143
 20
24.5979830041
 10
107.9992644192
 20
24.5796512547
 10
108.0291600998
 20
24.5676170382
 10
108.0591968869
 20
24.5568235624
 10
108.0925872251
 20
24.5462888277
 10
108.1169124855
 20
24.5395514948
 10
108.15467726
 20
24.5306073362
 10
108.1798724585
 20
24.5256395399
 10
108.1973915849
 20
24.5226471004
 10
108.2103341095
 20
24.5206766434
 10
108.2307617248
 20
24.5179775156
 10
108.2461347433
 20
24.5162745635
 10
108.261694176
 20
24.5148345252
 10
108.2750929612
 20
24.5138197668
 10
108.2873981012
 20
24.5130675384
 10
108.2981359067
 20
24.5125468187
 10
108.3074921563
 20
24.5121903079
 10
108.3163125757
 20
24.51192975570001
  0
LINE
  5
160F
330
22B
100
AcDbEntity
  8
0
  6
Continuous
 62
     7
100
AcDbLine
 10
91.6994184458
 20
42.3135135565
 30
0.0
 11
91.73894633899999
 21
42.2803457159
 31
0.0
  0
LINE
  5
1610
330
22B
100
AcDbEntity
  8
0
  6
Continuous
 62
     7
100
AcDbLine
 10
92.1834263108
 20
42.89033166849999
 30
0.0
 11
92.22295420409999
 21
42.8571638279
 31
0.0
  0
LINE
  5
1611
330
22B
100
AcDbEntity
  8
6_SURFACES_PATINS_SPECS
  6
Continuous
 62
     7
100
AcDbLine
 10
107.630972567
 20
24.8807534084
 30
0.0
 11
107.6310469295
 21
24.8805433001
 31
0.0
  0
LWPOLYLINE
  5
1612
330
22B
100
AcDbEntity
  8
6_SURFACES_PATINS_SPECS
  6
Continuous
 62
     7
100
AcDbPolyline
 90
        4
 70
     0
 43
0.0
 10
107.3092054149
 20
25.727015021
 10
107.3144081761
 20
25.4971716729
 10
107.3196322208
 20
25.269281725
 10
107.3248771417
 20
25.0433303718
  0
LWPOLYLINE
  5
1613
330
22B
100
AcDbEntity
  8
6_SURFACES_PATINS_SPECS
  6
Continuous
 62
     7
100
AcDbPolyline
 90
        5
 70
     0
 43
0.0
 10
103.6651976613
 20
25.0326592753
 10
103.6703052497
 20
25.0475777242
 10
103.6729094151
 20
25.0551816065
 10
103.6756544988
 20
25.0631967756
 10
103.6786085006
 20
25.0718195998
  0
LWPOLYLINE
  5
1614
330
22B
100
AcDbEntity
  8
6_SURFACES_PATINS_SPECS
  6
Continuous
 62
     7
100
AcDbPolyline
 90
        3
 70
     0
 43
0.0
 10
103.6786085006
 20
25.0718195998
 10
103.6854093646
 20
25.0916678889
 10
103.6893167793
 20
25.1030694444
  0
LWPOLYLINE
  5
1615
330
22B
100
AcDbEntity
  8
6_SURFACES_PATINS_SPECS
  6
Continuous
 62
     7
100
AcDbPolyline
 90
        3
 70
     0
 43
0.0
 10
103.6893167793
 20
25.1030694444
 10
103.6982375746
 20
25.1290929281
 10
103.7032887443
 20
25.1438238694
  0
LINE
  5
1616
330
22B
100
AcDbEntity
  8
6_SURFACES_PATINS_SPECS
  6
Continuous
 62
     7
100
AcDbLine
 10
103.7032887443
 20
25.1438238694
 30
0.0
 11
103.7146947201
 21
25.1770767838
 31
0.0
  0
LINE
  5
1617
330
22B
100
AcDbEntity
  8
6_SURFACES_PATINS_SPECS
  6
Continuous
 62
     7
100
AcDbLine
 10
103.7146947201
 20
25.1770767838
 30
0.0
 11
103.7280509183
 21
25.2159961828
 31
0.0
  0
LINE
  5
1618
330
22B
100
AcDbEntity
  8
6_SURFACES_PATINS_SPECS
  6
Continuous
 62
     7
100
AcDbLine
 10
103.7280509183
 20
25.2159961828
 30
0.0
 11
103.7436417094
 21
25.2614010776
 31
0.0
  0
LINE
  5
1619
330
22B
100
AcDbEntity
  8
6_SURFACES_PATINS_SPECS
  6
Continuous
 62
     7
100
AcDbLine
 10
103.7436417094
 20
25.2614010776
 30
0.0
 11
103.7618105371
 21
25.314278841
 31
0.0
  0
LINE
  5
161A
330
22B
100
AcDbEntity
  8
6_SURFACES_PATINS_SPECS
  6
Continuous
 62
     7
100
AcDbLine
 10
103.7618105371
 20
25.314278841
 30
0.0
 11
103.7948910986
 21
25.4104588403
 31
0.0
  0
LINE
  5
161B
330
22B
100
AcDbEntity
  8
6_SURFACES_PATINS_SPECS
  6
Continuous
 62
     7
100
AcDbLine
 10
103.7948910986
 20
25.4104588403
 30
0.0
 11
103.8216322221
 21
25.4881174186
 31
0.0
  0
LINE
  5
161C
330
22B
100
AcDbEntity
  8
6_SURFACES_PATINS_SPECS
  6
Continuous
 62
     7
100
AcDbLine
 10
103.8216322221
 20
25.4881174186
 30
0.0
 11
103.852906267
 21
25.5788393656
 31
0.0
  0
LWPOLYLINE
  5
161D
330
22B
100
AcDbEntity
  8
6_SURFACES_PATINS_SPECS
  6
Continuous
 62
     7
100
AcDbPolyline
 90
        3
 70
     0
 43
0.0
 10
103.852906267
 20
25.5788393656
 10
103.8895343263
 20
25.6849564517
 10
103.9101715366
 20
25.7446816938
  0
LINE
  5
161E
330
22B
100
AcDbEntity
  8
6_SURFACES_PATINS_SPECS
  6
Continuous
 62
     7
100
AcDbLine
 10
103.5566063126
 20
25.4980072882
 30
0.0
 11
102.9937360643
 21
23.9515339908
 31
0.0
  0
LWPOLYLINE
  5
161F
330
22B
100
AcDbEntity
  8
6_SURFACES_PATINS_SPECS
  6
Continuous
 62
     7
100
AcDbPolyline
 90
       12
 70
     0
 43
0.0
 10
103.2930777248
 20
24.7739694034
 10
103.3105085789
 20
24.8142183062
 10
103.3325474868
 20
24.8521985014
 10
103.3589074344
 20
24.8873803903
 10
103.3892255855
 20
24.9192562516
 10
103.4230793168
 20
24.9473705344
 10
103.4599925116
 20
24.9713249009
 10
103.4994522198
 20
24.9907879304
 10
103.5409168176
 20
25.00549426780001
 10
103.5838179306
 20
25.0152430348
 10
103.627567807
 20
25.0199003592
 10
103.6605694075
 20
25.0200106249
  0
LINE
  5
1621
330
22B
100
AcDbEntity
  8
DEFAULT_1
  6
CENTER
 62
     7
100
AcDbLine
 10
108.3627742323
 20
25.7485161779
 30
0.0
 11
108.3627742323
 21
19.1180112085
 31
0.0
  0
LINE
  5
1622
330
22B
100
AcDbEntity
  8
6_SURFACES_PATINS_SPECS
  6
Continuous
 62
     7
100
AcDbLine
 10
108.3627742323
 20
25.7485161779
 30
0.0
 11
108.3627742323
 21
25.5736183356
 31
0.0
  0
LINE
  5
1623
330
22B
100
AcDbEntity
  8
0
  6
Continuous
 62
     7
100
AcDbLine
 10
108.3627742323
 20
25.7485161779
 30
0.0
 11
108.3627742323
 21
25.9045466177
 31
0.0
  0
LWPOLYLINE
  5
1624
330
22B
100
AcDbEntity
  8
6_SURFACES_PATINS_SPECS
  6
Continuous
 62
     7
100
AcDbPolyline
 90
        4
 70
     0
 43
0.0
 10
103.6605694571
 20
25.0200106229
 10
103.661048573
 20
25.0209938297
 10
103.6627373368
 20
25.0255743406
 10
103.6651976613
 20
25.0326592753
  0
LWPOLYLINE
  5
1625
330
22B
100
AcDbEntity
  8
6_SURFACES_PATINS_SPECS
  6
Continuous
 62
     7
100
AcDbPolyline
 90
        5
 70
     0
 43
0.0
 10
113.0649789113
 20
25.0200111499
 10
113.0645167586
 20
25.0209521088
 10
113.0628553485
 20
25.0254494575
 10
113.0604190833
 20
25.0324603477
 10
113.0470799588
 20
25.0714109827
  0
LWPOLYLINE
  5
1626
330
22B
100
AcDbEntity
  8
6_SURFACES_PATINS_SPECS
  6
Continuous
 62
     7
100
AcDbPolyline
 90
        4
 70
     0
 43
0.0
 10
109.4006713229
 20
25.0433303715
 10
109.4059164517
 20
25.2692907548
 10
109.4111404645
 20
25.4971793993
 10
109.4163430497
 20
25.7270150211
  0
LWPOLYLINE
  5
1627
330
22B
100
AcDbEntity
  8
6_SURFACES_PATINS_SPECS
  6
Continuous
 62
     7
100
AcDbPolyline
 90
       11
 70
     0
 43
0.0
 10
113.1689421494
 20
25.4980073987
 10
113.1506332874
 20
25.5400950047
 10
113.1273179333
 20
25.5796298022
 10
113.0993454934
 20
25.6160193191
 10
113.0671351651
 20
25.6487182187
 10
113.0311696554
 20
25.6772364723
 10
112.9919879468
 20
25.70114670260001
 10
112.9501772199
 20
25.7200905889
 10
112.9063640542
 20
25.7337842361
 10
112.8612050378
 20
25.7420224302
 10
112.8153769279
 20
25.7446817127
  0
LINE
  5
1628
330
22B
100
AcDbEntity
  8
6_SURFACES_PATINS_SPECS
  6
Continuous
 62
     7
100
AcDbLine
 10
113.1689421491
 20
25.4980072961
 30
0.0
 11
113.7318124003
 21
23.9515339908
 31
0.0
  0
LINE
  5
1629
330
22B
100
AcDbEntity
  8
6_SURFACES_PATINS_SPECS
  6
Continuous
 62
     7
100
AcDbLine
 10
112.8551912545
 20
25.62941561320001
 30
0.0
 11
112.815376928
 21
25.7446816938
 31
0.0
  0
LINE
  5
162A
330
22B
100
AcDbEntity
  8
6_SURFACES_PATINS_SPECS
  6
Continuous
 62
     7
100
AcDbLine
 10
112.9041781989
 20
25.4873570604
 30
0.0
 11
112.8551912545
 21
25.62941561320001
 31
0.0
  0
LINE
  5
162B
330
22B
100
AcDbEntity
  8
6_SURFACES_PATINS_SPECS
  6
Continuous
 62
     7
100
AcDbLine
 10
112.9309622092
 20
25.4095730878
 30
0.0
 11
112.9041781989
 21
25.4873570604
 31
0.0
  0
LINE
  5
162C
330
22B
100
AcDbEntity
  8
6_SURFACES_PATINS_SPECS
  6
Continuous
 62
     7
100
AcDbLine
 10
112.9734977796
 20
25.2858788779
 30
0.0
 11
112.9309622092
 21
25.4095730878
 31
0.0
  0
LINE
  5
162D
330
22B
100
AcDbEntity
  8
6_SURFACES_PATINS_SPECS
  6
Continuous
 62
     7
100
AcDbLine
 10
112.9903196231
 20
25.236903842
 30
0.0
 11
112.9734977796
 21
25.2858788779
 31
0.0
  0
LINE
  5
162E
330
22B
100
AcDbEntity
  8
6_SURFACES_PATINS_SPECS
  6
Continuous
 62
     7
100
AcDbLine
 10
113.0047339859
 20
25.1949120647
 30
0.0
 11
112.9903196231
 21
25.236903842
 31
0.0
  0
LINE
  5
162F
330
22B
100
AcDbEntity
  8
6_SURFACES_PATINS_SPECS
  6
Continuous
 62
     7
100
AcDbLine
 10
113.0170552135
 20
25.158998926
 30
0.0
 11
113.0047339859
 21
25.1949120647
 31
0.0
  0
LWPOLYLINE
  5
1630
330
22B
100
AcDbEntity
  8
6_SURFACES_PATINS_SPECS
  6
Continuous
 62
     7
100
AcDbPolyline
 90
        3
 70
     0
 43
0.0
 10
113.0321811074
 20
25.1148868612
 10
113.0275485985
 20
25.1283996156
 10
113.0170552135
 20
25.158998926
  0
LWPOLYLINE
  5
1631
330
22B
100
AcDbEntity
  8
6_SURFACES_PATINS_SPECS
  6
Continuous
 62
     7
100
AcDbPolyline
 90
        4
 70
     0
 43
0.0
 10
113.0470799588
 20
25.0714109827
 10
113.0438622651
 20
25.0808023947
 10
113.0403191729
 20
25.09114240760001
 10
113.0321811074
 20
25.1148868612
  0
LINE
  5
1632
330
22B
100
AcDbEntity
  8
6_SURFACES_PATINS_SPECS
  6
Continuous
 62
     7
100
AcDbLine
 10
109.0945014717
 20
24.8805432079
 30
0.0
 11
109.0945758976
 21
24.8807534084
 31
0.0
  0
LWPOLYLINE
  5
1633
330
22B
100
AcDbEntity
  8
6_SURFACES_PATINS_SPECS
  6
Continuous
 62
     7
100
AcDbPolyline
 90
       19
 70
     0
 43
0.0
 10
109.0945012134
 20
24.880543218
 10
109.1060028706
 20
24.8963729756
 10
109.1242021468
 20
24.9183069499
 10
109.1432128171
 20
24.938016208
 10
109.1627799581
 20
24.9555832242
 10
109.1826664575
 20
24.97109903510001
 10
109.2026331781
 20
24.98465206400001
 10
109.2224609235
 20
24.9963481536
 10
109.2419139172
 20
25.0062894419
 10
109.2604738317
 20
25.014474546
 10
109.277477375
 20
25.0209297114
 10
109.2925447328
 20
25.0258528609
 10
109.3057988979
 20
25.0295798585
 10
109.317317878
 20
25.03236143510001
 10
109.3268158981
 20
25.0343267672
 10
109.3339706096
 20
25.0355976218
 10
109.3387383777
 20
25.0363298943
 10
109.3413272307
 20
25.0366777448
 10
109.3419785449
 20
25.0367564383
  0
LINE
  5
1634
330
22B
100
AcDbEntity
  8
6_SURFACES_PATINS_SPECS
  6
Continuous
 62
     7
100
AcDbLine
 10
109.0447303291
 20
24.8152638564
 30
0.0
 11
109.0945758976
 21
24.8807534084
 31
0.0
  0
LINE
  5
1635
330
22B
100
AcDbEntity
  8
6_SURFACES_PATINS_SPECS
  6
Continuous
 62
     7
100
AcDbLine
 10
109.122247837
 20
24.916246441
 30
0.0
 11
109.0945758976
 21
24.8807534084
 31
0.0
  0
LINE
  5
1636
330
22B
100
AcDbEntity
  8
6_SURFACES_PATINS_SPECS
  6
Continuous
 62
     7
100
AcDbLine
 10
108.9887828476
 20
24.7549016768
 30
0.0
 11
109.0447303291
 21
24.8152638564
 31
0.0
  0
LINE
  5
1637
330
22B
100
AcDbEntity
  8
6_SURFACES_PATINS_SPECS
  6
Continuous
 62
     7
100
AcDbLine
 10
109.1539739634
 20
24.94816896150001
 30
0.0
 11
109.122247837
 21
24.916246441
 31
0.0
  0
LINE
  5
1638
330
22B
100
AcDbEntity
  8
0
  6
Continuous
 62
     7
100
AcDbLine
 10
109.8993858846
 20
24.6695128322
 30
0.0
 11
110.2701795981
 21
25.0403065457
 31
0.0
  0
LWPOLYLINE
  5
1639
330
22B
100
AcDbEntity
  8
0
  6
Continuous
 62
     7
100
AcDbPolyline
 90
       12
 70
     0
 43
0.0
 10
110.2701716358
 20
25.04029865170001
 10
110.2737262631
 20
25.0437132866
 10
110.2840157051
 20
25.0522153513
 10
110.2935400748
 20
25.0585694487
 10
110.302010568
 20
25.0631962998
 10
110.3092190869
 20
25.0664539639
 10
110.314990795
 20
25.0686350021
 10
110.3193578174
 20
25.0700321986
 10
110.3224604453
 20
25.0708838245
 10
110.3244686345
 20
25.0713630859
 10
110.3255623742
 20
25.0715931145
 10
110.3258748144
 20
25.0716523818
  0
LINE
  5
163A
330
22B
100
AcDbEntity
  8
6_SURFACES_PATINS_SPECS
  6
Continuous
 62
     7
100
AcDbLine
 10
108.927258061
 20
24.7002328598
 30
0.0
 11
108.9887828476
 21
24.7549016768
 31
0.0
  0
LINE
  5
163B
330
22B
100
AcDbEntity
  8
6_SURFACES_PATINS_SPECS
  6
Continuous
 62
     7
100
AcDbLine
 10
109.189297184
 20
24.9760610475
 30
0.0
 11
109.1539739634
 21
24.94816896150001
 31
0.0
  0
LINE
  5
163C
330
22B
100
AcDbEntity
  8
6_SURFACES_PATINS_SPECS
  6
Continuous
 62
     7
100
AcDbLine
 10
108.8607329132
 20
24.6517700581
 30
0.0
 11
108.927258061
 21
24.7002328598
 31
0.0
  0
LINE
  5
163D
330
22B
100
AcDbEntity
  8
6_SURFACES_PATINS_SPECS
  6
Continuous
 62
     7
100
AcDbLine
 10
108.7898312392
 20
24.6099677281
 30
0.0
 11
108.8607329132
 21
24.6517700581
 31
0.0
  0
LINE
  5
163E
330
22B
100
AcDbEntity
  8
0
  6
Continuous
 62
     7
100
AcDbLine
 10
123.0019378435
 20
43.01651228659999
 30
0.0
 11
121.7997756391
 21
42.9038095799
 31
0.0
  0
LINE
  5
163F
330
22B
100
AcDbEntity
  8
0
  6
Continuous
 62
     7
100
AcDbLine
 10
91.7268742323
 20
42.2471778752
 30
0.0
 11
92.42527423229999
 21
42.2471778752
 31
0.0
  0
LINE
  5
1640
330
22B
100
AcDbEntity
  8
0
  6
Continuous
 62
     7
100
AcDbLine
 10
91.6752742323
 20
42.2471778752
 30
0.0
 11
91.7268742323
 21
42.2471778752
 31
0.0
  0
LINE
  5
1641
330
22B
100
AcDbEntity
  8
0
  6
Continuous
 62
     7
100
AcDbLine
 10
91.84376788360001
 20
43.0404820277
 30
0.0
 11
94.889142281
 21
42.8907095164
 31
0.0
  0
LINE
  5
1642
330
22B
100
AcDbEntity
  8
DEFAULT_1
  6
CENTER
 62
     7
100
AcDbLine
 10
119.2516954919
 20
39.9704590563
 30
0.0
 11
122.4605274204
 21
39.4046554107
 31
0.0
  0
LWPOLYLINE
  5
1643
330
22B
100
AcDbEntity
  8
6_SURFACES_PATINS_SPECS
  6
Continuous
 62
     7
100
AcDbPolyline
 90
       21
 70
     0
 43
0.0
 10
112.8153769279
 20
25.7446817127
 10
112.8201065825
 20
25.7473882646
 10
112.8360261752
 20
25.7501018144
 10
112.862922583
 20
25.75280197630001
 10
112.9005733983
 20
25.7554683613
 10
112.9487537924
 20
25.7580832503
 10
113.0072133469
 20
25.7606294423
 10
113.0756120406
 20
25.7630937307
 10
113.1535469063
 20
25.7654616977
 10
113.240426782
 20
25.7677136956
 10
113.3357058217
 20
25.7698345652
 10
113.4390019321
 20
25.7718144252
 10
113.5498321833
 20
25.7736454607
 10
113.6673946502
 20
25.7753156137
 10
113.7907317688
 20
25.776813726
 10
113.919066352
 20
25.7781321336
 10
114.0516710559
 20
25.7792667505
 10
114.188683008
 20
25.7802223779
 10
114.3290241731
 20
25.78099330820001
 10
114.4707870379
 20
25.7815742972
 10
114.6119855669
 20
25.7819654639
  0
LINE
  5
1644
330
22B
100
AcDbEntity
  8
6_SURFACES_PATINS_SPECS
  6
Continuous
 62
     7
100
AcDbLine
 10
108.715217914
 20
24.5752178682
 30
0.0
 11
108.7898312392
 21
24.6099677281
 31
0.0
  0
LINE
  5
1645
330
22B
100
AcDbEntity
  8
6_SURFACES_PATINS_SPECS
  6
Continuous
 62
     7
100
AcDbLine
 10
108.6375926187
 20
24.5478463425
 30
0.0
 11
108.715217914
 21
24.5752178682
 31
0.0
  0
LWPOLYLINE
  5
1646
330
22B
100
AcDbEntity
  8
0
  6
Continuous
 62
     7
100
AcDbPolyline
 90
       15
 70
     0
 43
0.0
 10
122.7222431493
 20
43.0405748506
 10
122.7523495566
 20
43.041773556
 10
122.7819323802
 20
43.04278210439999
 10
122.810593102
 20
43.043606261
 10
122.838037543
 20
43.04424671129999
 10
122.8640805792
 20
43.0447055559
 10
122.888382787
 20
43.0449807572
 10
122.9106396598
 20
43.0450715176
 10
122.9305622397
 20
43.0449778035
 10
122.9479037624
 20
43.04469983939999
 10
122.9624444438
 20
43.04423838179999
 10
122.9740006759
 20
43.0435951832
 10
122.9824298659
 20
43.042772676
 10
122.9876219171
 20
43.0417755938
 10
122.9893645444
 20
43.0405898102
  0
LWPOLYLINE
  5
1647
330
22B
100
AcDbEntity
  8
0
  6
Continuous
 62
     7
100
AcDbPolyline
 90
       13
 70
     0
 43
0.0
 10
121.7111149164
 20
43.01651228659999
 10
121.8072645363
 20
43.0166606847
 10
121.8893726093
 20
43.0172757913
 10
121.9635975604
 20
43.01816732609999
 10
122.0356990519
 20
43.0193071591
 10
122.1077220985
 20
43.0206924322
 10
122.1795780885
 20
43.02230240350001
 10
122.2514823184
 20
43.0241270455
 10
122.3260680418
 20
43.0262332172
 10
122.4072541754
 20
43.0287584922
 10
122.4986680122
 20
43.03187186439999
 10
122.6029817934
 20
43.0357503979
 10
122.7222431493
 20
43.0405748506
  0
LINE
  5
1648
330
22B
100
AcDbEntity
  8
0
  6
Continuous
 62
     7
100
AcDbLine
 10
92.2708319818
 20
42.87948960219999
 30
0.0
 11
92.842626278
 21
42.87948960219999
 31
0.0
  0
LINE
  5
1649
330
22B
100
AcDbEntity
  8
0
  6
Continuous
 62
     7
100
AcDbLine
 10
92.2708319818
 20
42.93108960219999
 30
0.0
 11
92.842626278
 21
42.93108960219999
 31
0.0
  0
LINE
  5
164A
330
22B
100
AcDbEntity
  8
0
  6
Continuous
 62
     7
100
AcDbLine
 10
93.6244762151
 20
43.01651228659999
 30
0.0
 11
121.7111149164
 21
43.01651228659999
 31
0.0
  0
LWPOLYLINE
  5
164B
330
22B
100
AcDbEntity
  8
0
  6
Continuous
 62
     7
100
AcDbPolyline
 90
       19
 70
     0
 43
0.0
 10
91.84024307500001
 20
43.05782884470001
 10
92.00876583629998
 20
43.052074621
 10
92.1564847994
 20
43.04722095609999
 10
92.28711328959999
 20
43.04308916399999
 10
92.40574772020002
 20
43.03947858579999
 10
92.51742173450001
 20
43.0362148145
 10
92.625106151
 20
43.0332037599
 10
92.72890964930001
 20
43.0304399209
 10
92.82812981680001
 20
43.0279388738
 10
92.92305162629999
 20
43.02569003499999
 10
93.01368411090001
 20
43.0236909678
 10
93.09945470379998
 20
43.0219498352
 10
93.18154099799999
 20
43.0204396942
 10
93.26271176490001
 20
43.01911992119999
 10
93.3450903307
 20
43.0179887701
 10
93.42671813589999
 20
43.01711880729999
 10
93.5009918751
 20
43.0165965008
 10
93.5643808562
 20
43.0164078068
 10
93.6244762151
 20
43.01651228659999
  0
LWPOLYLINE
  5
164C
330
22B
100
AcDbEntity
  8
6_SURFACES_PATINS_SPECS
  6
Continuous
 62
     7
100
AcDbPolyline
 90
        3
 70
     0
 43
0.0
 10
116.1849814817
 20
25.1984627266
 10
116.1820849109
 20
25.1904858296
 10
116.1817784156
 20
25.1873673002
  0
LINE
  5
164D
330
22B
100
AcDbEntity
  8
6_SURFACES_PATINS_SPECS
  6
Continuous
 62
     7
100
AcDbLine
 10
115.4937360643
 20
23.9515339908
 30
0.0
 11
116.0623919339
 21
25.5139031519
 31
0.0
  0
LINE
  5
164E
330
22B
100
AcDbEntity
  8
6_SURFACES_PATINS_SPECS
  6
Continuous
 62
     7
100
AcDbLine
 10
116.2022765301
 20
25.2413988944
 30
0.0
 11
116.1849814817
 21
25.1984627266
 31
0.0
  0
LINE
  5
164F
330
22B
100
AcDbEntity
  8
6_SURFACES_PATINS_SPECS
  6
Continuous
 62
     7
100
AcDbLine
 10
116.2129653229
 20
25.2679027311
 30
0.0
 11
116.2022765301
 21
25.2413988944
 31
0.0
  0
LINE
  5
1650
330
22B
100
AcDbEntity
  8
6_SURFACES_PATINS_SPECS
  6
Continuous
 62
     7
100
AcDbLine
 10
116.2326424884
 20
25.3166595124
 30
0.0
 11
116.2129653229
 21
25.2679027311
 31
0.0
  0
LINE
  5
1651
330
22B
100
AcDbEntity
  8
6_SURFACES_PATINS_SPECS
  6
Continuous
 62
     7
100
AcDbLine
 10
116.2770122333
 20
25.4264351116
 30
0.0
 11
116.2326424884
 21
25.3166595124
 31
0.0
  0
LINE
  5
1652
330
22B
100
AcDbEntity
  8
6_SURFACES_PATINS_SPECS
  6
Continuous
 62
     7
100
AcDbLine
 10
116.3126424713
 20
25.5144233151
 30
0.0
 11
116.2770122333
 21
25.4264351116
 31
0.0
  0
LINE
  5
1653
330
22B
100
AcDbEntity
  8
6_SURFACES_PATINS_SPECS
  6
Continuous
 62
     7
100
AcDbLine
 10
116.3411783588
 20
25.5847869045
 30
0.0
 11
116.3126424713
 21
25.5144233151
 31
0.0
  0
LINE
  5
1654
330
22B
100
AcDbEntity
  8
6_SURFACES_PATINS_SPECS
  6
Continuous
 62
     7
100
AcDbLine
 10
116.3742645179
 20
25.6662541168
 30
0.0
 11
116.3411783588
 21
25.5847869045
 31
0.0
  0
LINE
  5
1655
330
22B
100
AcDbEntity
  8
6_SURFACES_PATINS_SPECS
  6
Continuous
 62
     7
100
AcDbLine
 10
116.4126448978
 20
25.76060179340001
 30
0.0
 11
116.3742645179
 21
25.6662541168
 31
0.0
  0
LWPOLYLINE
  5
1656
330
22B
100
AcDbEntity
  8
6_SURFACES_PATINS_SPECS
  6
Continuous
 62
     7
100
AcDbPolyline
 90
       12
 70
     0
 43
0.0
 10
115.8540306132
 20
24.9414349778
 10
115.8690350282
 20
24.9768830321
 10
115.8881689215
 20
25.0115312143
 10
115.9112377648
 20
25.0444677507
 10
115.9379583631
 20
25.075009191
 10
115.9679377369
 20
25.1025793267
 10
116.0006975101
 20
25.1267140372
 10
116.0358202944
 20
25.1471270725
 10
116.0729131291
 20
25.1636088721
 10
116.1115681206
 20
25.1759845996
 10
116.1513641207
 20
25.1841146226
 10
116.1817783238
 20
25.1873672942
  0
LINE
  5
1657
330
22B
100
AcDbEntity
  8
6_SURFACES_PATINS_SPECS
  6
Continuous
 62
     7
100
AcDbLine
 10
115.8664771233
 20
24.9708399607
 30
0.0
 11
115.8692536348
 21
24.9772788911
 31
0.0
  0
LWPOLYLINE
  5
1658
330
22B
100
AcDbEntity
  8
6_SURFACES_PATINS_SPECS
  6
Continuous
 62
     7
100
AcDbPolyline
 90
       11
 70
     0
 43
0.0
 10
116.0623919585
 20
25.5139032195
 10
116.0805513581
 20
25.555698458
 10
116.1036473825
 20
25.5949819574
 10
116.1313388954
 20
25.6311734867
 10
116.1632168834
 20
25.6637384845
 10
116.1988104975
 20
25.6921959543
 10
116.2375940076
 20
25.7161255694
 10
116.2789945678
 20
25.735173881
 10
116.3224006773
 20
25.749059539
 10
116.3671712128
 20
25.7575774473
 10
116.4126448978
 20
25.76060179340001
  0
LWPOLYLINE
  5
1659
330
22B
100
AcDbEntity
  8
0
  6
Continuous
 62
     7
100
AcDbPolyline
 90
        4
 70
     0
 43
0.0
 10
91.81049654620002
 20
43.0399010067
 10
91.82522126280002
 20
43.04070527079999
 10
91.8402038492
 20
43.0406318278
 10
91.8437678725
 20
43.04048202829999
  0
LINE
  5
165A
330
22B
100
AcDbEntity
  8
0
  6
Continuous
 62
     7
100
AcDbLine
 10
91.50128897549999
 20
44.1846778752
 30
0.0
 11
123.3841035505
 21
44.1846778752
 31
0.0
  0
LINE
  5
165B
330
22B
100
AcDbEntity
  8
0
  6
Continuous
 62
     7
100
AcDbLine
 10
121.5134300602
 20
42.60006055199999
 30
0.0
 11
118.781728745
 21
27.1078125465
 31
0.0
  0
LINE
  5
165C
330
22B
100
AcDbEntity
  8
6_SURFACES_PATINS_SPECS
  6
Continuous
 62
     7
100
AcDbLine
 10
116.1817784156
 20
25.1873673002
 30
0.0
 11
116.1849016452
 21
25.1909406553
 31
0.0
  0
LINE
  5
165D
330
22B
100
AcDbEntity
  8
0
  6
Continuous
 62
     7
100
AcDbLine
 10
123.3841035548
 20
44.1846778752
 30
0.0
 11
123.3414211533
 21
43.3702491377
 31
0.0
  0
LWPOLYLINE
  5
165E
330
22B
100
AcDbEntity
  8
0
  6
Continuous
 62
     7
100
AcDbPolyline
 90
       16
 70
     0
 43
0.0
 10
123.3427193156
 20
43.3950204706
 10
123.3390353993
 20
43.35871084649999
 10
123.3318329824
 20
43.32293216319999
 10
123.3211801955
 20
43.2880231831
 10
123.307178279
 20
43.2543159128
 10
123.2899600659
 20
43.2221300721
 10
123.2696889429
 20
43.1917710776
 10
123.2465572665
 20
43.16352701
 10
123.2207845371
 20
43.137665881
 10
123.1926153166
 20
43.1144330906
 10
123.1623169073
 20
43.09404909709999
 10
123.1301768153
 20
43.0767073259
 10
123.0965000229
 20
43.0625723338
 10
123.0616060938
 20
43.051778248
 10
123.0258261414
 20
43.04442749249999
 10
122.9894996855
 20
43.04058980229999
  0
LWPOLYLINE
  5
165F
330
22B
100
AcDbEntity
  8
0
  6
Continuous
 62
     7
100
AcDbPolyline
 90
       13
 70
     0
 43
0.0
 10
122.9893645444
 20
43.0405898102
 10
122.9905617154
 20
43.03536762180001
 10
122.99155116
 20
43.0311693415
 10
122.9924847827
 20
43.02785753569999
 10
122.993363847
 20
43.0252717797
 10
122.9942067863
 20
43.02321323149999
 10
122.9950415305
 20
43.02150275699999
 10
122.9959157369
 20
43.02003273079999
 10
122.9968584023
 20
43.0187828976
 10
122.9978821506
 20
43.01777701499999
 10
122.9990178167
 20
43.01703310609999
 10
123.0003197525
 20
43.0165853643
 10
123.0019378435
 20
43.01651228659999
  0
ARC
  5
16CA
330
22B
100
AcDbEntity
  8
DEFAULT_2
  6
HIDDEN
 62
     7
100
AcDbCircle
 10
121.8827329676
 20
42.5349424854
 30
0.0
 40
0.5
100
AcDbArc
 50
95.35582504290001
 51
170.0
  0
ARC
  5
16CB
330
22B
100
AcDbEntity
  8
DEFAULT_2
  6
HIDDEN
 62
     7
100
AcDbCircle
 10
94.84591181889999
 20
42.51738237139999
 30
0.0
 40
0.5
100
AcDbArc
 50
10.0
 51
87.1844433158
  0
ARC
  5
16D0
330
22B
100
AcDbEntity
  8
DEFAULT_2
  6
HIDDEN
 62
     7
100
AcDbCircle
 10
109.6342208417
 20
24.9346778752
 30
0.0
 40
0.25
100
AcDbArc
 50
270.0
 51
315.0
  0
ARC
  5
16D1
330
22B
100
AcDbEntity
  8
DEFAULT_2
  6
HIDDEN
 62
     7
100
AcDbCircle
 10
107.0913276229
 20
24.9346778752
 30
0.0
 40
0.25
100
AcDbArc
 50
225.0
 51
270.0
  0
ARC
  5
16D2
330
22B
100
AcDbEntity
  8
DEFAULT_2
  6
HIDDEN
 62
     7
100
AcDbCircle
 10
120.9128676299
 20
40.0507188686
 30
0.0
 40
0.07
100
AcDbArc
 50
80.0
 51
170.0
  0
ARC
  5
16D3
330
22B
100
AcDbEntity
  8
DEFAULT_2
  6
HIDDEN
 62
     7
100
AcDbCircle
 10
120.7852362193
 20
39.3268851702
 30
0.0
 40
0.07
100
AcDbArc
 50
170.0
 51
260.0
  0
ARC
  5
16D9
330
22B
100
AcDbEntity
  8
0
  6
Continuous
 62
     7
100
AcDbCircle
 10
92.9167951376
 20
25.3314778752
 30
0.0
 40
0.1141
100
AcDbArc
 50
81.5
 51
90.0
  0
CIRCLE
  5
16DA
330
22B
100
AcDbEntity
  8
0
  6
Continuous
 62
     7
100
AcDbCircle
 10
92.1752742323
 20
24.0651278752
 30
0.0
 40
0.0703125
  0
CIRCLE
  5
16DB
330
22B
100
AcDbEntity
  8
0
  6
Continuous
 62
     7
100
AcDbCircle
 10
92.1752742323
 20
25.0651278752
 30
0.0
 40
0.0703125
  0
ARC
  5
16DC
330
22B
100
AcDbEntity
  8
0
  6
Continuous
 62
     7
100
AcDbCircle
 10
92.9167951376
 20
25.3314778752
 30
0.0
 40
0.0625
100
AcDbArc
 50
81.5
 51
90.0
  0
ARC
  5
16DD
330
22B
100
AcDbEntity
  8
6_SURFACES_PATINS_SPECS
  6
Continuous
 62
     7
100
AcDbCircle
 10
102.1127742323
 20
24.2721778752
 30
0.0
 40
0.9375
100
AcDbArc
 50
200.0
 51
340.0
  0
ARC
  5
16DE
330
22B
100
AcDbEntity
  8
0
  6
Continuous
 62
     7
100
AcDbCircle
 10
107.0913276229
 20
24.9346778752
 30
0.0
 40
0.375
100
AcDbArc
 50
225.0
 51
270.0
  0
ARC
  5
16DF
330
22B
100
AcDbEntity
  8
0
  6
Continuous
 62
     7
100
AcDbCircle
 10
100.036536053
 20
27.4768157278
 30
0.0
 40
2.125
100
AcDbArc
 50
190.0
 51
266.0535987024
  0
ARC
  5
16E0
330
22B
100
AcDbEntity
  8
0
  6
Continuous
 62
     7
100
AcDbCircle
 10
94.84591181889999
 20
42.51738237139999
 30
0.0
 40
0.375
100
AcDbArc
 50
10.0
 51
87.1844433158
  0
ARC
  5
16E1
330
22B
100
AcDbEntity
  8
0
  6
Continuous
 62
     7
100
AcDbCircle
 10
91.83148764379998
 20
42.7907838184
 30
0.0
 40
0.25
100
AcDbArc
 50
87.18444330690001
 51
176.0348202301
  0
ARC
  5
16E2
330
22B
100
AcDbEntity
  8
0
  6
Continuous
 62
     7
100
AcDbCircle
 10
92.2708319818
 20
42.81698960219999
 30
0.0
 40
0.1141
100
AcDbArc
 50
90.0
 51
140.0
  0
ARC
  5
16E3
330
22B
100
AcDbEntity
  8
0
  6
Continuous
 62
     7
100
AcDbCircle
 10
91.7784742323
 20
42.2471778752
 30
0.0
 40
0.1032
100
AcDbArc
 50
140.0
 51
180.0
  0
ARC
  5
16E4
330
22B
100
AcDbEntity
  8
0
  6
Continuous
 62
     7
100
AcDbCircle
 10
92.2708319818
 20
42.81698960219999
 30
0.0
 40
0.0625
100
AcDbArc
 50
90.0
 51
140.0
  0
ARC
  5
16E5
330
22B
100
AcDbEntity
  8
0
  6
Continuous
 62
     7
100
AcDbCircle
 10
91.7784742323
 20
42.2471778752
 30
0.0
 40
0.0516
100
AcDbArc
 50
140.0
 51
180.0
  0
ARC
  5
16E6
330
22B
100
AcDbEntity
  8
0
  6
Continuous
 62
     7
100
AcDbCircle
 10
109.6342208417
 20
24.9346778752
 30
0.0
 40
0.375
100
AcDbArc
 50
270.0
 51
315.0
  0
ARC
  5
16E7
330
22B
100
AcDbEntity
  8
6_SURFACES_PATINS_SPECS
  6
Continuous
 62
     7
100
AcDbCircle
 10
114.6127742323
 20
24.2721778752
 30
0.0
 40
0.9375
100
AcDbArc
 50
200.0
 51
340.0
  0
ARC
  5
16E8
330
22B
100
AcDbEntity
  8
0
  6
Continuous
 62
     7
100
AcDbCircle
 10
116.6890124113
 20
27.4768157263
 30
0.0
 40
2.125
100
AcDbArc
 50
273.9463999788
 51
350.0
  0
ARC
  5
16E9
330
22B
100
AcDbEntity
  8
0
  6
Continuous
 62
     7
100
AcDbCircle
 10
122.9669350778
 20
43.3898751213
 30
0.0
 40
0.375
100
AcDbArc
 50
275.3558250429
 51
357.0
  0
ARC
  5
16EA
330
22B
100
AcDbEntity
  8
0
  6
Continuous
 62
     7
100
AcDbCircle
 10
121.8827329676
 20
42.5349424854
 30
0.0
 40
0.375
100
AcDbArc
 50
95.35582504290001
 51
170.0
  0
ELLIPSE
  5
16F4
330
22B
100
AcDbEntity
  8
0
  6
Continuous
 62
     7
100
AcDbEllipse
 10
91.8315242323
 20
40.7897160686
 30
0.0
 11
0.0
 21
7.1652459785
 31
0.0
210
0.0
220
0.0
230
1.0
 40
0.0523359562
 41
1.077184634199999
 42
1.1967718065
  0
ELLIPSE
  5
16F5
330
22B
100
AcDbEntity
  8
0
  6
Continuous
 62
     7
100
AcDbEllipse
 10
91.8315242323
 20
40.7897160686
 30
0.0
 11
0.0
 21
4.7768306523
 31
0.0
210
0.0
220
0.0
230
1.0
 40
0.0523359562
 41
0.7802832719000001
 42
0.9907687595999998
  0
ENDSEC
  0
SECTION
  2
OBJECTS
  0
DICTIONARY
  5
C
330
0
100
AcDbDictionary
281
     1
  3
ACAD_COLOR
350
172B
  3
ACAD_GROUP
350
D
  3
ACAD_LAYOUT
350
1A
  3
ACAD_MATERIAL
350
16FE
  3
ACAD_MLEADERSTYLE
350
1750
  3
ACAD_MLINESTYLE
350
17
  3
ACAD_PLOTSETTINGS
350
19
  3
ACAD_PLOTSTYLENAME
350
E
  3
ACAD_SCALELIST
350
172E
  3
ACAD_TABLESTYLE
350
172C
  3
ACAD_VISUALSTYLE
350
1717
  3
ACDB_RECOMPOSE_DATA
350
1754
  3
AcDbVariableDictionary
350
1786
  0
DICTIONARY
  5
1755
330
8
100
AcDbDictionary
280
     1
281
     1
  0
DICTIONARY
  5
1795
330
10
100
AcDbDictionary
280
     1
281
     1
  3
ADSK_XREC_LAYER_RECONCILED
360
1796
  0
DICTIONARY
  5
1797
330
1FA
100
AcDbDictionary
280
     1
281
     1
  3
ADSK_XREC_LAYER_RECONCILED
360
1798
  0
DICTIONARY
  5
1799
330
1FB
100
AcDbDictionary
280
     1
281
     1
  3
ADSK_XREC_LAYER_RECONCILED
360
179A
  0
DICTIONARY
  5
179B
330
1FC
100
AcDbDictionary
280
     1
281
     1
  3
ADSK_XREC_LAYER_RECONCILED
360
179C
  0
DICTIONARY
  5
179D
330
1FD
100
AcDbDictionary
280
     1
281
     1
  3
ADSK_XREC_LAYER_RECONCILED
360
179E
  0
DICTIONARY
  5
179F
330
1FE
100
AcDbDictionary
280
     1
281
     1
  3
ADSK_XREC_LAYER_RECONCILED
360
17A0
  0
DICTIONARY
  5
17A1
330
1FF
100
AcDbDictionary
280
     1
281
     1
  3
ADSK_XREC_LAYER_RECONCILED
360
17A2
  0
DICTIONARY
  5
17A3
330
200
100
AcDbDictionary
280
     1
281
     1
  3
ADSK_XREC_LAYER_RECONCILED
360
17A4
  0
DICTIONARY
  5
17A5
330
201
100
AcDbDictionary
280
     1
281
     1
  3
ADSK_XREC_LAYER_RECONCILED
360
17A6
  0
DICTIONARY
  5
17A7
330
202
100
AcDbDictionary
280
     1
281
     1
  3
ADSK_XREC_LAYER_RECONCILED
360
17A8
  0
DICTIONARY
  5
17A9
330
203
100
AcDbDictionary
280
     1
281
     1
  3
ADSK_XREC_LAYER_RECONCILED
360
17AA
  0
DICTIONARY
  5
17AB
330
204
100
AcDbDictionary
280
     1
281
     1
  3
ADSK_XREC_LAYER_RECONCILED
360
17AC
  0
DICTIONARY
  5
17AD
330
205
100
AcDbDictionary
280
     1
281
     1
  3
ADSK_XREC_LAYER_RECONCILED
360
17AE
  0
DICTIONARY
  5
17AF
330
206
100
AcDbDictionary
280
     1
281
     1
  3
ADSK_XREC_LAYER_RECONCILED
360
17B0
  0
DICTIONARY
  5
17B1
330
207
100
AcDbDictionary
280
     1
281
     1
  3
ADSK_XREC_LAYER_RECONCILED
360
17B2
  0
DICTIONARY
  5
17B3
330
208
100
AcDbDictionary
280
     1
281
     1
  3
ADSK_XREC_LAYER_RECONCILED
360
17B4
  0
DICTIONARY
  5
17B5
330
209
100
AcDbDictionary
280
     1
281
     1
  3
ADSK_XREC_LAYER_RECONCILED
360
17B6
  0
DICTIONARY
  5
17B7
330
20A
100
AcDbDictionary
280
     1
281
     1
  3
ADSK_XREC_LAYER_RECONCILED
360
17B8
  0
DICTIONARY
  5
17B9
330
20B
100
AcDbDictionary
280
     1
281
     1
  3
ADSK_XREC_LAYER_RECONCILED
360
17BA
  0
DICTIONARY
  5
17BB
330
20C
100
AcDbDictionary
280
     1
281
     1
  3
ADSK_XREC_LAYER_RECONCILED
360
17BC
  0
DICTIONARY
  5
17BD
330
20D
100
AcDbDictionary
280
     1
281
     1
  3
ADSK_XREC_LAYER_RECONCILED
360
17BE
  0
DICTIONARY
  5
17BF
330
20E
100
AcDbDictionary
280
     1
281
     1
  3
ADSK_XREC_LAYER_RECONCILED
360
17C0
  0
DICTIONARY
  5
17C1
330
20F
100
AcDbDictionary
280
     1
281
     1
  3
ADSK_XREC_LAYER_RECONCILED
360
17C2
  0
DICTIONARY
  5
17C3
330
210
100
AcDbDictionary
280
     1
281
     1
  3
ADSK_XREC_LAYER_RECONCILED
360
17C4
  0
DICTIONARY
  5
17C5
330
211
100
AcDbDictionary
280
     1
281
     1
  3
ADSK_XREC_LAYER_RECONCILED
360
17C6
  0
DICTIONARY
  5
17C7
330
212
100
AcDbDictionary
280
     1
281
     1
  3
ADSK_XREC_LAYER_RECONCILED
360
17C8
  0
DICTIONARY
  5
17C9
330
213
100
AcDbDictionary
280
     1
281
     1
  3
ADSK_XREC_LAYER_RECONCILED
360
17CA
  0
DICTIONARY
  5
17CB
330
214
100
AcDbDictionary
280
     1
281
     1
  3
ADSK_XREC_LAYER_RECONCILED
360
17CC
  0
DICTIONARY
  5
17CD
330
215
100
AcDbDictionary
280
     1
281
     1
  3
ADSK_XREC_LAYER_RECONCILED
360
17CE
  0
DICTIONARY
  5
17CF
330
216
100
AcDbDictionary
280
     1
281
     1
  3
ADSK_XREC_LAYER_RECONCILED
360
17D0
  0
DICTIONARY
  5
17D1
330
217
100
AcDbDictionary
280
     1
281
     1
  3
ADSK_XREC_LAYER_RECONCILED
360
17D2
  0
DICTIONARY
  5
17D3
330
218
100
AcDbDictionary
280
     1
281
     1
  3
ADSK_XREC_LAYER_RECONCILED
360
17D4
  0
DICTIONARY
  5
17D5
330
219
100
AcDbDictionary
280
     1
281
     1
  3
ADSK_XREC_LAYER_RECONCILED
360
17D6
  0
DICTIONARY
  5
17D7
330
21A
100
AcDbDictionary
280
     1
281
     1
  3
ADSK_XREC_LAYER_RECONCILED
360
17D8
  0
DICTIONARY
  5
17D9
330
21B
100
AcDbDictionary
280
     1
281
     1
  3
ADSK_XREC_LAYER_RECONCILED
360
17DA
  0
DICTIONARY
  5
17DB
330
21C
100
AcDbDictionary
280
     1
281
     1
  3
ADSK_XREC_LAYER_RECONCILED
360
17DC
  0
DICTIONARY
  5
17DD
330
21D
100
AcDbDictionary
280
     1
281
     1
  3
ADSK_XREC_LAYER_RECONCILED
360
17DE
  0
DICTIONARY
  5
17DF
330
21E
100
AcDbDictionary
280
     1
281
     1
  3
ADSK_XREC_LAYER_RECONCILED
360
17E0
  0
DICTIONARY
  5
17E1
330
21F
100
AcDbDictionary
280
     1
281
     1
  3
ADSK_XREC_LAYER_RECONCILED
360
17E2
  0
DICTIONARY
  5
17E3
330
220
100
AcDbDictionary
280
     1
281
     1
  3
ADSK_XREC_LAYER_RECONCILED
360
17E4
  0
DICTIONARY
  5
17E5
330
221
100
AcDbDictionary
280
     1
281
     1
  3
ADSK_XREC_LAYER_RECONCILED
360
17E6
  0
DICTIONARY
  5
17E7
330
222
100
AcDbDictionary
280
     1
281
     1
  3
ADSK_XREC_LAYER_RECONCILED
360
17E8
  0
DICTIONARY
  5
172B
102
{ACAD_REACTORS
330
C
102
}
330
C
100
AcDbDictionary
281
     1
  0
DICTIONARY
  5
D
102
{ACAD_REACTORS
330
C
102
}
330
C
100
AcDbDictionary
281
     1
  0
DICTIONARY
  5
1A
102
{ACAD_REACTORS
330
C
102
}
330
C
100
AcDbDictionary
281
     1
  3
Layout1
350
16FB
  3
Model
350
16FA
  0
DICTIONARY
  5
16FE
102
{ACAD_REACTORS
330
C
102
}
330
C
100
AcDbDictionary
281
     1
  3
ByBlock
350
1707
  3
ByLayer
350
16FF
  3
Global
350
170F
  0
DICTIONARY
  5
1750
102
{ACAD_REACTORS
330
C
102
}
330
C
100
AcDbDictionary
281
     1
  3
Standard
350
1751
  0
DICTIONARY
  5
17
102
{ACAD_REACTORS
330
C
102
}
330
C
100
AcDbDictionary
281
     1
  3
Standard
350
18
  0
DICTIONARY
  5
19
102
{ACAD_REACTORS
330
C
102
}
330
C
100
AcDbDictionary
281
     1
  0
ACDBDICTIONARYWDFLT
  5
E
102
{ACAD_REACTORS
330
C
102
}
330
C
100
AcDbDictionary
281
     1
  3
Normal
350
F
100
AcDbDictionaryWithDefault
340
F
  0
DICTIONARY
  5
172E
102
{ACAD_REACTORS
330
C
102
}
330
C
100
AcDbDictionary
281
     1
  3
A0
350
172F
  3
A1
350
1730
  3
A2
350
1731
  3
A3
350
1732
  3
A4
350
1733
  3
A5
350
1734
  3
A6
350
1735
  3
A7
350
1736
  3
A8
350
1737
  3
A9
350
1738
  3
B0
350
1739
  3
B1
350
173A
  3
B2
350
173B
  3
B3
350
173C
  3
B4
350
173D
  3
B5
350
173E
  3
B6
350
173F
  3
B7
350
1740
  3
B8
350
1741
  3
B9
350
1742
  3
C0
350
1743
  3
C1
350
1744
  3
C2
350
1745
  3
C3
350
1746
  3
C4
350
1747
  3
C5
350
1748
  3
C6
350
1749
  3
C7
350
174A
  3
C8
350
174B
  3
C9
350
174C
  3
D0
350
174D
  3
D1
350
174E
  3
D2
350
174F
  0
DICTIONARY
  5
172C
102
{ACAD_REACTORS
330
C
102
}
330
C
100
AcDbDictionary
281
     1
  3
Standard
350
172D
  0
DICTIONARY
  5
1717
102
{ACAD_REACTORS
330
C
102
}
330
C
100
AcDbDictionary
281
     1
  3
2dWireframe
350
171D
  3
3D Hidden
350
171F
  3
3dWireframe
350
171E
  3
Basic
350
171C
  3
Brighten
350
1723
  3
ColorChange
350
1727
  3
Conceptual
350
1720
  3
Dim
350
1722
  3
EdgeColorOff
350
172A
  3
Facepattern
350
1726
  3
Flat
350
1718
  3
FlatWithEdges
350
1719
  3
Gouraud
350
171A
  3
GouraudWithEdges
350
171B
  3
JitterOff
350
1728
  3
Linepattern
350
1725
  3
OverhangOff
350
1729
  3
Realistic
350
1721
  3
Thicken
350
1724
  0
XRECORD
  5
1754
102
{ACAD_REACTORS
330
C
102
}
330
C
100
AcDbXrecord
280
     1
 90
        1
330
172D
  0
DICTIONARY
  5
1786
102
{ACAD_REACTORS
330
C
102
}
330
C
100
AcDbDictionary
281
     1
  3
CANNOSCALE
350
1789
  3
CMLEADERSTYLE
350
1788
  3
CTABLESTYLE
350
1787
  3
DIMASSOC
350
178C
  3
INDEXCTL
350
178B
  3
LAYEREVAL
350
17EC
  3
LAYERNOTIFY
350
17ED
  3
LIGHTINGUNITS
350
17EB
  3
MSLTSCALE
350
17EA
  3
SORTENTS
350
178A
  3
XCLIPFRAME
350
178D
  0
XRECORD
  5
1796
102
{ACAD_REACTORS
330
1795
102
}
330
1795
100
AcDbXrecord
280
     1
290
     1
  0
XRECORD
  5
1798
102
{ACAD_REACTORS
330
1797
102
}
330
1797
100
AcDbXrecord
280
     1
290
     1
  0
XRECORD
  5
179A
102
{ACAD_REACTORS
330
1799
102
}
330
1799
100
AcDbXrecord
280
     1
290
     1
  0
XRECORD
  5
179C
102
{ACAD_REACTORS
330
179B
102
}
330
179B
100
AcDbXrecord
280
     1
290
     1
  0
XRECORD
  5
179E
102
{ACAD_REACTORS
330
179D
102
}
330
179D
100
AcDbXrecord
280
     1
290
     1
  0
XRECORD
  5
17A0
102
{ACAD_REACTORS
330
179F
102
}
330
179F
100
AcDbXrecord
280
     1
290
     1
  0
XRECORD
  5
17A2
102
{ACAD_REACTORS
330
17A1
102
}
330
17A1
100
AcDbXrecord
280
     1
290
     1
  0
XRECORD
  5
17A4
102
{ACAD_REACTORS
330
17A3
102
}
330
17A3
100
AcDbXrecord
280
     1
290
     1
  0
XRECORD
  5
17A6
102
{ACAD_REACTORS
330
17A5
102
}
330
17A5
100
AcDbXrecord
280
     1
290
     1
  0
XRECORD
  5
17A8
102
{ACAD_REACTORS
330
17A7
102
}
330
17A7
100
AcDbXrecord
280
     1
290
     1
  0
XRECORD
  5
17AA
102
{ACAD_REACTORS
330
17A9
102
}
330
17A9
100
AcDbXrecord
280
     1
290
     1
  0
XRECORD
  5
17AC
102
{ACAD_REACTORS
330
17AB
102
}
330
17AB
100
AcDbXrecord
280
     1
290
     1
  0
XRECORD
  5
17AE
102
{ACAD_REACTORS
330
17AD
102
}
330
17AD
100
AcDbXrecord
280
     1
290
     1
  0
XRECORD
  5
17B0
102
{ACAD_REACTORS
330
17AF
102
}
330
17AF
100
AcDbXrecord
280
     1
290
     1
  0
XRECORD
  5
17B2
102
{ACAD_REACTORS
330
17B1
102
}
330
17B1
100
AcDbXrecord
280
     1
290
     1
  0
XRECORD
  5
17B4
102
{ACAD_REACTORS
330
17B3
102
}
330
17B3
100
AcDbXrecord
280
     1
290
     1
  0
XRECORD
  5
17B6
102
{ACAD_REACTORS
330
17B5
102
}
330
17B5
100
AcDbXrecord
280
     1
290
     1
  0
XRECORD
  5
17B8
102
{ACAD_REACTORS
330
17B7
102
}
330
17B7
100
AcDbXrecord
280
     1
290
     1
  0
XRECORD
  5
17BA
102
{ACAD_REACTORS
330
17B9
102
}
330
17B9
100
AcDbXrecord
280
     1
290
     1
  0
XRECORD
  5
17BC
102
{ACAD_REACTORS
330
17BB
102
}
330
17BB
100
AcDbXrecord
280
     1
290
     1
  0
XRECORD
  5
17BE
102
{ACAD_REACTORS
330
17BD
102
}
330
17BD
100
AcDbXrecord
280
     1
290
     1
  0
XRECORD
  5
17C0
102
{ACAD_REACTORS
330
17BF
102
}
330
17BF
100
AcDbXrecord
280
     1
290
     1
  0
XRECORD
  5
17C2
102
{ACAD_REACTORS
330
17C1
102
}
330
17C1
100
AcDbXrecord
280
     1
290
     1
  0
XRECORD
  5
17C4
102
{ACAD_REACTORS
330
17C3
102
}
330
17C3
100
AcDbXrecord
280
     1
290
     1
  0
XRECORD
  5
17C6
102
{ACAD_REACTORS
330
17C5
102
}
330
17C5
100
AcDbXrecord
280
     1
290
     1
  0
XRECORD
  5
17C8
102
{ACAD_REACTORS
330
17C7
102
}
330
17C7
100
AcDbXrecord
280
     1
290
     1
  0
XRECORD
  5
17CA
102
{ACAD_REACTORS
330
17C9
102
}
330
17C9
100
AcDbXrecord
280
     1
290
     1
  0
XRECORD
  5
17CC
102
{ACAD_REACTORS
330
17CB
102
}
330
17CB
100
AcDbXrecord
280
     1
290
     1
  0
XRECORD
  5
17CE
102
{ACAD_REACTORS
330
17CD
102
}
330
17CD
100
AcDbXrecord
280
     1
290
     1
  0
XRECORD
  5
17D0
102
{ACAD_REACTORS
330
17CF
102
}
330
17CF
100
AcDbXrecord
280
     1
290
     1
  0
XRECORD
  5
17D2
102
{ACAD_REACTORS
330
17D1
102
}
330
17D1
100
AcDbXrecord
280
     1
290
     1
  0
XRECORD
  5
17D4
102
{ACAD_REACTORS
330
17D3
102
}
330
17D3
100
AcDbXrecord
280
     1
290
     1
  0
XRECORD
  5
17D6
102
{ACAD_REACTORS
330
17D5
102
}
330
17D5
100
AcDbXrecord
280
     1
290
     1
  0
XRECORD
  5
17D8
102
{ACAD_REACTORS
330
17D7
102
}
330
17D7
100
AcDbXrecord
280
     1
290
     1
  0
XRECORD
  5
17DA
102
{ACAD_REACTORS
330
17D9
102
}
330
17D9
100
AcDbXrecord
280
     1
290
     1
  0
XRECORD
  5
17DC
102
{ACAD_REACTORS
330
17DB
102
}
330
17DB
100
AcDbXrecord
280
     1
290
     1
  0
XRECORD
  5
17DE
102
{ACAD_REACTORS
330
17DD
102
}
330
17DD
100
AcDbXrecord
280
     1
290
     1
  0
XRECORD
  5
17E0
102
{ACAD_REACTORS
330
17DF
102
}
330
17DF
100
AcDbXrecord
280
     1
290
     1
  0
XRECORD
  5
17E2
102
{ACAD_REACTORS
330
17E1
102
}
330
17E1
100
AcDbXrecord
280
     1
290
     1
  0
XRECORD
  5
17E4
102
{ACAD_REACTORS
330
17E3
102
}
330
17E3
100
AcDbXrecord
280
     1
290
     1
  0
XRECORD
  5
17E6
102
{ACAD_REACTORS
330
17E5
102
}
330
17E5
100
AcDbXrecord
280
     1
290
     1
  0
XRECORD
  5
17E8
102
{ACAD_REACTORS
330
17E7
102
}
330
17E7
100
AcDbXrecord
280
     1
290
     1
  0
LAYOUT
  5
16FB
102
{ACAD_REACTORS
330
1A
102
}
330
1A
100
AcDbPlotSettings
  1

  2
none_device
  4
ANSI_B_(17.00_x_11.00_Inches)
  6

 40
0.0
 41
0.0
 42
0.0
 43
0.0
 44
431.8
 45
279.4
 46
0.0
 47
0.0
 48
0.0
 49
0.0
140
0.0
141
0.0
142
1.0
143
1.0
 70
     0
 72
     0
 73
     0
 74
     0
  7

 75
     0
147
1.0
 76
     0
 77
     2
 78
   300
148
0.0
149
0.0
100
AcDbLayout
  1
Layout1
 70
     1
 71
     1
 10
0.0
 20
0.0
 11
12.0
 21
9.0
 12
0.0
 22
0.0
 32
0.0
 14
1.000000000000000E+20
 24
1.000000000000000E+20
 34
1.000000000000000E+20
 15
-1.000000000000000E+20
 25
-1.000000000000000E+20
 35
-1.000000000000000E+20
146
0.0
 13
0.0
 23
0.0
 33
0.0
 16
1.0
 26
0.0
 36
0.0
 17
0.0
 27
1.0
 37
0.0
 76
     0
330
22C
  0
LAYOUT
  5
16FA
102
{ACAD_REACTORS
330
1A
102
}
330
1A
100
AcDbPlotSettings
  1

  2
none_device
  4
ANSI_B_(17.00_x_11.00_Inches)
  6

 40
0.0
 41
0.0
 42
0.0
 43
0.0
 44
431.8
 45
279.4
 46
0.0
 47
0.0
 48
0.0
 49
0.0
140
0.0
141
0.0
142
1.0
143
1.0
 70
  1024
 72
     0
 73
     0
 74
     0
  7

 75
     0
147
1.0
 76
     0
 77
     2
 78
   300
148
0.0
149
0.0
100
AcDbLayout
  1
Model
 70
     0
 71
     0
 10
0.0
 20
0.0
 11
17.0
 21
11.0
 12
0.0
 22
0.0
 32
0.0
 14
0.0
 24
0.0
 34
0.0
 15
0.0
 25
0.0
 35
0.0
146
0.0
 13
0.0
 23
0.0
 33
0.0
 16
1.0
 26
0.0
 36
0.0
 17
0.0
 27
1.0
 37
0.0
 76
     0
330
22B
331
1F4
  0
MATERIAL
  5
1707
102
{ACAD_XDICTIONARY
360
1708
102
}
102
{ACAD_REACTORS
330
16FE
102
}
330
16FE
100
AcDbMaterial
  1
ByBlock
 72
     0
 43
0.0208333333333333
 43
0.0
 43
0.0
 43
0.0
 43
0.0
 43
0.0208333333333333
 43
0.0
 43
0.0
 43
0.0
 43
0.0
 43
1.0
 43
0.0
 43
0.0
 43
0.0
 43
0.0
 43
1.0
 77
     0
 47
0.0208333333333333
 47
0.0
 47
0.0
 47
0.0
 47
0.0
 47
0.0208333333333333
 47
0.0
 47
0.0
 47
0.0
 47
0.0
 47
1.0
 47
0.0
 47
0.0
 47
0.0
 47
0.0
 47
1.0
171
     0
 49
0.0208333333333333
 49
0.0
 49
0.0
 49
0.0
 49
0.0
 49
0.0208333333333333
 49
0.0
 49
0.0
 49
0.0
 49
0.0
 49
1.0
 49
0.0
 49
0.0
 49
0.0
 49
0.0
 49
1.0
175
     0
142
0.0208333333333333
142
0.0
142
0.0
142
0.0
142
0.0
142
0.0208333333333333
142
0.0
142
0.0
142
0.0
142
0.0
142
1.0
142
0.0
142
0.0
142
0.0
142
0.0
142
1.0
179
     0
144
0.0208333333333333
144
0.0
144
0.0
144
0.0
144
0.0
144
0.0208333333333333
144
0.0
144
0.0
144
0.0
144
0.0
144
1.0
144
0.0
144
0.0
144
0.0
144
0.0
144
1.0
147
0.0208333333333333
147
0.0
147
0.0
147
0.0
147
0.0
147
0.0208333333333333
147
0.0
147
0.0
147
0.0
147
0.0
147
1.0
147
0.0
147
0.0
147
0.0
147
0.0
147
1.0
  0
MATERIAL
  5
16FF
102
{ACAD_XDICTIONARY
360
1700
102
}
102
{ACAD_REACTORS
330
16FE
102
}
330
16FE
100
AcDbMaterial
  1
ByLayer
 72
     0
 43
0.0208333333333333
 43
0.0
 43
0.0
 43
0.0
 43
0.0
 43
0.0208333333333333
 43
0.0
 43
0.0
 43
0.0
 43
0.0
 43
1.0
 43
0.0
 43
0.0
 43
0.0
 43
0.0
 43
1.0
 77
     0
 47
0.0208333333333333
 47
0.0
 47
0.0
 47
0.0
 47
0.0
 47
0.0208333333333333
 47
0.0
 47
0.0
 47
0.0
 47
0.0
 47
1.0
 47
0.0
 47
0.0
 47
0.0
 47
0.0
 47
1.0
171
     0
 49
0.0208333333333333
 49
0.0
 49
0.0
 49
0.0
 49
0.0
 49
0.0208333333333333
 49
0.0
 49
0.0
 49
0.0
 49
0.0
 49
1.0
 49
0.0
 49
0.0
 49
0.0
 49
0.0
 49
1.0
175
     0
142
0.0208333333333333
142
0.0
142
0.0
142
0.0
142
0.0
142
0.0208333333333333
142
0.0
142
0.0
142
0.0
142
0.0
142
1.0
142
0.0
142
0.0
142
0.0
142
0.0
142
1.0
179
     0
144
0.0208333333333333
144
0.0
144
0.0
144
0.0
144
0.0
144
0.0208333333333333
144
0.0
144
0.0
144
0.0
144
0.0
144
1.0
144
0.0
144
0.0
144
0.0
144
0.0
144
1.0
147
0.0208333333333333
147
0.0
147
0.0
147
0.0
147
0.0
147
0.0208333333333333
147
0.0
147
0.0
147
0.0
147
0.0
147
1.0
147
0.0
147
0.0
147
0.0
147
0.0
147
1.0
  0
MATERIAL
  5
170F
102
{ACAD_XDICTIONARY
360
1710
102
}
102
{ACAD_REACTORS
330
16FE
102
}
330
16FE
100
AcDbMaterial
  1
Global
 72
     0
 43
0.0208333333333333
 43
0.0
 43
0.0
 43
0.0
 43
0.0
 43
0.0208333333333333
 43
0.0
 43
0.0
 43
0.0
 43
0.0
 43
1.0
 43
0.0
 43
0.0
 43
0.0
 43
0.0
 43
1.0
 77
     0
 47
0.0208333333333333
 47
0.0
 47
0.0
 47
0.0
 47
0.0
 47
0.0208333333333333
 47
0.0
 47
0.0
 47
0.0
 47
0.0
 47
1.0
 47
0.0
 47
0.0
 47
0.0
 47
0.0
 47
1.0
171
     0
 49
0.0208333333333333
 49
0.0
 49
0.0
 49
0.0
 49
0.0
 49
0.0208333333333333
 49
0.0
 49
0.0
 49
0.0
 49
0.0
 49
1.0
 49
0.0
 49
0.0
 49
0.0
 49
0.0
 49
1.0
175
     0
142
0.0208333333333333
142
0.0
142
0.0
142
0.0
142
0.0
142
0.0208333333333333
142
0.0
142
0.0
142
0.0
142
0.0
142
1.0
142
0.0
142
0.0
142
0.0
142
0.0
142
1.0
179
     0
144
0.0208333333333333
144
0.0
144
0.0
144
0.0
144
0.0
144
0.0208333333333333
144
0.0
144
0.0
144
0.0
144
0.0
144
1.0
144
0.0
144
0.0
144
0.0
144
0.0
144
1.0
147
0.0208333333333333
147
0.0
147
0.0
147
0.0
147
0.0
147
0.0208333333333333
147
0.0
147
0.0
147
0.0
147
0.0
147
1.0
147
0.0
147
0.0
147
0.0
147
0.0
147
1.0
  0
MLEADERSTYLE
  5
1751
102
{ACAD_REACTORS
330
1750
102
}
330
1750
100
AcDbMLeaderStyle
170
     2
171
     1
172
     0
 90
        2
 40
0.0
 41
0.0
173
     1
 91
-1056964608
340
14
 92
       -2
290
     1
 42
0.09
291
     1
 43
0.36
  3
Standard
 44
0.18
300

342
11
174
     1
178
     6
175
     1
176
     0
 93
-1056964608
 45
0.18
292
     0
297
     0
 46
0.18
 94
-1056964608
 47
1.0
 49
1.0
140
1.0
293
     1
141
0.0
294
     1
177
     0
142
1.0
295
     0
296
     0
143
0.125
1001
ACAD_MLEADERVER
1070
     2
  0
MLINESTYLE
  5
18
102
{ACAD_REACTORS
330
17
102
}
330
17
100
AcDbMlineStyle
  2
STANDARD
 70
     0
  3

 62
   256
 51
90.0
 52
90.0
 71
     2
 49
0.5
 62
   256
  6
BYLAYER
 49
-0.5
 62
   256
  6
BYLAYER
  0
ACDBPLACEHOLDER
  5
F
102
{ACAD_REACTORS
330
E
102
}
330
E
  0
SCALE
  5
172F
102
{ACAD_REACTORS
330
172E
102
}
330
172E
100
AcDbScale
 70
     0
300
1:1
140
1.0
141
1.0
290
     1
  0
SCALE
  5
1730
102
{ACAD_REACTORS
330
172E
102
}
330
172E
100
AcDbScale
 70
     0
300
1:2
140
1.0
141
2.0
290
     0
  0
SCALE
  5
1731
102
{ACAD_REACTORS
330
172E
102
}
330
172E
100
AcDbScale
 70
     0
300
1:4
140
1.0
141
4.0
290
     0
  0
SCALE
  5
1732
102
{ACAD_REACTORS
330
172E
102
}
330
172E
100
AcDbScale
 70
     0
300
1:5
140
1.0
141
5.0
290
     0
  0
SCALE
  5
1733
102
{ACAD_REACTORS
330
172E
102
}
330
172E
100
AcDbScale
 70
     0
300
1:8
140
1.0
141
8.0
290
     0
  0
SCALE
  5
1734
102
{ACAD_REACTORS
330
172E
102
}
330
172E
100
AcDbScale
 70
     0
300
1:10
140
1.0
141
10.0
290
     0
  0
SCALE
  5
1735
102
{ACAD_REACTORS
330
172E
102
}
330
172E
100
AcDbScale
 70
     0
300
1:16
140
1.0
141
16.0
290
     0
  0
SCALE
  5
1736
102
{ACAD_REACTORS
330
172E
102
}
330
172E
100
AcDbScale
 70
     0
300
1:20
140
1.0
141
20.0
290
     0
  0
SCALE
  5
1737
102
{ACAD_REACTORS
330
172E
102
}
330
172E
100
AcDbScale
 70
     0
300
1:30
140
1.0
141
30.0
290
     0
  0
SCALE
  5
1738
102
{ACAD_REACTORS
330
172E
102
}
330
172E
100
AcDbScale
 70
     0
300
1:40
140
1.0
141
40.0
290
     0
  0
SCALE
  5
1739
102
{ACAD_REACTORS
330
172E
102
}
330
172E
100
AcDbScale
 70
     0
300
1:50
140
1.0
141
50.0
290
     0
  0
SCALE
  5
173A
102
{ACAD_REACTORS
330
172E
102
}
330
172E
100
AcDbScale
 70
     0
300
1:100
140
1.0
141
100.0
290
     0
  0
SCALE
  5
173B
102
{ACAD_REACTORS
330
172E
102
}
330
172E
100
AcDbScale
 70
     0
300
2:1
140
2.0
141
1.0
290
     0
  0
SCALE
  5
173C
102
{ACAD_REACTORS
330
172E
102
}
330
172E
100
AcDbScale
 70
     0
300
4:1
140
4.0
141
1.0
290
     0
  0
SCALE
  5
173D
102
{ACAD_REACTORS
330
172E
102
}
330
172E
100
AcDbScale
 70
     0
300
8:1
140
8.0
141
1.0
290
     0
  0
SCALE
  5
173E
102
{ACAD_REACTORS
330
172E
102
}
330
172E
100
AcDbScale
 70
     0
300
10:1
140
10.0
141
1.0
290
     0
  0
SCALE
  5
173F
102
{ACAD_REACTORS
330
172E
102
}
330
172E
100
AcDbScale
 70
     0
300
100:1
140
100.0
141
1.0
290
     0
  0
SCALE
  5
1740
102
{ACAD_REACTORS
330
172E
102
}
330
172E
100
AcDbScale
 70
     0
300
1/128" = 1'-0"
140
0.0078125
141
12.0
290
     0
  0
SCALE
  5
1741
102
{ACAD_REACTORS
330
172E
102
}
330
172E
100
AcDbScale
 70
     0
300
1/64" = 1'-0"
140
0.015625
141
12.0
290
     0
  0
SCALE
  5
1742
102
{ACAD_REACTORS
330
172E
102
}
330
172E
100
AcDbScale
 70
     0
300
1/32" = 1'-0"
140
0.03125
141
12.0
290
     0
  0
SCALE
  5
1743
102
{ACAD_REACTORS
330
172E
102
}
330
172E
100
AcDbScale
 70
     0
300
1/16" = 1'-0"
140
0.0625
141
12.0
290
     0
  0
SCALE
  5
1744
102
{ACAD_REACTORS
330
172E
102
}
330
172E
100
AcDbScale
 70
     0
300
3/32" = 1'-0"
140
0.09375
141
12.0
290
     0
  0
SCALE
  5
1745
102
{ACAD_REACTORS
330
172E
102
}
330
172E
100
AcDbScale
 70
     0
300
1/8" = 1'-0"
140
0.125
141
12.0
290
     0
  0
SCALE
  5
1746
102
{ACAD_REACTORS
330
172E
102
}
330
172E
100
AcDbScale
 70
     0
300
3/16" = 1'-0"
140
0.1875
141
12.0
290
     0
  0
SCALE
  5
1747
102
{ACAD_REACTORS
330
172E
102
}
330
172E
100
AcDbScale
 70
     0
300
1/4" = 1'-0"
140
0.25
141
12.0
290
     0
  0
SCALE
  5
1748
102
{ACAD_REACTORS
330
172E
102
}
330
172E
100
AcDbScale
 70
     0
300
3/8" = 1'-0"
140
0.375
141
12.0
290
     0
  0
SCALE
  5
1749
102
{ACAD_REACTORS
330
172E
102
}
330
172E
100
AcDbScale
 70
     0
300
1/2" = 1'-0"
140
0.5
141
12.0
290
     0
  0
SCALE
  5
174A
102
{ACAD_REACTORS
330
172E
102
}
330
172E
100
AcDbScale
 70
     0
300
3/4" = 1'-0"
140
0.75
141
12.0
290
     0
  0
SCALE
  5
174B
102
{ACAD_REACTORS
330
172E
102
}
330
172E
100
AcDbScale
 70
     0
300
1" = 1'-0"
140
1.0
141
12.0
290
     0
  0
SCALE
  5
174C
102
{ACAD_REACTORS
330
172E
102
}
330
172E
100
AcDbScale
 70
     0
300
1-1/2" = 1'-0"
140
1.5
141
12.0
290
     0
  0
SCALE
  5
174D
102
{ACAD_REACTORS
330
172E
102
}
330
172E
100
AcDbScale
 70
     0
300
3" = 1'-0"
140
3.0
141
12.0
290
     0
  0
SCALE
  5
174E
102
{ACAD_REACTORS
330
172E
102
}
330
172E
100
AcDbScale
 70
     0
300
6" = 1'-0"
140
6.0
141
12.0
290
     0
  0
SCALE
  5
174F
102
{ACAD_REACTORS
330
172E
102
}
330
172E
100
AcDbScale
 70
     0
300
1'-0" = 1'-0"
140
12.0
141
12.0
290
     0
  0
TABLESTYLE
  5
172D
102
{ACAD_XDICTIONARY
360
1752
102
}
102
{ACAD_REACTORS
330
172C
102
}
330
172C
100
AcDbTableStyle
  3
Standard
 70
     0
 71
     0
 40
0.06
 41
0.06
280
     0
281
     0
  7
STANDARD
140
0.18
170
     2
 62
     0
 63
     7
283
     0
 90
      512
 91
        0
  1

274
    -2
284
     1
 64
     0
275
    -2
285
     1
 65
     0
276
    -2
286
     1
 66
     0
277
    -2
287
     1
 67
     0
278
    -2
288
     1
 68
     0
279
    -2
289
     1
 69
     0
  7
STANDARD
140
0.25
170
     5
 62
     0
 63
     7
283
     0
 90
      512
 91
        0
  1

274
    -2
284
     1
 64
     0
275
    -2
285
     1
 65
     0
276
    -2
286
     1
 66
     0
277
    -2
287
     1
 67
     0
278
    -2
288
     1
 68
     0
279
    -2
289
     1
 69
     0
  7
STANDARD
140
0.18
170
     5
 62
     0
 63
     7
283
     0
 90
      512
 91
        0
  1

274
    -2
284
     1
 64
     0
275
    -2
285
     1
 65
     0
276
    -2
286
     1
 66
     0
277
    -2
287
     1
 67
     0
278
    -2
288
     1
 68
     0
279
    -2
289
     1
 69
     0
  0
VISUALSTYLE
  5
171D
102
{ACAD_XDICTIONARY
360
1768
102
}
102
{ACAD_REACTORS
330
1717
102
}
330
1717
100
AcDbVisualStyle
  2
2dWireframe
 70
     4
 71
     0
 72
     2
 73
     0
 90
        0
 40
-0.6
 41
-30.0
 62
     5
 63
     7
 74
     1
 91
        4
 64
     7
 65
   257
 75
     1
175
     1
 42
1.0
 92
        0
 66
   257
 43
1.0
 76
     1
 77
     6
 78
     2
 67
     7
 79
     5
170
     0
171
     0
290
     0
174
     0
 93
        1
 44
0.0
173
     0
291
     0
 45
0.0
  0
VISUALSTYLE
  5
171F
102
{ACAD_XDICTIONARY
360
176C
102
}
102
{ACAD_REACTORS
330
1717
102
}
330
1717
100
AcDbVisualStyle
  2
3D Hidden
 70
     6
 71
     1
 72
     2
 73
     2
 90
        0
 40
-0.6
 41
-30.0
 62
     5
 63
     7
 74
     2
 91
        2
 64
     7
 65
   257
 75
     2
175
     1
 42
179.0
 92
        0
 66
   257
 43
1.0
 76
     1
 77
     6
 78
     2
 67
     7
 79
     3
170
     0
171
     0
290
     0
174
     0
 93
        1
 44
0.0
173
     0
291
     0
 45
0.0
  0
VISUALSTYLE
  5
171E
102
{ACAD_XDICTIONARY
360
176A
102
}
102
{ACAD_REACTORS
330
1717
102
}
330
1717
100
AcDbVisualStyle
  2
3dWireframe
 70
     5
 71
     0
 72
     2
 73
     0
 90
        0
 40
-0.6
 41
-30.0
 62
     5
 63
     7
 74
     1
 91
        4
 64
     7
 65
   257
 75
     1
175
     1
 42
1.0
 92
        0
 66
   257
 43
1.0
 76
     1
 77
     6
 78
     2
 67
     7
 79
     5
170
     0
171
     0
290
     0
174
     0
 93
        1
 44
0.0
173
     0
291
     0
 45
0.0
  0
VISUALSTYLE
  5
171C
102
{ACAD_XDICTIONARY
360
1766
102
}
102
{ACAD_REACTORS
330
1717
102
}
330
1717
100
AcDbVisualStyle
  2
Basic
 70
     7
 71
     1
 72
     0
 73
     1
 90
        0
 40
-0.6
 41
-30.0
 62
     5
 63
     7
 74
     0
 91
        4
 64
     7
 65
   257
 75
     1
175
     1
 42
1.0
 92
        8
 66
     7
 43
1.0
 76
     1
 77
     6
 78
     2
 67
     7
 79
     5
170
     0
171
     0
290
     0
174
     0
 93
        1
 44
0.0
173
     0
291
     1
 45
0.0
  0
VISUALSTYLE
  5
1723
102
{ACAD_XDICTIONARY
360
1774
102
}
102
{ACAD_REACTORS
330
1717
102
}
330
1717
100
AcDbVisualStyle
  2
Brighten
 70
    12
 71
     2
 72
     2
 73
     0
 90
        0
 40
-0.6
 41
-30.0
 62
     5
 63
     7
 74
     1
 91
        4
 64
     7
 65
   257
 75
     1
175
     1
 42
1.0
 92
        8
 66
     7
 43
1.0
 76
     1
 77
     6
 78
     2
 67
     7
 79
     5
170
     0
171
     0
290
     0
174
     0
 93
        1
 44
50.0
173
     0
291
     1
 45
0.0
  0
VISUALSTYLE
  5
1727
102
{ACAD_XDICTIONARY
360
177C
102
}
102
{ACAD_REACTORS
330
1717
102
}
330
1717
100
AcDbVisualStyle
  2
ColorChange
 70
    16
 71
     2
 72
     2
 73
     3
 90
        0
 40
-0.6
 41
-30.0
 62
     5
 63
     8
 74
     1
 91
        4
 64
     7
 65
   257
 75
     1
175
     1
 42
1.0
 92
        8
 66
     8
 43
1.0
 76
     1
 77
     6
 78
     2
 67
     7
 79
     5
170
     0
171
     0
290
     0
174
     0
 93
        1
 44
0.0
173
     0
291
     1
 45
0.0
  0
VISUALSTYLE
  5
1720
102
{ACAD_XDICTIONARY
360
176E
102
}
102
{ACAD_REACTORS
330
1717
102
}
330
1717
100
AcDbVisualStyle
  2
Conceptual
 70
     9
 71
     3
 72
     2
 73
     0
 90
        0
 40
-0.6
 41
-30.0
 62
     5
 63
     7
 74
     2
 91
        2
 64
     7
 65
   257
 75
     1
175
     1
 42
179.0
 92
        8
 66
     7
 43
1.0
 76
     1
 77
     6
 78
     2
 67
     7
 79
     3
170
     0
171
     0
290
     0
174
     0
 93
        1
 44
0.0
173
     0
291
     0
 45
0.0
  0
VISUALSTYLE
  5
1722
102
{ACAD_XDICTIONARY
360
1772
102
}
102
{ACAD_REACTORS
330
1717
102
}
330
1717
100
AcDbVisualStyle
  2
Dim
 70
    11
 71
     2
 72
     2
 73
     0
 90
        0
 40
-0.6
 41
-30.0
 62
     5
 63
     7
 74
     1
 91
        4
 64
     7
 65
   257
 75
     1
175
     1
 42
1.0
 92
        8
 66
     7
 43
1.0
 76
     1
 77
     6
 78
     2
 67
     7
 79
     5
170
     0
171
     0
290
     0
174
     0
 93
        1
 44
-50.0
173
     0
291
     1
 45
0.0
  0
VISUALSTYLE
  5
172A
102
{ACAD_XDICTIONARY
360
1782
102
}
102
{ACAD_REACTORS
330
1717
102
}
330
1717
100
AcDbVisualStyle
  2
EdgeColorOff
 70
    22
 71
     2
 72
     2
 73
     0
 90
        0
 40
-0.6
 41
-30.0
 62
     5
 63
     7
 74
     1
 91
        4
 64
     7
 65
   257
 75
     1
175
     1
 42
1.0
 92
        8
 66
     7
 43
1.0
 76
     1
 77
     6
 78
     2
 67
     7
 79
     5
170
     0
171
     0
290
     0
174
     0
 93
        1
 44
0.0
173
     0
291
     1
 45
0.0
  0
VISUALSTYLE
  5
1726
102
{ACAD_XDICTIONARY
360
177A
102
}
102
{ACAD_REACTORS
330
1717
102
}
330
1717
100
AcDbVisualStyle
  2
Facepattern
 70
    15
 71
     2
 72
     2
 73
     0
 90
        0
 40
-0.6
 41
-30.0
 62
     5
 63
     7
 74
     1
 91
        4
 64
     7
 65
   257
 75
     1
175
     1
 42
1.0
 92
        8
 66
     7
 43
1.0
 76
     1
 77
     6
 78
     2
 67
     7
 79
     5
170
     0
171
     0
290
     0
174
     0
 93
        1
 44
0.0
173
     0
291
     1
 45
0.0
  0
VISUALSTYLE
  5
1718
102
{ACAD_XDICTIONARY
360
175E
102
}
102
{ACAD_REACTORS
330
1717
102
}
330
1717
100
AcDbVisualStyle
  2
Flat
 70
     0
 71
     2
 72
     1
 73
     1
 90
        2
 40
-0.6
 41
30.0
 62
     5
 63
     7
 74
     0
 91
        4
 64
     7
 65
   257
 75
     1
175
     1
 42
1.0
 92
        8
 66
     7
 43
1.0
 76
     1
 77
     6
 78
     2
 67
     7
 79
     5
170
     0
171
     0
290
     0
174
     0
 93
       13
 44
0.0
173
     0
291
     1
 45
0.0
  0
VISUALSTYLE
  5
1719
102
{ACAD_XDICTIONARY
360
1760
102
}
102
{ACAD_REACTORS
330
1717
102
}
330
1717
100
AcDbVisualStyle
  2
FlatWithEdges
 70
     1
 71
     2
 72
     1
 73
     1
 90
        2
 40
-0.6
 41
30.0
 62
     5
 63
     7
 74
     1
 91
        4
 64
     7
 65
   257
 75
     1
175
     1
 42
1.0
 92
        0
 66
   257
 43
1.0
 76
     1
 77
     6
 78
     2
 67
     7
 79
     5
170
     0
171
     0
290
     0
174
     0
 93
       13
 44
0.0
173
     0
291
     1
 45
0.0
  0
VISUALSTYLE
  5
171A
102
{ACAD_XDICTIONARY
360
1762
102
}
102
{ACAD_REACTORS
330
1717
102
}
330
1717
100
AcDbVisualStyle
  2
Gouraud
 70
     2
 71
     2
 72
     2
 73
     1
 90
        2
 40
-0.6
 41
30.0
 62
     5
 63
     7
 74
     0
 91
        4
 64
     7
 65
   257
 75
     1
175
     1
 42
1.0
 92
        0
 66
     7
 43
1.0
 76
     1
 77
     6
 78
     2
 67
     7
 79
     5
170
     0
171
     0
290
     0
174
     0
 93
       13
 44
0.0
173
     0
291
     1
 45
0.0
  0
VISUALSTYLE
  5
171B
102
{ACAD_XDICTIONARY
360
1764
102
}
102
{ACAD_REACTORS
330
1717
102
}
330
1717
100
AcDbVisualStyle
  2
GouraudWithEdges
 70
     3
 71
     2
 72
     2
 73
     1
 90
        2
 40
-0.6
 41
30.0
 62
     5
 63
     7
 74
     1
 91
        4
 64
     7
 65
   257
 75
     1
175
     1
 42
1.0
 92
        0
 66
   257
 43
1.0
 76
     1
 77
     6
 78
     2
 67
     7
 79
     5
170
     0
171
     0
290
     0
174
     0
 93
       13
 44
0.0
173
     0
291
     1
 45
0.0
  0
VISUALSTYLE
  5
1728
102
{ACAD_XDICTIONARY
360
177E
102
}
102
{ACAD_REACTORS
330
1717
102
}
330
1717
100
AcDbVisualStyle
  2
JitterOff
 70
    20
 71
     2
 72
     2
 73
     0
 90
        0
 40
-0.6
 41
-30.0
 62
     5
 63
     7
 74
     1
 91
        4
 64
     7
 65
   257
 75
     1
175
     1
 42
1.0
 92
       10
 66
     7
 43
1.0
 76
     1
 77
     6
 78
     2
 67
     7
 79
     5
170
     0
171
     0
290
     0
174
     0
 93
        1
 44
0.0
173
     0
291
     1
 45
0.0
  0
VISUALSTYLE
  5
1725
102
{ACAD_XDICTIONARY
360
1778
102
}
102
{ACAD_REACTORS
330
1717
102
}
330
1717
100
AcDbVisualStyle
  2
Linepattern
 70
    14
 71
     2
 72
     2
 73
     0
 90
        0
 40
-0.6
 41
-30.0
 62
     5
 63
     7
 74
     1
 91
        4
 64
     7
 65
   257
 75
     7
175
     7
 42
1.0
 92
        8
 66
     7
 43
1.0
 76
     1
 77
     6
 78
     2
 67
     7
 79
     5
170
     0
171
     0
290
     0
174
     0
 93
        1
 44
0.0
173
     0
291
     1
 45
0.0
  0
VISUALSTYLE
  5
1729
102
{ACAD_XDICTIONARY
360
1780
102
}
102
{ACAD_REACTORS
330
1717
102
}
330
1717
100
AcDbVisualStyle
  2
OverhangOff
 70
    21
 71
     2
 72
     2
 73
     0
 90
        0
 40
-0.6
 41
-30.0
 62
     5
 63
     7
 74
     1
 91
        4
 64
     7
 65
   257
 75
     1
175
     1
 42
1.0
 92
        9
 66
     7
 43
1.0
 76
     1
 77
     6
 78
     2
 67
     7
 79
     5
170
     0
171
     0
290
     0
174
     0
 93
        1
 44
0.0
173
     0
291
     1
 45
0.0
  0
VISUALSTYLE
  5
1721
102
{ACAD_XDICTIONARY
360
1770
102
}
102
{ACAD_REACTORS
330
1717
102
}
330
1717
100
AcDbVisualStyle
  2
Realistic
 70
     8
 71
     2
 72
     2
 73
     0
 90
        0
 40
-0.6
 41
-30.0
 62
     5
 63
     7
 74
     1
 91
        0
 64
     7
 65
   257
 75
     1
175
     1
 42
1.0
 92
        8
 66
     8
 43
1.0
 76
     1
 77
     6
 78
     2
 67
     7
 79
     5
170
     0
171
     0
290
     0
174
     0
 93
       13
 44
0.0
173
     0
291
     0
 45
0.0
  0
VISUALSTYLE
  5
1724
102
{ACAD_XDICTIONARY
360
1776
102
}
102
{ACAD_REACTORS
330
1717
102
}
330
1717
100
AcDbVisualStyle
  2
Thicken
 70
    13
 71
     2
 72
     2
 73
     0
 90
        0
 40
-0.6
 41
-30.0
 62
     5
 63
     7
 74
     1
 91
        4
 64
     7
 65
   257
 75
     1
175
     1
 42
1.0
 92
       12
 66
     7
 43
1.0
 76
     1
 77
     6
 78
     2
 67
     7
 79
     5
170
     0
171
     0
290
     0
174
     0
 93
        1
 44
0.0
173
     0
291
     1
 45
0.0
  0
DICTIONARYVAR
  5
1789
102
{ACAD_REACTORS
330
1786
102
}
330
1786
100
DictionaryVariables
280
     0
  1
1:1
  0
DICTIONARYVAR
  5
1788
102
{ACAD_REACTORS
330
1786
102
}
330
1786
100
DictionaryVariables
280
     0
  1
STANDARD
  0
DICTIONARYVAR
  5
1787
102
{ACAD_REACTORS
330
1786
102
}
330
1786
100
DictionaryVariables
280
     0
  1
STANDARD
  0
DICTIONARYVAR
  5
178C
102
{ACAD_REACTORS
330
1786
102
}
330
1786
100
DictionaryVariables
280
     0
  1
1
  0
DICTIONARYVAR
  5
178B
102
{ACAD_REACTORS
330
1786
102
}
330
1786
100
DictionaryVariables
280
     0
  1
0
  0
DICTIONARYVAR
  5
17EC
102
{ACAD_REACTORS
330
1786
102
}
330
1786
100
DictionaryVariables
280
     0
  1
1
  0
DICTIONARYVAR
  5
17ED
102
{ACAD_REACTORS
330
1786
102
}
330
1786
100
DictionaryVariables
280
     0
  1
15
  0
DICTIONARYVAR
  5
17EB
102
{ACAD_REACTORS
330
1786
102
}
330
1786
100
DictionaryVariables
280
     0
  1
0
  0
DICTIONARYVAR
  5
17EA
102
{ACAD_REACTORS
330
1786
102
}
330
1786
100
DictionaryVariables
280
     0
  1
0
  0
DICTIONARYVAR
  5
178A
102
{ACAD_REACTORS
330
1786
102
}
330
1786
100
DictionaryVariables
280
     0
  1
127
  0
DICTIONARYVAR
  5
178D
102
{ACAD_REACTORS
330
1786
102
}
330
1786
100
DictionaryVariables
280
     0
  1
2
  0
DICTIONARY
  5
1708
330
1707
100
AcDbDictionary
280
     1
281
     1
  3
BUMPTILE
360
170A
  3
DIFFUSETILE
360
1709
  3
OPACITYTILE
360
170D
  3
REFLECTIONTILE
360
170C
  3
REFRACTIONTILE
360
170E
  3
SPECULARTILE
360
170B
  0
DICTIONARY
  5
1700
330
16FF
100
AcDbDictionary
280
     1
281
     1
  3
BUMPTILE
360
1702
  3
DIFFUSETILE
360
1701
  3
OPACITYTILE
360
1705
  3
REFLECTIONTILE
360
1704
  3
REFRACTIONTILE
360
1706
  3
SPECULARTILE
360
1703
  0
DICTIONARY
  5
1710
330
170F
100
AcDbDictionary
280
     1
281
     1
  3
BUMPTILE
360
1712
  3
DIFFUSETILE
360
1711
  3
OPACITYTILE
360
1715
  3
REFLECTIONTILE
360
1714
  3
REFRACTIONTILE
360
1716
  3
SPECULARTILE
360
1713
  0
DICTIONARY
  5
1752
330
172D
100
AcDbDictionary
280
     1
281
     1
  3
ACAD_ROUNDTRIP_2008_TABLESTYLE_CELLSTYLEMAP
360
17F7
  0
DICTIONARY
  5
1768
330
171D
100
AcDbDictionary
280
     1
281
     1
  3
ACAD_XREC_ROUNDTRIP
360
1769
  0
DICTIONARY
  5
176C
330
171F
100
AcDbDictionary
280
     1
281
     1
  3
ACAD_XREC_ROUNDTRIP
360
176D
  0
DICTIONARY
  5
176A
330
171E
100
AcDbDictionary
280
     1
281
     1
  3
ACAD_XREC_ROUNDTRIP
360
176B
  0
DICTIONARY
  5
1766
330
171C
100
AcDbDictionary
280
     1
281
     1
  3
ACAD_XREC_ROUNDTRIP
360
1767
  0
DICTIONARY
  5
1774
330
1723
100
AcDbDictionary
280
     1
281
     1
  3
ACAD_XREC_ROUNDTRIP
360
1775
  0
DICTIONARY
  5
177C
330
1727
100
AcDbDictionary
280
     1
281
     1
  3
ACAD_XREC_ROUNDTRIP
360
177D
  0
DICTIONARY
  5
176E
330
1720
100
AcDbDictionary
280
     1
281
     1
  3
ACAD_XREC_ROUNDTRIP
360
176F
  0
DICTIONARY
  5
1772
330
1722
100
AcDbDictionary
280
     1
281
     1
  3
ACAD_XREC_ROUNDTRIP
360
1773
  0
DICTIONARY
  5
1782
330
172A
100
AcDbDictionary
280
     1
281
     1
  3
ACAD_XREC_ROUNDTRIP
360
1783
  0
DICTIONARY
  5
177A
330
1726
100
AcDbDictionary
280
     1
281
     1
  3
ACAD_XREC_ROUNDTRIP
360
177B
  0
DICTIONARY
  5
175E
330
1718
100
AcDbDictionary
280
     1
281
     1
  3
ACAD_XREC_ROUNDTRIP
360
175F
  0
DICTIONARY
  5
1760
330
1719
100
AcDbDictionary
280
     1
281
     1
  3
ACAD_XREC_ROUNDTRIP
360
1761
  0
DICTIONARY
  5
1762
330
171A
100
AcDbDictionary
280
     1
281
     1
  3
ACAD_XREC_ROUNDTRIP
360
1763
  0
DICTIONARY
  5
1764
330
171B
100
AcDbDictionary
280
     1
281
     1
  3
ACAD_XREC_ROUNDTRIP
360
1765
  0
DICTIONARY
  5
177E
330
1728
100
AcDbDictionary
280
     1
281
     1
  3
ACAD_XREC_ROUNDTRIP
360
177F
  0
DICTIONARY
  5
1778
330
1725
100
AcDbDictionary
280
     1
281
     1
  3
ACAD_XREC_ROUNDTRIP
360
1779
  0
DICTIONARY
  5
1780
330
1729
100
AcDbDictionary
280
     1
281
     1
  3
ACAD_XREC_ROUNDTRIP
360
1781
  0
DICTIONARY
  5
1770
330
1721
100
AcDbDictionary
280
     1
281
     1
  3
ACAD_XREC_ROUNDTRIP
360
1771
  0
DICTIONARY
  5
1776
330
1724
100
AcDbDictionary
280
     1
281
     1
  3
ACAD_XREC_ROUNDTRIP
360
1777
  0
XRECORD
  5
170A
102
{ACAD_REACTORS
330
1708
102
}
330
1708
100
AcDbXrecord
280
     1
270
     1
271
     1
  0
XRECORD
  5
1709
102
{ACAD_REACTORS
330
1708
102
}
330
1708
100
AcDbXrecord
280
     1
270
     1
271
     1
  0
XRECORD
  5
170D
102
{ACAD_REACTORS
330
1708
102
}
330
1708
100
AcDbXrecord
280
     1
270
     1
271
     1
  0
XRECORD
  5
170C
102
{ACAD_REACTORS
330
1708
102
}
330
1708
100
AcDbXrecord
280
     1
270
     1
271
     1
  0
XRECORD
  5
170E
102
{ACAD_REACTORS
330
1708
102
}
330
1708
100
AcDbXrecord
280
     1
270
     1
271
     1
  0
XRECORD
  5
170B
102
{ACAD_REACTORS
330
1708
102
}
330
1708
100
AcDbXrecord
280
     1
270
     1
271
     1
  0
XRECORD
  5
1702
102
{ACAD_REACTORS
330
1700
102
}
330
1700
100
AcDbXrecord
280
     1
270
     1
271
     1
  0
XRECORD
  5
1701
102
{ACAD_REACTORS
330
1700
102
}
330
1700
100
AcDbXrecord
280
     1
270
     1
271
     1
  0
XRECORD
  5
1705
102
{ACAD_REACTORS
330
1700
102
}
330
1700
100
AcDbXrecord
280
     1
270
     1
271
     1
  0
XRECORD
  5
1704
102
{ACAD_REACTORS
330
1700
102
}
330
1700
100
AcDbXrecord
280
     1
270
     1
271
     1
  0
XRECORD
  5
1706
102
{ACAD_REACTORS
330
1700
102
}
330
1700
100
AcDbXrecord
280
     1
270
     1
271
     1
  0
XRECORD
  5
1703
102
{ACAD_REACTORS
330
1700
102
}
330
1700
100
AcDbXrecord
280
     1
270
     1
271
     1
  0
XRECORD
  5
1712
102
{ACAD_REACTORS
330
1710
102
}
330
1710
100
AcDbXrecord
280
     1
270
     1
271
     1
  0
XRECORD
  5
1711
102
{ACAD_REACTORS
330
1710
102
}
330
1710
100
AcDbXrecord
280
     1
270
     1
271
     1
  0
XRECORD
  5
1715
102
{ACAD_REACTORS
330
1710
102
}
330
1710
100
AcDbXrecord
280
     1
270
     1
271
     1
  0
XRECORD
  5
1714
102
{ACAD_REACTORS
330
1710
102
}
330
1710
100
AcDbXrecord
280
     1
270
     1
271
     1
  0
XRECORD
  5
1716
102
{ACAD_REACTORS
330
1710
102
}
330
1710
100
AcDbXrecord
280
     1
270
     1
271
     1
  0
XRECORD
  5
1713
102
{ACAD_REACTORS
330
1710
102
}
330
1710
100
AcDbXrecord
280
     1
270
     1
271
     1
  0
CELLSTYLEMAP
  5
17F7
102
{ACAD_REACTORS
330
1752
102
}
330
1752
100
AcDbCellStyleMap
 90
        3
300
CELLSTYLE
  1
TABLEFORMAT_BEGIN
 90
        5
170
     1
 91
        0
 92
    32768
 62
   257
 93
        1
300
CONTENTFORMAT
  1
CONTENTFORMAT_BEGIN
 90
        0
 91
        0
 92
      512
 93
        0
300

 40
0.0
140
1.0
 94
        5
 62
     0
340
11
144
0.25
309
CONTENTFORMAT_END
171
     0
 94
        0
309
TABLEFORMAT_END
  1
CELLSTYLE_BEGIN
 90
        1
 91
        1
300
_TITLE
309
CELLSTYLE_END
300
CELLSTYLE
  1
TABLEFORMAT_BEGIN
 90
        5
170
     1
 91
        0
 92
        0
 62
   257
 93
        1
300
CONTENTFORMAT
  1
CONTENTFORMAT_BEGIN
 90
        0
 91
        0
 92
      512
 93
        0
300

 40
0.0
140
1.0
 94
        5
 62
     0
340
11
144
0.18
309
CONTENTFORMAT_END
171
     0
 94
        0
309
TABLEFORMAT_END
  1
CELLSTYLE_BEGIN
 90
        2
 91
        1
300
_HEADER
309
CELLSTYLE_END
300
CELLSTYLE
  1
TABLEFORMAT_BEGIN
 90
        5
170
     1
 91
        0
 92
        0
 62
   257
 93
        1
300
CONTENTFORMAT
  1
CONTENTFORMAT_BEGIN
 90
        0
 91
        0
 92
      512
 93
        0
300

 40
0.0
140
1.0
 94
        2
 62
     0
340
11
144
0.18
309
CONTENTFORMAT_END
171
     0
 94
        0
309
TABLEFORMAT_END
  1
CELLSTYLE_BEGIN
 90
        3
 91
        2
300
_DATA
309
CELLSTYLE_END
  0
XRECORD
  5
1769
102
{ACAD_REACTORS
330
1768
102
}
330
1768
100
AcDbXrecord
280
     1
102
RTVSPropertyOp0
 70
     1
102
RTVSPropertyOp1
 70
     1
102
RTVSPropertyOp2
 70
     1
102
RTVSPropertyOp3
 70
     1
102
RTVSPropertyOp4
 70
     1
102
RTVSPropertyOp5
 70
     1
102
RTVSPropertyOp6
 70
     1
102
RTVSPropertyOp7
 70
     1
102
RTVSPropertyOp8
 70
     1
102
RTVSPropertyOp9
 70
     1
102
RTVSPropertyOp10
 70
     1
102
RTVSPropertyOp11
 70
     1
102
RTVSPropertyOp12
 70
     1
102
RTVSPropertyOp13
 70
     1
102
RTVSPropertyOp14
 70
     1
102
RTVSPropertyOp15
 70
     1
102
RTVSPropertyOp16
 70
     1
102
RTVSPropertyOp17
 70
     1
102
RTVSPropertyOp18
 70
     1
102
RTVSPropertyOp19
 70
     1
102
RTVSPropertyOp20
 70
     1
102
RTVSPropertyOp21
 70
     1
102
RTVSPropertyOp22
 70
     1
102
RTVSPropertyOp23
 70
     1
102
RTVSPropertyOp24
 70
     1
102
RTVSPropertyOp25
 70
     1
102
RTVSPropertyOp26
 70
     1
102
RTVSPropertyOp27
 70
     1
  0
XRECORD
  5
176D
102
{ACAD_REACTORS
330
176C
102
}
330
176C
100
AcDbXrecord
280
     1
102
RTVSPropertyOp0
 70
     1
102
RTVSPropertyOp1
 70
     1
102
RTVSPropertyOp2
 70
     1
102
RTVSPropertyOp3
 70
     1
102
RTVSPropertyOp4
 70
     1
102
RTVSPropertyOp5
 70
     1
102
RTVSPropertyOp6
 70
     1
102
RTVSPropertyOp7
 70
     1
102
RTVSPropertyOp8
 70
     1
102
RTVSPropertyOp9
 70
     1
102
RTVSPropertyOp10
 70
     1
102
RTVSPropertyOp11
 70
     1
102
RTVSPropertyOp12
 70
     1
102
RTVSPropertyOp13
 70
     1
102
RTVSPropertyOp14
 70
     1
102
RTVSPropertyOp15
 70
     1
102
RTVSPropertyOp16
 70
     1
102
RTVSPropertyOp17
 70
     1
102
RTVSPropertyOp18
 70
     1
102
RTVSPropertyOp19
 70
     1
102
RTVSPropertyOp20
 70
     1
102
RTVSPropertyOp21
 70
     1
102
RTVSPropertyOp22
 70
     1
102
RTVSPropertyOp23
 70
     1
102
RTVSPropertyOp24
 70
     1
102
RTVSPropertyOp25
 70
     1
102
RTVSPropertyOp26
 70
     1
102
RTVSPropertyOp27
 70
     1
  0
XRECORD
  5
176B
102
{ACAD_REACTORS
330
176A
102
}
330
176A
100
AcDbXrecord
280
     1
102
RTVSPropertyOp0
 70
     1
102
RTVSPropertyOp1
 70
     1
102
RTVSPropertyOp2
 70
     1
102
RTVSPropertyOp3
 70
     1
102
RTVSPropertyOp4
 70
     1
102
RTVSPropertyOp5
 70
     1
102
RTVSPropertyOp6
 70
     1
102
RTVSPropertyOp7
 70
     1
102
RTVSPropertyOp8
 70
     1
102
RTVSPropertyOp9
 70
     1
102
RTVSPropertyOp10
 70
     1
102
RTVSPropertyOp11
 70
     1
102
RTVSPropertyOp12
 70
     1
102
RTVSPropertyOp13
 70
     1
102
RTVSPropertyOp14
 70
     1
102
RTVSPropertyOp15
 70
     1
102
RTVSPropertyOp16
 70
     1
102
RTVSPropertyOp17
 70
     1
102
RTVSPropertyOp18
 70
     1
102
RTVSPropertyOp19
 70
     1
102
RTVSPropertyOp20
 70
     1
102
RTVSPropertyOp21
 70
     1
102
RTVSPropertyOp22
 70
     1
102
RTVSPropertyOp23
 70
     1
102
RTVSPropertyOp24
 70
     1
102
RTVSPropertyOp25
 70
     1
102
RTVSPropertyOp26
 70
     1
102
RTVSPropertyOp27
 70
     1
  0
XRECORD
  5
1767
102
{ACAD_REACTORS
330
1766
102
}
330
1766
100
AcDbXrecord
280
     1
102
RTVSPropertyOp0
 70
     1
102
RTVSPropertyOp1
 70
     1
102
RTVSPropertyOp2
 70
     1
102
RTVSPropertyOp3
 70
     1
102
RTVSPropertyOp4
 70
     1
102
RTVSPropertyOp5
 70
     1
102
RTVSPropertyOp6
 70
     1
102
RTVSPropertyOp7
 70
     1
102
RTVSPropertyOp8
 70
     1
102
RTVSPropertyOp9
 70
     1
102
RTVSPropertyOp10
 70
     1
102
RTVSPropertyOp11
 70
     1
102
RTVSPropertyOp12
 70
     1
102
RTVSPropertyOp13
 70
     1
102
RTVSPropertyOp14
 70
     1
102
RTVSPropertyOp15
 70
     1
102
RTVSPropertyOp16
 70
     1
102
RTVSPropertyOp17
 70
     1
102
RTVSPropertyOp18
 70
     1
102
RTVSPropertyOp19
 70
     1
102
RTVSPropertyOp20
 70
     1
102
RTVSPropertyOp21
 70
     1
102
RTVSPropertyOp22
 70
     1
102
RTVSPropertyOp23
 70
     1
102
RTVSPropertyOp24
 70
     1
102
RTVSPropertyOp25
 70
     1
102
RTVSPropertyOp26
 70
     1
102
RTVSPropertyOp27
 70
     1
  0
XRECORD
  5
1775
102
{ACAD_REACTORS
330
1774
102
}
330
1774
100
AcDbXrecord
280
     1
102
RTVSPropertyOp0
 70
     1
102
RTVSPropertyOp1
 70
     1
102
RTVSPropertyOp2
 70
     1
102
RTVSPropertyOp3
 70
     1
102
RTVSPropertyOp4
 70
     1
102
RTVSPropertyOp5
 70
     1
102
RTVSPropertyOp6
 70
     1
102
RTVSPropertyOp7
 70
     1
102
RTVSPropertyOp8
 70
     1
102
RTVSPropertyOp9
 70
     1
102
RTVSPropertyOp10
 70
     1
102
RTVSPropertyOp11
 70
     1
102
RTVSPropertyOp12
 70
     1
102
RTVSPropertyOp13
 70
     1
102
RTVSPropertyOp14
 70
     1
102
RTVSPropertyOp15
 70
     1
102
RTVSPropertyOp16
 70
     1
102
RTVSPropertyOp17
 70
     1
102
RTVSPropertyOp18
 70
     1
102
RTVSPropertyOp19
 70
     1
102
RTVSPropertyOp20
 70
     1
102
RTVSPropertyOp21
 70
     1
102
RTVSPropertyOp22
 70
     1
102
RTVSPropertyOp23
 70
     1
102
RTVSPropertyOp24
 70
     1
102
RTVSPropertyOp25
 70
     1
102
RTVSPropertyOp26
 70
     1
102
RTVSPropertyOp27
 70
     1
  0
XRECORD
  5
177D
102
{ACAD_REACTORS
330
177C
102
}
330
177C
100
AcDbXrecord
280
     1
102
RTVSPropertyOp0
 70
     1
102
RTVSPropertyOp1
 70
     1
102
RTVSPropertyOp2
 70
     1
102
RTVSPropertyOp3
 70
     1
102
RTVSPropertyOp4
 70
     1
102
RTVSPropertyOp5
 70
     1
102
RTVSPropertyOp6
 70
     1
102
RTVSPropertyOp7
 70
     1
102
RTVSPropertyOp8
 70
     1
102
RTVSPropertyOp9
 70
     1
102
RTVSPropertyOp10
 70
     1
102
RTVSPropertyOp11
 70
     1
102
RTVSPropertyOp12
 70
     1
102
RTVSPropertyOp13
 70
     1
102
RTVSPropertyOp14
 70
     1
102
RTVSPropertyOp15
 70
     1
102
RTVSPropertyOp16
 70
     1
102
RTVSPropertyOp17
 70
     1
102
RTVSPropertyOp18
 70
     1
102
RTVSPropertyOp19
 70
     1
102
RTVSPropertyOp20
 70
     1
102
RTVSPropertyOp21
 70
     1
102
RTVSPropertyOp22
 70
     1
102
RTVSPropertyOp23
 70
     1
102
RTVSPropertyOp24
 70
     1
102
RTVSPropertyOp25
 70
     1
102
RTVSPropertyOp26
 70
     1
102
RTVSPropertyOp27
 70
     1
  0
XRECORD
  5
176F
102
{ACAD_REACTORS
330
176E
102
}
330
176E
100
AcDbXrecord
280
     1
102
RTVSPropertyOp0
 70
     1
102
RTVSPropertyOp1
 70
     1
102
RTVSPropertyOp2
 70
     1
102
RTVSPropertyOp3
 70
     1
102
RTVSPropertyOp4
 70
     1
102
RTVSPropertyOp5
 70
     1
102
RTVSPropertyOp6
 70
     1
102
RTVSPropertyOp7
 70
     1
102
RTVSPropertyOp8
 70
     1
102
RTVSPropertyOp9
 70
     1
102
RTVSPropertyOp10
 70
     1
102
RTVSPropertyOp11
 70
     1
102
RTVSPropertyOp12
 70
     1
102
RTVSPropertyOp13
 70
     1
102
RTVSPropertyOp14
 70
     1
102
RTVSPropertyOp15
 70
     1
102
RTVSPropertyOp16
 70
     1
102
RTVSPropertyOp17
 70
     1
102
RTVSPropertyOp18
 70
     1
102
RTVSPropertyOp19
 70
     1
102
RTVSPropertyOp20
 70
     1
102
RTVSPropertyOp21
 70
     1
102
RTVSPropertyOp22
 70
     1
102
RTVSPropertyOp23
 70
     1
102
RTVSPropertyOp24
 70
     1
102
RTVSPropertyOp25
 70
     1
102
RTVSPropertyOp26
 70
     1
102
RTVSPropertyOp27
 70
     1
  0
XRECORD
  5
1773
102
{ACAD_REACTORS
330
1772
102
}
330
1772
100
AcDbXrecord
280
     1
102
RTVSPropertyOp0
 70
     1
102
RTVSPropertyOp1
 70
     1
102
RTVSPropertyOp2
 70
     1
102
RTVSPropertyOp3
 70
     1
102
RTVSPropertyOp4
 70
     1
102
RTVSPropertyOp5
 70
     1
102
RTVSPropertyOp6
 70
     1
102
RTVSPropertyOp7
 70
     1
102
RTVSPropertyOp8
 70
     1
102
RTVSPropertyOp9
 70
     1
102
RTVSPropertyOp10
 70
     1
102
RTVSPropertyOp11
 70
     1
102
RTVSPropertyOp12
 70
     1
102
RTVSPropertyOp13
 70
     1
102
RTVSPropertyOp14
 70
     1
102
RTVSPropertyOp15
 70
     1
102
RTVSPropertyOp16
 70
     1
102
RTVSPropertyOp17
 70
     1
102
RTVSPropertyOp18
 70
     1
102
RTVSPropertyOp19
 70
     1
102
RTVSPropertyOp20
 70
     1
102
RTVSPropertyOp21
 70
     1
102
RTVSPropertyOp22
 70
     1
102
RTVSPropertyOp23
 70
     1
102
RTVSPropertyOp24
 70
     1
102
RTVSPropertyOp25
 70
     1
102
RTVSPropertyOp26
 70
     1
102
RTVSPropertyOp27
 70
     1
  0
XRECORD
  5
1783
102
{ACAD_REACTORS
330
1782
102
}
330
1782
100
AcDbXrecord
280
     1
102
RTVSPropertyOp0
 70
     0
102
RTVSPropertyOp1
 70
     0
102
RTVSPropertyOp2
 70
     0
102
RTVSPropertyOp3
 70
     0
102
RTVSPropertyOp4
 70
     0
102
RTVSPropertyOp5
 70
     0
102
RTVSPropertyOp6
 70
     0
102
RTVSPropertyOp7
 70
     0
102
RTVSPropertyOp8
 70
     0
102
RTVSPropertyOp9
 70
     0
102
RTVSPropertyOp10
 70
     0
102
RTVSPropertyOp11
 70
     0
102
RTVSPropertyOp12
 70
     0
102
RTVSPropertyOp13
 70
     0
102
RTVSPropertyOp14
 70
     2
102
RTVSPropertyOp15
 70
     0
102
RTVSPropertyOp16
 70
     0
102
RTVSPropertyOp17
 70
     0
102
RTVSPropertyOp18
 70
     0
102
RTVSPropertyOp19
 70
     0
102
RTVSPropertyOp20
 70
     0
102
RTVSPropertyOp21
 70
     0
102
RTVSPropertyOp22
 70
     0
102
RTVSPropertyOp23
 70
     0
102
RTVSPropertyOp24
 70
     0
102
RTVSPropertyOp25
 70
     0
102
RTVSPropertyOp26
 70
     0
102
RTVSPropertyOp27
 70
     0
  0
XRECORD
  5
177B
102
{ACAD_REACTORS
330
177A
102
}
330
177A
100
AcDbXrecord
280
     1
102
RTVSPropertyOp0
 70
     1
102
RTVSPropertyOp1
 70
     1
102
RTVSPropertyOp2
 70
     1
102
RTVSPropertyOp3
 70
     1
102
RTVSPropertyOp4
 70
     1
102
RTVSPropertyOp5
 70
     1
102
RTVSPropertyOp6
 70
     1
102
RTVSPropertyOp7
 70
     1
102
RTVSPropertyOp8
 70
     1
102
RTVSPropertyOp9
 70
     1
102
RTVSPropertyOp10
 70
     1
102
RTVSPropertyOp11
 70
     1
102
RTVSPropertyOp12
 70
     1
102
RTVSPropertyOp13
 70
     1
102
RTVSPropertyOp14
 70
     1
102
RTVSPropertyOp15
 70
     1
102
RTVSPropertyOp16
 70
     1
102
RTVSPropertyOp17
 70
     1
102
RTVSPropertyOp18
 70
     1
102
RTVSPropertyOp19
 70
     1
102
RTVSPropertyOp20
 70
     1
102
RTVSPropertyOp21
 70
     1
102
RTVSPropertyOp22
 70
     1
102
RTVSPropertyOp23
 70
     1
102
RTVSPropertyOp24
 70
     1
102
RTVSPropertyOp25
 70
     1
102
RTVSPropertyOp26
 70
     1
102
RTVSPropertyOp27
 70
     1
  0
XRECORD
  5
175F
102
{ACAD_REACTORS
330
175E
102
}
330
175E
100
AcDbXrecord
280
     1
102
RTVSPropertyOp0
 70
     1
102
RTVSPropertyOp1
 70
     1
102
RTVSPropertyOp2
 70
     1
102
RTVSPropertyOp3
 70
     1
102
RTVSPropertyOp4
 70
     1
102
RTVSPropertyOp5
 70
     1
102
RTVSPropertyOp6
 70
     1
102
RTVSPropertyOp7
 70
     1
102
RTVSPropertyOp8
 70
     1
102
RTVSPropertyOp9
 70
     1
102
RTVSPropertyOp10
 70
     1
102
RTVSPropertyOp11
 70
     1
102
RTVSPropertyOp12
 70
     1
102
RTVSPropertyOp13
 70
     1
102
RTVSPropertyOp14
 70
     1
102
RTVSPropertyOp15
 70
     1
102
RTVSPropertyOp16
 70
     1
102
RTVSPropertyOp17
 70
     1
102
RTVSPropertyOp18
 70
     1
102
RTVSPropertyOp19
 70
     1
102
RTVSPropertyOp20
 70
     1
102
RTVSPropertyOp21
 70
     1
102
RTVSPropertyOp22
 70
     1
102
RTVSPropertyOp23
 70
     1
102
RTVSPropertyOp24
 70
     1
102
RTVSPropertyOp25
 70
     1
102
RTVSPropertyOp26
 70
     1
102
RTVSPropertyOp27
 70
     1
  0
XRECORD
  5
1761
102
{ACAD_REACTORS
330
1760
102
}
330
1760
100
AcDbXrecord
280
     1
102
RTVSPropertyOp0
 70
     1
102
RTVSPropertyOp1
 70
     1
102
RTVSPropertyOp2
 70
     1
102
RTVSPropertyOp3
 70
     1
102
RTVSPropertyOp4
 70
     1
102
RTVSPropertyOp5
 70
     1
102
RTVSPropertyOp6
 70
     1
102
RTVSPropertyOp7
 70
     1
102
RTVSPropertyOp8
 70
     1
102
RTVSPropertyOp9
 70
     1
102
RTVSPropertyOp10
 70
     1
102
RTVSPropertyOp11
 70
     1
102
RTVSPropertyOp12
 70
     1
102
RTVSPropertyOp13
 70
     1
102
RTVSPropertyOp14
 70
     1
102
RTVSPropertyOp15
 70
     1
102
RTVSPropertyOp16
 70
     1
102
RTVSPropertyOp17
 70
     1
102
RTVSPropertyOp18
 70
     1
102
RTVSPropertyOp19
 70
     1
102
RTVSPropertyOp20
 70
     1
102
RTVSPropertyOp21
 70
     1
102
RTVSPropertyOp22
 70
     1
102
RTVSPropertyOp23
 70
     1
102
RTVSPropertyOp24
 70
     1
102
RTVSPropertyOp25
 70
     1
102
RTVSPropertyOp26
 70
     1
102
RTVSPropertyOp27
 70
     1
  0
XRECORD
  5
1763
102
{ACAD_REACTORS
330
1762
102
}
330
1762
100
AcDbXrecord
280
     1
102
RTVSPropertyOp0
 70
     1
102
RTVSPropertyOp1
 70
     1
102
RTVSPropertyOp2
 70
     1
102
RTVSPropertyOp3
 70
     1
102
RTVSPropertyOp4
 70
     1
102
RTVSPropertyOp5
 70
     1
102
RTVSPropertyOp6
 70
     1
102
RTVSPropertyOp7
 70
     1
102
RTVSPropertyOp8
 70
     1
102
RTVSPropertyOp9
 70
     1
102
RTVSPropertyOp10
 70
     1
102
RTVSPropertyOp11
 70
     1
102
RTVSPropertyOp12
 70
     1
102
RTVSPropertyOp13
 70
     1
102
RTVSPropertyOp14
 70
     1
102
RTVSPropertyOp15
 70
     1
102
RTVSPropertyOp16
 70
     1
102
RTVSPropertyOp17
 70
     1
102
RTVSPropertyOp18
 70
     1
102
RTVSPropertyOp19
 70
     1
102
RTVSPropertyOp20
 70
     1
102
RTVSPropertyOp21
 70
     1
102
RTVSPropertyOp22
 70
     1
102
RTVSPropertyOp23
 70
     1
102
RTVSPropertyOp24
 70
     1
102
RTVSPropertyOp25
 70
     1
102
RTVSPropertyOp26
 70
     1
102
RTVSPropertyOp27
 70
     1
  0
XRECORD
  5
1765
102
{ACAD_REACTORS
330
1764
102
}
330
1764
100
AcDbXrecord
280
     1
102
RTVSPropertyOp0
 70
     1
102
RTVSPropertyOp1
 70
     1
102
RTVSPropertyOp2
 70
     1
102
RTVSPropertyOp3
 70
     1
102
RTVSPropertyOp4
 70
     1
102
RTVSPropertyOp5
 70
     1
102
RTVSPropertyOp6
 70
     1
102
RTVSPropertyOp7
 70
     1
102
RTVSPropertyOp8
 70
     1
102
RTVSPropertyOp9
 70
     1
102
RTVSPropertyOp10
 70
     1
102
RTVSPropertyOp11
 70
     1
102
RTVSPropertyOp12
 70
     1
102
RTVSPropertyOp13
 70
     1
102
RTVSPropertyOp14
 70
     1
102
RTVSPropertyOp15
 70
     1
102
RTVSPropertyOp16
 70
     1
102
RTVSPropertyOp17
 70
     1
102
RTVSPropertyOp18
 70
     1
102
RTVSPropertyOp19
 70
     1
102
RTVSPropertyOp20
 70
     1
102
RTVSPropertyOp21
 70
     1
102
RTVSPropertyOp22
 70
     1
102
RTVSPropertyOp23
 70
     1
102
RTVSPropertyOp24
 70
     1
102
RTVSPropertyOp25
 70
     1
102
RTVSPropertyOp26
 70
     1
102
RTVSPropertyOp27
 70
     1
  0
XRECORD
  5
177F
102
{ACAD_REACTORS
330
177E
102
}
330
177E
100
AcDbXrecord
280
     1
102
RTVSPropertyOp0
 70
     0
102
RTVSPropertyOp1
 70
     0
102
RTVSPropertyOp2
 70
     0
102
RTVSPropertyOp3
 70
     0
102
RTVSPropertyOp4
 70
     0
102
RTVSPropertyOp5
 70
     0
102
RTVSPropertyOp6
 70
     0
102
RTVSPropertyOp7
 70
     0
102
RTVSPropertyOp8
 70
     0
102
RTVSPropertyOp9
 70
     0
102
RTVSPropertyOp10
 70
     0
102
RTVSPropertyOp11
 70
     0
102
RTVSPropertyOp12
 70
     0
102
RTVSPropertyOp13
 70
     0
102
RTVSPropertyOp14
 70
     2
102
RTVSPropertyOp15
 70
     0
102
RTVSPropertyOp16
 70
     0
102
RTVSPropertyOp17
 70
     0
102
RTVSPropertyOp18
 70
     0
102
RTVSPropertyOp19
 70
     0
102
RTVSPropertyOp20
 70
     0
102
RTVSPropertyOp21
 70
     0
102
RTVSPropertyOp22
 70
     0
102
RTVSPropertyOp23
 70
     0
102
RTVSPropertyOp24
 70
     0
102
RTVSPropertyOp25
 70
     0
102
RTVSPropertyOp26
 70
     0
102
RTVSPropertyOp27
 70
     0
  0
XRECORD
  5
1779
102
{ACAD_REACTORS
330
1778
102
}
330
1778
100
AcDbXrecord
280
     1
102
RTVSPropertyOp0
 70
     1
102
RTVSPropertyOp1
 70
     1
102
RTVSPropertyOp2
 70
     1
102
RTVSPropertyOp3
 70
     1
102
RTVSPropertyOp4
 70
     1
102
RTVSPropertyOp5
 70
     1
102
RTVSPropertyOp6
 70
     1
102
RTVSPropertyOp7
 70
     1
102
RTVSPropertyOp8
 70
     1
102
RTVSPropertyOp9
 70
     1
102
RTVSPropertyOp10
 70
     1
102
RTVSPropertyOp11
 70
     1
102
RTVSPropertyOp12
 70
     1
102
RTVSPropertyOp13
 70
     1
102
RTVSPropertyOp14
 70
     1
102
RTVSPropertyOp15
 70
     1
102
RTVSPropertyOp16
 70
     1
102
RTVSPropertyOp17
 70
     1
102
RTVSPropertyOp18
 70
     1
102
RTVSPropertyOp19
 70
     1
102
RTVSPropertyOp20
 70
     1
102
RTVSPropertyOp21
 70
     1
102
RTVSPropertyOp22
 70
     1
102
RTVSPropertyOp23
 70
     1
102
RTVSPropertyOp24
 70
     1
102
RTVSPropertyOp25
 70
     1
102
RTVSPropertyOp26
 70
     1
102
RTVSPropertyOp27
 70
     1
  0
XRECORD
  5
1781
102
{ACAD_REACTORS
330
1780
102
}
330
1780
100
AcDbXrecord
280
     1
102
RTVSPropertyOp0
 70
     0
102
RTVSPropertyOp1
 70
     0
102
RTVSPropertyOp2
 70
     0
102
RTVSPropertyOp3
 70
     0
102
RTVSPropertyOp4
 70
     0
102
RTVSPropertyOp5
 70
     0
102
RTVSPropertyOp6
 70
     0
102
RTVSPropertyOp7
 70
     0
102
RTVSPropertyOp8
 70
     0
102
RTVSPropertyOp9
 70
     0
102
RTVSPropertyOp10
 70
     0
102
RTVSPropertyOp11
 70
     0
102
RTVSPropertyOp12
 70
     0
102
RTVSPropertyOp13
 70
     0
102
RTVSPropertyOp14
 70
     2
102
RTVSPropertyOp15
 70
     0
102
RTVSPropertyOp16
 70
     0
102
RTVSPropertyOp17
 70
     0
102
RTVSPropertyOp18
 70
     0
102
RTVSPropertyOp19
 70
     0
102
RTVSPropertyOp20
 70
     0
102
RTVSPropertyOp21
 70
     0
102
RTVSPropertyOp22
 70
     0
102
RTVSPropertyOp23
 70
     0
102
RTVSPropertyOp24
 70
     0
102
RTVSPropertyOp25
 70
     0
102
RTVSPropertyOp26
 70
     0
102
RTVSPropertyOp27
 70
     0
  0
XRECORD
  5
1771
102
{ACAD_REACTORS
330
1770
102
}
330
1770
100
AcDbXrecord
280
     1
102
RTVSPropertyOp0
 70
     1
102
RTVSPropertyOp1
 70
     1
102
RTVSPropertyOp2
 70
     1
102
RTVSPropertyOp3
 70
     1
102
RTVSPropertyOp4
 70
     1
102
RTVSPropertyOp5
 70
     1
102
RTVSPropertyOp6
 70
     1
102
RTVSPropertyOp7
 70
     1
102
RTVSPropertyOp8
 70
     1
102
RTVSPropertyOp9
 70
     1
102
RTVSPropertyOp10
 70
     1
102
RTVSPropertyOp11
 70
     1
102
RTVSPropertyOp12
 70
     1
102
RTVSPropertyOp13
 70
     1
102
RTVSPropertyOp14
 70
     1
102
RTVSPropertyOp15
 70
     1
102
RTVSPropertyOp16
 70
     1
102
RTVSPropertyOp17
 70
     1
102
RTVSPropertyOp18
 70
     1
102
RTVSPropertyOp19
 70
     1
102
RTVSPropertyOp20
 70
     1
102
RTVSPropertyOp21
 70
     1
102
RTVSPropertyOp22
 70
     1
102
RTVSPropertyOp23
 70
     1
102
RTVSPropertyOp24
 70
     1
102
RTVSPropertyOp25
 70
     1
102
RTVSPropertyOp26
 70
     1
102
RTVSPropertyOp27
 70
     1
  0
XRECORD
  5
1777
102
{ACAD_REACTORS
330
1776
102
}
330
1776
100
AcDbXrecord
280
     1
102
RTVSPropertyOp0
 70
     1
102
RTVSPropertyOp1
 70
     1
102
RTVSPropertyOp2
 70
     1
102
RTVSPropertyOp3
 70
     1
102
RTVSPropertyOp4
 70
     1
102
RTVSPropertyOp5
 70
     1
102
RTVSPropertyOp6
 70
     1
102
RTVSPropertyOp7
 70
     1
102
RTVSPropertyOp8
 70
     1
102
RTVSPropertyOp9
 70
     1
102
RTVSPropertyOp10
 70
     1
102
RTVSPropertyOp11
 70
     1
102
RTVSPropertyOp12
 70
     1
102
RTVSPropertyOp13
 70
     1
102
RTVSPropertyOp14
 70
     1
102
RTVSPropertyOp15
 70
     1
102
RTVSPropertyOp16
 70
     1
102
RTVSPropertyOp17
 70
     1
102
RTVSPropertyOp18
 70
     1
102
RTVSPropertyOp19
 70
     1
102
RTVSPropertyOp20
 70
     1
102
RTVSPropertyOp21
 70
     1
102
RTVSPropertyOp22
 70
     1
102
RTVSPropertyOp23
 70
     1
102
RTVSPropertyOp24
 70
     1
102
RTVSPropertyOp25
 70
     1
102
RTVSPropertyOp26
 70
     1
102
RTVSPropertyOp27
 70
     1
  0
ENDSEC
  0
EOF
