  0
SECTION
  2
HEADER
  9
$ACADVER
  1
AC1014
  9
$ACADMAINTVER
 70
     9
  9
$DWGCODEPAGE
  3
ANSI_1252
  9
$INSBASE
 10
-3.422166261992302
 20
86.21064157981676
 30
0.0
  9
$EXTMIN
 10
-52.17630343961234
 20
68.20664322872315
 30
0.0
  9
$EXTMAX
 10
10.86644729738077
 20
104.215768848664
 30
0.0000000000000152
  9
$LIMMIN
 10
0.0
 20
0.0
  9
$LIMMAX
 10
17.0
 20
11.0
  9
$ORTHOMODE
 70
     1
  9
$REGENMODE
 70
     1
  9
$FILLMODE
 70
     1
  9
$QTEXTMODE
 70
     0
  9
$MIRRTEXT
 70
     1
  9
$DRAGMODE
 70
     2
  9
$LTSCALE
 40
12.0
  9
$OSMODE
 70
    55
  9
$ATTMODE
 70
     1
  9
$TEXTSIZE
 40
0.2
  9
$TRACEWID
 40
0.05
  9
$TEXTSTYLE
  7
STANDARD
  9
$CLAYER
  8
0
  9
$CELTYPE
  6
BYLAYER
  9
$CECOLOR
 62
   256
  9
$CELTSCALE
 40
1.0
  9
$DELOBJ
 70
     1
  9
$DISPSILH
 70
     0
  9
$DIMSCALE
 40
16.0
  9
$DIMASZ
 40
0.1875
  9
$DIMEXO
 40
0.10625
  9
$DIMDLI
 40
0.646
  9
$DIMRND
 40
0.0
  9
$DIMDLE
 40
0.0
  9
$DIMEXE
 40
0.306
  9
$DIMTP
 40
0.0
  9
$DIMTM
 40
0.0
  9
$DIMTXT
 40
0.125
  9
$DIMCEN
 40
0.153
  9
$DIMTSZ
 40
0.0
  9
$DIMTOL
 70
     0
  9
$DIMLIM
 70
     0
  9
$DIMTIH
 70
     1
  9
$DIMTOH
 70
     1
  9
$DIMSE1
 70
     0
  9
$DIMSE2
 70
     0
  9
$DIMTAD
 70
     0
  9
$DIMZIN
 70
     0
  9
$DIMBLK
  1
_FILLED
  9
$DIMASO
 70
     1
  9
$DIMSHO
 70
     1
  9
$DIMPOST
  1

  9
$DIMAPOST
  1

  9
$DIMALT
 70
     0
  9
$DIMALTD
 70
     2
  9
$DIMALTF
 40
25.4
  9
$DIMLFAC
 40
1.0
  9
$DIMTOFL
 70
     0
  9
$DIMTVP
 40
0.0
  9
$DIMTIX
 70
     0
  9
$DIMSOXD
 70
     0
  9
$DIMSAH
 70
     1
  9
$DIMBLK1
  1
_FILLED
  9
$DIMBLK2
  1
_FILLED
  9
$DIMSTYLE
  2
STANDARD
  9
$DIMCLRD
 70
     0
  9
$DIMCLRE
 70
     0
  9
$DIMCLRT
 70
     0
  9
$DIMTFAC
 40
1.0
  9
$DIMGAP
 40
0.09
  9
$DIMJUST
 70
     0
  9
$DIMSD1
 70
     0
  9
$DIMSD2
 70
     0
  9
$DIMTOLJ
 70
     1
  9
$DIMTZIN
 70
     0
  9
$DIMALTZ
 70
     0
  9
$DIMALTTZ
 70
     0
  9
$DIMFIT
 70
     3
  9
$DIMUPT
 70
     0
  9
$DIMUNIT
 70
     2
  9
$DIMDEC
 70
     4
  9
$DIMTDEC
 70
     4
  9
$DIMALTU
 70
     2
  9
$DIMALTTD
 70
     2
  9
$DIMTXSTY
  7
STANDARD
  9
$DIMAUNIT
 70
     0
  9
$LUNITS
 70
     2
  9
$LUPREC
 70
     4
  9
$SKETCHINC
 40
0.1
  9
$FILLETRAD
 40
0.0
  9
$AUNITS
 70
     0
  9
$AUPREC
 70
     0
  9
$MENU
  1
acad
  9
$ELEVATION
 40
0.0
  9
$PELEVATION
 40
0.0
  9
$THICKNESS
 40
0.0
  9
$LIMCHECK
 70
     0
  9
$BLIPMODE
 70
     0
  9
$CHAMFERA
 40
0.0
  9
$CHAMFERB
 40
0.0
  9
$CHAMFERC
 40
0.0
  9
$CHAMFERD
 40
0.0
  9
$SKPOLY
 70
     0
  9
$TDCREATE
 40
2453683.493156655
  9
$TDUPDATE
 40
2453689.476627662
  9
$TDINDWG
 40
0.0128890278
  9
$TDUSRTIMER
 40
0.0128890278
  9
$USRTIMER
 70
     1
  9
$ANGBASE
 50
0.0
  9
$ANGDIR
 70
     0
  9
$PDMODE
 70
     3
  9
$PDSIZE
 40
0.3125
  9
$PLINEWID
 40
0.0
  9
$COORDS
 70
     1
  9
$SPLFRAME
 70
     0
  9
$SPLINETYPE
 70
     6
  9
$SPLINESEGS
 70
     8
  9
$ATTDIA
 70
     0
  9
$ATTREQ
 70
     1
  9
$HANDLING
 70
 22529
  9
$HANDSEED
  5
CB
  9
$SURFTAB1
 70
     6
  9
$SURFTAB2
 70
     6
  9
$SURFTYPE
 70
     6
  9
$SURFU
 70
     6
  9
$SURFV
 70
     6
  9
$UCSNAME
  2

  9
$UCSORG
 10
0.0
 20
0.0
 30
0.0
  9
$UCSXDIR
 10
1.0
 20
0.0
 30
0.0
  9
$UCSYDIR
 10
0.0
 20
1.0
 30
0.0
  9
$PUCSNAME
  2

  9
$PUCSORG
 10
0.0
 20
0.0
 30
0.0
  9
$PUCSXDIR
 10
1.0
 20
0.0
 30
0.0
  9
$PUCSYDIR
 10
0.0
 20
1.0
 30
0.0
  9
$USERI1
 70
     0
  9
$USERI2
 70
     0
  9
$USERI3
 70
     0
  9
$USERI4
 70
     0
  9
$USERI5
 70
     0
  9
$USERR1
 40
0.0
  9
$USERR2
 40
0.0
  9
$USERR3
 40
0.0
  9
$USERR4
 40
0.0
  9
$USERR5
 40
0.0
  9
$WORLDVIEW
 70
     1
  9
$SHADEDGE
 70
     3
  9
$SHADEDIF
 70
    70
  9
$TILEMODE
 70
     1
  9
$MAXACTVP
 70
    16
  9
$PINSBASE
 10
0.0
 20
0.0
 30
0.0
  9
$PLIMCHECK
 70
     0
  9
$PEXTMIN
 10
1.000000000000000E+20
 20
1.000000000000000E+20
 30
1.000000000000000E+20
  9
$PEXTMAX
 10
-1.000000000000000E+20
 20
-1.000000000000000E+20
 30
-1.000000000000000E+20
  9
$PLIMMIN
 10
0.0
 20
0.0
  9
$PLIMMAX
 10
12.0
 20
9.0
  9
$UNITMODE
 70
     0
  9
$VISRETAIN
 70
     0
  9
$PLINEGEN
 70
     1
  9
$PSLTSCALE
 70
     0
  9
$TREEDEPTH
 70
  3020
  9
$PICKSTYLE
 70
     1
  9
$CMLSTYLE
  2
STANDARD
  9
$CMLJUST
 70
     0
  9
$CMLSCALE
 40
1.0
  9
$PROXYGRAPHICS
 70
     0
  9
$MEASUREMENT
 70
     0
  0
ENDSEC
  0
SECTION
  2
CLASSES
  0
CLASS
  1
ACDBDICTIONARYWDFLT
  2
AcDbDictionaryWithDefault
  3
AutoCAD 2000
 90
        0
280
     1
281
     0
  0
CLASS
  1
ACDBPLACEHOLDER
  2
AcDbPlaceHolder
  3
AutoCAD 2000
 90
        0
280
     1
281
     0
  0
CLASS
  1
LAYOUT
  2
AcDbLayout
  3
AutoCAD 2000
 90
        0
280
     1
281
     0
  0
CLASS
  1
LWPOLYLINE
  2
AcDbPolyline
  3
AutoCAD 2000
 90
        0
280
     0
281
     1
  0
CLASS
  1
IMAGE
  2
AcDbRasterImage
  3
ISM
 90
      127
280
     1
281
     1
  0
CLASS
  1
OLE2FRAME
  2
AcDbOle2Frame
  3
AutoCAD 2000
 90
        0
280
     0
281
     1
  0
CLASS
  1
HATCH
  2
AcDbHatch
  3
AutoCAD 2000
 90
        0
280
     0
281
     1
  0
CLASS
  1
DICTIONARYVAR
  2
AcDbDictionaryVar
  3
AutoCAD 2000
 90
        0
280
     0
281
     0
  0
CLASS
  1
RASTERVARIABLES
  2
AcDbRasterVariables
  3
ISM
 90
        0
280
     1
281
     0
  0
CLASS
  1
IMAGEDEF
  2
AcDbRasterImageDef
  3
ISM
 90
        0
280
     1
281
     0
  0
CLASS
  1
IMAGEDEF_REACTOR
  2
AcDbRasterImageDefReactor
  3
ISM
 90
        1
280
     1
281
     0
  0
CLASS
  1
IDBUFFER
  2
AcDbIdBuffer
  3
AutoCAD 2000
 90
        0
280
     0
281
     0
  0
CLASS
  1
SPATIAL_FILTER
  2
AcDbSpatialFilter
  3
AutoCAD 2000
 90
        0
280
     0
281
     0
  0
CLASS
  1
XRECORD
  2
AcDbXrecord
  3
AutoCAD 2000
 90
        0
280
     0
281
     0
  0
CLASS
  1
SORTENTSTABLE
  2
AcDbSortentsTable
  3
AutoCAD 2000
 90
        0
280
     0
281
     0
  0
CLASS
  1
LAYER_INDEX
  2
AcDbLayerIndex
  3
AutoCAD 2000
 90
        0
280
     0
281
     0
  0
CLASS
  1
SPATIAL_INDEX
  2
AcDbSpatialIndex
  3
AutoCAD 2000
 90
        0
280
     0
281
     0
  0
CLASS
  1
OBJECT_PTR
  2
CAseDLPNTableRecord
  3
ASE-LPNTableRecord
 90
        1
280
     0
281
     0
  0
CLASS
  1
PLOTSETTINGS
  2
AcDbPlotSettings
  3
AutoCAD 2000
 90
        0
280
     1
281
     0
  0
CLASS
  1
VBA_PROJECT
  2
AcDbVbaProject
  3
acadvba
 90
        0
280
     1
281
     0
  0
CLASS
  1
WIPEOUT
  2
AcDbWipeout
  3
WipeOut|AutoCAD Express Tool|expresstools@autodesk.com
 90
      127
280
     1
281
     1
  0
CLASS
  1
WIPEOUTVARIABLES
  2
AcDbWipeoutVariables
  3
WipeOut|AutoCAD Express Tool|expresstools@autodesk.com
 90
        0
280
     1
281
     0
  0
CLASS
  1
RTEXT
  2
RText
  3
RText|AutoCAD Express Tool|expresstools@autodesk.com
 90
        0
280
     1
281
     1
  0
CLASS
  1
ARCALIGNEDTEXT
  2
AcDbArcAlignedText
  3
ATEXT|AutoCAD Express Tool|expresstools@autodesk.com
 90
        0
280
     1
281
     1
  0
CLASS
  1
LONG_TRANSACTION
  2
AcDbLongTransaction
  3
AutoCAD 2000
 90
        0
280
     1
281
     0
  0
CLASS
  1
LWPOLYLINE
  2
AcDbPolyline
  3
AutoCAD 2000
 90
        0
280
     0
281
     1
  0
CLASS
  1
HATCH
  2
AcDbHatch
  3
AutoCAD 2000
 90
        0
280
     0
281
     1
  0
CLASS
  1
XRECORD
  2
AcDbXrecord
  3
AutoCAD 2000
 90
        0
280
     0
281
     0
  0
CLASS
  1
LONG_TRANSACTION
  2
AcDbLongTransaction
  3
AutoCAD 2000
 90
        0
280
     0
281
     0
  0
CLASS
  1
LWPOLYLINE
  2
AcDbPolyline
  3
AutoCAD 2000
 90
        0
280
     0
281
     1
  0
CLASS
  1
HATCH
  2
AcDbHatch
  3
AutoCAD 2000
 90
        0
280
     0
281
     1
  0
CLASS
  1
XRECORD
  2
AcDbXrecord
  3
AutoCAD 2000
 90
        0
280
     0
281
     0
  0
ENDSEC
  0
SECTION
  2
TABLES
  0
TABLE
  2
VPORT
  5
1A
330
0
100
AcDbSymbolTable
 70
     3
  0
VPORT
  5
A7
330
1A
100
AcDbSymbolTableRecord
100
AcDbViewportTableRecord
  2
*ACTIVE
 70
     0
 10
0.0
 20
0.0
 11
1.0
 21
1.0
 12
-20.65492809029181
 22
86.21120603136251
 13
0.0
 23
0.0
 14
1.0
 24
1.0
 15
0.0
 25
0.0
 16
0.0
 26
0.0
 36
1.0
 17
0.0
 27
0.0
 37
0.0
 40
42.60672973511115
 41
1.786792452830188
 42
50.0
 43
0.0
 44
0.0
 50
0.0
 51
0.0
 71
     0
 72
   100
 73
     1
 74
     1
 75
     0
 76
     0
 77
     0
 78
     0
  0
ENDTAB
  0
TABLE
  2
LTYPE
  5
11
330
0
100
AcDbSymbolTable
 70
     2
  0
LTYPE
  5
12
330
11
100
AcDbSymbolTableRecord
100
AcDbLinetypeTableRecord
  2
BYBLOCK
 70
     0
  3

 72
    65
 73
     0
 40
0.0
  0
LTYPE
  5
15
330
11
100
AcDbSymbolTableRecord
100
AcDbLinetypeTableRecord
  2
BYLAYER
 70
     0
  3

 72
    65
 73
     0
 40
0.0
  0
LTYPE
  5
7
330
11
100
AcDbSymbolTableRecord
100
AcDbLinetypeTableRecord
  2
CONTINUOUS
 70
     0
  3
Solid line
 72
    65
 73
     0
 40
0.0
  0
LTYPE
  5
30
330
11
100
AcDbSymbolTableRecord
100
AcDbLinetypeTableRecord
  2
CENTER
 70
     0
  3
____ _ ____ _ ____ _ ____ _ ____ _ ____ _ ____
 72
    65
 73
     4
 40
0.6
 49
0.375
 74
     0
 49
-0.075
 74
     0
 49
0.075
 74
     0
 49
-0.075
 74
     0
  0
ENDTAB
  0
TABLE
  2
LAYER
  5
E
330
0
100
AcDbSymbolTable
 70
     1
  0
LAYER
  5
6
330
E
100
AcDbSymbolTableRecord
100
AcDbLayerTableRecord
  2
0
 70
     0
 62
     7
  6
CONTINUOUS
  0
ENDTAB
  0
TABLE
  2
STYLE
  5
F
330
0
100
AcDbSymbolTable
 70
     1
  0
STYLE
  5
10
330
F
100
AcDbSymbolTableRecord
100
AcDbTextStyleTableRecord
  2
STANDARD
 70
     0
 40
0.0
 41
0.8
 50
0.0
 71
     0
 42
0.2
  3
txt
  4

  0
ENDTAB
  0
TABLE
  2
VIEW
  5
18
330
0
100
AcDbSymbolTable
 70
     0
  0
ENDTAB
  0
TABLE
  2
UCS
  5
19
330
0
100
AcDbSymbolTable
 70
     0
  0
ENDTAB
  0
TABLE
  2
APPID
  5
1C
330
0
100
AcDbSymbolTable
 70
     1
  0
APPID
  5
1D
330
1C
100
AcDbSymbolTableRecord
100
AcDbRegAppTableRecord
  2
ACAD
 70
     0
  0
ENDTAB
  0
TABLE
  2
DIMSTYLE
  5
1E
330
0
100
AcDbSymbolTable
 70
     1
  0
DIMSTYLE
105
26
330
1E
100
AcDbSymbolTableRecord
100
AcDbDimStyleTableRecord
  2
STANDARD
 70
     0
  3

  4

  5
_FILLED
  6
_FILLED
  7
_FILLED
 40
1.0
 41
0.1875
 42
0.10625
 43
0.646
 44
0.306
 45
0.0
 46
0.0
 47
0.0
 48
0.0
140
0.125
141
0.153
142
0.0
143
25.4
144
1.0
145
0.0
146
1.0
147
0.09
 71
     0
 72
     0
 73
     1
 74
     1
 75
     0
 76
     0
 77
     0
 78
     0
170
     0
171
     2
172
     0
173
     0
174
     0
175
     0
176
     0
177
     0
178
     0
270
     2
271
     4
272
     4
273
     2
274
     2
340
10
275
     0
280
     0
281
     0
282
     0
283
     1
284
     0
285
     0
286
     0
287
     3
288
     0
  0
ENDTAB
  0
TABLE
  2
BLOCK_RECORD
  5
1
330
0
100
AcDbSymbolTable
 70
     1
  0
BLOCK_RECORD
  5
2
102
{ACAD_XDICTIONARY
360
3
102
}
330
1
100
AcDbSymbolTableRecord
100
AcDbBlockTableRecord
  2
*MODEL_SPACE
  0
BLOCK_RECORD
  5
9
102
{ACAD_XDICTIONARY
360
A
102
}
330
1
100
AcDbSymbolTableRecord
100
AcDbBlockTableRecord
  2
*PAPER_SPACE
  0
BLOCK_RECORD
  5
29
330
1
100
AcDbSymbolTableRecord
100
AcDbBlockTableRecord
  2
_FILLED
  0
ENDTAB
  0
ENDSEC
  0
SECTION
  2
BLOCKS
  0
BLOCK
  5
5
330
2
100
AcDbEntity
  8
0
100
AcDbBlockBegin
  2
*MODEL_SPACE
 70
     0
 10
0.0
 20
0.0
 30
0.0
  3
*MODEL_SPACE
  1

  0
ENDBLK
  5
8
330
2
100
AcDbEntity
  8
0
100
AcDbBlockEnd
  0
BLOCK
  5
C
330
9
100
AcDbEntity
 67
     1
  8
0
100
AcDbBlockBegin
  2
*PAPER_SPACE
 70
     0
 10
0.0
 20
0.0
 30
0.0
  3
*PAPER_SPACE
  1

  0
ENDBLK
  5
D
330
9
100
AcDbEntity
 67
     1
  8
0
100
AcDbBlockEnd
  0
BLOCK
  5
2B
330
29
100
AcDbEntity
  8
0
100
AcDbBlockBegin
  2
_FILLED
 70
     0
 10
0.0
 20
0.0
 30
0.0
  3
_FILLED
  1

  0
SOLID
  5
2A
330
29
100
AcDbEntity
  8
0
  6
BYBLOCK
 62
     0
100
AcDbTrace
 10
0.0
 20
0.0
 30
0.0
 11
-1.0
 21
0.1666666667
 31
0.0
 12
-1.0
 22
-0.1666666667
 32
0.0
 13
-1.0
 23
-0.1666666667
 33
0.0
  0
ENDBLK
  5
2C
330
29
100
AcDbEntity
  8
0
  6
BYBLOCK
 62
     0
100
AcDbBlockEnd
  0
ENDSEC
  0
SECTION
  2
ENTITIES
  0
LWPOLYLINE
  5
2D
330
2
100
AcDbEntity
  8
0
  6
CONTINUOUS
100
AcDbPolyline
 90
       10
 70
     0
 43
0.0
 10
7.827833738007697
 20
86.21064157981676
 10
7.601478653207706
 20
88.99159049661674
 10
6.981394938007696
 20
91.43932114781675
 10
5.8990744228077
 20
93.85653959901674
 10
4.422973198807696
 20
96.01813884861673
 10
2.568900296407704
 20
97.92861550141674
 10
0.2715665892077084
 20
99.64417927101676
 10
-2.498416812392292
 20
101.1260930470167
 10
-5.829354564392303
 20
102.3497056774167
 10
-9.890308727592298
 20
103.3644798358167
  0
LWPOLYLINE
  5
2E
330
2
100
AcDbEntity
  8
0
  6
CONTINUOUS
100
AcDbPolyline
 90
       10
 70
     0
 43
0.0
 10
-9.890308727592298
 20
69.05680332381675
 10
-5.624072165992302
 20
70.13292592061674
 10
-2.098771289192299
 20
71.47876876861674
 10
0.7612216692076999
 20
73.09833735581674
 10
3.081563680407697
 20
74.96119653501674
 10
4.833928800407704
 20
76.92752728221674
 10
6.145814227607701
 20
79.02419754141672
 10
7.066842938007695
 20
81.23775238781673
 10
7.615684379607699
 20
83.51563223741676
 10
7.827833738007697
 20
86.21064157981676
  0
LINE
  5
2F
330
2
100
AcDbEntity
  8
0
  6
CENTER
 62
     1
 48
0.75
100
AcDbLine
 10
-8.250664735999976
 20
86.21064157981676
 30
0.0
 11
1.406332212015371
 21
86.21064157981676
 31
0.0
  0
LWPOLYLINE
  5
31
330
2
100
AcDbEntity
  8
0
  6
CONTINUOUS
100
AcDbPolyline
 90
       22
 70
     0
 43
0.0
 10
4.215337645207696
 20
86.21064157981676
 10
4.213630914007694
 20
86.43571587101673
 10
4.207686960407698
 20
86.68448489661674
 10
4.196031142807697
 20
86.95869852381674
 10
4.176833986007707
 20
87.25987913341674
 10
4.147854645207701
 20
87.58942238621674
 10
4.106382701207706
 20
87.94857264541674
 10
4.049183998807706
 20
88.33839779741675
 10
3.972458595607704
 20
88.75975843261674
 10
3.871585006807706
 20
89.21432970141674
 10
3.740229381207697
 20
89.70701764221672
 10
3.570614024407703
 20
90.24289033661673
 10
3.356140664407703
 20
90.81860282301674
 10
3.0895182580077
 20
91.42783356541674
 10
2.751088683607704
 20
92.08543960221675
 10
2.315669683607694
 20
92.80224899581673
 10
1.754749318807697
 20
93.58108956221673
 10
1.050790826007698
 20
94.40099010781674
 10
0.1802784996076951
 20
95.24422835101674
 10
-0.897119317992292
 20
96.10403462621674
 10
-2.199046193192302
 20
96.94864507101673
 10
-3.740409277992299
 20
97.74542101021674
  0
LWPOLYLINE
  5
32
330
2
100
AcDbEntity
  8
0
  6
CONTINUOUS
100
AcDbPolyline
 90
       11
 70
     0
 43
0.0
 10
-3.702381444392301
 20
74.61929633821674
 10
-2.049362076392299
 20
75.47523133181674
 10
-0.6629249931923056
 20
76.39442485501675
 10
0.4710751892076957
 20
77.33767460381674
 10
1.372744387607696
 20
78.26708158941674
 10
2.089042426007708
 20
79.17382057821675
 10
2.719816006807704
 20
80.16301981821674
 10
3.289226272407702
 20
81.32199170301674
 10
3.7722739476077
 20
82.71049842301673
 10
4.103271738007705
 20
84.33607563261674
 10
4.215323979607703
 20
86.21064149341675
  0
LWPOLYLINE
  5
33
330
2
100
AcDbEntity
  8
0
  6
CONTINUOUS
100
AcDbPolyline
 90
       13
 70
     0
 43
0.0
 10
-5.585846802792303
 20
76.65373854141674
 10
-4.188798407592301
 20
77.33288017661672
 10
-3.052636327592296
 20
78.10985625341675
 10
-2.1365063291923
 20
78.92949827421674
 10
-1.404214887592303
 20
79.75744580381675
 10
-0.8273386331922978
 20
80.56751631421674
 10
-0.3770333019922987
 20
81.34530829821674
 10
-0.0297008699922969
 20
82.08371603261673
 10
0.233511707607704
 20
82.77919715101674
 10
0.4276366580076996
 20
83.42786806141674
 10
0.5664694852077048
 20
84.02985739741675
 10
0.6612435588076977
 20
84.58677167741674
 10
0.7203982548077051
 20
85.09447375261675
  0
LWPOLYLINE
  5
34
330
2
100
AcDbEntity
  8
0
  6
CONTINUOUS
100
AcDbPolyline
 90
       13
 70
     0
 43
0.0
 10
0.6915799860076959
 20
87.43973808061673
 10
0.6224296644077043
 20
87.94033630461674
 10
0.5185098116077001
 20
88.48924720861674
 10
0.3720493156076969
 20
89.08181538941674
 10
0.1722518180076946
 20
89.71983353181673
 10
-0.0945860267922996
 20
90.40487418141674
 10
-0.442393889192303
 20
91.13161086621673
 10
-0.8900505355922945
 20
91.89805821981673
 10
-1.459720489192292
 20
92.69605726781675
 10
-2.1810470443923
 20
93.51401541021672
 10
-3.080181303592297
 20
94.32450222141673
 10
-4.194689709992303
 20
95.09685566461673
 10
-5.567170330792293
 20
95.77798633181675
  0
LWPOLYLINE
  5
35
330
2
100
AcDbEntity
  8
0
  6
CONTINUOUS
100
AcDbPolyline
 90
        4
 70
     0
 43
0.0
 10
-5.567153266792303
 20
95.77802955901674
 10
-6.359389917992302
 20
96.05927150621674
 10
-7.168758748392292
 20
96.27175484861675
 10
-8.018721743592294
 20
96.41836072861673
  0
LWPOLYLINE
  5
36
330
2
100
AcDbEntity
  8
0
  6
CONTINUOUS
100
AcDbPolyline
 90
       17
 70
     0
 43
0.0
 10
-38.1859402539923
 20
98.65663504701675
 10
-39.9682682091923
 20
97.97893460701672
 10
-41.50116246039229
 20
97.23220301501676
 10
-42.8169632203923
 20
96.43439287901674
 10
-43.9301140379923
 20
95.60911933661675
 10
-44.8607305355923
 20
94.77495594941675
 10
-45.6267190843923
 20
93.95267408861673
 10
-46.2451807643923
 20
93.16285859741674
 10
-46.76694032919229
 20
92.36596164221674
 10
-47.21991208919229
 20
91.52467227741672
 10
-47.6038385771923
 20
90.63592107421674
 10
-47.9102931291923
 20
89.72209070461673
 10
-48.1204173547923
 20
88.88110245501673
 10
-48.2558661003923
 20
88.12306376381673
 10
-48.3378906603923
 20
87.42808744701674
 10
-48.3796738427923
 20
86.79020723741675
 10
-48.39166777079231
 20
86.21064157981676
  0
LWPOLYLINE
  5
37
330
2
100
AcDbEntity
  8
0
  6
CONTINUOUS
100
AcDbPolyline
 90
        9
 70
     0
 43
0.0
 10
-32.08705879479231
 20
96.38985234461674
 10
-33.69661963639231
 20
96.04805513661673
 10
-35.4316819211923
 20
95.36686879101674
 10
-37.11859778039229
 20
94.31412977181674
 10
-38.57165955479229
 20
92.96464820541675
 10
-39.7329554187923
 20
91.37169303901675
 10
-40.56478797559231
 20
89.59568199101672
 10
-41.02395326999229
 20
87.79663412061674
 10
-41.1515485819923
 20
86.21064158621676
  0
LWPOLYLINE
  5
38
330
2
100
AcDbEntity
  8
0
  6
CONTINUOUS
100
AcDbPolyline
 90
       10
 70
     0
 43
0.0
 10
-34.45402379639228
 20
103.3644798358167
 10
-38.72026035639231
 20
102.2883572390167
 10
-42.24556123479229
 20
100.9425143926167
 10
-45.10555419319229
 20
99.32294580541674
 10
-47.4258962043923
 20
97.46008662621674
 10
-49.1782613227923
 20
95.49375587901673
 10
-50.49014675159231
 20
93.39708561981675
 10
-51.41117546199229
 20
91.18353077181675
 10
-51.9600169035923
 20
88.90565092221676
 10
-52.17216626199228
 20
86.21064157981676
  0
LWPOLYLINE
  5
39
330
2
100
AcDbEntity
  8
0
  6
CONTINUOUS
100
AcDbPolyline
 90
        4
 70
     0
 43
0.0
 10
-38.1990144043923
 20
73.77940476701674
 10
-36.84618995319229
 20
73.37280962141673
 10
-35.40906502199232
 20
73.02249177021675
 10
-33.88333451159229
 20
72.73129466941674
  0
LWPOLYLINE
  5
3A
330
2
100
AcDbEntity
  8
0
  6
CONTINUOUS
100
AcDbPolyline
 90
       10
 70
     0
 43
0.0
 10
-52.17216626199228
 20
86.21064157981676
 10
-51.9458111771923
 20
83.42969266461674
 10
-51.3257274619923
 20
80.98196201341673
 10
-50.24340694519231
 20
78.56474356221673
 10
-48.76730572119232
 20
76.40314431261675
 10
-46.91323282039229
 20
74.49266765981675
 10
-44.61589911319231
 20
72.77710389021674
 10
-41.84591571159228
 20
71.29519011421674
 10
-38.5149779595923
 20
70.07157748381674
 10
-34.45402379639228
 20
69.05680332381675
  0
LWPOLYLINE
  5
3B
330
2
100
AcDbEntity
  8
0
  6
CONTINUOUS
100
AcDbPolyline
 90
        9
 70
     0
 43
0.0
 10
-41.15154400279229
 20
86.21064157661676
 10
-40.98036700759229
 20
84.34370011901675
 10
-40.46021685879231
 20
82.51505395581673
 10
-39.6004968603923
 20
80.80216852541672
 10
-38.43257208919229
 20
79.27364903101673
 10
-36.99598818359231
 20
77.98632816541675
 10
-35.3589354427923
 20
76.99235273661674
 10
-33.68546563639227
 20
76.34727455421674
 10
-32.13367139319228
 20
76.01920224541675
  0
LWPOLYLINE
  5
3C
330
2
100
AcDbEntity
  8
0
  6
CONTINUOUS
100
AcDbPolyline
 90
       16
 70
     0
 43
0.0
 10
-48.3916680715923
 20
86.21064157981676
 10
-48.37842561879231
 20
85.59058147901675
 10
-48.3308419963923
 20
84.90656709661672
 10
-48.23693536279231
 20
84.16282048701674
 10
-48.0820647419923
 20
83.35498819101673
 10
-47.84413882999229
 20
82.46926140381674
 10
-47.5066802315923
 20
81.53108653341673
 10
-47.08234754199231
 20
80.61443713021674
 10
-46.5694107019923
 20
79.72970998461673
 10
-45.95911222359228
 20
78.87127331421675
 10
-45.1996561067923
 20
77.98957965661674
 10
-44.25511469719231
 20
77.08562204701673
 10
-43.10657808279228
 20
76.18850470461675
 10
-41.7261523259923
 20
75.31889516221673
 10
-40.10030803159231
 20
74.50783085661673
 10
-38.19901399639229
 20
73.77940600061674
  0
LWPOLYLINE
  5
3D
330
2
100
AcDbEntity
  8
0
  6
CONTINUOUS
100
AcDbPolyline
 90
        4
 70
     0
 43
0.0
 10
-34.45402379639228
 20
69.05680332381675
 10
-26.36549901559229
 20
68.21258829021676
 10
-18.05437920279229
 20
68.20869486941674
 10
-9.890308727592298
 20
69.05680332381675
  0
LWPOLYLINE
  5
3E
330
2
100
AcDbEntity
  8
0
  6
CONTINUOUS
100
AcDbPolyline
 90
        4
 70
     0
 43
0.0
 10
-26.37451429079232
 20
75.50749104221674
 10
-22.08992809239231
 20
75.33784908381673
 10
-17.81473163959231
 20
75.34654400701675
 10
-13.57780934679229
 20
75.52922048701674
  0
LWPOLYLINE
  5
3F
330
2
100
AcDbEntity
  8
0
  6
CONTINUOUS
100
AcDbPolyline
 90
       16
 70
     0
 43
0.0
 10
-33.6525794555923
 20
72.69393580861674
 10
-32.6218072331923
 20
72.53889267581674
 10
-31.48531749879231
 20
72.38642077341674
 10
-30.2359449467923
 20
72.24025720061674
 10
-28.86693253399229
 20
72.10493077821674
 10
-27.3715895259923
 20
71.98581410941674
 10
-25.74316998359228
 20
71.88927042461674
 10
-23.97001819959228
 20
71.82276898141674
 10
-22.02815810679231
 20
71.79582576861673
 10
-19.9875234283923
 20
71.81960269341674
 10
-18.01184299799229
 20
71.89452452541674
 10
-16.1937656779923
 20
72.00922939741674
 10
-14.54586760119229
 20
72.15171300061673
 10
-13.06482990999228
 20
72.31171636861674
 10
-11.74686678039229
 20
72.48021031261673
 10
-10.58783546679229
 20
72.64930040221674
  0
LWPOLYLINE
  5
40
330
2
100
AcDbEntity
  8
0
  6
CONTINUOUS
100
AcDbPolyline
 90
        5
 70
     0
 43
0.0
 10
-28.83165969399229
 20
75.68495765821674
 10
-28.14485454839228
 20
75.62953161981674
 10
-27.50868825879229
 20
75.58222901181673
 10
-26.9192823531923
 20
75.54185968381673
 10
-26.3745144299923
 20
75.50748909181674
  0
LWPOLYLINE
  5
41
330
2
100
AcDbEntity
  8
0
  6
CONTINUOUS
100
AcDbPolyline
 90
        4
 70
     0
 43
0.0
 10
-32.13367073719229
 20
76.01920725821674
 10
-30.9636136987923
 20
75.88775370941672
 10
-29.86427124759228
 20
75.77730006621675
 10
-28.83165969079229
 20
75.68495768541673
  0
LINE
  5
42
330
2
100
AcDbEntity
  8
0
  6
CONTINUOUS
100
AcDbLine
 10
-33.88333444119231
 20
72.73129508861673
 30
0.0
 11
-33.6525794491923
 21
72.69393585341673
 31
0.0
  0
LINE
  5
43
330
2
100
AcDbEntity
  8
0
  6
CENTER
 62
     1
 48
0.75
100
AcDbLine
 10
-3.422166261992302
 20
91.03914005382442
 30
0.0
 11
-3.422166261992302
 21
81.38214310580908
 31
0.0
  0
LWPOLYLINE
  5
44
330
2
100
AcDbEntity
  8
0
  6
CONTINUOUS
100
AcDbPolyline
 90
        4
 70
     0
 43
0.0
 10
-13.57780934839229
 20
75.52922053021673
 10
-11.6802935819923
 20
75.66820172221674
 10
-9.786567551592298
 20
75.84264554461674
 10
-7.915585871592298
 20
76.05071899901673
  0
LWPOLYLINE
  5
45
330
2
100
AcDbEntity
  8
0
  6
CONTINUOUS
100
AcDbPolyline
 90
        5
 70
     0
 43
0.0
 10
-10.44968000439229
 20
72.67093397501674
 10
-8.892538314792304
 20
72.95706878621674
 10
-7.227573220392301
 20
73.35837833821674
 10
-5.435346671592299
 20
73.92050993341674
 10
-3.702380733992299
 20
74.61929477181674
  0
LINE
  5
46
330
2
100
AcDbEntity
  8
0
  6
CONTINUOUS
100
AcDbLine
 10
-10.58783546999231
 20
72.64930042301674
 30
0.0
 11
-10.44967999159231
 21
72.67093389821674
 31
0.0
  0
LWPOLYLINE
  5
47
330
2
100
AcDbEntity
  8
0
  6
CONTINUOUS
100
AcDbPolyline
 90
        4
 70
     0
 43
0.0
 10
-7.915585905192301
 20
76.05071927581673
 10
-7.116691093992301
 20
76.19019717501675
 10
-6.343989087592305
 20
76.39063366461673
 10
-5.585838577192305
 20
76.65371686621674
  0
CIRCLE
  5
48
330
2
100
AcDbEntity
  8
0
100
AcDbCircle
 10
-3.422166261992302
 20
86.21064157981676
 30
0.0
 40
1.957671239455091
  0
CIRCLE
  5
49
330
2
100
AcDbEntity
  8
0
100
AcDbCircle
 10
-3.422166261992302
 20
86.21064157981676
 30
0.0
 40
1.323199999999999
  0
LWPOLYLINE
  5
4A
330
2
100
AcDbEntity
  8
0
  6
CONTINUOUS
100
AcDbPolyline
 90
        4
 70
     0
 43
0.0
 10
-33.8853746939923
 20
99.70350940701676
 10
-35.40566638839232
 20
99.41255496701675
 10
-36.8378985499923
 20
99.06259347261674
 10
-38.18594055319229
 20
98.65663595101674
  0
LWPOLYLINE
  5
4B
330
2
100
AcDbEntity
  8
0
  6
CONTINUOUS
100
AcDbPolyline
 90
        4
 70
     0
 43
0.0
 10
-34.45402379639228
 20
103.3644798358167
 10
-26.36549901559229
 20
104.2086948694167
 10
-18.05437920279229
 20
104.2125882902167
 10
-9.890308727592298
 20
103.3644798358167
  0
LWPOLYLINE
  5
4C
330
2
100
AcDbEntity
  8
0
  6
CONTINUOUS
100
AcDbPolyline
 90
        4
 70
     0
 43
0.0
 10
-13.63582903799229
 20
96.91718204061675
 10
-17.80070414359229
 20
97.08132800701674
 10
-22.0729935531923
 20
97.07733757981674
 10
-26.3364894699923
 20
96.90153263261676
  0
LWPOLYLINE
  5
4D
330
2
100
AcDbEntity
  8
0
  6
CONTINUOUS
100
AcDbPolyline
 90
       16
 70
     0
 43
0.0
 10
-10.6080246475923
 20
99.74144526141675
 10
-11.7458554219923
 20
99.91231070941674
 10
-12.9987395595923
 20
100.0784073030167
 10
-14.38105895959228
 20
100.2355260518167
 10
-15.9064919435923
 20
100.3778012838167
 10
-17.58863444599228
 20
100.4975677638167
 10
-19.4411094235923
 20
100.5850491814167
 10
-21.47784758999228
 20
100.6280871414167
 10
-23.60535944919229
 20
100.6148607814167
 10
-25.5378265515923
 20
100.5520352390167
 10
-27.27035747319229
 20
100.4544675798167
 10
-28.82100026999228
 20
100.3335273638167
 10
-30.2114331643923
 20
100.1973684502167
 10
-31.46343792119228
 20
100.0516019334167
 10
-32.5987673611923
 20
99.89972548061675
 10
-33.64014756439229
 20
99.74326826781675
  0
LWPOLYLINE
  5
4E
330
2
100
AcDbEntity
  8
0
  6
CONTINUOUS
100
AcDbPolyline
 90
        5
 70
     0
 43
0.0
 10
-26.33648932119228
 20
96.90153055901674
 10
-27.02664429079232
 20
96.85694225341675
 10
-27.67792570839231
 20
96.81082182141674
 10
-28.2712627195923
 20
96.76536785981674
 10
-28.7880876075923
 20
96.72309838621675
  0
LWPOLYLINE
  5
4F
330
2
100
AcDbEntity
  8
0
  6
CONTINUOUS
100
AcDbPolyline
 90
        4
 70
     0
 43
0.0
 10
-28.7880876043923
 20
96.72309835581675
 10
-29.81861509239229
 20
96.63088185181676
 10
-30.91862820599229
 20
96.52058150461673
 10
-32.08705823479229
 20
96.38984805021673
  0
LINE
  5
50
330
2
100
AcDbEntity
  8
0
  6
CONTINUOUS
100
AcDbLine
 10
-33.64014755799229
 20
99.74326823101675
 30
0.0
 11
-33.8853746699923
 21
99.70350925981675
 31
0.0
  0
LWPOLYLINE
  5
51
330
2
100
AcDbEntity
  8
0
  6
CONTINUOUS
100
AcDbPolyline
 90
        5
 70
     0
 43
0.0
 10
-3.740408943592299
 20
97.74542173981675
 10
-5.462985693992294
 20
98.44802708381672
 10
-7.260693561192297
 20
99.02042403901674
 10
-8.927118332392296
 20
99.42928411101673
 10
-10.45613346999229
 20
99.71699332701675
  0
LWPOLYLINE
  5
52
330
2
100
AcDbEntity
  8
0
  6
CONTINUOUS
100
AcDbPolyline
 90
        4
 70
     0
 43
0.0
 10
-8.018721709992291
 20
96.41836101661674
 10
-9.864856541992296
 20
96.61841050301674
 10
-11.7377253467923
 20
96.78495622461674
 10
-13.6358291035923
 20
96.91718080381674
  0
LINE
  5
53
330
2
100
AcDbEntity
  8
0
  6
CONTINUOUS
100
AcDbLine
 10
-10.45613346839229
 20
99.71699333501675
 30
0.0
 11
-10.60802465239228
 21
99.74144523261674
 31
0.0
  0
LINE
  5
54
330
2
100
AcDbEntity
  8
0
  6
CENTER
 62
     1
 48
0.75
100
AcDbLine
 10
1.190454887466557
 20
86.21064157981676
 30
0.0
 11
10.8474518354819
 21
86.21064157981676
 31
0.0
  0
LWPOLYLINE
  5
55
330
2
100
AcDbEntity
  8
0
  6
CONTINUOUS
100
AcDbPolyline
 90
        7
 70
     0
 43
0.0
 10
3.718542635607704
 20
84.89814157981674
 10
3.663229485207708
 20
84.94207588221673
 10
3.614641832407698
 20
85.07301176861673
 10
3.574205259607694
 20
85.28111185981675
 10
3.541804106007703
 20
85.55302546301675
 10
3.516818450007704
 20
85.87081821661673
 10
3.499691171607707
 20
86.21064157981676
  0
LWPOLYLINE
  5
56
330
2
100
AcDbEntity
  8
0
  6
CONTINUOUS
100
AcDbPolyline
 90
        7
 70
     0
 43
0.0
 10
3.499691171607707
 20
86.21064157981676
 10
3.503814464407696
 20
86.54850893181674
 10
3.516554088407701
 20
86.86432262781673
 10
3.539162123607695
 20
87.13675994621672
 10
3.573215854807699
 20
87.34667669981673
 10
3.619390520407705
 20
87.47855038941674
 10
3.672828549207707
 20
87.52292233181675
  0
LWPOLYLINE
  5
57
330
2
100
AcDbEntity
  8
0
  6
CONTINUOUS
100
AcDbPolyline
 90
        5
 70
     0
 43
0.0
 10
0.7204029764076978
 20
85.09447334781674
 10
0.7440678260077079
 20
85.41104670301676
 10
0.7567632788076964
 20
85.69984905981673
 10
0.7613126340076946
 20
85.96491668541673
 10
0.7564420804076946
 20
86.47990315261674
  0
LWPOLYLINE
  5
58
330
2
100
AcDbEntity
  8
0
  6
CONTINUOUS
100
AcDbPolyline
 90
        4
 70
     0
 43
0.0
 10
0.7564420804076946
 20
86.47990315261674
 10
0.7458409556077044
 20
86.77163870301674
 10
0.7253955060077005
 20
87.08995526621675
 10
0.6915877860077018
 20
87.43973896861675
  0
LINE
  5
59
330
2
100
AcDbEntity
  8
0
  6
CONTINUOUS
100
AcDbLine
 10
3.714646755607702
 20
86.21480825341675
 30
0.0
 11
3.716863930007704
 21
86.47330519581675
 31
0.0
  0
LWPOLYLINE
  5
5A
330
2
100
AcDbEntity
  8
0
  6
CONTINUOUS
100
AcDbPolyline
 90
        5
 70
     0
 43
0.0
 10
3.808414203607696
 20
87.35026065661674
 10
3.871977978007706
 20
87.14393584061673
 10
3.924178562007696
 20
86.87310601021673
 10
3.958708061207701
 20
86.55439781501673
 10
3.970718986007696
 20
86.21064157981676
  0
LWPOLYLINE
  5
5B
330
2
100
AcDbEntity
  8
0
  6
CONTINUOUS
100
AcDbPolyline
 90
        5
 70
     0
 43
0.0
 10
3.818233186007702
 20
85.10992859101675
 10
3.788867328407704
 20
85.27534947421674
 10
3.764043842007694
 20
85.47649225341675
 10
3.743426400407699
 20
85.70591015261674
 10
3.726829315607702
 20
85.95507923741672
  0
LWPOLYLINE
  5
5C
330
2
100
AcDbEntity
  8
0
  6
CONTINUOUS
100
AcDbPolyline
 90
        5
 70
     0
 43
0.0
 10
3.970718986007696
 20
86.21064157981676
 10
3.966026997207706
 20
85.87236688381674
 10
3.939894338007704
 20
85.55658591101673
 10
3.896163322007694
 20
85.28452369821673
 10
3.840407154007706
 20
85.07489668541674
  0
LWPOLYLINE
  5
5D
330
2
100
AcDbEntity
  8
0
  6
CONTINUOUS
100
AcDbPolyline
 90
        3
 70
     0
 43
0.0
 10
3.840407154007706
 20
85.07489668541674
 10
3.779145507607694
 20
84.94292126621672
 10
3.718542635607704
 20
84.89814157981674
  0
LINE
  5
5E
330
2
100
AcDbEntity
  8
0
  6
CONTINUOUS
100
AcDbLine
 10
3.726829315607702
 20
85.95507923741672
 30
0.0
 11
3.714646755607702
 21
86.21480825341675
 31
0.0
  0
LINE
  5
5F
330
2
100
AcDbEntity
  8
0
  6
CONTINUOUS
100
AcDbLine
 10
3.832568686807704
 20
85.05801034621674
 30
0.0
 11
3.818233186007702
 21
85.10992859101675
 31
0.0
  0
LWPOLYLINE
  5
60
330
2
100
AcDbEntity
  8
0
  6
CONTINUOUS
100
AcDbPolyline
 90
        3
 70
     0
 43
0.0
 10
3.676481726807708
 20
87.52314157981675
 10
3.740745221207703
 20
87.47971217021675
 10
3.808414203607696
 20
87.35026065661674
  0
LINE
  5
61
330
2
100
AcDbEntity
  8
0
  6
CONTINUOUS
100
AcDbLine
 10
3.672828549207707
 20
87.52292233181675
 30
0.0
 11
3.676481726807708
 21
87.52314157981675
 31
0.0
  0
LINE
  5
62
330
2
100
AcDbEntity
  8
0
  6
CONTINUOUS
100
AcDbLine
 10
3.777554280407699
 20
87.31917206301673
 30
0.0
 11
3.792830053207694
 21
87.38007330781673
 31
0.0
  0
LWPOLYLINE
  5
63
330
2
100
AcDbEntity
  8
0
  6
CONTINUOUS
100
AcDbPolyline
 90
        5
 70
     0
 43
0.0
 10
3.716863930007704
 20
86.47330519581675
 10
3.723792118807708
 20
86.72214020861673
 10
3.735755165207706
 20
86.95171942301673
 10
3.7534497140077
 20
87.15322884221675
 10
3.777554280407699
 20
87.31917206301673
  0
ENDSEC
  0
SECTION
  2
OBJECTS
  0
DICTIONARY
  5
24
330
0
100
AcDbDictionary
  3
ACAD_GROUP
350
20
  3
ACAD_LAYOUT
350
67
  3
ACAD_MLINESTYLE
350
21
  3
ACAD_PLOTSETTINGS
350
68
  3
ACAD_PLOTSTYLENAME
350
65
  3
ACDBHEADERROUNDTRIPXREC
350
A8
  3
ACDBVARIABLEDICTIONARY
350
A5
  0
DICTIONARY
  5
3
330
2
100
AcDbDictionary
280
     1
  3
ACAD_LAYOUTSELFREF
360
C9
  0
DICTIONARY
  5
A
330
9
100
AcDbDictionary
280
     1
  3
ACAD_LAYOUTSELFREF
360
CA
  0
DICTIONARY
  5
20
102
{ACAD_REACTORS
330
24
102
}
330
24
100
AcDbDictionary
  0
DICTIONARY
  5
67
102
{ACAD_REACTORS
330
24
102
}
330
24
100
AcDbDictionary
  0
DICTIONARY
  5
21
102
{ACAD_REACTORS
330
24
102
}
330
24
100
AcDbDictionary
  3
STANDARD
350
25
  0
DICTIONARY
  5
68
102
{ACAD_REACTORS
330
24
102
}
330
24
100
AcDbDictionary
  0
ACDBDICTIONARYWDFLT
  5
65
102
{ACAD_REACTORS
330
24
102
}
330
24
100
AcDbDictionary
281
     1
  3
Normal
350
66
100
AcDbDictionaryWithDefault
340
66
  0
DICTIONARY
  5
A8
102
{ACAD_REACTORS
330
24
102
}
330
24
100
AcDbDictionary
  3
CEPSNTYPE
350
B2
  3
DIMSTYLEDATA
350
B6
  3
FINGERPRINTGUID
350
B3
  3
HYPERLINKBASE
350
AB
  3
INSUNITS
350
B1
  3
LAYOUTDICT
350
AD
  3
LWETCUNION
350
B0
  3
PLOTSETDICT
350
AE
  3
PLOTSTYLNAMDICT
350
AF
  3
PSVPSCALE
350
B5
  3
PUCSBASE
350
B9
  3
PUCSORGBACK
350
BF
  3
PUCSORGBOTTOM
350
BB
  3
PUCSORGFRONT
350
BE
  3
PUCSORGLEFT
350
BC
  3
PUCSORGRIGHT
350
BD
  3
PUCSORGTOP
350
BA
  3
PUCSORTHOREF
350
B7
  3
PUCSORTHOVIEW
350
B8
  3
STYLESHEET
350
AC
  3
TSTACKALIGN
350
A9
  3
TSTACKSIZE
350
AA
  3
UCSBASE
350
C2
  3
UCSORGBACK
350
C8
  3
UCSORGBOTTOM
350
C4
  3
UCSORGFRONT
350
C7
  3
UCSORGLEFT
350
C5
  3
UCSORGRIGHT
350
C6
  3
UCSORGTOP
350
C3
  3
UCSORTHOREF
350
C0
  3
UCSORTHOVIEW
350
C1
  3
VERSIONGUID
350
B4
  0
DICTIONARY
  5
A5
102
{ACAD_REACTORS
330
24
102
}
330
24
100
AcDbDictionary
  3
DIMASSOC
350
A6
  0
XRECORD
  5
C9
102
{ACAD_REACTORS
330
3
102
}
330
3
100
AcDbXrecord
340
2
  0
XRECORD
  5
CA
102
{ACAD_REACTORS
330
A
102
}
330
A
100
AcDbXrecord
340
9
  0
MLINESTYLE
  5
25
102
{ACAD_REACTORS
330
21
102
}
330
21
100
AcDbMlineStyle
  2
STANDARD
 70
     0
  3

 62
   256
 51
90.0
 52
90.0
 71
     2
 49
0.5
 62
   256
  6
BYLAYER
 49
-0.5
 62
   256
  6
BYLAYER
  0
ACDBPLACEHOLDER
  5
66
102
{ACAD_REACTORS
330
65
102
}
330
65
100
AcDbPlaceHolder
280
     0
  0
XRECORD
  5
B2
102
{ACAD_REACTORS
330
A8
102
}
330
A8
100
AcDbXrecord
 90
        0
  0
XRECORD
  5
B6
102
{ACAD_REACTORS
330
A8
102
}
330
A8
100
AcDbXrecord
1000
DSTYLE
1002
{
1070
   341
340
29
1070
   342
340
29
1070
   343
340
29
1070
   344
340
29
1002
}
  0
XRECORD
  5
B3
102
{ACAD_REACTORS
330
A8
102
}
330
A8
100
AcDbXrecord
  1
{3F0EA0E4-AD24-46A7-ACD0-A2BA7CAEBB55}
  0
XRECORD
  5
AB
102
{ACAD_REACTORS
330
A8
102
}
330
A8
100
AcDbXrecord
  1

  0
XRECORD
  5
B1
102
{ACAD_REACTORS
330
A8
102
}
330
A8
100
AcDbXrecord
 90
        0
  0
XRECORD
  5
AD
102
{ACAD_REACTORS
330
A8
102
}
330
A8
100
AcDbXrecord
340
67
  0
XRECORD
  5
B0
102
{ACAD_REACTORS
330
A8
102
}
330
A8
100
AcDbXrecord
 90
    14877
  0
XRECORD
  5
AE
102
{ACAD_REACTORS
330
A8
102
}
330
A8
100
AcDbXrecord
340
68
  0
XRECORD
  5
AF
102
{ACAD_REACTORS
330
A8
102
}
330
A8
100
AcDbXrecord
340
65
  0
XRECORD
  5
B5
102
{ACAD_REACTORS
330
A8
102
}
330
A8
100
AcDbXrecord
 40
0.0
  0
XRECORD
  5
B9
102
{ACAD_REACTORS
330
A8
102
}
330
A8
100
AcDbXrecord
340
0
  0
XRECORD
  5
BF
102
{ACAD_REACTORS
330
A8
102
}
330
A8
100
AcDbXrecord
 10
0.0
 20
0.0
 30
0.0
  0
XRECORD
  5
BB
102
{ACAD_REACTORS
330
A8
102
}
330
A8
100
AcDbXrecord
 10
0.0
 20
0.0
 30
0.0
  0
XRECORD
  5
BE
102
{ACAD_REACTORS
330
A8
102
}
330
A8
100
AcDbXrecord
 10
0.0
 20
0.0
 30
0.0
  0
XRECORD
  5
BC
102
{ACAD_REACTORS
330
A8
102
}
330
A8
100
AcDbXrecord
 10
0.0
 20
0.0
 30
0.0
  0
XRECORD
  5
BD
102
{ACAD_REACTORS
330
A8
102
}
330
A8
100
AcDbXrecord
 10
0.0
 20
0.0
 30
0.0
  0
XRECORD
  5
BA
102
{ACAD_REACTORS
330
A8
102
}
330
A8
100
AcDbXrecord
 10
0.0
 20
0.0
 30
0.0
  0
XRECORD
  5
B7
102
{ACAD_REACTORS
330
A8
102
}
330
A8
100
AcDbXrecord
340
0
  0
XRECORD
  5
B8
102
{ACAD_REACTORS
330
A8
102
}
330
A8
100
AcDbXrecord
 70
     0
  0
XRECORD
  5
AC
102
{ACAD_REACTORS
330
A8
102
}
330
A8
100
AcDbXrecord
  1

  0
XRECORD
  5
A9
102
{ACAD_REACTORS
330
A8
102
}
330
A8
100
AcDbXrecord
 90
        1
  0
XRECORD
  5
AA
102
{ACAD_REACTORS
330
A8
102
}
330
A8
100
AcDbXrecord
 90
       70
  0
XRECORD
  5
C2
102
{ACAD_REACTORS
330
A8
102
}
330
A8
100
AcDbXrecord
340
0
  0
XRECORD
  5
C8
102
{ACAD_REACTORS
330
A8
102
}
330
A8
100
AcDbXrecord
 10
0.0
 20
0.0
 30
0.0
  0
XRECORD
  5
C4
102
{ACAD_REACTORS
330
A8
102
}
330
A8
100
AcDbXrecord
 10
0.0
 20
0.0
 30
0.0
  0
XRECORD
  5
C7
102
{ACAD_REACTORS
330
A8
102
}
330
A8
100
AcDbXrecord
 10
0.0
 20
0.0
 30
0.0
  0
XRECORD
  5
C5
102
{ACAD_REACTORS
330
A8
102
}
330
A8
100
AcDbXrecord
 10
0.0
 20
0.0
 30
0.0
  0
XRECORD
  5
C6
102
{ACAD_REACTORS
330
A8
102
}
330
A8
100
AcDbXrecord
 10
0.0
 20
0.0
 30
0.0
  0
XRECORD
  5
C3
102
{ACAD_REACTORS
330
A8
102
}
330
A8
100
AcDbXrecord
 10
0.0
 20
0.0
 30
0.0
  0
XRECORD
  5
C0
102
{ACAD_REACTORS
330
A8
102
}
330
A8
100
AcDbXrecord
340
0
  0
XRECORD
  5
C1
102
{ACAD_REACTORS
330
A8
102
}
330
A8
100
AcDbXrecord
 70
     0
  0
XRECORD
  5
B4
102
{ACAD_REACTORS
330
A8
102
}
330
A8
100
AcDbXrecord
  1
{53A83D84-8945-4AF8-9B5F-2B9E0602157A}
  0
DICTIONARYVAR
  5
A6
102
{ACAD_REACTORS
330
A5
102
}
330
A5
100
DictionaryVariables
280
     0
  1
1
  0
ENDSEC
  0
EOF
