  0
SECTION
  2
HEADER
  9
$ACADVER
  1
AC1014
  9
$ACADMAINTVER
 70
     9
  9
$DWGCODEPAGE
  3
ANSI_1252
  9
$INSBASE
 10
-125.092567720323
 20
88.56002689356438
 30
0.0
  9
$EXTMIN
 10
-173.8597830241845
 20
70.55384173361594
 30
0.0
  9
$EXTMAX
 10
-110.812602249256
 20
106.5647488936164
 30
0.0000000000000152
  9
$LIMMIN
 10
0.0
 20
0.0
  9
$LIMMAX
 10
17.0
 20
11.0
  9
$ORTHOMODE
 70
     1
  9
$REGENMODE
 70
     1
  9
$FILLMODE
 70
     1
  9
$QTEXTMODE
 70
     0
  9
$MIRRTEXT
 70
     1
  9
$DRAGMODE
 70
     2
  9
$LTSCALE
 40
12.0
  9
$OSMODE
 70
    55
  9
$ATTMODE
 70
     1
  9
$TEXTSIZE
 40
0.2
  9
$TRACEWID
 40
0.05
  9
$TEXTSTYLE
  7
STANDARD
  9
$CLAYER
  8
0
  9
$CELTYPE
  6
BYLAYER
  9
$CECOLOR
 62
   256
  9
$CELTSCALE
 40
1.0
  9
$DELOBJ
 70
     1
  9
$DISPSILH
 70
     0
  9
$DIMSCALE
 40
16.0
  9
$DIMASZ
 40
0.1875
  9
$DIMEXO
 40
0.10625
  9
$DIMDLI
 40
0.646
  9
$DIMRND
 40
0.0
  9
$DIMDLE
 40
0.0
  9
$DIMEXE
 40
0.306
  9
$DIMTP
 40
0.0
  9
$DIMTM
 40
0.0
  9
$DIMTXT
 40
0.125
  9
$DIMCEN
 40
0.153
  9
$DIMTSZ
 40
0.0
  9
$DIMTOL
 70
     0
  9
$DIMLIM
 70
     0
  9
$DIMTIH
 70
     1
  9
$DIMTOH
 70
     1
  9
$DIMSE1
 70
     0
  9
$DIMSE2
 70
     0
  9
$DIMTAD
 70
     0
  9
$DIMZIN
 70
     0
  9
$DIMBLK
  1
_FILLED
  9
$DIMASO
 70
     1
  9
$DIMSHO
 70
     1
  9
$DIMPOST
  1

  9
$DIMAPOST
  1

  9
$DIMALT
 70
     0
  9
$DIMALTD
 70
     2
  9
$DIMALTF
 40
25.4
  9
$DIMLFAC
 40
1.0
  9
$DIMTOFL
 70
     0
  9
$DIMTVP
 40
0.0
  9
$DIMTIX
 70
     0
  9
$DIMSOXD
 70
     0
  9
$DIMSAH
 70
     1
  9
$DIMBLK1
  1
_FILLED
  9
$DIMBLK2
  1
_FILLED
  9
$DIMSTYLE
  2
STANDARD
  9
$DIMCLRD
 70
     0
  9
$DIMCLRE
 70
     0
  9
$DIMCLRT
 70
     0
  9
$DIMTFAC
 40
1.0
  9
$DIMGAP
 40
0.09
  9
$DIMJUST
 70
     0
  9
$DIMSD1
 70
     0
  9
$DIMSD2
 70
     0
  9
$DIMTOLJ
 70
     1
  9
$DIMTZIN
 70
     0
  9
$DIMALTZ
 70
     0
  9
$DIMALTTZ
 70
     0
  9
$DIMFIT
 70
     3
  9
$DIMUPT
 70
     0
  9
$DIMUNIT
 70
     2
  9
$DIMDEC
 70
     4
  9
$DIMTDEC
 70
     4
  9
$DIMALTU
 70
     2
  9
$DIMALTTD
 70
     2
  9
$DIMTXSTY
  7
STANDARD
  9
$DIMAUNIT
 70
     0
  9
$LUNITS
 70
     2
  9
$LUPREC
 70
     4
  9
$SKETCHINC
 40
0.1
  9
$FILLETRAD
 40
0.0
  9
$AUNITS
 70
     0
  9
$AUPREC
 70
     0
  9
$MENU
  1
acad
  9
$ELEVATION
 40
0.0
  9
$PELEVATION
 40
0.0
  9
$THICKNESS
 40
0.0
  9
$LIMCHECK
 70
     0
  9
$BLIPMODE
 70
     0
  9
$CHAMFERA
 40
0.0
  9
$CHAMFERB
 40
0.0
  9
$CHAMFERC
 40
0.0
  9
$CHAMFERD
 40
0.0
  9
$SKPOLY
 70
     0
  9
$TDCREATE
 40
2453683.493156655
  9
$TDUPDATE
 40
2453689.477746400
  9
$TDINDWG
 40
0.0129724884
  9
$TDUSRTIMER
 40
0.0129724884
  9
$USRTIMER
 70
     1
  9
$ANGBASE
 50
0.0
  9
$ANGDIR
 70
     0
  9
$PDMODE
 70
     3
  9
$PDSIZE
 40
0.3125
  9
$PLINEWID
 40
0.0
  9
$COORDS
 70
     1
  9
$SPLFRAME
 70
     0
  9
$SPLINETYPE
 70
     6
  9
$SPLINESEGS
 70
     8
  9
$ATTDIA
 70
     0
  9
$ATTREQ
 70
     1
  9
$HANDLING
 70
 22529
  9
$HANDSEED
  5
D7
  9
$SURFTAB1
 70
     6
  9
$SURFTAB2
 70
     6
  9
$SURFTYPE
 70
     6
  9
$SURFU
 70
     6
  9
$SURFV
 70
     6
  9
$UCSNAME
  2

  9
$UCSORG
 10
0.0
 20
0.0
 30
0.0
  9
$UCSXDIR
 10
1.0
 20
0.0
 30
0.0
  9
$UCSYDIR
 10
0.0
 20
1.0
 30
0.0
  9
$PUCSNAME
  2

  9
$PUCSORG
 10
0.0
 20
0.0
 30
0.0
  9
$PUCSXDIR
 10
1.0
 20
0.0
 30
0.0
  9
$PUCSYDIR
 10
0.0
 20
1.0
 30
0.0
  9
$USERI1
 70
     0
  9
$USERI2
 70
     0
  9
$USERI3
 70
     0
  9
$USERI4
 70
     0
  9
$USERI5
 70
     0
  9
$USERR1
 40
0.0
  9
$USERR2
 40
0.0
  9
$USERR3
 40
0.0
  9
$USERR4
 40
0.0
  9
$USERR5
 40
0.0
  9
$WORLDVIEW
 70
     1
  9
$SHADEDGE
 70
     3
  9
$SHADEDIF
 70
    70
  9
$TILEMODE
 70
     1
  9
$MAXACTVP
 70
    16
  9
$PINSBASE
 10
0.0
 20
0.0
 30
0.0
  9
$PLIMCHECK
 70
     0
  9
$PEXTMIN
 10
1.000000000000000E+20
 20
1.000000000000000E+20
 30
1.000000000000000E+20
  9
$PEXTMAX
 10
-1.000000000000000E+20
 20
-1.000000000000000E+20
 30
-1.000000000000000E+20
  9
$PLIMMIN
 10
0.0
 20
0.0
  9
$PLIMMAX
 10
12.0
 20
9.0
  9
$UNITMODE
 70
     0
  9
$VISRETAIN
 70
     0
  9
$PLINEGEN
 70
     1
  9
$PSLTSCALE
 70
     0
  9
$TREEDEPTH
 70
  3020
  9
$PICKSTYLE
 70
     1
  9
$CMLSTYLE
  2
STANDARD
  9
$CMLJUST
 70
     0
  9
$CMLSCALE
 40
1.0
  9
$PROXYGRAPHICS
 70
     0
  9
$MEASUREMENT
 70
     0
  0
ENDSEC
  0
SECTION
  2
CLASSES
  0
CLASS
  1
ACDBDICTIONARYWDFLT
  2
AcDbDictionaryWithDefault
  3
AutoCAD 2000
 90
        0
280
     1
281
     0
  0
CLASS
  1
ACDBPLACEHOLDER
  2
AcDbPlaceHolder
  3
AutoCAD 2000
 90
        0
280
     1
281
     0
  0
CLASS
  1
LAYOUT
  2
AcDbLayout
  3
AutoCAD 2000
 90
        0
280
     1
281
     0
  0
CLASS
  1
LWPOLYLINE
  2
AcDbPolyline
  3
AutoCAD 2000
 90
        0
280
     0
281
     1
  0
CLASS
  1
IMAGE
  2
AcDbRasterImage
  3
ISM
 90
      127
280
     1
281
     1
  0
CLASS
  1
OLE2FRAME
  2
AcDbOle2Frame
  3
AutoCAD 2000
 90
        0
280
     0
281
     1
  0
CLASS
  1
HATCH
  2
AcDbHatch
  3
AutoCAD 2000
 90
        0
280
     0
281
     1
  0
CLASS
  1
DICTIONARYVAR
  2
AcDbDictionaryVar
  3
AutoCAD 2000
 90
        0
280
     0
281
     0
  0
CLASS
  1
RASTERVARIABLES
  2
AcDbRasterVariables
  3
ISM
 90
        0
280
     1
281
     0
  0
CLASS
  1
IMAGEDEF
  2
AcDbRasterImageDef
  3
ISM
 90
        0
280
     1
281
     0
  0
CLASS
  1
IMAGEDEF_REACTOR
  2
AcDbRasterImageDefReactor
  3
ISM
 90
        1
280
     1
281
     0
  0
CLASS
  1
IDBUFFER
  2
AcDbIdBuffer
  3
AutoCAD 2000
 90
        0
280
     0
281
     0
  0
CLASS
  1
SPATIAL_FILTER
  2
AcDbSpatialFilter
  3
AutoCAD 2000
 90
        0
280
     0
281
     0
  0
CLASS
  1
XRECORD
  2
AcDbXrecord
  3
AutoCAD 2000
 90
        0
280
     0
281
     0
  0
CLASS
  1
SORTENTSTABLE
  2
AcDbSortentsTable
  3
AutoCAD 2000
 90
        0
280
     0
281
     0
  0
CLASS
  1
LAYER_INDEX
  2
AcDbLayerIndex
  3
AutoCAD 2000
 90
        0
280
     0
281
     0
  0
CLASS
  1
SPATIAL_INDEX
  2
AcDbSpatialIndex
  3
AutoCAD 2000
 90
        0
280
     0
281
     0
  0
CLASS
  1
OBJECT_PTR
  2
CAseDLPNTableRecord
  3
ASE-LPNTableRecord
 90
        1
280
     0
281
     0
  0
CLASS
  1
PLOTSETTINGS
  2
AcDbPlotSettings
  3
AutoCAD 2000
 90
        0
280
     1
281
     0
  0
CLASS
  1
VBA_PROJECT
  2
AcDbVbaProject
  3
acadvba
 90
        0
280
     1
281
     0
  0
CLASS
  1
WIPEOUT
  2
AcDbWipeout
  3
WipeOut|AutoCAD Express Tool|expresstools@autodesk.com
 90
      127
280
     1
281
     1
  0
CLASS
  1
WIPEOUTVARIABLES
  2
AcDbWipeoutVariables
  3
WipeOut|AutoCAD Express Tool|expresstools@autodesk.com
 90
        0
280
     1
281
     0
  0
CLASS
  1
RTEXT
  2
RText
  3
RText|AutoCAD Express Tool|expresstools@autodesk.com
 90
        0
280
     1
281
     1
  0
CLASS
  1
ARCALIGNEDTEXT
  2
AcDbArcAlignedText
  3
ATEXT|AutoCAD Express Tool|expresstools@autodesk.com
 90
        0
280
     1
281
     1
  0
CLASS
  1
LONG_TRANSACTION
  2
AcDbLongTransaction
  3
AutoCAD 2000
 90
        0
280
     1
281
     0
  0
CLASS
  1
LWPOLYLINE
  2
AcDbPolyline
  3
AutoCAD 2000
 90
        0
280
     0
281
     1
  0
CLASS
  1
HATCH
  2
AcDbHatch
  3
AutoCAD 2000
 90
        0
280
     0
281
     1
  0
CLASS
  1
XRECORD
  2
AcDbXrecord
  3
AutoCAD 2000
 90
        0
280
     0
281
     0
  0
CLASS
  1
LONG_TRANSACTION
  2
AcDbLongTransaction
  3
AutoCAD 2000
 90
        0
280
     0
281
     0
  0
CLASS
  1
LWPOLYLINE
  2
AcDbPolyline
  3
AutoCAD 2000
 90
        0
280
     0
281
     1
  0
CLASS
  1
HATCH
  2
AcDbHatch
  3
AutoCAD 2000
 90
        0
280
     0
281
     1
  0
CLASS
  1
XRECORD
  2
AcDbXrecord
  3
AutoCAD 2000
 90
        0
280
     0
281
     0
  0
ENDSEC
  0
SECTION
  2
TABLES
  0
TABLE
  2
VPORT
  5
1A
330
0
100
AcDbSymbolTable
 70
     3
  0
VPORT
  5
B3
330
1A
100
AcDbSymbolTableRecord
100
AcDbViewportTableRecord
  2
*ACTIVE
 70
     0
 10
0.0
 20
0.0
 11
1.0
 21
1.0
 12
-142.3361926456951
 22
88.55929529184109
 13
0.0
 23
0.0
 14
1.0
 24
1.0
 15
0.0
 25
0.0
 16
0.0
 26
0.0
 36
1.0
 17
0.0
 27
0.0
 37
0.0
 40
43.70137214051832
 41
1.786792452830188
 42
50.0
 43
0.0
 44
0.0
 50
0.0
 51
0.0
 71
     0
 72
   100
 73
     1
 74
     1
 75
     0
 76
     0
 77
     0
 78
     0
  0
ENDTAB
  0
TABLE
  2
LTYPE
  5
11
330
0
100
AcDbSymbolTable
 70
     2
  0
LTYPE
  5
12
330
11
100
AcDbSymbolTableRecord
100
AcDbLinetypeTableRecord
  2
BYBLOCK
 70
     0
  3

 72
    65
 73
     0
 40
0.0
  0
LTYPE
  5
15
330
11
100
AcDbSymbolTableRecord
100
AcDbLinetypeTableRecord
  2
BYLAYER
 70
     0
  3

 72
    65
 73
     0
 40
0.0
  0
LTYPE
  5
7
330
11
100
AcDbSymbolTableRecord
100
AcDbLinetypeTableRecord
  2
CONTINUOUS
 70
     0
  3
Solid line
 72
    65
 73
     0
 40
0.0
  0
LTYPE
  5
4F
330
11
100
AcDbSymbolTableRecord
100
AcDbLinetypeTableRecord
  2
CENTER
 70
     0
  3
____ _ ____ _ ____ _ ____ _ ____ _ ____ _ ____
 72
    65
 73
     4
 40
0.6
 49
0.375
 74
     0
 49
-0.075
 74
     0
 49
0.075
 74
     0
 49
-0.075
 74
     0
  0
ENDTAB
  0
TABLE
  2
LAYER
  5
E
330
0
100
AcDbSymbolTable
 70
     1
  0
LAYER
  5
6
330
E
100
AcDbSymbolTableRecord
100
AcDbLayerTableRecord
  2
0
 70
     0
 62
     7
  6
CONTINUOUS
  0
ENDTAB
  0
TABLE
  2
STYLE
  5
F
330
0
100
AcDbSymbolTable
 70
     1
  0
STYLE
  5
10
330
F
100
AcDbSymbolTableRecord
100
AcDbTextStyleTableRecord
  2
STANDARD
 70
     0
 40
0.0
 41
0.8
 50
0.0
 71
     0
 42
0.2
  3
txt
  4

  0
ENDTAB
  0
TABLE
  2
VIEW
  5
18
330
0
100
AcDbSymbolTable
 70
     0
  0
ENDTAB
  0
TABLE
  2
UCS
  5
19
330
0
100
AcDbSymbolTable
 70
     0
  0
ENDTAB
  0
TABLE
  2
APPID
  5
1C
330
0
100
AcDbSymbolTable
 70
     1
  0
APPID
  5
1D
330
1C
100
AcDbSymbolTableRecord
100
AcDbRegAppTableRecord
  2
ACAD
 70
     0
  0
ENDTAB
  0
TABLE
  2
DIMSTYLE
  5
1E
330
0
100
AcDbSymbolTable
 70
     1
  0
DIMSTYLE
105
26
330
1E
100
AcDbSymbolTableRecord
100
AcDbDimStyleTableRecord
  2
STANDARD
 70
     0
  3

  4

  5
_FILLED
  6
_FILLED
  7
_FILLED
 40
1.0
 41
0.1875
 42
0.10625
 43
0.646
 44
0.306
 45
0.0
 46
0.0
 47
0.0
 48
0.0
140
0.125
141
0.153
142
0.0
143
25.4
144
1.0
145
0.0
146
1.0
147
0.09
 71
     0
 72
     0
 73
     1
 74
     1
 75
     0
 76
     0
 77
     0
 78
     0
170
     0
171
     2
172
     0
173
     0
174
     0
175
     0
176
     0
177
     0
178
     0
270
     2
271
     4
272
     4
273
     2
274
     2
340
10
275
     0
280
     0
281
     0
282
     0
283
     1
284
     0
285
     0
286
     0
287
     3
288
     0
  0
ENDTAB
  0
TABLE
  2
BLOCK_RECORD
  5
1
330
0
100
AcDbSymbolTable
 70
     1
  0
BLOCK_RECORD
  5
2
102
{ACAD_XDICTIONARY
360
3
102
}
330
1
100
AcDbSymbolTableRecord
100
AcDbBlockTableRecord
  2
*MODEL_SPACE
  0
BLOCK_RECORD
  5
9
102
{ACAD_XDICTIONARY
360
A
102
}
330
1
100
AcDbSymbolTableRecord
100
AcDbBlockTableRecord
  2
*PAPER_SPACE
  0
BLOCK_RECORD
  5
29
330
1
100
AcDbSymbolTableRecord
100
AcDbBlockTableRecord
  2
_FILLED
  0
ENDTAB
  0
ENDSEC
  0
SECTION
  2
BLOCKS
  0
BLOCK
  5
5
330
2
100
AcDbEntity
  8
0
100
AcDbBlockBegin
  2
*MODEL_SPACE
 70
     0
 10
0.0
 20
0.0
 30
0.0
  3
*MODEL_SPACE
  1

  0
ENDBLK
  5
8
330
2
100
AcDbEntity
  8
0
100
AcDbBlockEnd
  0
BLOCK
  5
C
330
9
100
AcDbEntity
 67
     1
  8
0
100
AcDbBlockBegin
  2
*PAPER_SPACE
 70
     0
 10
0.0
 20
0.0
 30
0.0
  3
*PAPER_SPACE
  1

  0
ENDBLK
  5
D
330
9
100
AcDbEntity
 67
     1
  8
0
100
AcDbBlockEnd
  0
BLOCK
  5
2B
330
29
100
AcDbEntity
  8
0
100
AcDbBlockBegin
  2
_FILLED
 70
     0
 10
0.0
 20
0.0
 30
0.0
  3
_FILLED
  1

  0
SOLID
  5
2A
330
29
100
AcDbEntity
  8
0
  6
BYBLOCK
 62
     0
100
AcDbTrace
 10
0.0
 20
0.0
 30
0.0
 11
-1.0
 21
0.1666666667
 31
0.0
 12
-1.0
 22
-0.1666666667
 32
0.0
 13
-1.0
 23
-0.1666666667
 33
0.0
  0
ENDBLK
  5
2C
330
29
100
AcDbEntity
  8
0
  6
BYBLOCK
 62
     0
100
AcDbBlockEnd
  0
ENDSEC
  0
SECTION
  2
ENTITIES
  0
LWPOLYLINE
  5
2D
330
2
100
AcDbEntity
  8
0
  6
CONTINUOUS
100
AcDbPolyline
 90
        4
 70
     0
 43
0.0
 10
-156.124425254723
 20
105.7138651495643
 10
-148.035900473923
 20
106.5580801831643
 10
-139.724780661123
 20
106.5619736039643
 10
-131.560710185923
 20
105.7138651495643
  0
LWPOLYLINE
  5
2E
330
2
100
AcDbEntity
  8
0
  6
CONTINUOUS
100
AcDbPolyline
 90
       16
 70
     0
 43
0.0
 10
-132.278426105923
 20
102.0908305751643
 10
-133.416256880323
 20
102.2616960231643
 10
-134.669141017923
 20
102.4277926167643
 10
-136.051460417923
 20
102.5849113655643
 10
-137.576893401923
 20
102.7271865975643
 10
-139.259035904323
 20
102.8469530775643
 10
-141.111510881923
 20
102.9344344951643
 10
-143.148249048323
 20
102.9774724551643
 10
-145.275760907523
 20
102.9642460951643
 10
-147.208228009923
 20
102.9014205527643
 10
-148.940758931523
 20
102.8038528935643
 10
-150.491401728323
 20
102.6829126775643
 10
-151.881834622723
 20
102.5467537639643
 10
-153.133839379523
 20
102.4009872471643
 10
-154.269168819523
 20
102.2491107943643
 10
-155.310549022723
 20
102.0926535815643
  0
LWPOLYLINE
  5
2F
330
2
100
AcDbEntity
  8
0
  6
CONTINUOUS
100
AcDbPolyline
 90
        4
 70
     0
 43
0.0
 10
-131.691467078723
 20
104.7873512535643
 10
-139.689010393923
 20
105.6225879063643
 10
-147.998818981123
 20
105.6224476999643
 10
-155.993668361923
 20
104.7873512535643
  0
LWPOLYLINE
  5
30
330
2
100
AcDbEntity
  8
0
  6
CONTINUOUS
100
AcDbPolyline
 90
        4
 70
     0
 43
0.0
 10
-155.669608485123
 20
102.7562890983643
 10
-147.898094331523
 20
103.5681541079643
 10
-139.792449752323
 20
103.5684360791643
 10
-132.015526953923
 20
102.7562890983643
  0
LWPOLYLINE
  5
31
330
2
100
AcDbEntity
  8
0
  6
CONTINUOUS
100
AcDbPolyline
 90
        4
 70
     0
 43
0.0
 10
-135.306230496323
 20
99.26656735436438
 10
-139.471105601923
 20
99.43071332076437
 10
-143.743395011523
 20
99.42672289356437
 10
-148.006890928323
 20
99.25091794636438
  0
LWPOLYLINE
  5
32
330
2
100
AcDbEntity
  8
0
  6
CONTINUOUS
100
AcDbPolyline
 90
        4
 70
     0
 43
0.0
 10
-148.044915749123
 20
77.85687635596437
 10
-143.760329550723
 20
77.68723439756437
 10
-139.485133097923
 20
77.69592932076438
 10
-135.248210805123
 20
77.87860580076437
  0
LWPOLYLINE
  5
33
330
2
100
AcDbEntity
  8
0
  6
CONTINUOUS
100
AcDbPolyline
 90
       16
 70
     0
 43
0.0
 10
-155.322980913923
 20
75.04332112236437
 10
-154.292208691523
 20
74.88827798956437
 10
-153.155718957123
 20
74.73580608716438
 10
-151.906346405123
 20
74.58964251436437
 10
-150.537333992323
 20
74.45431609196437
 10
-149.041990984323
 20
74.33519942316436
 10
-147.413571441923
 20
74.23865573836437
 10
-145.640419657923
 20
74.17215429516438
 10
-143.698559565123
 20
74.14521108236437
 10
-141.657924886723
 20
74.16898800716437
 10
-139.682244456323
 20
74.24390983916437
 10
-137.864167136323
 20
74.35861471116438
 10
-136.216269059523
 20
74.50109831436437
 10
-134.735231368323
 20
74.66110168236437
 10
-133.417268238723
 20
74.82959562636437
 10
-132.258236925123
 20
74.99868571596437
  0
LWPOLYLINE
  5
34
330
2
100
AcDbEntity
  8
0
  6
CONTINUOUS
100
AcDbPolyline
 90
        4
 70
     0
 43
0.0
 10
-155.993668361923
 20
72.33270253356437
 10
-147.996125046723
 20
71.49746588076436
 10
-139.686316459523
 20
71.49760608876437
 10
-131.691467078723
 20
72.33270253356437
  0
LWPOLYLINE
  5
35
330
2
100
AcDbEntity
  8
0
  6
CONTINUOUS
100
AcDbPolyline
 90
        4
 70
     0
 43
0.0
 10
-132.015526953923
 20
74.36376469036438
 10
-139.787040840323
 20
73.55189969356437
 10
-147.892685707523
 20
73.55161770956437
 10
-155.669608485123
 20
74.36376469036438
  0
LWPOLYLINE
  5
36
330
2
100
AcDbEntity
  8
0
  6
CONTINUOUS
100
AcDbPolyline
 90
        4
 70
     0
 43
0.0
 10
-156.124425254723
 20
71.40618863756438
 10
-148.035900473923
 20
70.56197360396438
 10
-139.724780661123
 20
70.55808018316438
 10
-131.560710185923
 20
71.40618863756438
  0
LWPOLYLINE
  5
37
330
2
100
AcDbEntity
  8
0
  6
CONTINUOUS
100
AcDbPolyline
 90
       17
 70
     0
 43
0.0
 10
-159.856341712323
 20
101.0060203607643
 10
-161.638669667523
 20
100.3283199207643
 10
-163.171563918723
 20
99.58158832876438
 10
-164.487364678723
 20
98.78377819276437
 10
-165.600515496323
 20
97.95850465036437
 10
-166.531131993923
 20
97.12434126316438
 10
-167.297120542723
 20
96.30205940236436
 10
-167.915582222723
 20
95.51224391116438
 10
-168.437341787523
 20
94.71534695596437
 10
-168.890313547523
 20
93.87405759116436
 10
-169.274240035523
 20
92.98530638796439
 10
-169.580694587523
 20
92.07147601836437
 10
-169.790818813123
 20
91.23048776876435
 10
-169.926267558723
 20
90.47244907756436
 10
-170.008292118723
 20
89.77747276076437
 10
-170.050075301123
 20
89.13959255116438
 10
-170.062069229123
 20
88.56002689356438
  0
LWPOLYLINE
  5
38
330
2
100
AcDbEntity
  8
0
  6
CONTINUOUS
100
AcDbPolyline
 90
        9
 70
     0
 43
0.0
 10
-153.757460253123
 20
98.73923765836437
 10
-155.367021094723
 20
98.39744045036438
 10
-157.102083379523
 20
97.71625410476438
 10
-158.788999238723
 20
96.66351508556438
 10
-160.242061013123
 20
95.31403351916438
 10
-161.403356877123
 20
93.72107835276437
 10
-162.235189433923
 20
91.94506730476437
 10
-162.694354728323
 20
90.14601943436437
 10
-162.821950040323
 20
88.56002689996438
  0
LWPOLYLINE
  5
39
330
2
100
AcDbEntity
  8
0
  6
CONTINUOUS
100
AcDbPolyline
 90
       18
 70
     0
 43
0.0
 10
-155.993668361923
 20
104.7873512535643
 10
-158.259799886723
 20
104.3460729767643
 10
-160.274421955523
 20
103.8045346455643
 10
-162.046113104323
 20
103.1902113847643
 10
-163.572582365123
 20
102.5363406759643
 10
-164.920127369923
 20
101.8426825079643
 10
-166.158868112323
 20
101.0867611383643
 10
-167.346356606723
 20
100.2283090055643
 10
-168.511667249923
 20
99.21954939276439
 10
-169.663476974723
 20
97.99701901036437
 10
-170.732008200323
 20
96.55602260556438
 10
-171.536706957123
 20
95.13978119436435
 10
-172.109116033923
 20
93.80646268556438
 10
-172.501790840323
 20
92.56779705836436
 10
-172.757430001923
 20
91.43129677036439
 10
-172.911316190723
 20
90.39296124716438
 10
-172.989827035523
 20
89.44138747116438
 10
-173.012676377923
 20
88.56002689356438
  0
LWPOLYLINE
  5
3A
330
2
100
AcDbEntity
  8
0
  6
CONTINUOUS
100
AcDbPolyline
 90
       10
 70
     0
 43
0.0
 10
-156.124425254723
 20
105.7138651495643
 10
-160.390661814723
 20
104.6377425527643
 10
-163.915962693123
 20
103.2918997063643
 10
-166.775955651523
 20
101.6723311191643
 10
-169.096297662723
 20
99.80947193996437
 10
-170.848662781123
 20
97.84314119276437
 10
-172.160548209923
 20
95.74647093356437
 10
-173.081576920323
 20
93.53291608556437
 10
-173.630418361923
 20
91.25503623596438
 10
-173.842567720323
 20
88.56002689356438
  0
LWPOLYLINE
  5
3B
330
2
100
AcDbEntity
  8
0
  6
CONTINUOUS
100
AcDbPolyline
 90
       17
 70
     0
 43
0.0
 10
-170.955924501123
 20
88.56002689356438
 10
-170.944187859523
 20
89.15533045836438
 10
-170.904327451523
 20
89.79345041196436
 10
-170.826845145923
 20
90.48684827596437
 10
-170.698918814723
 20
91.24558259436438
 10
-170.503739310723
 20
92.07763672396437
 10
-170.218696709123
 20
92.98658211916437
 10
-169.817689862723
 20
93.96700007596436
 10
-169.272681120323
 20
95.00659425036436
 10
-168.546326547523
 20
96.09738129996438
 10
-167.601647614723
 20
97.21978233836438
 10
-166.405763273923
 20
98.34314798476439
 10
-164.925490691523
 20
99.43628938956436
 10
-163.131692576323
 20
100.4638833415643
 10
-161.000800611523
 20
101.3872320375643
 10
-158.518157712323
 20
102.1649128807643
 10
-155.669608485123
 20
102.7562890983643
  0
LWPOLYLINE
  5
3C
330
2
100
AcDbEntity
  8
0
  6
CONTINUOUS
100
AcDbPolyline
 90
        9
 70
     0
 43
0.0
 10
-162.821945461123
 20
88.56002689036438
 10
-162.650768465923
 20
86.69308543276438
 10
-162.130618317123
 20
84.86443926956438
 10
-161.270898318723
 20
83.15155383916437
 10
-160.102973547523
 20
81.62303434476436
 10
-158.666389641923
 20
80.33571347916439
 10
-157.029336901123
 20
79.34173805036436
 10
-155.355867094723
 20
78.69665986796437
 10
-153.804072851523
 20
78.36858755916438
  0
LWPOLYLINE
  5
3D
330
2
100
AcDbEntity
  8
0
  6
CONTINUOUS
100
AcDbPolyline
 90
        4
 70
     0
 43
0.0
 10
-159.869415862723
 20
76.12879008076437
 10
-158.516591411523
 20
75.72219493516437
 10
-157.079466480323
 20
75.37187708396437
 10
-155.553735969923
 20
75.08067998316438
  0
LWPOLYLINE
  5
3E
330
2
100
AcDbEntity
  8
0
  6
CONTINUOUS
100
AcDbPolyline
 90
       17
 70
     0
 43
0.0
 10
-155.669608485123
 20
74.36376469036438
 10
-158.516373515523
 20
74.95467276236436
 10
-160.997614051523
 20
75.73163607756438
 10
-163.127815342723
 20
76.65422589996437
 10
-164.921263923523
 20
77.68100363276437
 10
-166.401605601923
 20
78.77343763756437
 10
-167.597888723523
 20
79.89630953836436
 10
-168.543070661123
 20
81.01827536876436
 10
-169.270097613123
 20
82.10910241676435
 10
-169.815726837123
 20
83.14877139596436
 10
-170.217154280323
 20
84.12917438316439
 10
-170.502532693123
 20
85.03792741676438
 10
-170.697985510723
 20
85.86986822156436
 10
-170.826252478723
 20
86.62888076236436
 10
-170.904025197123
 20
87.32308277676438
 10
-170.944105944323
 20
87.96265893036437
 10
-170.955924501123
 20
88.56002689356438
  0
LWPOLYLINE
  5
3F
330
2
100
AcDbEntity
  8
0
  6
CONTINUOUS
100
AcDbPolyline
 90
       18
 70
     0
 43
0.0
 10
-173.012676377923
 20
88.56002689356438
 10
-172.989540291523
 20
87.67322041676436
 10
-172.910101493123
 20
86.71635364716436
 10
-172.754567009923
 20
85.67330311116435
 10
-172.496569961923
 20
84.53272691116437
 10
-172.100585593923
 20
83.29055502156435
 10
-171.524811837123
 20
81.95614511276437
 10
-170.721997139523
 20
80.54863352236438
 10
-169.641909041923
 20
79.09748959756436
 10
-168.475458773123
 20
77.86612652076437
 10
-167.296860417923
 20
76.85289614956437
 10
-166.101906189123
 20
75.99566037036438
 10
-164.862878056323
 20
75.24537089356437
 10
-163.520965017923
 20
74.55946147756437
 10
-162.003935715523
 20
73.91351772556437
 10
-160.243056291523
 20
73.30588509516437
 10
-158.242375089923
 20
72.76994255436438
 10
-155.993668361923
 20
72.33270253356437
  0
LWPOLYLINE
  5
40
330
2
100
AcDbEntity
  8
0
  6
CONTINUOUS
100
AcDbPolyline
 90
       10
 70
     0
 43
0.0
 10
-173.842567720323
 20
88.56002689356438
 10
-173.616212635523
 20
85.77907797836436
 10
-172.996128920323
 20
83.33134732716436
 10
-171.913808403523
 20
80.91412887596437
 10
-170.437707179523
 20
78.75252962636437
 10
-168.583634278723
 20
76.84205297356438
 10
-166.286300571523
 20
75.12648920396436
 10
-163.516317169923
 20
73.64457542796436
 10
-160.185379417923
 20
72.42096279756437
 10
-156.124425254723
 20
71.40618863756438
  0
LWPOLYLINE
  5
41
330
2
100
AcDbEntity
  8
0
  6
CONTINUOUS
100
AcDbPolyline
 90
       16
 70
     0
 43
0.0
 10
-170.062069529923
 20
88.56002689356438
 10
-170.048827077123
 20
87.93996679276437
 10
-170.001243454723
 20
87.25595241036435
 10
-169.907336821123
 20
86.51220580076438
 10
-169.752466200323
 20
85.70437350476437
 10
-169.514540288323
 20
84.81864671756438
 10
-169.177081689923
 20
83.88047184716436
 10
-168.752749000323
 20
82.96382244396438
 10
-168.239812160323
 20
82.07909529836436
 10
-167.629513681923
 20
81.22065862796437
 10
-166.870057565123
 20
80.33896497036437
 10
-165.925516155523
 20
79.43500736076436
 10
-164.776979541123
 20
78.53789001836438
 10
-163.396553784323
 20
77.66828047596437
 10
-161.770709489923
 20
76.85721617036437
 10
-159.869415454723
 20
76.12879131436438
  0
LWPOLYLINE
  5
42
330
2
100
AcDbEntity
  8
0
  6
CONTINUOUS
100
AcDbPolyline
 90
        5
 70
     0
 43
0.0
 10
-150.502061152323
 20
78.03434297196438
 10
-149.815256006723
 20
77.97891693356437
 10
-149.179089717123
 20
77.93161432556437
 10
-148.589683811523
 20
77.89124499756437
 10
-148.044915888323
 20
77.85687440556436
  0
LINE
  5
43
330
2
100
AcDbEntity
  8
0
  6
CONTINUOUS
100
AcDbLine
 10
-155.553735899523
 20
75.08068040236437
 30
0.0
 11
-155.322980907523
 21
75.04332116716437
 31
0.0
  0
LWPOLYLINE
  5
44
330
2
100
AcDbEntity
  8
0
  6
CONTINUOUS
100
AcDbPolyline
 90
        4
 70
     0
 43
0.0
 10
-153.804072195523
 20
78.36859257196437
 10
-152.634015157123
 20
78.23713902316436
 10
-151.534672705923
 20
78.12668537996438
 10
-150.502061149123
 20
78.03434299916436
  0
LWPOLYLINE
  5
45
330
2
100
AcDbEntity
  8
0
  6
CONTINUOUS
100
AcDbPolyline
 90
        4
 70
     0
 43
0.0
 10
-155.555776152323
 20
102.0528947207643
 10
-157.076067846723
 20
101.7619402807643
 10
-158.508300008323
 20
101.4119787863643
 10
-159.856342011523
 20
101.0060212647643
  0
LWPOLYLINE
  5
46
330
2
100
AcDbEntity
  8
0
  6
CONTINUOUS
100
AcDbPolyline
 90
        5
 70
     0
 43
0.0
 10
-148.006890779523
 20
99.25091587276439
 10
-148.697045749123
 20
99.20632756716438
 10
-149.348327166723
 20
99.16020713516438
 10
-149.941664177923
 20
99.11475317356437
 10
-150.458489065923
 20
99.07248369996437
  0
LINE
  5
47
330
2
100
AcDbEntity
  8
0
  6
CONTINUOUS
100
AcDbLine
 10
-155.310549016323
 20
102.0926535447643
 30
0.0
 11
-155.555776128323
 21
102.0528945735643
 31
0.0
  0
LWPOLYLINE
  5
48
330
2
100
AcDbEntity
  8
0
  6
CONTINUOUS
100
AcDbPolyline
 90
        4
 70
     0
 43
0.0
 10
-150.458489062723
 20
99.07248366956437
 10
-151.489016550723
 20
98.98026716556438
 10
-152.589029664323
 20
98.86996681836436
 10
-153.757459693123
 20
98.73923336396437
  0
LWPOLYLINE
  5
49
330
2
100
AcDbEntity
  8
0
  6
CONTINUOUS
100
AcDbPolyline
 90
       22
 70
     0
 43
0.0
 10
-117.455063813123
 20
88.56002689356438
 10
-117.456770544323
 20
88.78510118476436
 10
-117.462714497923
 20
89.03387021036436
 10
-117.474370315523
 20
89.30808383756437
 10
-117.493567472323
 20
89.60926444716438
 10
-117.522546813123
 20
89.93880769996437
 10
-117.564018757123
 20
90.29795795916436
 10
-117.621217459523
 20
90.68778311116437
 10
-117.697942862723
 20
91.10914374636436
 10
-117.798816451523
 20
91.56371501516437
 10
-117.930172077123
 20
92.05640295596436
 10
-118.099787433923
 20
92.59227565036438
 10
-118.314260793923
 20
93.16798813676436
 10
-118.580883200323
 20
93.77721887916436
 10
-118.919312774723
 20
94.43482491596439
 10
-119.354731774723
 20
95.15163430956437
 10
-119.915652139523
 20
95.93047487596436
 10
-120.619610632323
 20
96.75037542156438
 10
-121.490122958723
 20
97.59361366476438
 10
-122.567520776323
 20
98.45341993996436
 10
-123.869447651523
 20
99.29803038476435
 10
-125.410810736323
 20
100.0948063239643
  0
LWPOLYLINE
  5
4A
330
2
100
AcDbEntity
  8
0
  6
CONTINUOUS
100
AcDbPolyline
 90
       13
 70
     0
 43
0.0
 10
-120.978821472323
 20
89.78912339436437
 10
-121.047971793923
 20
90.28972161836438
 10
-121.151891646723
 20
90.83863252236438
 10
-121.298352142723
 20
91.43120070316436
 10
-121.498149640323
 20
92.06921884556436
 10
-121.764987485123
 20
92.75425949516437
 10
-122.112795347523
 20
93.48099617996437
 10
-122.560451993923
 20
94.24744353356436
 10
-123.130121947523
 20
95.04544258156437
 10
-123.851448502723
 20
95.86340072396437
 10
-124.750582761923
 20
96.67388753516437
 10
-125.865091168323
 20
97.44624097836435
 10
-127.237571789123
 20
98.12737164556438
  0
LWPOLYLINE
  5
4B
330
2
100
AcDbEntity
  8
0
  6
CONTINUOUS
100
AcDbPolyline
 90
       18
 70
     0
 43
0.0
 10
-114.672459062723
 20
88.56002689356438
 10
-114.695595149123
 20
89.44683337196437
 10
-114.775033945923
 20
90.40370014156437
 10
-114.930568430723
 20
91.44675067756438
 10
-115.188565478723
 20
92.58732687756438
 10
-115.584549846723
 20
93.82949876716438
 10
-116.160323603523
 20
95.16390867596436
 10
-116.963138301123
 20
96.57142026796439
 10
-118.043226398723
 20
98.02256419276439
 10
-119.209676667523
 20
99.25392726956438
 10
-120.388275024323
 20
100.2671576391643
 10
-121.583229251523
 20
101.1243934183643
 10
-122.822257384323
 20
101.8746828951643
 10
-124.164170422723
 20
102.5605923111643
 10
-125.681199725123
 20
103.2065360631643
 10
-127.442079149123
 20
103.8141686935643
 10
-129.442760350723
 20
104.3501112343643
 10
-131.691467078723
 20
104.7873512535643
  0
LWPOLYLINE
  5
4C
330
2
100
AcDbEntity
  8
0
  6
CONTINUOUS
100
AcDbPolyline
 90
       10
 70
     0
 43
0.0
 10
-113.842567720323
 20
88.56002689356438
 10
-114.068922805123
 20
91.34097581036437
 10
-114.689006520323
 20
93.78870646156437
 10
-115.771327035523
 20
96.20592491276438
 10
-117.247428259523
 20
98.36752416236436
 10
-119.101501161923
 20
100.2780008151643
 10
-121.398834869123
 20
101.9935645847643
 10
-124.168818270723
 20
103.4754783607643
 10
-127.499756022723
 20
104.6990909911643
 10
-131.560710185923
 20
105.7138651495643
  0
LWPOLYLINE
  5
4D
330
2
100
AcDbEntity
  8
0
  6
CONTINUOUS
100
AcDbPolyline
 90
       17
 70
     0
 43
0.0
 10
-132.015526953923
 20
102.7562890983643
 10
-129.168796147523
 20
102.1653898823643
 10
-126.687579601923
 20
101.3884393559643
 10
-124.557392502723
 20
100.4658641703643
 10
-122.763948781123
 20
99.43910060076436
 10
-121.283604848323
 20
98.34667877676437
 10
-120.087314590723
 20
97.22381605356439
 10
-119.142123022723
 20
96.10185645676438
 10
-118.415084024323
 20
95.01102954476436
 10
-117.869443617923
 20
93.97135821836437
 10
-117.468007246723
 20
92.99095214476437
 10
-117.182620731523
 20
92.08219280236438
 10
-116.987161531523
 20
91.25024337836435
 10
-116.858889403523
 20
90.49121964556437
 10
-116.781113069123
 20
89.79700391276438
 10
-116.741030165123
 20
89.15741165356436
 10
-116.729210939523
 20
88.56002689356438
  0
LINE
  5
4E
330
2
100
AcDbEntity
  8
0
  6
CENTER
 62
     1
 48
0.75
100
AcDbLine
 10
-129.9210661943307
 20
88.56002689356438
 30
0.0
 11
-120.2640692463153
 21
88.56002689356438
 31
0.0
  0
CIRCLE
  5
50
330
2
100
AcDbEntity
  8
0
100
AcDbCircle
 10
-125.092567720323
 20
88.56002689356438
 30
0.0
 40
1.323199999999999
  0
CIRCLE
  5
51
330
2
100
AcDbEntity
  8
0
100
AcDbCircle
 10
-125.092567720323
 20
88.56002689356438
 30
0.0
 40
1.957671239455091
  0
LWPOLYLINE
  5
52
330
2
100
AcDbEntity
  8
0
  6
CONTINUOUS
100
AcDbPolyline
 90
       11
 70
     0
 43
0.0
 10
-125.372782902723
 20
76.96868165196438
 10
-123.719763534723
 20
77.82461664556437
 10
-122.333326451523
 20
78.74381016876438
 10
-121.199326269123
 20
79.68705991756436
 10
-120.297657070723
 20
80.61646690316436
 10
-119.581359032323
 20
81.52320589196438
 10
-118.950585451523
 20
82.51240513196439
 10
-118.381175185923
 20
83.67137701676439
 10
-117.898127510723
 20
85.05988373676435
 10
-117.567129720323
 20
86.68546094636438
 10
-117.455077478723
 20
88.56002680716438
  0
LWPOLYLINE
  5
53
330
2
100
AcDbEntity
  8
0
  6
CONTINUOUS
100
AcDbPolyline
 90
       13
 70
     0
 43
0.0
 10
-127.256248261123
 20
79.00312385516437
 10
-125.859199865923
 20
79.68226549036436
 10
-124.723037785923
 20
80.45924156716438
 10
-123.806907787523
 20
81.27888358796438
 10
-123.074616345923
 20
82.10683111756438
 10
-122.497740091523
 20
82.91690162796436
 10
-122.047434760323
 20
83.69469361196436
 10
-121.700102328323
 20
84.43310134636437
 10
-121.436889750723
 20
85.12858246476438
 10
-121.242764800323
 20
85.77725337516438
 10
-121.103931973123
 20
86.37924271116437
 10
-121.009157899523
 20
86.93615699116438
 10
-120.950003203523
 20
87.44385906636438
  0
LWPOLYLINE
  5
54
330
2
100
AcDbEntity
  8
0
  6
CONTINUOUS
100
AcDbPolyline
 90
       17
 70
     0
 43
0.0
 10
-116.729210939523
 20
88.56002689356438
 10
-116.740948481923
 20
87.96470063276435
 10
-116.780811454723
 20
87.32656293036436
 10
-116.858297641923
 20
86.63315206316438
 10
-116.986229134723
 20
85.87440898956435
 10
-117.181414254723
 20
85.04234989996437
 10
-117.466463739523
 20
84.13340177356436
 10
-117.867478800323
 20
83.15298164716438
 10
-118.412497857923
 20
82.11338577996437
 10
-119.138863661123
 20
81.02259890476437
 10
-120.083551257923
 20
79.90020436716438
 10
-121.279442003523
 20
78.77684745356436
 10
-122.759716213123
 20
77.68371770956438
 10
-124.553509219523
 20
76.65613717516437
 10
-126.684387960323
 20
75.73280198476436
 10
-129.167008398723
 20
74.95513294956437
 10
-132.015526953923
 20
74.36376469036438
  0
LWPOLYLINE
  5
55
330
2
100
AcDbEntity
  8
0
  6
CONTINUOUS
100
AcDbPolyline
 90
       18
 70
     0
 43
0.0
 10
-131.691467078723
 20
72.33270253356437
 10
-129.425335553923
 20
72.77398081196437
 10
-127.410713483523
 20
73.31551914316436
 10
-125.639022336323
 20
73.92984240396437
 10
-124.112553075523
 20
74.58371311276437
 10
-122.765008069123
 20
75.27737128076437
 10
-121.526267328323
 20
76.03329265036437
 10
-120.338778833923
 20
76.89174478316437
 10
-119.173468190723
 20
77.90050439596438
 10
-118.021658465923
 20
79.12303477836437
 10
-116.953127240323
 20
80.56403118156437
 10
-116.148428483523
 20
81.98027259436438
 10
-115.576019406723
 20
83.31359110316439
 10
-115.183344600323
 20
84.55225673036437
 10
-114.927705438723
 20
85.68875701836438
 10
-114.773819249923
 20
86.72709254156435
 10
-114.695308405123
 20
87.67866631756437
 10
-114.672459062723
 20
88.56002689356438
  0
LWPOLYLINE
  5
56
330
2
100
AcDbEntity
  8
0
  6
CONTINUOUS
100
AcDbPolyline
 90
       10
 70
     0
 43
0.0
 10
-131.560710185923
 20
71.40618863756438
 10
-127.294473624323
 20
72.48231123436437
 10
-123.769172747523
 20
73.82815408236438
 10
-120.909179789123
 20
75.44772266956437
 10
-118.588837777923
 20
77.31058184876437
 10
-116.836472657923
 20
79.27691259596437
 10
-115.524587230723
 20
81.37358285516436
 10
-114.603558520323
 20
83.58713770156436
 10
-114.054717078723
 20
85.86501755116438
 10
-113.842567720323
 20
88.56002689356438
  0
LWPOLYLINE
  5
57
330
2
100
AcDbEntity
  8
0
  6
CONTINUOUS
100
AcDbPolyline
 90
        4
 70
     0
 43
0.0
 10
-135.248210806723
 20
77.87860584396437
 10
-133.350695040323
 20
78.01758703596437
 10
-131.456969009923
 20
78.19203085836438
 10
-129.585987329923
 20
78.40010431276437
  0
LWPOLYLINE
  5
58
330
2
100
AcDbEntity
  8
0
  6
CONTINUOUS
100
AcDbPolyline
 90
        5
 70
     0
 43
0.0
 10
-132.120081462723
 20
75.02031928876437
 10
-130.562939773123
 20
75.30645409996437
 10
-128.897974678723
 20
75.70776365196437
 10
-127.105748129923
 20
76.26989524716437
 10
-125.372782192323
 20
76.96868008556437
  0
LINE
  5
59
330
2
100
AcDbEntity
  8
0
  6
CONTINUOUS
100
AcDbLine
 10
-132.258236928323
 20
74.99868573676437
 30
0.0
 11
-132.120081449923
 21
75.02031921196437
 31
0.0
  0
LWPOLYLINE
  5
5A
330
2
100
AcDbEntity
  8
0
  6
CONTINUOUS
100
AcDbPolyline
 90
        4
 70
     0
 43
0.0
 10
-129.585987363523
 20
78.40010458956436
 10
-128.787092552323
 20
78.53958248876438
 10
-128.014390545923
 20
78.74001897836436
 10
-127.256240035523
 20
79.00310217996437
  0
LINE
  5
5B
330
2
100
AcDbEntity
  8
0
  6
CENTER
 62
     1
 48
0.75
100
AcDbLine
 10
-125.092567720323
 20
93.38852536757206
 30
0.0
 11
-125.092567720323
 21
83.7315284195567
 31
0.0
  0
LINE
  5
5C
330
2
100
AcDbEntity
  8
0
  6
CENTER
 62
     1
 48
0.75
100
AcDbLine
 10
-120.4799465708641
 20
88.56002689356438
 30
0.0
 11
-110.8229496228488
 21
88.56002689356438
 31
0.0
  0
LWPOLYLINE
  5
5D
330
2
100
AcDbEntity
  8
0
  6
CONTINUOUS
100
AcDbPolyline
 90
        5
 70
     0
 43
0.0
 10
-117.861987254723
 20
89.69964597036437
 10
-117.798423480323
 20
89.49332115436437
 10
-117.746222896323
 20
89.22249132396435
 10
-117.711693397123
 20
88.90378312876435
 10
-117.699682472323
 20
88.56002689356438
  0
LWPOLYLINE
  5
5E
330
2
100
AcDbEntity
  8
0
  6
CONTINUOUS
100
AcDbPolyline
 90
        5
 70
     0
 43
0.0
 10
-117.953537528323
 20
88.82269050956438
 10
-117.946609339523
 20
89.07152552236437
 10
-117.934646293123
 20
89.30110473676435
 10
-117.916951744323
 20
89.50261415596438
 10
-117.892847177923
 20
89.66855737676437
  0
LWPOLYLINE
  5
5F
330
2
100
AcDbEntity
  8
0
  6
CONTINUOUS
100
AcDbPolyline
 90
        7
 70
     0
 43
0.0
 10
-118.170710286723
 20
88.56002689356438
 10
-118.166586993923
 20
88.89789424556438
 10
-118.153847369923
 20
89.21370794156436
 10
-118.131239334723
 20
89.48614525996436
 10
-118.097185603523
 20
89.69606201356436
 10
-118.051010937923
 20
89.82793570316436
 10
-117.997572909123
 20
89.87230764556437
  0
LWPOLYLINE
  5
60
330
2
100
AcDbEntity
  8
0
  6
CONTINUOUS
100
AcDbPolyline
 90
        4
 70
     0
 43
0.0
 10
-120.913959377923
 20
88.82928846636437
 10
-120.924560502723
 20
89.12102401676438
 10
-120.945005952323
 20
89.43934057996438
 10
-120.978813672323
 20
89.78912428236439
  0
LWPOLYLINE
  5
61
330
2
100
AcDbEntity
  8
0
  6
CONTINUOUS
100
AcDbPolyline
 90
        5
 70
     0
 43
0.0
 10
-120.949998481923
 20
87.44385866156438
 10
-120.926333632323
 20
87.76043201676438
 10
-120.913638179523
 20
88.04923437356436
 10
-120.909088824323
 20
88.31430199916438
 10
-120.913959377923
 20
88.82928846636437
  0
LWPOLYLINE
  5
62
330
2
100
AcDbEntity
  8
0
  6
CONTINUOUS
100
AcDbPolyline
 90
        5
 70
     0
 43
0.0
 10
-117.852168272323
 20
87.45931390476437
 10
-117.881534129923
 20
87.62473478796437
 10
-117.906357616323
 20
87.82587756716438
 10
-117.926975057923
 20
88.05529546636439
 10
-117.943572142723
 20
88.30446455116435
  0
LWPOLYLINE
  5
63
330
2
100
AcDbEntity
  8
0
  6
CONTINUOUS
100
AcDbPolyline
 90
        5
 70
     0
 43
0.0
 10
-117.699682472323
 20
88.56002689356438
 10
-117.704374461123
 20
88.22175219756436
 10
-117.730507120323
 20
87.90597122476436
 10
-117.774238136323
 20
87.63390901196435
 10
-117.829994304323
 20
87.42428199916437
  0
LWPOLYLINE
  5
64
330
2
100
AcDbEntity
  8
0
  6
CONTINUOUS
100
AcDbPolyline
 90
        3
 70
     0
 43
0.0
 10
-117.829994304323
 20
87.42428199916437
 10
-117.891255950723
 20
87.29230657996437
 10
-117.951858822723
 20
87.24752689356439
  0
LWPOLYLINE
  5
65
330
2
100
AcDbEntity
  8
0
  6
CONTINUOUS
100
AcDbPolyline
 90
        7
 70
     0
 43
0.0
 10
-117.951858822723
 20
87.24752689356439
 10
-118.007171973123
 20
87.29146119596435
 10
-118.055759625923
 20
87.42239708236438
 10
-118.096196198723
 20
87.63049717356437
 10
-118.128597352323
 20
87.90241077676439
 10
-118.153583008323
 20
88.22020353036435
 10
-118.170710286723
 20
88.56002689356438
  0
LINE
  5
66
330
2
100
AcDbEntity
  8
0
  6
CONTINUOUS
100
AcDbLine
 10
-117.943572142723
 20
88.30446455116435
 30
0.0
 11
-117.955754702723
 21
88.56419356716438
 31
0.0
  0
LINE
  5
67
330
2
100
AcDbEntity
  8
0
  6
CONTINUOUS
100
AcDbLine
 10
-117.955754702723
 20
88.56419356716438
 30
0.0
 11
-117.953537528323
 21
88.82269050956438
 31
0.0
  0
LINE
  5
68
330
2
100
AcDbEntity
  8
0
  6
CONTINUOUS
100
AcDbLine
 10
-117.837832771523
 20
87.40739565996438
 30
0.0
 11
-117.852168272323
 21
87.45931390476437
 31
0.0
  0
LWPOLYLINE
  5
69
330
2
100
AcDbEntity
  8
0
  6
CONTINUOUS
100
AcDbPolyline
 90
        3
 70
     0
 43
0.0
 10
-117.993919731523
 20
89.87252689356438
 10
-117.929656237123
 20
89.82909748396437
 10
-117.861987254723
 20
89.69964597036437
  0
LINE
  5
6A
330
2
100
AcDbEntity
  8
0
  6
CONTINUOUS
100
AcDbLine
 10
-117.997572909123
 20
89.87230764556437
 30
0.0
 11
-117.993919731523
 21
89.87252689356438
 31
0.0
  0
LINE
  5
6B
330
2
100
AcDbEntity
  8
0
  6
CONTINUOUS
100
AcDbLine
 10
-117.892847177923
 20
89.66855737676437
 30
0.0
 11
-117.877571405123
 21
89.72945862156436
 31
0.0
  0
LWPOLYLINE
  5
6C
330
2
100
AcDbEntity
  8
0
  6
CONTINUOUS
100
AcDbPolyline
 90
        4
 70
     0
 43
0.0
 10
-129.689123168323
 20
98.76774633036436
 10
-131.535258000323
 20
98.96779581676439
 10
-133.408126805123
 20
99.13434153836437
 10
-135.306230561923
 20
99.26656611756436
  0
LWPOLYLINE
  5
6D
330
2
100
AcDbEntity
  8
0
  6
CONTINUOUS
100
AcDbPolyline
 90
        5
 70
     0
 43
0.0
 10
-125.410810401923
 20
100.0948070535643
 10
-127.133387152323
 20
100.7974123975643
 10
-128.931095019523
 20
101.3698093527643
 10
-130.597519790723
 20
101.7786694247643
 10
-132.126534928323
 20
102.0663786407643
  0
LWPOLYLINE
  5
6E
330
2
100
AcDbEntity
  8
0
  6
CONTINUOUS
100
AcDbPolyline
 90
        4
 70
     0
 43
0.0
 10
-127.237554725123
 20
98.12741487276438
 10
-128.029791376323
 20
98.40865681996437
 10
-128.839160206723
 20
98.62114016236439
 10
-129.689123201923
 20
98.76774604236437
  0
LINE
  5
6F
330
2
100
AcDbEntity
  8
0
  6
CONTINUOUS
100
AcDbLine
 10
-132.126534926723
 20
102.0663786487643
 30
0.0
 11
-132.278426110723
 21
102.0908305463643
 31
0.0
  0
ENDSEC
  0
SECTION
  2
OBJECTS
  0
DICTIONARY
  5
24
330
0
100
AcDbDictionary
  3
ACAD_GROUP
350
20
  3
ACAD_LAYOUT
350
73
  3
ACAD_MLINESTYLE
350
21
  3
ACAD_PLOTSETTINGS
350
74
  3
ACAD_PLOTSTYLENAME
350
71
  3
ACDBHEADERROUNDTRIPXREC
350
B4
  3
ACDBVARIABLEDICTIONARY
350
B1
  0
DICTIONARY
  5
3
330
2
100
AcDbDictionary
280
     1
  3
ACAD_LAYOUTSELFREF
360
D5
  0
DICTIONARY
  5
A
330
9
100
AcDbDictionary
280
     1
  3
ACAD_LAYOUTSELFREF
360
D6
  0
DICTIONARY
  5
20
102
{ACAD_REACTORS
330
24
102
}
330
24
100
AcDbDictionary
  0
DICTIONARY
  5
73
102
{ACAD_REACTORS
330
24
102
}
330
24
100
AcDbDictionary
  0
DICTIONARY
  5
21
102
{ACAD_REACTORS
330
24
102
}
330
24
100
AcDbDictionary
  3
STANDARD
350
25
  0
DICTIONARY
  5
74
102
{ACAD_REACTORS
330
24
102
}
330
24
100
AcDbDictionary
  0
ACDBDICTIONARYWDFLT
  5
71
102
{ACAD_REACTORS
330
24
102
}
330
24
100
AcDbDictionary
281
     1
  3
Normal
350
72
100
AcDbDictionaryWithDefault
340
72
  0
DICTIONARY
  5
B4
102
{ACAD_REACTORS
330
24
102
}
330
24
100
AcDbDictionary
  3
CEPSNTYPE
350
BE
  3
DIMSTYLEDATA
350
C2
  3
FINGERPRINTGUID
350
BF
  3
HYPERLINKBASE
350
B7
  3
INSUNITS
350
BD
  3
LAYOUTDICT
350
B9
  3
LWETCUNION
350
BC
  3
PLOTSETDICT
350
BA
  3
PLOTSTYLNAMDICT
350
BB
  3
PSVPSCALE
350
C1
  3
PUCSBASE
350
C5
  3
PUCSORGBACK
350
CB
  3
PUCSORGBOTTOM
350
C7
  3
PUCSORGFRONT
350
CA
  3
PUCSORGLEFT
350
C8
  3
PUCSORGRIGHT
350
C9
  3
PUCSORGTOP
350
C6
  3
PUCSORTHOREF
350
C3
  3
PUCSORTHOVIEW
350
C4
  3
STYLESHEET
350
B8
  3
TSTACKALIGN
350
B5
  3
TSTACKSIZE
350
B6
  3
UCSBASE
350
CE
  3
UCSORGBACK
350
D4
  3
UCSORGBOTTOM
350
D0
  3
UCSORGFRONT
350
D3
  3
UCSORGLEFT
350
D1
  3
UCSORGRIGHT
350
D2
  3
UCSORGTOP
350
CF
  3
UCSORTHOREF
350
CC
  3
UCSORTHOVIEW
350
CD
  3
VERSIONGUID
350
C0
  0
DICTIONARY
  5
B1
102
{ACAD_REACTORS
330
24
102
}
330
24
100
AcDbDictionary
  3
DIMASSOC
350
B2
  0
XRECORD
  5
D5
102
{ACAD_REACTORS
330
3
102
}
330
3
100
AcDbXrecord
340
2
  0
XRECORD
  5
D6
102
{ACAD_REACTORS
330
A
102
}
330
A
100
AcDbXrecord
340
9
  0
MLINESTYLE
  5
25
102
{ACAD_REACTORS
330
21
102
}
330
21
100
AcDbMlineStyle
  2
STANDARD
 70
     0
  3

 62
   256
 51
90.0
 52
90.0
 71
     2
 49
0.5
 62
   256
  6
BYLAYER
 49
-0.5
 62
   256
  6
BYLAYER
  0
ACDBPLACEHOLDER
  5
72
102
{ACAD_REACTORS
330
71
102
}
330
71
100
AcDbPlaceHolder
280
     0
  0
XRECORD
  5
BE
102
{ACAD_REACTORS
330
B4
102
}
330
B4
100
AcDbXrecord
 90
        0
  0
XRECORD
  5
C2
102
{ACAD_REACTORS
330
B4
102
}
330
B4
100
AcDbXrecord
1000
DSTYLE
1002
{
1070
   341
340
29
1070
   342
340
29
1070
   343
340
29
1070
   344
340
29
1002
}
  0
XRECORD
  5
BF
102
{ACAD_REACTORS
330
B4
102
}
330
B4
100
AcDbXrecord
  1
{F65C2F3B-667B-4BEC-A852-B0EBEF52D40E}
  0
XRECORD
  5
B7
102
{ACAD_REACTORS
330
B4
102
}
330
B4
100
AcDbXrecord
  1

  0
XRECORD
  5
BD
102
{ACAD_REACTORS
330
B4
102
}
330
B4
100
AcDbXrecord
 90
        0
  0
XRECORD
  5
B9
102
{ACAD_REACTORS
330
B4
102
}
330
B4
100
AcDbXrecord
340
73
  0
XRECORD
  5
BC
102
{ACAD_REACTORS
330
B4
102
}
330
B4
100
AcDbXrecord
 90
    14877
  0
XRECORD
  5
BA
102
{ACAD_REACTORS
330
B4
102
}
330
B4
100
AcDbXrecord
340
74
  0
XRECORD
  5
BB
102
{ACAD_REACTORS
330
B4
102
}
330
B4
100
AcDbXrecord
340
71
  0
XRECORD
  5
C1
102
{ACAD_REACTORS
330
B4
102
}
330
B4
100
AcDbXrecord
 40
0.0
  0
XRECORD
  5
C5
102
{ACAD_REACTORS
330
B4
102
}
330
B4
100
AcDbXrecord
340
0
  0
XRECORD
  5
CB
102
{ACAD_REACTORS
330
B4
102
}
330
B4
100
AcDbXrecord
 10
0.0
 20
0.0
 30
0.0
  0
XRECORD
  5
C7
102
{ACAD_REACTORS
330
B4
102
}
330
B4
100
AcDbXrecord
 10
0.0
 20
0.0
 30
0.0
  0
XRECORD
  5
CA
102
{ACAD_REACTORS
330
B4
102
}
330
B4
100
AcDbXrecord
 10
0.0
 20
0.0
 30
0.0
  0
XRECORD
  5
C8
102
{ACAD_REACTORS
330
B4
102
}
330
B4
100
AcDbXrecord
 10
0.0
 20
0.0
 30
0.0
  0
XRECORD
  5
C9
102
{ACAD_REACTORS
330
B4
102
}
330
B4
100
AcDbXrecord
 10
0.0
 20
0.0
 30
0.0
  0
XRECORD
  5
C6
102
{ACAD_REACTORS
330
B4
102
}
330
B4
100
AcDbXrecord
 10
0.0
 20
0.0
 30
0.0
  0
XRECORD
  5
C3
102
{ACAD_REACTORS
330
B4
102
}
330
B4
100
AcDbXrecord
340
0
  0
XRECORD
  5
C4
102
{ACAD_REACTORS
330
B4
102
}
330
B4
100
AcDbXrecord
 70
     0
  0
XRECORD
  5
B8
102
{ACAD_REACTORS
330
B4
102
}
330
B4
100
AcDbXrecord
  1

  0
XRECORD
  5
B5
102
{ACAD_REACTORS
330
B4
102
}
330
B4
100
AcDbXrecord
 90
        1
  0
XRECORD
  5
B6
102
{ACAD_REACTORS
330
B4
102
}
330
B4
100
AcDbXrecord
 90
       70
  0
XRECORD
  5
CE
102
{ACAD_REACTORS
330
B4
102
}
330
B4
100
AcDbXrecord
340
0
  0
XRECORD
  5
D4
102
{ACAD_REACTORS
330
B4
102
}
330
B4
100
AcDbXrecord
 10
0.0
 20
0.0
 30
0.0
  0
XRECORD
  5
D0
102
{ACAD_REACTORS
330
B4
102
}
330
B4
100
AcDbXrecord
 10
0.0
 20
0.0
 30
0.0
  0
XRECORD
  5
D3
102
{ACAD_REACTORS
330
B4
102
}
330
B4
100
AcDbXrecord
 10
0.0
 20
0.0
 30
0.0
  0
XRECORD
  5
D1
102
{ACAD_REACTORS
330
B4
102
}
330
B4
100
AcDbXrecord
 10
0.0
 20
0.0
 30
0.0
  0
XRECORD
  5
D2
102
{ACAD_REACTORS
330
B4
102
}
330
B4
100
AcDbXrecord
 10
0.0
 20
0.0
 30
0.0
  0
XRECORD
  5
CF
102
{ACAD_REACTORS
330
B4
102
}
330
B4
100
AcDbXrecord
 10
0.0
 20
0.0
 30
0.0
  0
XRECORD
  5
CC
102
{ACAD_REACTORS
330
B4
102
}
330
B4
100
AcDbXrecord
340
0
  0
XRECORD
  5
CD
102
{ACAD_REACTORS
330
B4
102
}
330
B4
100
AcDbXrecord
 70
     0
  0
XRECORD
  5
C0
102
{ACAD_REACTORS
330
B4
102
}
330
B4
100
AcDbXrecord
  1
{8AB29E76-C064-4134-B275-B11C668B2555}
  0
DICTIONARYVAR
  5
B2
102
{ACAD_REACTORS
330
B1
102
}
330
B1
100
DictionaryVariables
280
     0
  1
1
  0
ENDSEC
  0
EOF
