  0
SECTION
  2
HEADER
  9
$ACADVER
  1
AC1015
  9
$ACADMAINTVER
 70
    20
  9
$DWGCODEPAGE
  3
ANSI_1252
  9
$INSBASE
 10
0.0
 20
0.0
 30
0.0
  9
$EXTMIN
 10
16.9963859455
 20
15.25397923271118
 30
0.0
  9
$EXTMAX
 10
82.9963859455
 20
43.64526452464221
 30
0.0
  9
$LIMMIN
 10
0.0
 20
0.0
  9
$LIMMAX
 10
181.3333333333
 20
117.3333333333
  9
$ORTHOMODE
 70
     0
  9
$REGENMODE
 70
     1
  9
$FILLMODE
 70
     1
  9
$QTEXTMODE
 70
     0
  9
$MIRRTEXT
 70
     0
  9
$LTSCALE
 40
9.973333333300001
  9
$ATTMODE
 70
     1
  9
$TEXTSIZE
 40
0.2
  9
$TRACEWID
 40
0.05
  9
$TEXTSTYLE
  7
STANDARD
  9
$CLAYER
  8
0
  9
$CELTYPE
  6
CENTER
  9
$CECOLOR
 62
   256
  9
$CELTSCALE
 40
1.0
  9
$DISPSILH
 70
     0
  9
$DIMSCALE
 40
1.0
  9
$DIMASZ
 40
2.0
  9
$DIMEXO
 40
0.0625
  9
$DIMDLI
 40
6.890666666699999
  9
$DIMRND
 40
0.0
  9
$DIMDLE
 40
0.0
  9
$DIMEXE
 40
0.125
  9
$DIMTP
 40
0.0
  9
$DIMTM
 40
0.0
  9
$DIMTXT
 40
1.333333333299999
  9
$DIMCEN
 40
1.631999999999999
  9
$DIMTSZ
 40
0.0
  9
$DIMTOL
 70
     0
  9
$DIMLIM
 70
     0
  9
$DIMTIH
 70
     1
  9
$DIMTOH
 70
     1
  9
$DIMSE1
 70
     0
  9
$DIMSE2
 70
     0
  9
$DIMTAD
 70
     0
  9
$DIMZIN
 70
     0
  9
$DIMBLK
  1
_FILLED
  9
$DIMASO
 70
     1
  9
$DIMSHO
 70
     1
  9
$DIMPOST
  1

  9
$DIMAPOST
  1

  9
$DIMALT
 70
     0
  9
$DIMALTD
 70
     2
  9
$DIMALTF
 40
25.4
  9
$DIMLFAC
 40
1.0
  9
$DIMTOFL
 70
     0
  9
$DIMTVP
 40
0.0
  9
$DIMTIX
 70
     0
  9
$DIMSOXD
 70
     0
  9
$DIMSAH
 70
     0
  9
$DIMBLK1
  1

  9
$DIMBLK2
  1

  9
$DIMSTYLE
  2
STANDARD
  9
$DIMCLRD
 70
     0
  9
$DIMCLRE
 70
     0
  9
$DIMCLRT
 70
     0
  9
$DIMTFAC
 40
1.0
  9
$DIMGAP
 40
0.09
  9
$DIMJUST
 70
     0
  9
$DIMSD1
 70
     0
  9
$DIMSD2
 70
     0
  9
$DIMTOLJ
 70
     1
  9
$DIMTZIN
 70
     0
  9
$DIMALTZ
 70
     0
  9
$DIMALTTZ
 70
     0
  9
$DIMUPT
 70
     0
  9
$DIMDEC
 70
     4
  9
$DIMTDEC
 70
     4
  9
$DIMALTU
 70
     2
  9
$DIMALTTD
 70
     2
  9
$DIMTXSTY
  7
STANDARD
  9
$DIMAUNIT
 70
     0
  9
$DIMADEC
 70
     0
  9
$DIMALTRND
 40
0.0
  9
$DIMAZIN
 70
     0
  9
$DIMDSEP
 70
    46
  9
$DIMATFIT
 70
     3
  9
$DIMFRAC
 70
     0
  9
$DIMLDRBLK
  1

  9
$DIMLUNIT
 70
     2
  9
$DIMLWD
 70
    -2
  9
$DIMLWE
 70
    -2
  9
$DIMTMOVE
 70
     0
  9
$LUNITS
 70
     2
  9
$LUPREC
 70
     4
  9
$SKETCHINC
 40
0.1
  9
$FILLETRAD
 40
0.0
  9
$AUNITS
 70
     0
  9
$AUPREC
 70
     0
  9
$MENU
  1
.
  9
$ELEVATION
 40
0.0
  9
$PELEVATION
 40
0.0
  9
$THICKNESS
 40
0.0
  9
$LIMCHECK
 70
     0
  9
$CHAMFERA
 40
0.0
  9
$CHAMFERB
 40
0.0
  9
$CHAMFERC
 40
0.0
  9
$CHAMFERD
 40
0.0
  9
$SKPOLY
 70
     0
  9
$TDCREATE
 40
2456086.647553878
  9
$TDUCREATE
 40
2456086.814220544
  9
$TDUPDATE
 40
2456087.378228229
  9
$TDUUPDATE
 40
2456087.544894896
  9
$TDINDWG
 40
0.0139371875
  9
$TDUSRTIMER
 40
0.0139371875
  9
$USRTIMER
 70
     1
  9
$ANGBASE
 50
0.0
  9
$ANGDIR
 70
     0
  9
$PDMODE
 70
     3
  9
$PDSIZE
 40
0.03125
  9
$PLINEWID
 40
0.0
  9
$SPLFRAME
 70
     0
  9
$SPLINETYPE
 70
     6
  9
$SPLINESEGS
 70
     8
  9
$HANDSEED
  5
1EFB
  9
$SURFTAB1
 70
     6
  9
$SURFTAB2
 70
     6
  9
$SURFTYPE
 70
     6
  9
$SURFU
 70
     6
  9
$SURFV
 70
     6
  9
$UCSBASE
  2

  9
$UCSNAME
  2

  9
$UCSORG
 10
0.0
 20
0.0
 30
0.0
  9
$UCSXDIR
 10
1.0
 20
0.0
 30
0.0
  9
$UCSYDIR
 10
0.0
 20
1.0
 30
0.0
  9
$UCSORTHOREF
  2

  9
$UCSORTHOVIEW
 70
     0
  9
$UCSORGTOP
 10
0.0
 20
0.0
 30
0.0
  9
$UCSORGBOTTOM
 10
0.0
 20
0.0
 30
0.0
  9
$UCSORGLEFT
 10
0.0
 20
0.0
 30
0.0
  9
$UCSORGRIGHT
 10
0.0
 20
0.0
 30
0.0
  9
$UCSORGFRONT
 10
0.0
 20
0.0
 30
0.0
  9
$UCSORGBACK
 10
0.0
 20
0.0
 30
0.0
  9
$PUCSBASE
  2

  9
$PUCSNAME
  2

  9
$PUCSORG
 10
0.0
 20
0.0
 30
0.0
  9
$PUCSXDIR
 10
1.0
 20
0.0
 30
0.0
  9
$PUCSYDIR
 10
0.0
 20
1.0
 30
0.0
  9
$PUCSORTHOREF
  2

  9
$PUCSORTHOVIEW
 70
     0
  9
$PUCSORGTOP
 10
0.0
 20
0.0
 30
0.0
  9
$PUCSORGBOTTOM
 10
0.0
 20
0.0
 30
0.0
  9
$PUCSORGLEFT
 10
0.0
 20
0.0
 30
0.0
  9
$PUCSORGRIGHT
 10
0.0
 20
0.0
 30
0.0
  9
$PUCSORGFRONT
 10
0.0
 20
0.0
 30
0.0
  9
$PUCSORGBACK
 10
0.0
 20
0.0
 30
0.0
  9
$USERI1
 70
     0
  9
$USERI2
 70
     0
  9
$USERI3
 70
     0
  9
$USERI4
 70
     0
  9
$USERI5
 70
     0
  9
$USERR1
 40
0.0
  9
$USERR2
 40
0.0
  9
$USERR3
 40
0.0
  9
$USERR4
 40
0.0
  9
$USERR5
 40
0.0
  9
$WORLDVIEW
 70
     1
  9
$SHADEDGE
 70
     3
  9
$SHADEDIF
 70
    70
  9
$TILEMODE
 70
     1
  9
$MAXACTVP
 70
    64
  9
$PINSBASE
 10
0.0
 20
0.0
 30
0.0
  9
$PLIMCHECK
 70
     0
  9
$PEXTMIN
 10
1.000000000000000E+20
 20
1.000000000000000E+20
 30
1.000000000000000E+20
  9
$PEXTMAX
 10
-1.000000000000000E+20
 20
-1.000000000000000E+20
 30
-1.000000000000000E+20
  9
$PLIMMIN
 10
0.0
 20
0.0
  9
$PLIMMAX
 10
12.0
 20
9.0
  9
$UNITMODE
 70
     0
  9
$VISRETAIN
 70
     1
  9
$PLINEGEN
 70
     0
  9
$PSLTSCALE
 70
     1
  9
$TREEDEPTH
 70
  3020
  9
$CMLSTYLE
  2
Standard
  9
$CMLJUST
 70
     0
  9
$CMLSCALE
 40
1.0
  9
$PROXYGRAPHICS
 70
     1
  9
$MEASUREMENT
 70
     0
  9
$CELWEIGHT
370
    -1
  9
$ENDCAPS
280
     0
  9
$JOINSTYLE
280
     0
  9
$LWDISPLAY
290
     0
  9
$INSUNITS
 70
     1
  9
$HYPERLINKBASE
  1

  9
$STYLESHEET
  1

  9
$XEDIT
290
     1
  9
$CEPSNTYPE
380
     0
  9
$PSTYLEMODE
290
     1
  9
$FINGERPRINTGUID
  2
{86DB31D1-75E1-4F8A-949C-8DBB71A4827B}
  9
$VERSIONGUID
  2
{177C1933-3121-46A4-806D-6B778777A3D4}
  9
$EXTNAMES
290
     1
  9
$PSVPSCALE
 40
0.0
  9
$OLESTARTUP
290
     0
  0
ENDSEC
  0
SECTION
  2
CLASSES
  0
CLASS
  1
ACDBDICTIONARYWDFLT
  2
AcDbDictionaryWithDefault
  3
ObjectDBX Classes
 90
        0
280
     0
281
     0
  0
CLASS
  1
ACDBPLACEHOLDER
  2
AcDbPlaceHolder
  3
ObjectDBX Classes
 90
        0
280
     0
281
     0
  0
CLASS
  1
LAYOUT
  2
AcDbLayout
  3
ObjectDBX Classes
 90
        0
280
     0
281
     0
  0
CLASS
  1
MATERIAL
  2
AcDbMaterial
  3
ObjectDBX Classes
 90
     1153
280
     0
281
     0
  0
CLASS
  1
VISUALSTYLE
  2
AcDbVisualStyle
  3
ObjectDBX Classes
 90
     4095
280
     0
281
     0
  0
CLASS
  1
TABLESTYLE
  2
AcDbTableStyle
  3
ObjectDBX Classes
 90
     4095
280
     0
281
     0
  0
CLASS
  1
SCALE
  2
AcDbScale
  3
ObjectDBX Classes
 90
     1153
280
     0
281
     0
  0
CLASS
  1
MLEADERSTYLE
  2
AcDbMLeaderStyle
  3
ACDB_MLEADERSTYLE_CLASS
 90
     4095
280
     0
281
     0
  0
CLASS
  1
CELLSTYLEMAP
  2
AcDbCellStyleMap
  3
ObjectDBX Classes
 90
     1152
280
     0
281
     0
  0
CLASS
  1
DICTIONARYVAR
  2
AcDbDictionaryVar
  3
ObjectDBX Classes
 90
        0
280
     0
281
     0
  0
ENDSEC
  0
SECTION
  2
TABLES
  0
TABLE
  2
VPORT
  5
8
102
{ACAD_XDICTIONARY
360
1E52
102
}
330
0
100
AcDbSymbolTable
 70
     1
  0
VPORT
  5
1F4
330
8
100
AcDbSymbolTableRecord
100
AcDbViewportTableRecord
  2
*ACTIVE
 70
     0
 10
0.0
 20
0.0
 11
1.0
 21
1.0
 12
72.46630769748998
 22
68.39990564981973
 13
0.0
 23
0.0
 14
1.0
 24
1.0
 15
0.0
 25
0.0
 16
0.0
 26
0.0
 36
1.0
 17
0.0
 27
0.0
 37
0.0
 40
108.1412464393567
 41
2.280385078219013
 42
50.0
 43
0.0
 44
0.0
 50
0.0
 51
0.0
 71
     0
 72
   100
 73
     1
 74
     1
 75
     0
 76
     0
 77
     0
 78
     0
281
     0
 65
     1
110
0.0
120
0.0
130
0.0
111
1.0
121
0.0
131
0.0
112
0.0
122
1.0
132
0.0
 79
     0
146
0.0
  0
ENDTAB
  0
TABLE
  2
LTYPE
  5
5
330
0
100
AcDbSymbolTable
 70
     6
  0
LTYPE
  5
14
330
5
100
AcDbSymbolTableRecord
100
AcDbLinetypeTableRecord
  2
BYBLOCK
 70
     0
  3

 72
    65
 73
     0
 40
0.0
  0
LTYPE
  5
15
330
5
100
AcDbSymbolTableRecord
100
AcDbLinetypeTableRecord
  2
BYLAYER
 70
     0
  3

 72
    65
 73
     0
 40
0.0
  0
LTYPE
  5
16
330
5
100
AcDbSymbolTableRecord
100
AcDbLinetypeTableRecord
  2
CONTINUOUS
 70
     0
  3
Solid line
 72
    65
 73
     0
 40
0.0
  0
LTYPE
  5
1F5
330
5
100
AcDbSymbolTableRecord
100
AcDbLinetypeTableRecord
  2
CENTER
 70
     0
  3
____ _ ____ _ ____ _ ____ _ ____ _ ____ _ ____
 72
    65
 73
     4
 40
0.6
 49
0.375
 74
     0
 49
-0.075
 74
     0
 49
0.075
 74
     0
 49
-0.075
 74
     0
  0
LTYPE
  5
1F6
330
5
100
AcDbSymbolTableRecord
100
AcDbLinetypeTableRecord
  2
HIDDEN
 70
     0
  3
- - - - - - - - - - - - - - - - - - - -
 72
    65
 73
     2
 40
0.2
 49
0.1
 74
     0
 49
-0.1
 74
     0
  0
LTYPE
  5
1F7
330
5
100
AcDbSymbolTableRecord
100
AcDbLinetypeTableRecord
  2
PHANTOM
 70
     0
  3
_____ _ _ _____ _ _ _____ _ _ _____
 72
    65
 73
     6
 40
0.8
 49
0.45
 74
     0
 49
-0.05
 74
     0
 49
0.1
 74
     0
 49
-0.05
 74
     0
 49
0.1
 74
     0
 49
-0.05
 74
     0
  0
LTYPE
  5
1F8
330
5
100
AcDbSymbolTableRecord
100
AcDbLinetypeTableRecord
  2
DOT
 70
     0
  3
. . . . . . . . . . . . . . . . . . . .
 72
    65
 73
     2
 40
0.2
 49
0.1
 74
     0
 49
-0.1
 74
     0
  0
LTYPE
  5
1F9
330
5
100
AcDbSymbolTableRecord
100
AcDbLinetypeTableRecord
  2
DASHED
 70
     0
  3
- - - - - - - - - - - - - - - - - - - -
 72
    65
 73
     2
 40
0.2
 49
0.1
 74
     0
 49
-0.1
 74
     0
  0
ENDTAB
  0
TABLE
  2
LAYER
  5
2
330
0
100
AcDbSymbolTable
 70
    23
  0
LAYER
  5
10
102
{ACAD_XDICTIONARY
360
1EA3
102
}
330
2
100
AcDbSymbolTableRecord
100
AcDbLayerTableRecord
  2
0
 70
     0
 62
     7
  6
CONTINUOUS
370
    -3
390
F
  0
LAYER
  5
1FA
102
{ACAD_XDICTIONARY
360
1EA5
102
}
330
2
100
AcDbSymbolTableRecord
100
AcDbLayerTableRecord
  2
DEFAULT_1
 70
     0
 62
     7
  6
CENTER
370
    -3
390
F
  0
LAYER
  5
1FB
102
{ACAD_XDICTIONARY
360
1EA7
102
}
330
2
100
AcDbSymbolTableRecord
100
AcDbLayerTableRecord
  2
DEFAULT_2
 70
     0
 62
     7
  6
HIDDEN
370
    -3
390
F
  0
LAYER
  5
1FC
102
{ACAD_XDICTIONARY
360
1EA9
102
}
330
2
100
AcDbSymbolTableRecord
100
AcDbLayerTableRecord
  2
DEFAULT_3
 70
     0
 62
     7
  6
PHANTOM
370
    -3
390
F
  0
LAYER
  5
1FD
102
{ACAD_XDICTIONARY
360
1EAB
102
}
330
2
100
AcDbSymbolTableRecord
100
AcDbLayerTableRecord
  2
1_CURVES
 70
     0
 62
     7
  6
CONTINUOUS
370
    -3
390
F
  0
LAYER
  5
1FE
102
{ACAD_XDICTIONARY
360
1EAD
102
}
330
2
100
AcDbSymbolTableRecord
100
AcDbLayerTableRecord
  2
1_CURVES-CONTOUR-REBORD
 70
     0
 62
     7
  6
CONTINUOUS
370
    -3
390
F
  0
LAYER
  5
1FF
102
{ACAD_XDICTIONARY
360
1EAF
102
}
330
2
100
AcDbSymbolTableRecord
100
AcDbLayerTableRecord
  2
1_CURVES-JETS
 70
     0
 62
     7
  6
CONTINUOUS
370
    -3
390
F
  0
LAYER
  5
200
102
{ACAD_XDICTIONARY
360
1EB1
102
}
330
2
100
AcDbSymbolTableRecord
100
AcDbLayerTableRecord
  2
1_CURVES-ROLL-EDGE
 70
     0
 62
     7
  6
CONTINUOUS
370
    -3
390
F
  0
LAYER
  5
201
102
{ACAD_XDICTIONARY
360
1EB3
102
}
330
2
100
AcDbSymbolTableRecord
100
AcDbLayerTableRecord
  2
1_CURVES-SPEC-FRONT
 70
     0
 62
     7
  6
CONTINUOUS
370
    -3
390
F
  0
LAYER
  5
202
102
{ACAD_XDICTIONARY
360
1EB5
102
}
330
2
100
AcDbSymbolTableRecord
100
AcDbLayerTableRecord
  2
2_PLANES
 70
     0
 62
     7
  6
CONTINUOUS
370
    -3
390
F
  0
LAYER
  5
203
102
{ACAD_XDICTIONARY
360
1EB7
102
}
330
2
100
AcDbSymbolTableRecord
100
AcDbLayerTableRecord
  2
3_POINTS
 70
     0
 62
     7
  6
CONTINUOUS
370
    -3
390
F
  0
LAYER
  5
204
102
{ACAD_XDICTIONARY
360
1EB9
102
}
330
2
100
AcDbSymbolTableRecord
100
AcDbLayerTableRecord
  2
3_POINTS-JETS
 70
     0
 62
     7
  6
CONTINUOUS
370
    -3
390
F
  0
LAYER
  5
205
102
{ACAD_XDICTIONARY
360
1EBB
102
}
330
2
100
AcDbSymbolTableRecord
100
AcDbLayerTableRecord
  2
4_CSYS
 70
     0
 62
     7
  6
CONTINUOUS
370
    -3
390
F
  0
LAYER
  5
206
102
{ACAD_XDICTIONARY
360
1EBD
102
}
330
2
100
AcDbSymbolTableRecord
100
AcDbLayerTableRecord
  2
5-AXIS-JETS
 70
     0
 62
     7
  6
CONTINUOUS
370
    -3
390
F
  0
LAYER
  5
207
102
{ACAD_XDICTIONARY
360
1EBF
102
}
330
2
100
AcDbSymbolTableRecord
100
AcDbLayerTableRecord
  2
5_AXIS
 70
     0
 62
     7
  6
CONTINUOUS
370
    -3
390
F
  0
LAYER
  5
208
102
{ACAD_XDICTIONARY
360
1EC1
102
}
330
2
100
AcDbSymbolTableRecord
100
AcDbLayerTableRecord
  2
6_SURFACE-OFFSET-FIBRE-ACRYLIQU
 70
     0
 62
     7
  6
CONTINUOUS
370
    -3
390
F
  0
LAYER
  5
209
102
{ACAD_XDICTIONARY
360
1EC3
102
}
330
2
100
AcDbSymbolTableRecord
100
AcDbLayerTableRecord
  2
6_SURFACES
 70
     0
 62
     7
  6
CONTINUOUS
370
    -3
390
F
  0
LAYER
  5
20A
102
{ACAD_XDICTIONARY
360
1EC5
102
}
330
2
100
AcDbSymbolTableRecord
100
AcDbLayerTableRecord
  2
6_SURFACES_TOOLING
 70
     0
 62
     7
  6
CONTINUOUS
370
    -3
390
F
  0
LAYER
  5
20B
102
{ACAD_XDICTIONARY
360
1EC7
102
}
330
2
100
AcDbSymbolTableRecord
100
AcDbLayerTableRecord
  2
6_SURFACE_FLAT_EDGE
 70
     0
 62
     7
  6
CONTINUOUS
370
    -3
390
F
  0
LAYER
  5
20C
102
{ACAD_XDICTIONARY
360
1EC9
102
}
330
2
100
AcDbSymbolTableRecord
100
AcDbLayerTableRecord
  2
6_SURFACE_ROLL_EDGE
 70
     0
 62
     7
  6
CONTINUOUS
370
    -3
390
F
  0
LAYER
  5
20D
102
{ACAD_XDICTIONARY
360
1ECB
102
}
330
2
100
AcDbSymbolTableRecord
100
AcDbLayerTableRecord
  2
7_NOTES
 70
     0
 62
     7
  6
CONTINUOUS
370
    -3
390
F
  0
LAYER
  5
20E
102
{ACAD_XDICTIONARY
360
1ECD
102
}
330
2
100
AcDbSymbolTableRecord
100
AcDbLayerTableRecord
  2
8_ZONE-ROBINETERIE
 70
     0
 62
     7
  6
CONTINUOUS
370
    -3
390
F
  0
LAYER
  5
20F
102
{ACAD_XDICTIONARY
360
1ECF
102
}
330
2
100
AcDbSymbolTableRecord
100
AcDbLayerTableRecord
  2
XSEC_DATUMS
 70
     0
 62
     7
  6
CONTINUOUS
370
    -3
390
F
  0
ENDTAB
  0
TABLE
  2
STYLE
  5
3
330
0
100
AcDbSymbolTable
 70
     8
  0
STYLE
  5
11
330
3
100
AcDbSymbolTableRecord
100
AcDbTextStyleTableRecord
  2
STANDARD
 70
     0
 40
0.0
 41
0.8
 50
0.0
 71
     0
 42
0.2
  3
txt
  4

  0
STYLE
  5
210
330
3
100
AcDbSymbolTableRecord
100
AcDbTextStyleTableRecord
  2
TEXTSTYLE_1
 70
     0
 40
0.0
 41
0.8
 50
0.0
 71
     0
 42
0.2
  3
gdt
  4

  0
STYLE
  5
211
330
3
100
AcDbSymbolTableRecord
100
AcDbTextStyleTableRecord
  2
TEXTSTYLE_2
 70
     0
 40
0.0
 41
1.0
 50
0.0
 71
     0
 42
0.2
  3
trium.ttf
  4

  0
STYLE
  5
212
330
3
100
AcDbSymbolTableRecord
100
AcDbTextStyleTableRecord
  2
TEXTSTYLE_3
 70
     0
 40
0.0
 41
1.0
 50
0.0
 71
     0
 42
0.2
  3
trium.ttf
  4

  0
STYLE
  5
213
330
3
100
AcDbSymbolTableRecord
100
AcDbTextStyleTableRecord
  2
TEXTSTYLE_4
 70
     0
 40
0.0
 41
1.0
 50
0.0
 71
     0
 42
0.2
  3
txt_____.ttf
  4

1001
ACAD
1000
txt
1071
        2
  0
STYLE
  5
214
330
3
100
AcDbSymbolTableRecord
100
AcDbTextStyleTableRecord
  2
TEXTSTYLE_5
 70
     0
 40
0.0
 41
1.0
 50
0.0
 71
     0
 42
0.2
  3
txt_____.ttf
  4

1001
ACAD
1000
txt
1071
        2
  0
STYLE
  5
215
330
3
100
AcDbSymbolTableRecord
100
AcDbTextStyleTableRecord
  2
TEXTSTYLE_6
 70
     0
 40
0.0
 41
1.0
 50
0.0
 71
     0
 42
0.2
  3
trium.ttf
  4

  0
STYLE
  5
216
330
3
100
AcDbSymbolTableRecord
100
AcDbTextStyleTableRecord
  2
TEXTSTYLE_7
 70
     0
 40
0.0
 41
0.8
 50
0.0
 71
     0
 42
0.2
  3
txt_____.ttf
  4

1001
ACAD
1000
txt
1071
        2
  0
ENDTAB
  0
TABLE
  2
VIEW
  5
6
330
0
100
AcDbSymbolTable
 70
     0
  0
ENDTAB
  0
TABLE
  2
UCS
  5
7
330
0
100
AcDbSymbolTable
 70
     0
  0
ENDTAB
  0
TABLE
  2
APPID
  5
9
330
0
100
AcDbSymbolTable
 70
     2
  0
APPID
  5
217
330
9
100
AcDbSymbolTableRecord
100
AcDbRegAppTableRecord
  2
ACAD
 70
     0
  0
APPID
  5
1E82
330
9
100
AcDbSymbolTableRecord
100
AcDbRegAppTableRecord
  2
ACAD_MLEADERVER
 70
     0
  0
ENDTAB
  0
TABLE
  2
DIMSTYLE
  5
A
330
0
100
AcDbSymbolTable
 70
     3
100
AcDbDimStyleTable
 71
     0
  0
DIMSTYLE
105
238
330
A
100
AcDbSymbolTableRecord
100
AcDbDimStyleTableRecord
  2
STANDARD
 70
     0
 41
2.0
 44
0.125
 47
0.00001
 48
0.00001
 78
     4
140
1.333333333299999
271
     5
272
     5
284
     4
340
11
341
21A
342
21A
343
21A
344
21A
  0
DIMSTYLE
105
239
330
A
100
AcDbSymbolTableRecord
100
AcDbDimStyleTableRecord
  2
DIMSTYLE_1
 70
     0
 41
2.0
 44
0.125
 78
     4
140
1.333333333299999
147
0.0625
271
     3
272
     3
284
     4
340
11
341
21A
342
21A
343
21A
344
21A
  0
DIMSTYLE
105
23A
330
A
100
AcDbSymbolTableRecord
100
AcDbDimStyleTableRecord
  2
DIMSTYLE_2
 70
     0
 41
2.0
 44
0.125
 78
     4
140
1.333333333299999
271
     0
272
     0
284
     4
340
11
341
21A
342
21A
343
21A
344
21A
  0
ENDTAB
  0
TABLE
  2
BLOCK_RECORD
  5
1
330
0
100
AcDbSymbolTable
 70
     7
  0
BLOCK_RECORD
  5
218
330
1
100
AcDbSymbolTableRecord
100
AcDbBlockTableRecord
  2
*Model_Space
340
1DF4
  0
BLOCK_RECORD
  5
219
330
1
100
AcDbSymbolTableRecord
100
AcDbBlockTableRecord
  2
*Paper_Space
340
1DF5
  0
BLOCK_RECORD
  5
21A
330
1
100
AcDbSymbolTableRecord
100
AcDbBlockTableRecord
  2
_FILLED
340
0
  0
BLOCK_RECORD
  5
232
330
1
100
AcDbSymbolTableRecord
100
AcDbBlockTableRecord
  2
SYMBOL_7_BL5
340
0
  0
BLOCK_RECORD
  5
233
330
1
100
AcDbSymbolTableRecord
100
AcDbBlockTableRecord
  2
SYMBOL_4_BL4
340
0
  0
BLOCK_RECORD
  5
234
330
1
100
AcDbSymbolTableRecord
100
AcDbBlockTableRecord
  2
SYMBOL_10_BL3
340
0
  0
BLOCK_RECORD
  5
235
330
1
100
AcDbSymbolTableRecord
100
AcDbBlockTableRecord
  2
SYMBOL_6_BL2
340
0
  0
BLOCK_RECORD
  5
236
330
1
100
AcDbSymbolTableRecord
100
AcDbBlockTableRecord
  2
SYMBOL_3_BL1
340
0
  0
BLOCK_RECORD
  5
237
330
1
100
AcDbSymbolTableRecord
100
AcDbBlockTableRecord
  2
SYMBOL_0_BL0
340
0
  0
ENDTAB
  0
ENDSEC
  0
SECTION
  2
BLOCKS
  0
BLOCK
  5
20
330
218
100
AcDbEntity
  8
0
100
AcDbBlockBegin
  2
*Model_Space
 70
     0
 10
0.0
 20
0.0
 30
0.0
  3
*Model_Space
  1

  0
ENDBLK
  5
21
330
218
100
AcDbEntity
  8
0
100
AcDbBlockEnd
  0
BLOCK
  5
1C
330
219
100
AcDbEntity
 67
     1
  8
0
100
AcDbBlockBegin
  2
*Paper_Space
 70
     0
 10
0.0
 20
0.0
 30
0.0
  3
*Paper_Space
  1

  0
ENDBLK
  5
1D
330
219
100
AcDbEntity
 67
     1
  8
0
100
AcDbBlockEnd
  0
BLOCK
  5
31A
330
21A
100
AcDbEntity
  8
0
100
AcDbBlockBegin
  2
_FILLED
 70
     0
 10
0.0
 20
0.0
 30
0.0
  3
_FILLED
  1

  0
SOLID
  5
31B
330
21A
100
AcDbEntity
  8
0
  6
ByBlock
 62
     0
100
AcDbTrace
 10
0.0
 20
0.0
 30
0.0
 11
-1.0
 21
0.1666666667
 31
0.0
 12
-1.0
 22
-0.1666666667
 32
0.0
 13
-1.0
 23
-0.1666666667
 33
0.0
  0
ENDBLK
  5
31C
330
21A
100
AcDbEntity
  8
0
  6
ByBlock
 62
     0
100
AcDbBlockEnd
  0
BLOCK
  5
23B
330
232
100
AcDbEntity
  8
0
  6
Continuous
 62
     7
100
AcDbBlockBegin
  2
SYMBOL_7_BL5
 70
     0
 10
61.7791764196
 20
67.1849258593
 30
0.0
  3
SYMBOL_7_BL5
  1

  0
TEXT
  5
23C
330
232
100
AcDbEntity
  8
0
  6
Continuous
 62
     7
100
AcDbText
 10
61.35596959699999
 20
66.420749455
 30
0.0
 40
1.333333852099999
  1
L
 50
10.0
  7
TEXTSTYLE_2
100
AcDbText
  0
TEXT
  5
23D
330
232
100
AcDbEntity
  8
0
  6
Continuous
 62
     7
100
AcDbText
 10
57.2218589652
 20
65.7043964945
 30
0.0
 40
1.333333852099999
  1
16
 50
10.0
  7
TEXTSTYLE_2
100
AcDbText
  0
TEXT
  5
23E
330
232
100
AcDbEntity
  8
0
  6
Continuous
 62
     7
100
AcDbText
 10
64.55463934489999
 20
66.99736351899999
 30
0.0
 40
1.333333852099999
  1
15
 50
10.0
  7
TEXTSTYLE_2
100
AcDbText
  0
ELLIPSE
  5
23F
330
232
100
AcDbEntity
  8
0
  6
Continuous
 62
     7
100
AcDbEllipse
 10
61.76057185609999
 20
67.16904308770001
 30
0.0
 11
-1.913370740099999
 21
-0.3373788856
 31
0.0
210
0.0
220
0.0
230
1.0
 40
0.6606458385
 41
0.0
 42
6.283185307179586
  0
ENDBLK
  5
240
330
232
100
AcDbEntity
  8
0
  6
ByBlock
 62
     0
100
AcDbBlockEnd
  0
BLOCK
  5
241
330
233
100
AcDbEntity
  8
0
  6
Continuous
 62
     7
100
AcDbBlockBegin
  2
SYMBOL_4_BL4
 70
     0
 10
75.82079054340001
 20
77.966753099
 30
0.0
  3
SYMBOL_4_BL4
  1

  0
TEXT
  5
242
330
233
100
AcDbEntity
  8
0
  6
Continuous
 62
     7
100
AcDbText
 10
75.25782736149999
 20
77.3000861729
 30
0.0
 40
1.333333852099999
  1
T
  7
TEXTSTYLE_2
100
AcDbText
  0
ELLIPSE
  5
243
330
233
100
AcDbEntity
  8
0
  6
Continuous
 62
     7
100
AcDbEllipse
 10
75.82079054340001
 20
77.966753099
 30
0.0
 11
-1.942887567899999
 21
0.0
 31
0.0
210
0.0
220
0.0
230
1.0
 40
0.6606458385
 41
0.0
 42
6.283185307179586
  0
ENDBLK
  5
244
330
233
100
AcDbEntity
  8
0
  6
ByBlock
 62
     0
100
AcDbBlockEnd
  0
BLOCK
  5
245
330
234
100
AcDbEntity
  8
0
  6
Continuous
 62
     7
100
AcDbBlockBegin
  2
SYMBOL_10_BL3
 70
     0
 10
109.221562367
 20
44.8326375423
 30
0.0
  3
SYMBOL_10_BL3
  1

  0
TEXT
  5
246
330
234
100
AcDbEntity
  8
0
  6
Continuous
 62
     7
100
AcDbText
 10
102.9075020652
 20
47.077671528
 30
0.0
 40
1.1626666667
  1
INTERNAL USE 
 50
10.0
  7
TEXTSTYLE_3
100
AcDbText
  0
TEXT
  5
247
330
234
100
AcDbEntity
  8
0
  6
Continuous
 62
     7
100
AcDbText
 10
102.1638178612
 20
45.07615035039999
 30
0.0
 40
1.1626666667
  1
DOCUMENT ONLY
 50
10.0
  7
TEXTSTYLE_3
100
AcDbText
  0
TEXT
  5
248
330
234
100
AcDbEntity
  8
0
  6
Continuous
 62
     7
100
AcDbText
 10
107.9485454245
 20
44.82772229979999
 30
0.0
 40
1.1626666667
  1
 
 50
10.0
  7
TEXTSTYLE_5
100
AcDbText
  0
TEXT
  5
249
330
234
100
AcDbEntity
  8
0
  6
Continuous
 62
     7
100
AcDbText
 10
99.5038975415
 20
40.6506278935
 30
0.0
 40
1.1626666667
  1
DOCUMENT POUR USAGE
 50
10.0
  7
TEXTSTYLE_3
100
AcDbText
  0
TEXT
  5
24A
330
234
100
AcDbEntity
  8
0
  6
Continuous
 62
     7
100
AcDbText
 10
99.9329969875
 20
38.6338794331
 30
0.0
 40
1.1626666667
  1
A L'INTERNE SEULEMENT
 50
10.0
  7
TEXTSTYLE_3
100
AcDbText
  0
LINE
  5
24B
330
234
100
AcDbEntity
  8
0
  6
Continuous
 62
     7
100
AcDbLine
 10
123.0781140903
 20
40.48910392429999
 30
0.0
 11
123.084873023
 21
40.4958628569
 31
0.0
  0
LINE
  5
24C
330
234
100
AcDbEntity
  8
0
  6
Continuous
 62
     7
100
AcDbLine
 10
122.3455445239
 20
40.3599321445
 30
0.0
 11
122.994425969
 21
41.0088135896
 31
0.0
  0
LINE
  5
24D
330
234
100
AcDbEntity
  8
0
  6
Continuous
 62
     7
100
AcDbLine
 10
121.6129749575
 20
40.2307603647
 30
0.0
 11
122.9039789151
 21
41.5217643223
 31
0.0
  0
LINE
  5
24E
330
234
100
AcDbEntity
  8
0
  6
Continuous
 62
     7
100
AcDbLine
 10
120.8804053911
 20
40.1015885849
 30
0.0
 11
122.8135318611
 21
42.03471505489999
 31
0.0
  0
LINE
  5
24F
330
234
100
AcDbEntity
  8
0
  6
Continuous
 62
     7
100
AcDbLine
 10
120.1478358246
 20
39.97241680510001
 30
0.0
 11
122.7230848072
 21
42.5476657876
 31
0.0
  0
LINE
  5
250
330
234
100
AcDbEntity
  8
0
  6
Continuous
 62
     7
100
AcDbLine
 10
119.4152662582
 20
39.8432450252
 30
0.0
 11
120.956270073
 21
41.38424883999999
 31
0.0
  0
LINE
  5
251
330
234
100
AcDbEntity
  8
0
  6
Continuous
 62
     7
100
AcDbLine
 10
121.5536152657
 20
41.9815940327
 30
0.0
 11
122.6326377532
 21
43.06061652029999
 31
0.0
  0
LINE
  5
252
330
234
100
AcDbEntity
  8
0
  6
Continuous
 62
     7
100
AcDbLine
 10
118.6826966918
 20
39.7140732454
 30
0.0
 11
120.2237005066
 21
41.2550770602
 31
0.0
  0
LINE
  5
253
330
234
100
AcDbEntity
  8
0
  6
Continuous
 62
     7
100
AcDbLine
 10
121.4631682118
 20
42.4945447654
 30
0.0
 11
122.5421906993
 21
43.57356725289999
 31
0.0
  0
LINE
  5
254
330
234
100
AcDbEntity
  8
0
  6
Continuous
 62
     7
100
AcDbLine
 10
117.9501271254
 20
39.5849014656
 30
0.0
 11
119.4911309402
 21
41.1259052804
 31
0.0
  0
LINE
  5
255
330
234
100
AcDbEntity
  8
0
  6
Continuous
 62
     7
100
AcDbLine
 10
121.3727211578
 20
43.0074954981
 30
0.0
 11
122.4517436454
 21
44.0865179856
 31
0.0
  0
LINE
  5
256
330
234
100
AcDbEntity
  8
0
  6
Continuous
 62
     7
100
AcDbLine
 10
117.217557559
 20
39.4557296858
 30
0.0
 11
118.7585613737
 21
40.9967335006
 31
0.0
  0
LINE
  5
257
330
234
100
AcDbEntity
  8
0
  6
Continuous
 62
     7
100
AcDbLine
 10
121.2822741039
 20
43.5204462308
 30
0.0
 11
122.3612965914
 21
44.5994687183
 31
0.0
  0
LINE
  5
258
330
234
100
AcDbEntity
  8
0
  6
Continuous
 62
     7
100
AcDbLine
 10
116.4849879926
 20
39.326557906
 30
0.0
 11
118.0259918073
 21
40.8675617208
 31
0.0
  0
LINE
  5
259
330
234
100
AcDbEntity
  8
0
  6
Continuous
 62
     7
100
AcDbLine
 10
121.1918270499
 20
44.0333969634
 30
0.0
 11
122.2708495375
 21
45.1124194509
 31
0.0
  0
LINE
  5
25A
330
234
100
AcDbEntity
  8
0
  6
Continuous
 62
     7
100
AcDbLine
 10
115.7524184261
 20
39.1973861262
 30
0.0
 11
117.2934222409
 21
40.73838994099999
 31
0.0
  0
LINE
  5
25B
330
234
100
AcDbEntity
  8
0
  6
Continuous
 62
     7
100
AcDbLine
 10
121.101379996
 20
44.5463476961
 30
0.0
 11
122.1804024835
 21
45.62537018359999
 31
0.0
  0
LINE
  5
25C
330
234
100
AcDbEntity
  8
0
  6
Continuous
 62
     7
100
AcDbLine
 10
115.0198488597
 20
39.0682143464
 30
0.0
 11
116.5608526745
 21
40.60921816119999
 31
0.0
  0
LINE
  5
25D
330
234
100
AcDbEntity
  8
0
  6
Continuous
 62
     7
100
AcDbLine
 10
121.0109329421
 20
45.05929842879999
 30
0.0
 11
122.0899554296
 21
46.1383209163
 31
0.0
  0
LINE
  5
25E
330
234
100
AcDbEntity
  8
0
  6
Continuous
 62
     7
100
AcDbLine
 10
114.2872792933
 20
38.9390425666
 30
0.0
 11
115.8282831081
 21
40.4800463814
 31
0.0
  0
LINE
  5
25F
330
234
100
AcDbEntity
  8
0
  6
Continuous
 62
     7
100
AcDbLine
 10
120.9204858881
 20
45.5722491614
 30
0.0
 11
121.9995083756
 21
46.6512716489
 31
0.0
  0
LINE
  5
260
330
234
100
AcDbEntity
  8
0
  6
Continuous
 62
     7
100
AcDbLine
 10
113.5547097269
 20
38.8098707868
 30
0.0
 11
115.0957135417
 21
40.35087460159999
 31
0.0
  0
LINE
  5
261
330
234
100
AcDbEntity
  8
0
  6
Continuous
 62
     7
100
AcDbLine
 10
120.8300388342
 20
46.0851998941
 30
0.0
 11
121.9090613217
 21
47.16422238159999
 31
0.0
  0
LINE
  5
262
330
234
100
AcDbEntity
  8
0
  6
Continuous
 62
     7
100
AcDbLine
 10
112.8221401605
 20
38.680699007
 30
0.0
 11
114.3631439752
 21
40.2217028218
 31
0.0
  0
LINE
  5
263
330
234
100
AcDbEntity
  8
0
  6
Continuous
 62
     7
100
AcDbLine
 10
120.5271592343
 20
46.3857180809
 30
0.0
 11
121.8186142677
 21
47.6771731143
 31
0.0
  0
LINE
  5
264
330
234
100
AcDbEntity
  8
0
  6
Continuous
 62
     7
100
AcDbLine
 10
112.089570594
 20
38.5515272272
 30
0.0
 11
113.6305744088
 21
40.09253104199999
 31
0.0
  0
LINE
  5
265
330
234
100
AcDbEntity
  8
0
  6
Continuous
 62
     7
100
AcDbLine
 10
119.7945896679
 20
46.25654630109999
 30
0.0
 11
121.7281672138
 21
48.19012384699999
 31
0.0
  0
LINE
  5
266
330
234
100
AcDbEntity
  8
0
  6
Continuous
 62
     7
100
AcDbLine
 10
111.3570010276
 20
38.4223554474
 30
0.0
 11
112.8980048424
 21
39.9633592622
 31
0.0
  0
LINE
  5
267
330
234
100
AcDbEntity
  8
0
  6
Continuous
 62
     7
100
AcDbLine
 10
119.0620201015
 20
46.1273745213
 30
0.0
 11
120.0893623998
 21
47.15471681949999
 31
0.0
  0
LINE
  5
268
330
234
100
AcDbEntity
  8
0
  6
Continuous
 62
     7
100
AcDbLine
 10
120.5586976723
 20
47.6240520921
 30
0.0
 11
121.6377201599
 21
48.7030745796
 31
0.0
  0
LINE
  5
269
330
234
100
AcDbEntity
  8
0
  6
Continuous
 62
     7
100
AcDbLine
 10
110.6244314612
 20
38.29318366760001
 30
0.0
 11
112.165435276
 21
39.8341874824
 31
0.0
  0
LINE
  5
26A
330
234
100
AcDbEntity
  8
0
  6
Continuous
 62
     7
100
AcDbLine
 10
118.3294505351
 20
45.99820274149999
 30
0.0
 11
119.3567926237
 21
47.0255448301
 31
0.0
  0
LINE
  5
26B
330
234
100
AcDbEntity
  8
0
  6
Continuous
 62
     7
100
AcDbLine
 10
120.4682506184
 20
48.13700282479999
 30
0.0
 11
121.5472731059
 21
49.2160253123
 31
0.0
  0
LINE
  5
26C
330
234
100
AcDbEntity
  8
0
  6
Continuous
 62
     7
100
AcDbLine
 10
109.8918618948
 20
38.1640118878
 30
0.0
 11
111.4328657096
 21
39.7050157026
 31
0.0
  0
LINE
  5
26D
330
234
100
AcDbEntity
  8
0
  6
Continuous
 62
     7
100
AcDbLine
 10
117.5968809687
 20
45.8690309617
 30
0.0
 11
118.6242228477
 21
46.89637284069999
 31
0.0
  0
LINE
  5
26E
330
234
100
AcDbEntity
  8
0
  6
Continuous
 62
     7
100
AcDbLine
 10
120.3778035645
 20
48.64995355739999
 30
0.0
 11
121.456826052
 21
49.728976045
 31
0.0
  0
LINE
  5
26F
330
234
100
AcDbEntity
  8
0
  6
Continuous
 62
     7
100
AcDbLine
 10
109.1592923284
 20
38.034840108
 30
0.0
 11
110.7002961431
 21
39.5758439227
 31
0.0
  0
LINE
  5
270
330
234
100
AcDbEntity
  8
0
  6
Continuous
 62
     7
100
AcDbLine
 10
116.8643114023
 20
45.73985918189999
 30
0.0
 11
117.8916530717
 21
46.7672008513
 31
0.0
  0
LINE
  5
271
330
234
100
AcDbEntity
  8
0
  6
Continuous
 62
     7
100
AcDbLine
 10
120.2873565105
 20
49.1629042901
 30
0.0
 11
121.366378998
 21
50.2419267776
 31
0.0
  0
LINE
  5
272
330
234
100
AcDbEntity
  8
0
  6
Continuous
 62
     7
100
AcDbLine
 10
108.426722762
 20
37.9056683282
 30
0.0
 11
109.9677265767
 21
39.4466721429
 31
0.0
  0
LINE
  5
273
330
234
100
AcDbEntity
  8
0
  6
Continuous
 62
     7
100
AcDbLine
 10
116.1317418358
 20
45.61068740199999
 30
0.0
 11
117.1590832957
 21
46.6380288619
 31
0.0
  0
LINE
  5
274
330
234
100
AcDbEntity
  8
0
  6
Continuous
 62
     7
100
AcDbLine
 10
120.1969094566
 20
49.6758550228
 30
0.0
 11
121.2759319441
 21
50.75487751029999
 31
0.0
  0
LINE
  5
275
330
234
100
AcDbEntity
  8
0
  6
Continuous
 62
     7
100
AcDbLine
 10
107.6941531955
 20
37.77649654840001
 30
0.0
 11
109.2351570103
 21
39.3175003631
 31
0.0
  0
LINE
  5
276
330
234
100
AcDbEntity
  8
0
  6
Continuous
 62
     7
100
AcDbLine
 10
115.3991722694
 20
45.4815156222
 30
0.0
 11
116.4265135196
 21
46.50885687249999
 31
0.0
  0
LINE
  5
277
330
234
100
AcDbEntity
  8
0
  6
Continuous
 62
     7
100
AcDbLine
 10
120.1064624026
 20
50.18880575539999
 30
0.0
 11
121.1854848901
 21
51.26782824300001
 31
0.0
  0
LINE
  5
278
330
234
100
AcDbEntity
  8
0
  6
Continuous
 62
     7
100
AcDbLine
 10
106.9615836291
 20
37.6473247686
 30
0.0
 11
108.5025874439
 21
39.1883285833
 31
0.0
  0
LINE
  5
279
330
234
100
AcDbEntity
  8
0
  6
Continuous
 62
     7
100
AcDbLine
 10
114.666602703
 20
45.35234384239999
 30
0.0
 11
115.6939437436
 21
46.379684883
 31
0.0
  0
LINE
  5
27A
330
234
100
AcDbEntity
  8
0
  6
Continuous
 62
     7
100
AcDbLine
 10
120.0160153487
 20
50.7017564881
 30
0.0
 11
121.0950378362
 21
51.78077897560001
 31
0.0
  0
LINE
  5
27B
330
234
100
AcDbEntity
  8
0
  6
Continuous
 62
     7
100
AcDbLine
 10
106.2290140627
 20
37.51815298869999
 30
0.0
 11
107.7700178775
 21
39.0591568035
 31
0.0
  0
LINE
  5
27C
330
234
100
AcDbEntity
  8
0
  6
Continuous
 62
     7
100
AcDbLine
 10
113.9340331366
 20
45.2231720626
 30
0.0
 11
114.9613739676
 21
46.25051289359999
 31
0.0
  0
LINE
  5
27D
330
234
100
AcDbEntity
  8
0
  6
Continuous
 62
     7
100
AcDbLine
 10
119.9255682947
 20
51.2147072208
 30
0.0
 11
121.0045907823
 21
52.2937297083
 31
0.0
  0
LINE
  5
27E
330
234
100
AcDbEntity
  8
0
  6
Continuous
 62
     7
100
AcDbLine
 10
105.4964444963
 20
37.3889812089
 30
0.0
 11
107.0374483111
 21
38.9299850237
 31
0.0
  0
LINE
  5
27F
330
234
100
AcDbEntity
  8
0
  6
Continuous
 62
     7
100
AcDbLine
 10
113.2014635702
 20
45.09400028279999
 30
0.0
 11
114.2288041915
 21
46.1213409042
 31
0.0
  0
LINE
  5
280
330
234
100
AcDbEntity
  8
0
  6
Continuous
 62
     7
100
AcDbLine
 10
119.8351212408
 20
51.72765795350001
 30
0.0
 11
120.9141437283
 21
52.806680441
 31
0.0
  0
LINE
  5
281
330
234
100
AcDbEntity
  8
0
  6
Continuous
 62
     7
100
AcDbLine
 10
104.7638749299
 20
37.2598094291
 30
0.0
 11
106.3048787446
 21
38.8008132439
 31
0.0
  0
LINE
  5
282
330
234
100
AcDbEntity
  8
0
  6
Continuous
 62
     7
100
AcDbLine
 10
112.4688940037
 20
44.964828503
 30
0.0
 11
113.4962344155
 21
45.9921689148
 31
0.0
  0
LINE
  5
283
330
234
100
AcDbEntity
  8
0
  6
Continuous
 62
     7
100
AcDbLine
 10
119.6602451394
 20
52.15617963859999
 30
0.0
 11
120.8236966744
 21
53.31963117359999
 31
0.0
  0
LINE
  5
284
330
234
100
AcDbEntity
  8
0
  6
Continuous
 62
     7
100
AcDbLine
 10
104.0313053634
 20
37.1306376493
 30
0.0
 11
105.5723091782
 21
38.6716414641
 31
0.0
  0
LINE
  5
285
330
234
100
AcDbEntity
  8
0
  6
Continuous
 62
     7
100
AcDbLine
 10
111.7363244373
 20
44.8356567232
 30
0.0
 11
112.7636646395
 21
45.86299692539999
 31
0.0
  0
LINE
  5
286
330
234
100
AcDbEntity
  8
0
  6
Continuous
 62
     7
100
AcDbLine
 10
118.927675573
 20
52.02700785880001
 30
0.0
 11
120.4686793877
 21
53.5680116736
 31
0.0
  0
LINE
  5
287
330
234
100
AcDbEntity
  8
0
  6
Continuous
 62
     7
100
AcDbLine
 10
103.298735797
 20
37.0014658695
 30
0.0
 11
104.8397396118
 21
38.5424696843
 31
0.0
  0
LINE
  5
288
330
234
100
AcDbEntity
  8
0
  6
Continuous
 62
     7
100
AcDbLine
 10
111.0037548709
 20
44.70648494339999
 30
0.0
 11
112.0310948635
 21
45.733824936
 31
0.0
  0
LINE
  5
289
330
234
100
AcDbEntity
  8
0
  6
Continuous
 62
     7
100
AcDbLine
 10
118.1951060065
 20
51.89783607899999
 30
0.0
 11
119.7361098213
 21
53.4388398938
 31
0.0
  0
LINE
  5
28A
330
234
100
AcDbEntity
  8
0
  6
Continuous
 62
     7
100
AcDbLine
 10
102.5661662306
 20
36.8722940897
 30
0.0
 11
104.1071700454
 21
38.4132979045
 31
0.0
  0
LINE
  5
28B
330
234
100
AcDbEntity
  8
0
  6
Continuous
 62
     7
100
AcDbLine
 10
110.2711853045
 20
44.57731316359999
 30
0.0
 11
111.2985250874
 21
45.6046529465
 31
0.0
  0
LINE
  5
28C
330
234
100
AcDbEntity
  8
0
  6
Continuous
 62
     7
100
AcDbLine
 10
117.4625364401
 20
51.7686642992
 30
0.0
 11
119.0035402549
 21
53.30966811399999
 31
0.0
  0
LINE
  5
28D
330
234
100
AcDbEntity
  8
0
  6
Continuous
 62
     7
100
AcDbLine
 10
101.8335966642
 20
36.7431223099
 30
0.0
 11
103.374600479
 21
38.2841261247
 31
0.0
  0
LINE
  5
28E
330
234
100
AcDbEntity
  8
0
  6
Continuous
 62
     7
100
AcDbLine
 10
109.5386157381
 20
44.44814138379999
 30
0.0
 11
110.5659553114
 21
45.4754809571
 31
0.0
  0
LINE
  5
28F
330
234
100
AcDbEntity
  8
0
  6
Continuous
 62
     7
100
AcDbLine
 10
116.7299668737
 20
51.6394925194
 30
0.0
 11
118.2709706885
 21
53.1804963342
 31
0.0
  0
LINE
  5
290
330
234
100
AcDbEntity
  8
0
  6
Continuous
 62
     7
100
AcDbLine
 10
101.1010270978
 20
36.61395053010001
 30
0.0
 11
102.6420309126
 21
38.1549543449
 31
0.0
  0
LINE
  5
291
330
234
100
AcDbEntity
  8
0
  6
Continuous
 62
     7
100
AcDbLine
 10
108.8060461717
 20
44.31896960399999
 30
0.0
 11
109.8333855354
 21
45.3463089677
 31
0.0
  0
LINE
  5
292
330
234
100
AcDbEntity
  8
0
  6
Continuous
 62
     7
100
AcDbLine
 10
115.9973973073
 20
51.51032073959999
 30
0.0
 11
117.5384011221
 21
53.05132455439999
 31
0.0
  0
LINE
  5
293
330
234
100
AcDbEntity
  8
0
  6
Continuous
 62
     7
100
AcDbLine
 10
100.3684575314
 20
36.4847787503
 30
0.0
 11
101.9094613461
 21
38.0257825651
 31
0.0
  0
LINE
  5
294
330
234
100
AcDbEntity
  8
0
  6
Continuous
 62
     7
100
AcDbLine
 10
108.0734766052
 20
44.1897978242
 30
0.0
 11
109.1008157593
 21
45.2171369783
 31
0.0
  0
LINE
  5
295
330
234
100
AcDbEntity
  8
0
  6
Continuous
 62
     7
100
AcDbLine
 10
115.2648277409
 20
51.38114895979999
 30
0.0
 11
116.8058315556
 21
52.9221527746
 31
0.0
  0
LINE
  5
296
330
234
100
AcDbEntity
  8
0
  6
Continuous
 62
     7
100
AcDbLine
 10
99.6358879649
 20
36.3556069705
 30
0.0
 11
101.1768917797
 21
37.89661078530001
 31
0.0
  0
LINE
  5
297
330
234
100
AcDbEntity
  8
0
  6
Continuous
 62
     7
100
AcDbLine
 10
107.3409070388
 20
44.06062604439999
 30
0.0
 11
108.3682459833
 21
45.0879649889
 31
0.0
  0
LINE
  5
298
330
234
100
AcDbEntity
  8
0
  6
Continuous
 62
     7
100
AcDbLine
 10
114.5322581745
 20
51.25197717999999
 30
0.0
 11
116.0732619892
 21
52.7929809948
 31
0.0
  0
LINE
  5
299
330
234
100
AcDbEntity
  8
0
  6
Continuous
 62
     7
100
AcDbLine
 10
98.9033183985
 20
36.2264351907
 30
0.0
 11
100.4443222133
 21
37.7674390055
 31
0.0
  0
LINE
  5
29A
330
234
100
AcDbEntity
  8
0
  6
Continuous
 62
     7
100
AcDbLine
 10
106.6083374724
 20
43.9314542646
 30
0.0
 11
107.6356762073
 21
44.9587929995
 31
0.0
  0
LINE
  5
29B
330
234
100
AcDbEntity
  8
0
  6
Continuous
 62
     7
100
AcDbLine
 10
113.799688608
 20
51.12280540020001
 30
0.0
 11
115.3406924228
 21
52.663809215
 31
0.0
  0
LINE
  5
29C
330
234
100
AcDbEntity
  8
0
  6
Continuous
 62
     7
100
AcDbLine
 10
98.17074883209999
 20
36.0972634109
 30
0.0
 11
99.71175264690002
 21
37.6382672257
 31
0.0
  0
LINE
  5
29D
330
234
100
AcDbEntity
  8
0
  6
Continuous
 62
     7
100
AcDbLine
 10
105.875767906
 20
43.80228248479999
 30
0.0
 11
106.9031064313
 21
44.82962101
 31
0.0
  0
LINE
  5
29E
330
234
100
AcDbEntity
  8
0
  6
Continuous
 62
     7
100
AcDbLine
 10
113.0671190416
 20
50.9936336204
 30
0.0
 11
114.6081228564
 21
52.53463743520001
 31
0.0
  0
LINE
  5
29F
330
234
100
AcDbEntity
  8
0
  6
Continuous
 62
     7
100
AcDbLine
 10
97.6194280596
 20
36.149340425
 30
0.0
 11
98.9791830805
 21
37.5090954459
 31
0.0
  0
LINE
  5
2A0
330
234
100
AcDbEntity
  8
0
  6
Continuous
 62
     7
100
AcDbLine
 10
105.1431983396
 20
43.673110705
 30
0.0
 11
106.1705366552
 21
44.7004490206
 31
0.0
  0
LINE
  5
2A1
330
234
100
AcDbEntity
  8
0
  6
Continuous
 62
     7
100
AcDbLine
 10
112.3345494752
 20
50.86446184060001
 30
0.0
 11
113.87555329
 21
52.4054656554
 31
0.0
  0
LINE
  5
2A2
330
234
100
AcDbEntity
  8
0
  6
Continuous
 62
     7
100
AcDbLine
 10
97.52898100559999
 20
36.6622911576
 30
0.0
 11
98.60800349320001
 21
37.7413136452
 31
0.0
  0
LINE
  5
2A3
330
234
100
AcDbEntity
  8
0
  6
Continuous
 62
     7
100
AcDbLine
 10
104.4106287732
 20
43.5439389252
 30
0.0
 11
105.4379668792
 21
44.5712770312
 31
0.0
  0
LINE
  5
2A4
330
234
100
AcDbEntity
  8
0
  6
Continuous
 62
     7
100
AcDbLine
 10
111.6019799088
 20
50.7352900608
 30
0.0
 11
113.1429837236
 21
52.2762938756
 31
0.0
  0
LINE
  5
2A5
330
234
100
AcDbEntity
  8
0
  6
Continuous
 62
     7
100
AcDbLine
 10
97.43853395169999
 20
37.1752418903
 30
0.0
 11
98.5175564392
 21
38.25426437780001
 31
0.0
  0
LINE
  5
2A6
330
234
100
AcDbEntity
  8
0
  6
Continuous
 62
     7
100
AcDbLine
 10
103.6780592067
 20
43.41476714539999
 30
0.0
 11
104.7053971032
 21
44.4421050418
 31
0.0
  0
LINE
  5
2A7
330
234
100
AcDbEntity
  8
0
  6
Continuous
 62
     7
100
AcDbLine
 10
110.8694103424
 20
50.606118281
 30
0.0
 11
112.4104141571
 21
52.1471220958
 31
0.0
  0
LINE
  5
2A8
330
234
100
AcDbEntity
  8
0
  6
Continuous
 62
     7
100
AcDbLine
 10
97.34808689780001
 20
37.688192623
 30
0.0
 11
98.42710938530002
 21
38.7672151105
 31
0.0
  0
LINE
  5
2A9
330
234
100
AcDbEntity
  8
0
  6
Continuous
 62
     7
100
AcDbLine
 10
102.9454896403
 20
43.2855953656
 30
0.0
 11
103.9728273271
 21
44.31293305239999
 31
0.0
  0
LINE
  5
2AA
330
234
100
AcDbEntity
  8
0
  6
Continuous
 62
     7
100
AcDbLine
 10
110.1368407759
 20
50.4769465012
 30
0.0
 11
111.6778445907
 21
52.017950316
 31
0.0
  0
LINE
  5
2AB
330
234
100
AcDbEntity
  8
0
  6
Continuous
 62
     7
100
AcDbLine
 10
97.2576398438
 20
38.2011433557
 30
0.0
 11
98.33666233129999
 21
39.2801658432
 31
0.0
  0
LINE
  5
2AC
330
234
100
AcDbEntity
  8
0
  6
Continuous
 62
     7
100
AcDbLine
 10
102.2129200739
 20
43.15642358569999
 30
0.0
 11
103.2402575511
 21
44.183761063
 31
0.0
  0
LINE
  5
2AD
330
234
100
AcDbEntity
  8
0
  6
Continuous
 62
     7
100
AcDbLine
 10
109.4042712095
 20
50.3477747214
 30
0.0
 11
110.9452750243
 21
51.8887785362
 31
0.0
  0
LINE
  5
2AE
330
234
100
AcDbEntity
  8
0
  6
Continuous
 62
     7
100
AcDbLine
 10
97.1671927899
 20
38.7140940883
 30
0.0
 11
98.24621527739999
 21
39.7931165758
 31
0.0
  0
LINE
  5
2AF
330
234
100
AcDbEntity
  8
0
  6
Continuous
 62
     7
100
AcDbLine
 10
101.4803505075
 20
43.0272518059
 30
0.0
 11
102.5076877751
 21
44.0545890735
 31
0.0
  0
LINE
  5
2B0
330
234
100
AcDbEntity
  8
0
  6
Continuous
 62
     7
100
AcDbLine
 10
108.6717016431
 20
50.21860294159999
 30
0.0
 11
110.2127054579
 21
51.7596067563
 31
0.0
  0
LINE
  5
2B1
330
234
100
AcDbEntity
  8
0
  6
Continuous
 62
     7
100
AcDbLine
 10
97.07674573590001
 20
39.227044821
 30
0.0
 11
98.1557682234
 21
40.30606730849999
 31
0.0
  0
LINE
  5
2B2
330
234
100
AcDbEntity
  8
0
  6
Continuous
 62
     7
100
AcDbLine
 10
100.7477809411
 20
42.8980800261
 30
0.0
 11
101.7751179991
 21
43.92541708409999
 31
0.0
  0
LINE
  5
2B3
330
234
100
AcDbEntity
  8
0
  6
Continuous
 62
     7
100
AcDbLine
 10
107.9391320767
 20
50.0894311618
 30
0.0
 11
109.4801358915
 21
51.6304349765
 31
0.0
  0
LINE
  5
2B4
330
234
100
AcDbEntity
  8
0
  6
Continuous
 62
     7
100
AcDbLine
 10
96.98629868200001
 20
39.7399955537
 30
0.0
 11
98.06532116950002
 21
40.8190180412
 31
0.0
  0
LINE
  5
2B5
330
234
100
AcDbEntity
  8
0
  6
Continuous
 62
     7
100
AcDbLine
 10
100.0152113746
 20
42.7689082463
 30
0.0
 11
101.042548223
 21
43.79624509470001
 31
0.0
  0
LINE
  5
2B6
330
234
100
AcDbEntity
  8
0
  6
Continuous
 62
     7
100
AcDbLine
 10
107.2065625103
 20
49.96025938199999
 30
0.0
 11
108.747566325
 21
51.5012631967
 31
0.0
  0
LINE
  5
2B7
330
234
100
AcDbEntity
  8
0
  6
Continuous
 62
     7
100
AcDbLine
 10
96.895851628
 20
40.2529462863
 30
0.0
 11
97.97487411549999
 21
41.3319687738
 31
0.0
  0
LINE
  5
2B8
330
234
100
AcDbEntity
  8
0
  6
Continuous
 62
     7
100
AcDbLine
 10
99.28264180820001
 20
42.6397364665
 30
0.0
 11
100.309978447
 21
43.66707310529999
 31
0.0
  0
LINE
  5
2B9
330
234
100
AcDbEntity
  8
0
  6
Continuous
 62
     7
100
AcDbLine
 10
106.4739929439
 20
49.8310876022
 30
0.0
 11
108.0149967586
 21
51.3720914169
 31
0.0
  0
LINE
  5
2BA
330
234
100
AcDbEntity
  8
0
  6
Continuous
 62
     7
100
AcDbLine
 10
96.8054045741
 20
40.765897019
 30
0.0
 11
97.88442706159999
 21
41.8449195065
 31
0.0
  0
LINE
  5
2BB
330
234
100
AcDbEntity
  8
0
  6
Continuous
 62
     7
100
AcDbLine
 10
98.55007224180001
 20
42.51056468669999
 30
0.0
 11
99.577408671
 21
43.5379011159
 31
0.0
  0
LINE
  5
2BC
330
234
100
AcDbEntity
  8
0
  6
Continuous
 62
     7
100
AcDbLine
 10
105.7414233774
 20
49.7019158223
 30
0.0
 11
107.2824271922
 21
51.2429196371
 31
0.0
  0
LINE
  5
2BD
330
234
100
AcDbEntity
  8
0
  6
Continuous
 62
     7
100
AcDbLine
 10
96.71495752010001
 20
41.2788477517
 30
0.0
 11
97.79398000770001
 21
42.3578702392
 31
0.0
  0
LINE
  5
2BE
330
234
100
AcDbEntity
  8
0
  6
Continuous
 62
     7
100
AcDbLine
 10
97.81750267540001
 20
42.3813929069
 30
0.0
 11
98.84483889489999
 21
43.4087291265
 31
0.0
  0
LINE
  5
2BF
330
234
100
AcDbEntity
  8
0
  6
Continuous
 62
     7
100
AcDbLine
 10
105.008853811
 20
49.5727440425
 30
0.0
 11
106.5498576258
 21
51.11374785729999
 31
0.0
  0
LINE
  5
2C0
330
234
100
AcDbEntity
  8
0
  6
Continuous
 62
     7
100
AcDbLine
 10
96.62451046620001
 20
41.79179848429999
 30
0.0
 11
98.11226911889999
 21
43.27955713709999
 31
0.0
  0
LINE
  5
2C1
330
234
100
AcDbEntity
  8
0
  6
Continuous
 62
     7
100
AcDbLine
 10
104.2762842446
 20
49.4435722627
 30
0.0
 11
105.8172880594
 21
50.9845760775
 31
0.0
  0
LINE
  5
2C2
330
234
100
AcDbEntity
  8
0
  6
Continuous
 62
     7
100
AcDbLine
 10
96.53406341230001
 20
42.30474921699999
 30
0.0
 11
97.6130858998
 21
43.3837717045
 31
0.0
  0
LINE
  5
2C3
330
234
100
AcDbEntity
  8
0
  6
Continuous
 62
     7
100
AcDbLine
 10
103.5437146782
 20
49.31440048289999
 30
0.0
 11
105.084718493
 21
50.8554042977
 31
0.0
  0
LINE
  5
2C4
330
234
100
AcDbEntity
  8
0
  6
Continuous
 62
     7
100
AcDbLine
 10
96.44361635830001
 20
42.8176999497
 30
0.0
 11
97.52263884580001
 21
43.8967224372
 31
0.0
  0
LINE
  5
2C5
330
234
100
AcDbEntity
  8
0
  6
Continuous
 62
     7
100
AcDbLine
 10
102.8111451118
 20
49.1852287031
 30
0.0
 11
104.3521489265
 21
50.7262325179
 31
0.0
  0
LINE
  5
2C6
330
234
100
AcDbEntity
  8
0
  6
Continuous
 62
     7
100
AcDbLine
 10
96.35316930440001
 20
43.33065068229999
 30
0.0
 11
97.43219179190001
 21
44.4096731699
 31
0.0
  0
LINE
  5
2C7
330
234
100
AcDbEntity
  8
0
  6
Continuous
 62
     7
100
AcDbLine
 10
102.0785755453
 20
49.05605692329999
 30
0.0
 11
103.6195793601
 21
50.59706073810001
 31
0.0
  0
LINE
  5
2C8
330
234
100
AcDbEntity
  8
0
  6
Continuous
 62
     7
100
AcDbLine
 10
96.26272225040001
 20
43.843601415
 30
0.0
 11
97.34174473790002
 21
44.9226239025
 31
0.0
  0
LINE
  5
2C9
330
234
100
AcDbEntity
  8
0
  6
Continuous
 62
     7
100
AcDbLine
 10
101.3460059789
 20
48.9268851435
 30
0.0
 11
102.8870097937
 21
50.4678889583
 31
0.0
  0
LINE
  5
2CA
330
234
100
AcDbEntity
  8
0
  6
Continuous
 62
     7
100
AcDbLine
 10
96.1722751965
 20
44.3565521477
 30
0.0
 11
97.251297684
 21
45.4355746352
 31
0.0
  0
LINE
  5
2CB
330
234
100
AcDbEntity
  8
0
  6
Continuous
 62
     7
100
AcDbLine
 10
100.6134364125
 20
48.7977133637
 30
0.0
 11
102.1544402273
 21
50.33871717850001
 31
0.0
  0
LINE
  5
2CC
330
234
100
AcDbEntity
  8
0
  6
Continuous
 62
     7
100
AcDbLine
 10
96.0818281425
 20
44.8695028804
 30
0.0
 11
97.1608506301
 21
45.94852536789999
 31
0.0
  0
LINE
  5
2CD
330
234
100
AcDbEntity
  8
0
  6
Continuous
 62
     7
100
AcDbLine
 10
99.88086684610001
 20
48.6685415839
 30
0.0
 11
101.4218706609
 21
50.2095453987
 31
0.0
  0
LINE
  5
2CE
330
234
100
AcDbEntity
  8
0
  6
Continuous
 62
     7
100
AcDbLine
 10
95.99138108860001
 20
45.382453613
 30
0.0
 11
97.07040357610001
 21
46.46147610049999
 31
0.0
  0
LINE
  5
2CF
330
234
100
AcDbEntity
  8
0
  6
Continuous
 62
     7
100
AcDbLine
 10
99.14829727969999
 20
48.5393698041
 30
0.0
 11
100.6893010945
 21
50.0803736189
 31
0.0
  0
LINE
  5
2D0
330
234
100
AcDbEntity
  8
0
  6
Continuous
 62
     7
100
AcDbLine
 10
95.90093403469998
 20
45.89540434569999
 30
0.0
 11
96.97995652220001
 21
46.9744268332
 31
0.0
  0
LINE
  5
2D1
330
234
100
AcDbEntity
  8
0
  6
Continuous
 62
     7
100
AcDbLine
 10
98.4157277133
 20
48.4101980243
 30
0.0
 11
99.956731528
 21
49.9512018391
 31
0.0
  0
LINE
  5
2D2
330
234
100
AcDbEntity
  8
0
  6
Continuous
 62
     7
100
AcDbLine
 10
95.81048698069999
 20
46.4083550784
 30
0.0
 11
96.8895094682
 21
47.4873775659
 31
0.0
  0
LINE
  5
2D3
330
234
100
AcDbEntity
  8
0
  6
Continuous
 62
     7
100
AcDbLine
 10
97.68315814680001
 20
48.2810262445
 30
0.0
 11
99.2241619616
 21
49.8220300593
 31
0.0
  0
LINE
  5
2D4
330
234
100
AcDbEntity
  8
0
  6
Continuous
 62
     7
100
AcDbLine
 10
95.7200399268
 20
46.921305811
 30
0.0
 11
96.7990624143
 21
48.0003282985
 31
0.0
  0
LINE
  5
2D5
330
234
100
AcDbEntity
  8
0
  6
Continuous
 62
     7
100
AcDbLine
 10
96.95058858040001
 20
48.1518544647
 30
0.0
 11
98.4915923952
 21
49.6928582795
 31
0.0
  0
LINE
  5
2D6
330
234
100
AcDbEntity
  8
0
  6
Continuous
 62
     7
100
AcDbLine
 10
95.62959287279999
 20
47.4342565437
 30
0.0
 11
97.75902282879998
 21
49.5636864997
 31
0.0
  0
LINE
  5
2D7
330
234
100
AcDbEntity
  8
0
  6
Continuous
 62
     7
100
AcDbLine
 10
95.53914581889999
 20
47.9472072764
 30
0.0
 11
97.0264532624
 21
49.43451471979999
 31
0.0
  0
LINE
  5
2D8
330
234
100
AcDbEntity
  8
0
  6
Continuous
 62
     7
100
AcDbLine
 10
95.4486987649
 20
48.460158009
 30
0.0
 11
96.29388369590001
 21
49.30534294
 31
0.0
  0
LINE
  5
2D9
330
234
100
AcDbEntity
  8
0
  6
Continuous
 62
     7
100
AcDbLine
 10
95.358251711
 20
48.9731087417
 30
0.0
 11
95.5613141295
 21
49.1761711602
 31
0.0
  0
ENDBLK
  5
2DA
330
234
100
AcDbEntity
  8
0
  6
ByBlock
 62
     0
100
AcDbBlockEnd
  0
BLOCK
  5
2DB
330
235
100
AcDbEntity
  8
0
  6
Continuous
 62
     7
100
AcDbBlockBegin
  2
SYMBOL_6_BL2
 70
     0
 10
38.4012627395
 20
88.88790978040001
 30
0.0
  3
SYMBOL_6_BL2
  1

  0
TEXT
  5
2DC
330
235
100
AcDbEntity
  8
0
  6
Continuous
 62
     7
100
AcDbText
 10
37.9780559169
 20
88.1237333762
 30
0.0
 40
1.333333852099999
  1
L
 50
10.0
  7
TEXTSTYLE_2
100
AcDbText
  0
TEXT
  5
2DD
330
235
100
AcDbEntity
  8
0
  6
Continuous
 62
     7
100
AcDbText
 10
34.3472916657
 20
87.4961339631
 30
0.0
 40
1.333333852099999
  1
5
 50
10.0
  7
TEXTSTYLE_2
100
AcDbText
  0
TEXT
  5
2DE
330
235
100
AcDbEntity
  8
0
  6
Continuous
 62
     7
100
AcDbText
 10
41.6800720455
 20
88.78910098770001
 30
0.0
 40
1.333333852099999
  1
4
 50
10.0
  7
TEXTSTYLE_2
100
AcDbText
  0
ELLIPSE
  5
2DF
330
235
100
AcDbEntity
  8
0
  6
Continuous
 62
     7
100
AcDbEllipse
 10
38.38265817590001
 20
88.87202700879999
 30
0.0
 11
-1.913370740099999
 21
-0.3373788856
 31
0.0
210
0.0
220
0.0
230
1.0
 40
0.6606458385
 41
0.0
 42
6.283185307179586
  0
ENDBLK
  5
2E0
330
235
100
AcDbEntity
  8
0
  6
ByBlock
 62
     0
100
AcDbBlockEnd
  0
BLOCK
  5
2E1
330
236
100
AcDbEntity
  8
0
  6
Continuous
 62
     7
100
AcDbBlockBegin
  2
SYMBOL_3_BL1
 70
     0
 10
58.2160710414
 20
93.44058608719999
 30
0.0
  3
SYMBOL_3_BL1
  1

  0
TEXT
  5
2E2
330
236
100
AcDbEntity
  8
0
  6
Continuous
 62
     7
100
AcDbText
 10
57.5494041154
 20
92.7739191612
 30
0.0
 40
1.333333852099999
  1
C
  7
TEXTSTYLE_2
100
AcDbText
  0
ELLIPSE
  5
2E3
330
236
100
AcDbEntity
  8
0
  6
Continuous
 62
     7
100
AcDbEllipse
 10
58.2160710414
 20
93.44058608719999
 30
0.0
 11
-1.942887567899999
 21
0.0
 31
0.0
210
0.0
220
0.0
230
1.0
 40
0.6606458385
 41
0.0
 42
6.283185307179586
  0
ENDBLK
  5
2E4
330
236
100
AcDbEntity
  8
0
  6
ByBlock
 62
     0
100
AcDbBlockEnd
  0
BLOCK
  5
2E5
330
237
100
AcDbEntity
  8
0
  6
Continuous
 62
     7
100
AcDbBlockBegin
  2
SYMBOL_0_BL0
 70
     0
 10
160.6666666667
 20
55.33333333329999
 30
0.0
  3
SYMBOL_0_BL0
  1

  0
TEXT
  5
2E6
330
237
100
AcDbEntity
  8
0
  6
Continuous
 62
     7
100
AcDbText
 10
144.4188815905
 20
63.10676672439999
 30
0.0
 40
0.5
  1
Infomations Techniques/Technical Infomations
  7
TEXTSTYLE_2
100
AcDbText
  0
TEXT
  5
2E7
330
237
100
AcDbEntity
  8
0
  6
Continuous
 62
     7
100
AcDbText
 10
144.6666666667
 20
61.6666666667
 30
0.0
 40
0.6666666667
  1
NOMBRE DE JETS:     
  7
TEXTSTYLE_2
100
AcDbText
  0
TEXT
  5
2E8
330
237
100
AcDbEntity
  8
0
  6
Continuous
 62
     7
100
AcDbText
 10
154.5111111111
 20
61.6666666667
 30
0.0
 40
0.6666666667
  1
38
  7
TEXTSTYLE_2
100
AcDbText
  0
TEXT
  5
2E9
330
237
100
AcDbEntity
  8
0
  6
Continuous
 62
     7
100
AcDbText
 10
144.6666666667
 20
60.6666666667
 30
0.0
 40
0.6666666667
  1
 
  7
TEXTSTYLE_2
100
AcDbText
  0
TEXT
  5
2EA
330
237
100
AcDbEntity
  8
0
  6
Continuous
 62
     7
100
AcDbText
 10
144.6666666667
 20
59.66666666670001
 30
0.0
 40
0.6666666667
  1
NIVEAU D'EAU              GALLONS(US)        LITRES        GALLONS(UK)
  7
TEXTSTYLE_2
100
AcDbText
  0
TEXT
  5
2EB
330
237
100
AcDbEntity
  8
0
  6
Continuous
 62
     7
100
AcDbText
 10
144.6666666667
 20
58.6666666667
 30
0.0
 40
0.6666666667
  1
PLEIN
  7
TEXTSTYLE_2
100
AcDbText
  0
TEXT
  5
2EC
330
237
100
AcDbEntity
  8
0
  6
Continuous
 62
     7
100
AcDbText
 10
144.6666666667
 20
57.6666666667
 30
0.0
 40
0.6666666667
  1
HAUT T.PLEIN
  7
TEXTSTYLE_2
100
AcDbText
  0
TEXT
  5
2ED
330
237
100
AcDbEntity
  8
0
  6
Continuous
 62
     7
100
AcDbText
 10
144.6666666667
 20
56.6666666667
 30
0.0
 40
0.6666666667
  1
MILIEU T.PLEIN
  7
TEXTSTYLE_2
100
AcDbText
  0
TEXT
  5
2EE
330
237
100
AcDbEntity
  8
0
  6
Continuous
 62
     7
100
AcDbText
 10
144.6666666667
 20
55.6666666667
 30
0.0
 40
0.6666666667
  1
BAS T.PLEIN
  7
TEXTSTYLE_2
100
AcDbText
  0
TEXT
  5
2EF
330
237
100
AcDbEntity
  8
0
  6
Continuous
 62
     7
100
AcDbText
 10
144.6666666667
 20
54.66666666670001
 30
0.0
 40
0.6666666667
  1
3" EN BAS T.PLEIN
  7
TEXTSTYLE_2
100
AcDbText
  0
TEXT
  5
2F0
330
237
100
AcDbEntity
  8
0
  6
Continuous
 62
     7
100
AcDbText
 10
144.6666666667
 20
53.6666666667
 30
0.0
 40
0.6666666667
  1
 
  7
TEXTSTYLE_2
100
AcDbText
  0
TEXT
  5
2F1
330
237
100
AcDbEntity
  8
0
  6
Continuous
 62
     7
100
AcDbText
 10
144.4665051611
 20
53.1198797418
 30
0.0
 40
0.5
  1
Legende/Legend
  7
TEXTSTYLE_2
100
AcDbText
  0
TEXT
  5
2F2
330
237
100
AcDbEntity
  8
0
  6
Continuous
 62
     7
100
AcDbText
 10
150.9953401051
 20
51.6086147641
 30
0.0
 40
0.6666666667
  1
ZONE DE ROBINETTERIE
  7
TEXTSTYLE_2
100
AcDbText
  0
TEXT
  5
2F3
330
237
100
AcDbEntity
  8
0
  6
Continuous
 62
     7
100
AcDbText
 10
145.9156155382
 20
50.1133702497
 30
0.0
 40
0.6666666667
  1
L   :  SYSTEME LED       DC   :  DOUBLE DOSSIER CHAUFFANT
  7
TEXTSTYLE_2
100
AcDbText
  0
TEXT
  5
2F4
330
237
100
AcDbEntity
  8
0
  6
Continuous
 62
     7
100
AcDbText
 10
145.9156155382
 20
48.7800369164
 30
0.0
 40
0.6666666667
  1
C   :  CONTROLE
  7
TEXTSTYLE_2
100
AcDbText
  0
TEXT
  5
2F5
330
237
100
AcDbEntity
  8
0
  6
Continuous
 62
     7
100
AcDbText
 10
145.9156155382
 20
47.4467035831
 30
0.0
 40
0.6666666667
  1
T   :  MOTEUR
  7
TEXTSTYLE_2
100
AcDbText
  0
TEXT
  5
2F6
330
237
100
AcDbEntity
  8
0
  6
Continuous
 62
     7
100
AcDbText
 10
157.499363366
 20
58.6666666667
 30
0.0
 40
0.6666666667
  1
82
  7
TEXTSTYLE_2
100
AcDbText
  0
TEXT
  5
2F7
330
237
100
AcDbEntity
  8
0
  6
Continuous
 62
     7
100
AcDbText
 10
157.499363366
 20
57.6666666667
 30
0.0
 40
0.6666666667
  1
69
  7
TEXTSTYLE_2
100
AcDbText
  0
TEXT
  5
2F8
330
237
100
AcDbEntity
  8
0
  6
Continuous
 62
     7
100
AcDbText
 10
157.499363366
 20
56.6666666667
 30
0.0
 40
0.6666666667
  1
63
  7
TEXTSTYLE_2
100
AcDbText
  0
TEXT
  5
2F9
330
237
100
AcDbEntity
  8
0
  6
Continuous
 62
     7
100
AcDbText
 10
157.499363366
 20
55.6666666667
 30
0.0
 40
0.6666666667
  1
57
  7
TEXTSTYLE_2
100
AcDbText
  0
TEXT
  5
2FA
330
237
100
AcDbEntity
  8
0
  6
Continuous
 62
     7
100
AcDbText
 10
157.499363366
 20
54.66666666670001
 30
0.0
 40
0.6666666667
  1
48
  7
TEXTSTYLE_2
100
AcDbText
  0
TEXT
  5
2FB
330
237
100
AcDbEntity
  8
0
  6
Continuous
 62
     7
100
AcDbText
 10
164.4195693097
 20
58.68374606879999
 30
0.0
 40
0.6666666667
  1
309
  7
TEXTSTYLE_2
100
AcDbText
  0
TEXT
  5
2FC
330
237
100
AcDbEntity
  8
0
  6
Continuous
 62
     7
100
AcDbText
 10
164.4195693097
 20
57.6837460688
 30
0.0
 40
0.6666666667
  1
262
  7
TEXTSTYLE_2
100
AcDbText
  0
TEXT
  5
2FD
330
237
100
AcDbEntity
  8
0
  6
Continuous
 62
     7
100
AcDbText
 10
164.4195693097
 20
56.6837460688
 30
0.0
 40
0.6666666667
  1
238
  7
TEXTSTYLE_2
100
AcDbText
  0
TEXT
  5
2FE
330
237
100
AcDbEntity
  8
0
  6
Continuous
 62
     7
100
AcDbText
 10
164.4195693097
 20
55.68374606879999
 30
0.0
 40
0.6666666667
  1
216
  7
TEXTSTYLE_2
100
AcDbText
  0
TEXT
  5
2FF
330
237
100
AcDbEntity
  8
0
  6
Continuous
 62
     7
100
AcDbText
 10
164.4195693097
 20
54.6837460688
 30
0.0
 40
0.6666666667
  1
183
  7
TEXTSTYLE_2
100
AcDbText
  0
TEXT
  5
300
330
237
100
AcDbEntity
  8
0
  6
Continuous
 62
     7
100
AcDbText
 10
171.3642082472
 20
58.6666666667
 30
0.0
 40
0.6666666667
  1
68
  7
TEXTSTYLE_2
100
AcDbText
  0
TEXT
  5
301
330
237
100
AcDbEntity
  8
0
  6
Continuous
 62
     7
100
AcDbText
 10
171.3642082472
 20
57.6666666667
 30
0.0
 40
0.6666666667
  1
58
  7
TEXTSTYLE_2
100
AcDbText
  0
TEXT
  5
302
330
237
100
AcDbEntity
  8
0
  6
Continuous
 62
     7
100
AcDbText
 10
171.3642082472
 20
56.6666666667
 30
0.0
 40
0.6666666667
  1
52
  7
TEXTSTYLE_2
100
AcDbText
  0
TEXT
  5
303
330
237
100
AcDbEntity
  8
0
  6
Continuous
 62
     7
100
AcDbText
 10
171.3642082472
 20
55.6666666667
 30
0.0
 40
0.6666666667
  1
48
  7
TEXTSTYLE_2
100
AcDbText
  0
TEXT
  5
304
330
237
100
AcDbEntity
  8
0
  6
Continuous
 62
     7
100
AcDbText
 10
171.3642082472
 20
54.66666666670001
 30
0.0
 40
0.6666666667
  1
40
  7
TEXTSTYLE_2
100
AcDbText
  0
LINE
  5
305
330
237
100
AcDbEntity
  8
0
  6
Continuous
 62
     7
100
AcDbLine
 10
144.0
 20
64.0
 30
0.0
 11
144.0
 21
46.6666666667
 31
0.0
  0
LINE
  5
306
330
237
100
AcDbEntity
  8
0
  6
Continuous
 62
     7
100
AcDbLine
 10
144.0
 20
64.0
 30
0.0
 11
177.3333333333
 21
64.0
 31
0.0
  0
LINE
  5
307
330
237
100
AcDbEntity
  8
0
  6
Continuous
 62
     7
100
AcDbLine
 10
177.3333333333
 20
64.0
 30
0.0
 11
177.3333333333
 21
46.6666666667
 31
0.0
  0
LINE
  5
308
330
237
100
AcDbEntity
  8
0
  6
Continuous
 62
     7
100
AcDbLine
 10
144.0
 20
46.6666666667
 30
0.0
 11
177.3333333333
 21
46.6666666667
 31
0.0
  0
LINE
  5
309
330
237
100
AcDbEntity
  8
0
  6
Continuous
 62
     7
100
AcDbLine
 10
145.3333333333
 20
54.0
 30
0.0
 11
176.0
 21
54.0
 31
0.0
  0
LINE
  5
30A
330
237
100
AcDbEntity
  8
0
  6
Continuous
 62
     7
100
AcDbLine
 10
145.3333333333
 20
61.0
 30
0.0
 11
176.0
 21
61.0
 31
0.0
  0
LINE
  5
30B
330
237
100
AcDbEntity
  8
0
  6
Continuous
 62
     7
100
AcDbLine
 10
144.8089065593
 20
52.3781645044
 30
0.0
 11
144.4398858169
 21
52.009143762
 31
0.0
  0
LINE
  5
30C
330
237
100
AcDbEntity
  8
0
  6
Continuous
 62
     7
100
AcDbLine
 10
145.4755732259
 20
52.3781645044
 30
0.0
 11
144.6775574355
 21
51.5801487139
 31
0.0
  0
LINE
  5
30D
330
237
100
AcDbEntity
  8
0
  6
Continuous
 62
     7
100
AcDbLine
 10
146.1422398926
 20
52.3781645044
 30
0.0
 11
145.3442241022
 21
51.5801487139
 31
0.0
  0
LINE
  5
30E
330
237
100
AcDbEntity
  8
0
  6
Continuous
 62
     7
100
AcDbLine
 10
146.8089065593
 20
52.3781645044
 30
0.0
 11
146.0108907688
 21
51.5801487139
 31
0.0
  0
LINE
  5
30F
330
237
100
AcDbEntity
  8
0
  6
Continuous
 62
     7
100
AcDbLine
 10
147.4755732259
 20
52.3781645044
 30
0.0
 11
146.6775574355
 21
51.5801487139
 31
0.0
  0
LINE
  5
310
330
237
100
AcDbEntity
  8
0
  6
Continuous
 62
     7
100
AcDbLine
 10
148.1422398926
 20
52.3781645044
 30
0.0
 11
147.3442241022
 21
51.5801487139
 31
0.0
  0
LINE
  5
311
330
237
100
AcDbEntity
  8
0
  6
Continuous
 62
     7
100
AcDbLine
 10
148.8089065593
 20
52.3781645044
 30
0.0
 11
148.0108907688
 21
51.5801487139
 31
0.0
  0
LINE
  5
312
330
237
100
AcDbEntity
  8
0
  6
Continuous
 62
     7
100
AcDbLine
 10
149.4755732259
 20
52.3781645044
 30
0.0
 11
148.6775574355
 21
51.5801487139
 31
0.0
  0
LINE
  5
313
330
237
100
AcDbEntity
  8
0
  6
Continuous
 62
     7
100
AcDbLine
 10
150.1422398926
 20
52.3781645044
 30
0.0
 11
149.3442241022
 21
51.5801487139
 31
0.0
  0
LINE
  5
314
330
237
100
AcDbEntity
  8
0
  6
Continuous
 62
     7
100
AcDbLine
 10
150.5857273268
 20
52.1549852718
 30
0.0
 11
150.0108907688
 21
51.5801487139
 31
0.0
  0
ELLIPSE
  5
315
330
237
100
AcDbEntity
  8
0
  6
Continuous
 62
     7
100
AcDbEllipse
 10
146.1454024822
 20
50.43094770689999
 30
0.0
 11
1.0473539356
 21
0.0
 31
0.0
210
0.0
220
0.0
230
1.0
 40
0.4938647983
 41
0.0
 42
6.283185307179586
  0
ELLIPSE
  5
316
330
237
100
AcDbEntity
  8
0
  6
Continuous
 62
     7
100
AcDbEllipse
 10
146.1454024822
 20
49.0976143736
 30
0.0
 11
1.0473539356
 21
0.0
 31
0.0
210
0.0
220
0.0
230
1.0
 40
0.4938647983
 41
0.0
 42
6.283185307179586
  0
ELLIPSE
  5
317
330
237
100
AcDbEntity
  8
0
  6
Continuous
 62
     7
100
AcDbEllipse
 10
146.1454024822
 20
47.76428104029999
 30
0.0
 11
1.0473539356
 21
0.0
 31
0.0
210
0.0
220
0.0
230
1.0
 40
0.4938647983
 41
0.0
 42
6.283185307179586
  0
ELLIPSE
  5
318
330
237
100
AcDbEntity
  8
0
  6
Continuous
 62
     7
100
AcDbEllipse
 10
157.1640380633
 20
50.45046906399999
 30
0.0
 11
1.0473539356
 21
0.0
 31
0.0
210
0.0
220
0.0
230
1.0
 40
0.4938647983
 41
0.0
 42
6.283185307179586
  0
ENDBLK
  5
319
330
237
100
AcDbEntity
  8
0
  6
ByBlock
 62
     0
100
AcDbBlockEnd
  0
ENDSEC
  0
SECTION
  2
ENTITIES
  0
LINE
  5
14EA
330
218
100
AcDbEntity
  8
0
  6
Continuous
 62
     7
100
AcDbLine
 10
17.031825218
 20
37.4023218079
 30
0.0
 11
16.9963859455
 21
36.9972490703
 31
0.0
  0
LWPOLYLINE
  5
14EB
330
218
100
AcDbEntity
  8
0
  6
Continuous
 62
     7
100
AcDbPolyline
 90
       31
 70
     0
 43
0.0
 10
29.2866867897
 20
20.9589930723
 10
29.3289802263
 20
20.8724744589
 10
29.3744187693
 20
20.7875654241
 10
29.4229412621
 20
20.7043802491
 10
29.4744823969
 20
20.6230308946
 10
29.5289728034
 20
20.5436268508
 10
29.5863391416
 20
20.4662749893
 10
29.6465042009
 20
20.39107942
 10
29.7093870036
 20
20.3181413503
 10
29.7749029144
 20
20.2475589492
 10
29.8429637537
 20
20.1794272152
 10
29.913477917
 20
20.1138378486
 10
29.9863504975
 20
20.0508791275
 10
30.0614834143
 20
19.9906357896
 10
30.1387755443
 20
19.9331889178
 10
30.2181228581
 20
19.8786158312
 10
30.2994185604
 20
19.826989981
 10
30.3825532333
 20
19.7783808517
 10
30.4674149839
 20
19.7328538675
 10
30.5538895947
 20
19.6904703041
 10
30.64186067760001
 20
19.6512872066
 10
30.7312098303
 20
19.6153573125
 10
30.8218167955
 20
19.5827289807
 10
30.9135596232
 20
19.5534461264
 10
31.0063148346
 20
19.5275481621
 10
31.0999575882
 20
19.5050699444
 10
31.1943618481
 20
19.4860417274
 10
31.2894005534
 20
19.4704891216
 10
31.3849457892
 20
19.4584330595
 10
31.4808689589
 20
19.4498897677
 10
31.5770409572
 20
19.4448707449
  0
LWPOLYLINE
  5
14EC
330
218
100
AcDbEntity
  8
0
  6
Continuous
 62
     7
100
AcDbPolyline
 90
       70
 70
     0
 43
0.0
 10
29.2866867868
 20
20.9589930789
 10
29.3074033493
 20
20.9156080256
 10
29.3351298231
 20
20.8605335007
 10
29.3638678282
 20
20.8066258385
 10
29.3935661
 20
20.7538964356
 10
29.4241740233
 20
20.7023545331
 10
29.4556415251
 20
20.6520075963
 10
29.4879191236
 20
20.60286137
 10
29.520957972
 20
20.5549199351
 10
29.5547099024
 20
20.5081857631
 10
29.5891274624
 20
20.462659776
 10
29.6241639511
 20
20.4183414031
 10
29.659773465
 20
20.3752286212
 10
29.6959109223
 20
20.3333180229
 10
29.7325320643
 20
20.2926049011
 10
29.7695935206
 20
20.2530832589
 10
29.8070527629
 20
20.2147459385
 10
29.8448681837
 20
20.17758461
 10
29.8829991132
 20
20.1415898292
 10
29.921405823
 20
20.1067511041
 10
29.9600495475
 20
20.0730569412
 10
29.9988924903
 20
20.0404949034
 10
30.0378978291
 20
20.0090516649
 10
30.0770297321
 20
19.9787130548
 10
30.1162533387
 20
19.9494641268
 10
30.1555350428
 20
19.9212890085
 10
30.1948412025
 20
19.8941718595
 10
30.2341419825
 20
19.8680942826
 10
30.2733981675
 20
19.8430439787
 10
30.3125753398
 20
19.8190049933
 10
30.3516337221
 20
19.7959641436
 10
30.3905357112
 20
19.773906188
 10
30.4292443307
 20
19.7528148959
 10
30.46772309710001
 20
19.7326731747
 10
30.5059372208
 20
19.7134625207
 10
30.5438494363
 20
19.6951651503
 10
30.5814353428
 20
19.6777567905
 10
30.6186665112
 20
19.6612152277
 10
30.6555236134
 20
19.6455144058
 10
30.6919862652
 20
19.6306292468
 10
30.7280355389
 20
19.6165345259
 10
30.7636534592
 20
19.6032051171
 10
30.7988228401
 20
19.5906160682
 10
30.8335292404
 20
19.5787419531
 10
30.8677521818
 20
19.5675598323
 10
30.9014822199
 20
19.5570435542
 10
30.9346768895
 20
19.5471773008
 10
30.9673053682
 20
19.537940888
 10
30.9993266788
 20
19.5293163494
 10
31.0306989998
 20
19.5212849752
 10
31.0613973207
 20
19.5138231513
 10
31.0913870246
 20
19.506909402
 10
31.120659317
 20
19.5005163057
 10
31.1491989669
 20
19.49461852369999
 10
31.1769957551
 20
19.4891902307
 10
31.2040430677
 20
19.4842056281
 10
31.2303200157
 20
19.4796421211
 10
31.2558219347
 20
19.4754747383
 10
31.2804984876
 20
19.471686146
 10
31.3043157392
 20
19.4682558372
 10
31.32722434090001
 20
19.4651651591
 10
31.3492106328
 20
19.4623905143
 10
31.3701386495
 20
19.4599229524
 10
31.3898992895
 20
19.45774767
 10
31.4084013538
 20
19.4558464511
 10
31.4255036001
 20
19.4542050682
 10
31.4412482952
 20
19.4527919867
 10
31.4555544173
 20
19.4515890376
 10
31.4686523451
 20
19.450554904
 10
31.4918406798
 20
19.4488801845
  0
LINE
  5
14ED
330
218
100
AcDbEntity
  8
0
  6
Continuous
 62
     7
100
AcDbLine
 10
28.6426574715
 20
22.3401184056
 30
0.0
 11
28.6672984247
 21
22.2878442393
 31
0.0
  0
LINE
  5
14EE
330
218
100
AcDbEntity
  8
0
  6
Continuous
 62
     7
100
AcDbLine
 10
29.2866867885
 20
20.9589930718
 30
0.0
 11
28.7086913934
 21
22.1985081965
 31
0.0
  0
LINE
  5
14EF
330
218
100
AcDbEntity
  8
0
  6
Continuous
 62
     7
100
AcDbLine
 10
28.642657648
 20
22.3401180206
 30
0.0
 11
21.8079251929
 21
36.9972490703
 31
0.0
  0
LINE
  5
14F0
330
218
100
AcDbEntity
  8
0
  6
Continuous
 62
     7
100
AcDbLine
 10
28.6672984247
 20
22.2878442393
 30
0.0
 11
28.689797622
 21
22.2395277017
 31
0.0
  0
LINE
  5
14F1
330
218
100
AcDbEntity
  8
0
  6
Continuous
 62
     7
100
AcDbLine
 10
28.689797622
 20
22.2395277017
 30
0.0
 11
28.7086915749
 21
22.1985078139
 31
0.0
  0
LINE
  5
14F4
330
218
100
AcDbEntity
  8
0
  6
Continuous
 62
     7
100
AcDbLine
 10
33.5844937855
 20
18.4696695265
 30
0.0
 11
33.6068662595
 21
18.4516161677
 31
0.0
  0
LINE
  5
14F5
330
218
100
AcDbEntity
  8
0
  6
Continuous
 62
     7
100
AcDbLine
 10
33.5741612867
 20
18.4756867051
 30
0.0
 11
33.5939892968
 21
18.4596308534
 31
0.0
  0
LINE
  5
14F6
330
218
100
AcDbEntity
  8
0
  6
Continuous
 62
     7
100
AcDbLine
 10
33.5589513477
 20
18.4904842673
 30
0.0
 11
33.5844937855
 21
18.4696695265
 31
0.0
  0
LINE
  5
14F7
330
218
100
AcDbEntity
  8
0
  6
Continuous
 62
     7
100
AcDbLine
 10
33.5411318897
 20
18.5026915739
 30
0.0
 11
33.5741612867
 21
18.4756867051
 31
0.0
  0
LINE
  5
14F8
330
218
100
AcDbEntity
  8
0
  6
Continuous
 62
     7
100
AcDbLine
 10
33.5219951779
 20
18.5208841579
 30
0.0
 11
33.5589513477
 21
18.4904842673
 31
0.0
  0
LINE
  5
14F9
330
218
100
AcDbEntity
  8
0
  6
Continuous
 62
     7
100
AcDbLine
 10
33.49658895010001
 20
18.5394853267
 30
0.0
 11
33.5411318897
 21
18.5026915739
 31
0.0
  0
LINE
  5
14FA
330
218
100
AcDbEntity
  8
0
  6
Continuous
 62
     7
100
AcDbLine
 10
33.4729861969
 20
18.5615818174
 30
0.0
 11
33.5219951779
 21
18.5208841579
 31
0.0
  0
LINE
  5
14FB
330
218
100
AcDbEntity
  8
0
  6
Continuous
 62
     7
100
AcDbLine
 10
33.4368334089
 20
18.5893271696
 30
0.0
 11
33.49658895010001
 21
18.5394853267
 31
0.0
  0
LINE
  5
14FC
330
218
100
AcDbEntity
  8
0
  6
Continuous
 62
     7
100
AcDbLine
 10
33.4010779949
 20
18.6218614951
 30
0.0
 11
33.4729861969
 21
18.5615818174
 31
0.0
  0
LINE
  5
14FD
330
218
100
AcDbEntity
  8
0
  6
Continuous
 62
     7
100
AcDbLine
 10
33.3539845212
 20
18.6590801043
 30
0.0
 11
33.4368334089
 21
18.5893271696
 31
0.0
  0
LINE
  5
14FE
330
218
100
AcDbEntity
  8
0
  6
Continuous
 62
     7
100
AcDbLine
 10
33.3111590594
 20
18.6979209858
 30
0.0
 11
33.4010779949
 21
18.6218614951
 31
0.0
  0
LINE
  5
14FF
330
218
100
AcDbEntity
  8
0
  6
Continuous
 62
     7
100
AcDbLine
 10
33.2811441342
 20
18.7208708688
 30
0.0
 11
33.3539845212
 21
18.6590801043
 31
0.0
  0
LINE
  5
1500
330
218
100
AcDbEntity
  8
0
  6
Continuous
 62
     7
100
AcDbLine
 10
33.2705639347
 20
18.7324536762
 30
0.0
 11
33.3111590594
 21
18.6979209858
 31
0.0
  0
LINE
  5
1506
330
218
100
AcDbEntity
  8
0
  6
Continuous
 62
     7
100
AcDbLine
 10
33.9961727865
 20
19.2495663487
 30
0.0
 11
33.9971181494
 21
19.2808004893
 31
0.0
  0
LINE
  5
1507
330
218
100
AcDbEntity
  8
0
  6
Continuous
 62
     7
100
AcDbLine
 10
32.74257775800001
 20
19.3120499736
 30
0.0
 11
32.7415418458
 21
19.2808171483
 31
0.0
  0
LINE
  5
1509
330
218
100
AcDbEntity
  8
0
  6
Continuous
 62
     7
100
AcDbLine
 10
31.577318031
 20
19.444733404
 30
0.0
 11
31.5769998909
 21
19.4449190749
 31
0.0
  0
LWPOLYLINE
  5
150B
330
218
100
AcDbEntity
  8
0
  6
Continuous
 62
     7
100
AcDbPolyline
 90
       41
 70
     0
 43
0.0
 10
37.851161876
 20
17.9049077253
 10
37.8548241415
 20
17.9015056017
 10
37.859502009
 20
17.8973270985
 10
37.8646134569
 20
17.8929314833
 10
37.8702228908
 20
17.8882699543
 10
37.87634744
 20
17.8833359376
 10
37.8830235892
 20
17.8781080127
 10
37.8902257827
 20
17.8726128687
 10
37.8979303738
 20
17.8668732853
 10
37.9060929095
 20
17.8609249711
 10
37.9146579809
 20
17.8548091854
 10
37.9235605875
 20
17.8485713099
 10
37.9327071237
 20
17.8422741067
 10
37.94207080880001
 20
17.8359323308
 10
37.95159169380001
 20
17.8295829007
 10
37.9612641619
 20
17.8232261878
 10
37.9710706371
 20
17.8168711385
 10
37.9809953552
 20
17.8105260395
 10
37.9910247391
 20
17.8041980443
 10
38.0011408489
 20
17.7978975135
 10
38.0113288671
 20
17.7916332094
 10
38.0215687483
 20
17.7854176221
 10
38.03184168260001
 20
17.7792626854
 10
38.0421279964
 20
17.7731813464
 10
38.0524145399
 20
17.7671830302
 10
38.06266059409999
 20
17.7612936317
 10
38.07284327780001
 20
17.7555284727
 10
38.0828925413
 20
17.7499294014
 10
38.0927535354
 20
17.7445277511
 10
38.1023712632
 20
17.7393539556
 10
38.111693496
 20
17.7344354454
 10
38.1206852157
 20
17.7297896094
 10
38.1293090861
 20
17.7254338729
 10
38.1375528946
 20
17.7213722957
 10
38.1454028895
 20
17.7176093393
 10
38.1528586495
 20
17.7141428487
 10
38.1599193161
 20
17.7109710175
 10
38.166605716
 20
17.7080827078
 10
38.1729405142
 20
17.7054674691
 10
38.1789482204
 20
17.7031156433
 10
38.1850725247
 20
17.7008711769
  0
LINE
  5
150C
330
218
100
AcDbEntity
  8
0
  6
Continuous
 62
     7
100
AcDbLine
 10
37.84594504360001
 20
17.9098878535
 30
0.0
 11
37.8511622403
 21
17.9049073747
 31
0.0
  0
LWPOLYLINE
  5
150E
330
218
100
AcDbEntity
  8
0
  6
Continuous
 62
     7
100
AcDbPolyline
 90
        8
 70
     0
 43
0.0
 10
37.7587601354
 20
18.0063312469
 10
37.77071552960001
 20
17.9914168378
 10
37.7828585602
 20
17.9768818703
 10
37.7951763458
 20
17.962726282
 10
37.8076564277
 20
17.9489497051
 10
37.8202862922
 20
17.9355519886
 10
37.8330530694
 20
17.9225326672
 10
37.8459448879
 20
17.9098880021
  0
LWPOLYLINE
  5
150F
330
218
100
AcDbEntity
  8
0
  6
Continuous
 62
     7
100
AcDbPolyline
 90
       25
 70
     0
 43
0.0
 10
37.2242810614
 20
18.9843137118
 10
37.2134947961
 20
19.0036994453
 10
37.2018608666
 20
19.0225882363
 10
37.1894021759
 20
19.0409428996
 10
37.176143251
 20
19.0587273012
 10
37.162110194
 20
19.07590643029999
 10
37.147330631
 20
19.0924464672
 10
37.1318336579
 20
19.1083148505
 10
37.1156497827
 20
19.1234803412
 10
37.0988108659
 20
19.1379130837
 10
37.0813500573
 20
19.1515846653
 10
37.0633017312
 20
19.1644681715
 10
37.0447014183
 20
19.1765382392
 10
37.025585736
 20
19.187771107
 10
37.0059923166
 20
19.1981446612
 10
36.9859597324
 20
19.2076384802
 10
36.96552742050001
 20
19.216233874
 10
36.9447356051
 20
19.2239139213
 10
36.9236252178
 20
19.230663503
 10
36.9022378176
 20
19.2364693316
 10
36.8806155086
 20
19.2413199775
 10
36.8588008575
 20
19.2452058915
 10
36.8368368098
 20
19.2481194236
 10
36.8147666048
 20
19.2500548383
 10
36.792633691
 20
19.2510083254
  0
LINE
  5
1510
330
218
100
AcDbEntity
  8
0
  6
Continuous
 62
     7
100
AcDbLine
 10
37.21748385090001
 20
18.9914506979
 30
0.0
 11
37.2208610172
 21
18.9852803748
 31
0.0
  0
LWPOLYLINE
  5
1511
330
218
100
AcDbEntity
  8
0
  6
Continuous
 62
     7
100
AcDbPolyline
 90
       11
 70
     0
 43
0.0
 10
37.6648132894
 20
18.1555631736
 10
37.6785794946
 20
18.1303094712
 10
37.6931525348
 20
18.10544950829999
 10
37.7085265206
 20
18.0809982848
 10
37.7246701411
 20
18.0570098639
 10
37.7415518301
 20
18.0335314407
 10
37.7591514377
 20
18.01059002369999
 10
37.7774384753
 20
17.9882237491
 10
37.7964056236
 20
17.966441051
 10
37.8160431706
 20
17.9452558024
 10
37.8363306236
 20
17.9246913779
  0
LWPOLYLINE
  5
1512
330
218
100
AcDbEntity
  8
0
  6
Continuous
 62
     7
100
AcDbPolyline
 90
        5
 70
     0
 43
0.0
 10
37.2208610872
 20
18.9852802741
 10
37.36323001840001
 20
18.7200437596
 10
37.446238407
 20
18.5646212069
 10
37.5252360175
 20
18.4160707282
 10
37.6002199928
 20
18.274428406
  0
LINE
  5
1513
330
218
100
AcDbEntity
  8
0
  6
Continuous
 62
     7
100
AcDbLine
 10
37.3487744115
 20
18.7519053274
 30
0.0
 11
37.2242795521
 21
18.984313974
 31
0.0
  0
LWPOLYLINE
  5
1514
330
218
100
AcDbEntity
  8
0
  6
Continuous
 62
     7
100
AcDbPolyline
 90
       10
 70
     0
 43
0.0
 10
37.6667615208
 20
18.1481704541
 10
37.6715062907
 20
18.1392805351
 10
37.6814634642
 20
18.1213413826
 10
37.6917216764
 20
18.1037781886
 10
37.7022658052
 20
18.0865914644
 10
37.7130808147
 20
18.0697820817
 10
37.7241519314
 20
18.0533508901
 10
37.7354648519
 20
18.0372983869
 10
37.7470055019
 20
18.0216250651
 10
37.7587602502
 20
18.0063311007
  0
LINE
  5
1515
330
218
100
AcDbEntity
  8
0
  6
Continuous
 62
     7
100
AcDbLine
 10
37.4647102659
 20
18.5343420177
 30
0.0
 11
37.3487744115
 21
18.7519053274
 31
0.0
  0
LINE
  5
1516
330
218
100
AcDbEntity
  8
0
  6
Continuous
 62
     7
100
AcDbLine
 10
37.5705199237
 20
18.3346158701
 30
0.0
 11
37.4647102659
 21
18.5343420177
 31
0.0
  0
LINE
  5
1517
330
218
100
AcDbEntity
  8
0
  6
Continuous
 62
     7
100
AcDbLine
 10
37.6002199928
 20
18.274428406
 30
0.0
 11
37.6667553705
 21
18.1481821398
 31
0.0
  0
LINE
  5
1518
330
218
100
AcDbEntity
  8
0
  6
Continuous
 62
     7
100
AcDbLine
 10
37.6648132894
 20
18.1555631736
 30
0.0
 11
37.5705199237
 21
18.3346158701
 31
0.0
  0
LWPOLYLINE
  5
1519
330
218
100
AcDbEntity
  8
0
  6
Continuous
 62
     7
100
AcDbPolyline
 90
        5
 70
     0
 43
0.0
 10
37.6667553705
 20
18.1481821398
 10
37.6664075698
 20
18.1488760956
 10
37.6655215437
 20
18.1511074875
 10
37.6649902733
 20
18.1533368248
 10
37.6648132894
 20
18.1555631736
  0
LINE
  5
151D
330
218
100
AcDbEntity
  8
0
  6
Continuous
 62
     7
100
AcDbLine
 10
36.7101954616
 20
19.2518255897
 30
0.0
 11
36.7108095145
 21
19.2830592542
 31
0.0
  0
LINE
  5
151E
330
218
100
AcDbEntity
  8
0
  6
Continuous
 62
     7
100
AcDbLine
 10
36.7082377772
 20
19.28070779
 30
0.0
 11
36.7076175873
 21
19.2494712376
 31
0.0
  0
LWPOLYLINE
  5
151F
330
218
100
AcDbEntity
  8
0
  6
Continuous
 62
     7
100
AcDbPolyline
 90
        5
 70
     0
 43
0.0
 10
67.25124852029999
 20
19.2808190302
 10
67.2503786263
 20
19.2806216358
 10
67.2478462169
 20
19.2803811227
 10
67.2436586684
 20
19.2800927836
 10
67.23781559009999
 20
19.2797564214
  0
LWPOLYLINE
  5
1520
330
218
100
AcDbEntity
  8
0
  6
Continuous
 62
     7
100
AcDbPolyline
 90
       30
 70
     0
 43
0.0
 10
38.1912857325
 20
17.6987062945
 10
38.2038308088
 20
17.6944826314
 10
38.2162582705
 20
17.6904907621
 10
38.2285652858
 20
17.6867235936
 10
38.2407470481
 20
17.6831746722
 10
38.2527998961
 20
17.6798372531
 10
38.2647157795
 20
17.676705824
 10
38.2764873979
 20
17.673774552
 10
38.2881083668
 20
17.6710373028
 10
38.2995719469
 20
17.6684879912
 10
38.3108733676
 20
17.6661201011
 10
38.3220102143
 20
17.6639267327
 10
38.332971023
 20
17.6619027826
 10
38.34374849159999
 20
17.660042201
 10
38.3543341004
 20
17.6583390913
 10
38.3647217402
 20
17.6567871352
 10
38.3749074671
 20
17.6553797775
 10
38.3848943611
 20
17.6541096972
 10
38.3946730587
 20
17.6529709208
 10
38.4042431154
 20
17.6519562986
 10
38.413608204
 20
17.6510586444
 10
38.4227778905
 20
17.6502708151
 10
38.4317574793
 20
17.6495867298
 10
38.4405610724
 20
17.6490003594
 10
38.4491967942
 20
17.6485069171
 10
38.4576834375
 20
17.6481014621
 10
38.46604191
 20
17.6477792171
 10
38.47430738
 20
17.6475361178
 10
38.4824848569
 20
17.6473702928
 10
38.4905777469
 20
17.6472805256
  0
LINE
  5
1521
330
218
100
AcDbEntity
  8
0
  6
Continuous
 62
     7
100
AcDbLine
 10
38.1850569933
 20
17.7008766484
 30
0.0
 11
38.1912857325
 21
17.6987062945
 31
0.0
  0
LWPOLYLINE
  5
1522
330
218
100
AcDbEntity
  8
0
  6
Continuous
 62
     7
100
AcDbPolyline
 90
        3
 70
     0
 43
0.0
 10
37.2208611139
 20
18.9852802245
 10
37.2218841088
 20
18.9848089984
 10
37.2242826112
 20
18.984308276
  0
LWPOLYLINE
  5
1523
330
218
100
AcDbEntity
  8
0
  6
Continuous
 62
     7
100
AcDbPolyline
 90
        6
 70
     0
 43
0.0
 10
38.4961461996
 20
17.6472490705
 10
38.4960329777
 20
17.6475086397
 10
38.4959497725
 20
17.6484287586
 10
38.49596055070001
 20
17.6500200131
 10
38.4961104699
 20
17.652297396
 10
38.4963844775
 20
17.6552695413
  0
LINE
  5
1525
330
218
100
AcDbEntity
  8
0
  6
Continuous
 62
     7
100
AcDbLine
 10
38.4983418849
 20
19.2727715193
 30
0.0
 11
38.4987199274
 21
19.304001914
 31
0.0
  0
LWPOLYLINE
  5
1526
330
218
100
AcDbEntity
  8
0
  6
Continuous
 62
     7
100
AcDbPolyline
 90
        7
 70
     0
 43
0.0
 10
38.4963605118
 20
17.6868031958
 10
38.4961651289
 20
17.6800002883
 10
38.49603326710001
 20
17.6738051913
 10
38.4959497112
 20
17.6682367008
 10
38.4959601072
 20
17.6632860006
 10
38.496110101
 20
17.6589541945
 10
38.4963844775
 20
17.6552695413
  0
LWPOLYLINE
  5
1527
330
218
100
AcDbEntity
  8
0
  6
Continuous
 62
     7
100
AcDbPolyline
 90
        5
 70
     0
 43
0.0
 10
37.6648132894
 20
18.1555631736
 10
37.6649902733
 20
18.1577895224
 10
37.6655215437
 20
18.1600188596
 10
37.6664075697
 20
18.1622502514
 10
37.6676488087
 20
18.1644827541
  0
LWPOLYLINE
  5
1529
330
218
100
AcDbEntity
  8
0
  6
Continuous
 62
     7
100
AcDbPolyline
 90
        3
 70
     0
 43
0.0
 10
62.76848927979999
 20
18.984308276
 10
62.7708876022
 20
18.9848089482
 10
62.77191077699999
 20
18.9852802242
  0
LINE
  5
152A
330
218
100
AcDbEntity
  8
0
  6
Continuous
 62
     7
100
AcDbLine
 10
63.1207650838
 20
19.2339256487
 30
0.0
 11
63.1026783911
 21
19.2322436258
 31
0.0
  0
LINE
  5
152B
330
218
100
AcDbEntity
  8
0
  6
Continuous
 62
     7
100
AcDbLine
 10
67.08482152640001
 20
19.2746076106
 30
0.0
 11
67.08618252079999
 21
19.2747284006
 31
0.0
  0
LINE
  5
152C
330
218
100
AcDbEntity
  8
0
  6
Continuous
 62
     7
100
AcDbLine
 10
63.1026783911
 20
19.2322436258
 30
0.0
 11
63.0896305011
 21
19.2311264757
 31
0.0
  0
LWPOLYLINE
  5
152D
330
218
100
AcDbEntity
  8
0
  6
Continuous
 62
     7
100
AcDbPolyline
 90
        3
 70
     0
 43
0.0
 10
67.08618252079999
 20
19.2747284006
 10
67.08703342300001
 20
19.2747976961
 10
67.0872902663
 20
19.2748173695
  0
LWPOLYLINE
  5
152E
330
218
100
AcDbEntity
  8
0
  6
Continuous
 62
     7
100
AcDbPolyline
 90
       24
 70
     0
 43
0.0
 10
68.5144102429
 20
19.4498295238
 10
68.52678513089999
 20
19.4507601812
 10
68.5403319656
 20
19.451844382
 10
68.5551972587
 20
19.4531133206
 10
68.57164620359999
 20
19.454614655
 10
68.5895103253
 20
19.456361487
 10
68.6087794829
 20
19.4583822075
 10
68.62924400979999
 20
19.460684164
 10
68.65071067809999
 20
19.4632722211
 10
68.6731200526
 20
19.4661641977
 10
68.6963332096
 20
19.4693657959
 10
68.72039145009999
 20
19.4729061037
 10
68.74528960020001
 20
19.4768092936
 10
68.77102171699999
 20
19.4811003102
 10
68.79760273640001
 20
19.4858088059
 10
68.8249590326
 20
19.490949151
 10
68.8530632721
 20
19.4965431336
 10
68.88178826819999
 20
19.5025908247
 10
68.91102787699999
 20
19.509092153
 10
68.9406923409
 20
19.5160467233
 10
68.97065748270001
 20
19.5234417279
 10
69.00092250819999
 20
19.5312915009
 10
69.0314444727
 20
19.5395991116
 10
69.0622247701
 20
19.5483788613
  0
LINE
  5
152F
330
218
100
AcDbEntity
  8
0
  6
Continuous
 62
     7
100
AcDbLine
 10
68.4923601214
 20
19.44831111
 30
0.0
 11
68.5144102429
 21
19.4498295238
 31
0.0
  0
LWPOLYLINE
  5
1530
330
218
100
AcDbEntity
  8
0
  6
Continuous
 62
     7
100
AcDbPolyline
 90
        3
 70
     0
 43
0.0
 10
63.1187846713
 20
19.2274513245
 10
63.06605528479999
 20
19.2238579554
 10
63.06095402779999
 20
19.2235374676
  0
LINE
  5
1531
330
218
100
AcDbEntity
  8
0
  6
Continuous
 62
     7
100
AcDbLine
 10
68.4730374011
 20
19.4471253201
 30
0.0
 11
68.4923601214
 21
19.44831111
 31
0.0
  0
LINE
  5
1532
330
218
100
AcDbEntity
  8
0
  6
Continuous
 62
     7
100
AcDbLine
 10
67.09103779670001
 20
19.2749536191
 30
0.0
 11
67.0850874163
 21
19.2746316947
 31
0.0
  0
LINE
  5
1533
330
218
100
AcDbEntity
  8
0
  6
Continuous
 62
     7
100
AcDbLine
 10
68.456130738
 20
19.4461956281
 30
0.0
 11
68.4730374011
 21
19.4471253201
 31
0.0
  0
LINE
  5
1534
330
218
100
AcDbEntity
  8
0
  6
Continuous
 62
     7
100
AcDbLine
 10
68.4415934081
 20
19.4454734526
 30
0.0
 11
68.456130738
 21
19.4461956281
 31
0.0
  0
LINE
  5
1535
330
218
100
AcDbEntity
  8
0
  6
Continuous
 62
     7
100
AcDbLine
 10
67.23781559009999
 20
19.2797564214
 30
0.0
 11
67.22123552540001
 21
19.278941338
 31
0.0
  0
LINE
  5
1536
330
218
100
AcDbEntity
  8
0
  6
Continuous
 62
     7
100
AcDbLine
 10
68.42365511050001
 20
19.4446741022
 30
0.0
 11
68.4415934081
 21
19.4454734526
 31
0.0
  0
LINE
  5
1537
330
218
100
AcDbEntity
  8
0
  6
Continuous
 62
     7
100
AcDbLine
 10
67.22123552540001
 20
19.278941338
 30
0.0
 11
67.1843591123
 21
19.2773670346
 31
0.0
  0
LINE
  5
1538
330
218
100
AcDbEntity
  8
0
  6
Continuous
 62
     7
100
AcDbLine
 10
68.4066708702
 20
19.4439993225
 30
0.0
 11
68.42365511050001
 21
19.4446741022
 31
0.0
  0
LINE
  5
1539
330
218
100
AcDbEntity
  8
0
  6
Continuous
 62
     7
100
AcDbLine
 10
67.1843591123
 20
19.2773670346
 30
0.0
 11
67.07252305029999
 21
19.2731080377
 31
0.0
  0
LINE
  5
153A
330
218
100
AcDbEntity
  8
0
  6
Continuous
 62
     7
100
AcDbLine
 10
68.40376154649999
 20
19.4439192293
 30
0.0
 11
68.3841958246
 21
19.4431808349
 31
0.0
  0
LINE
  5
153B
330
218
100
AcDbEntity
  8
0
  6
Continuous
 62
     7
100
AcDbLine
 10
63.2850125426
 20
19.2668727974
 30
0.0
 11
68.3841958246
 21
19.4431808349
 31
0.0
  0
LINE
  5
153C
330
218
100
AcDbEntity
  8
0
  6
Continuous
 62
     7
100
AcDbLine
 10
68.3841948392
 20
19.4432093293
 30
0.0
 11
68.4070026738
 21
19.4440118616
 31
0.0
  0
LINE
  5
153D
330
218
100
AcDbEntity
  8
0
  6
Continuous
 62
     7
100
AcDbLine
 10
64.9614900261
 20
19.2168981113
 30
0.0
 11
65.9887630903
 21
19.2478642043
 31
0.0
  0
LINE
  5
153E
330
218
100
AcDbEntity
  8
0
  6
Continuous
 62
     7
100
AcDbLine
 10
65.3155871729
 20
19.2603116343
 30
0.0
 11
66.0434720553
 21
19.2822399279
 31
0.0
  0
LINE
  5
153F
330
218
100
AcDbEntity
  8
0
  6
Continuous
 62
     7
100
AcDbLine
 10
64.6341958989
 20
19.2402977225
 30
0.0
 11
65.3155871729
 21
19.2603116343
 31
0.0
  0
LINE
  5
1540
330
218
100
AcDbEntity
  8
0
  6
Continuous
 62
     7
100
AcDbLine
 10
64.00105317270001
 20
19.1888083695
 30
0.0
 11
64.9614900261
 21
19.2168981113
 31
0.0
  0
LINE
  5
1541
330
218
100
AcDbEntity
  8
0
  6
Continuous
 62
     7
100
AcDbLine
 10
65.9887630903
 20
19.2478642043
 30
0.0
 11
66.2298306805
 21
19.2550160704
 31
0.0
  0
LINE
  5
1542
330
218
100
AcDbEntity
  8
0
  6
Continuous
 62
     7
100
AcDbLine
 10
63.9335661828
 20
19.2202659949
 30
0.0
 11
64.6341958989
 21
19.2402977225
 31
0.0
  0
LINE
  5
1543
330
218
100
AcDbEntity
  8
0
  6
Continuous
 62
     7
100
AcDbLine
 10
66.0434720553
 20
19.2822399279
 30
0.0
 11
66.3177455118
 21
19.2902210459
 31
0.0
  0
LINE
  5
1544
330
218
100
AcDbEntity
  8
0
  6
Continuous
 62
     7
100
AcDbLine
 10
66.08804053570001
 20
19.2523066178
 30
0.0
 11
66.3588652471
 21
19.2601159195
 31
0.0
  0
LINE
  5
1545
330
218
100
AcDbEntity
  8
0
  6
Continuous
 62
     7
100
AcDbLine
 10
62.92679336149999
 20
19.1585310155
 30
0.0
 11
64.00105317270001
 21
19.1888083695
 31
0.0
  0
LINE
  5
1546
330
218
100
AcDbEntity
  8
0
  6
Continuous
 62
     7
100
AcDbLine
 10
62.9870235947
 20
19.1940880488
 30
0.0
 11
63.9335661828
 21
19.2202659949
 31
0.0
  0
LINE
  5
1547
330
218
100
AcDbEntity
  8
0
  6
Continuous
 62
     7
100
AcDbLine
 10
66.2298306805
 20
19.2550160704
 30
0.0
 11
66.4957193276
 21
19.2624221004
 31
0.0
  0
LINE
  5
1548
330
218
100
AcDbEntity
  8
0
  6
Continuous
 62
     7
100
AcDbLine
 10
66.3177455118
 20
19.2902210459
 30
0.0
 11
66.5243151345
 21
19.2959134958
 31
0.0
  0
LWPOLYLINE
  5
1549
330
218
100
AcDbEntity
  8
0
  6
Continuous
 62
     7
100
AcDbPolyline
 90
        4
 70
     0
 43
0.0
 10
62.9311996334
 20
19.1614950804
 10
63.3305247363
 20
19.1722062556
 10
64.6623650181
 20
19.2098326558
 10
66.08804053570001
 20
19.2523066178
  0
LINE
  5
154A
330
218
100
AcDbEntity
  8
0
  6
Continuous
 62
     7
100
AcDbLine
 10
66.3588652471
 20
19.2601159195
 30
0.0
 11
66.61275076329999
 21
19.2670041133
 31
0.0
  0
LWPOLYLINE
  5
154B
330
218
100
AcDbEntity
  8
0
  6
Continuous
 62
     7
100
AcDbPolyline
 90
        3
 70
     0
 43
0.0
 10
66.4957193276
 20
19.2624221004
 10
66.7290677447
 20
19.2684880577
 10
66.7588205734
 20
19.269227305
  0
LINE
  5
154C
330
218
100
AcDbEntity
  8
0
  6
Continuous
 62
     7
100
AcDbLine
 10
66.61275076329999
 20
19.2670041133
 30
0.0
 11
66.80202795460001
 21
19.2718502952
 31
0.0
  0
LWPOLYLINE
  5
154D
330
218
100
AcDbEntity
  8
0
  6
Continuous
 62
     7
100
AcDbPolyline
 90
       31
 70
     0
 43
0.0
 10
61.5021941442
 20
17.6472805256
 10
61.51028703419999
 20
17.6473702928
 10
61.51846451109999
 20
17.6475361178
 10
61.526729981
 20
17.6477792171
 10
61.5350884536
 20
17.6481014621
 10
61.54357509689999
 20
17.6485069171
 10
61.55221081869999
 20
17.6490003594
 10
61.5610144118
 20
17.6495867298
 10
61.56999400060001
 20
17.6502708151
 10
61.579163687
 20
17.6510586444
 10
61.5885287757
 20
17.6519562986
 10
61.5980988324
 20
17.6529709208
 10
61.60787753000001
 20
17.6541096972
 10
61.6178644239
 20
17.6553797775
 10
61.6280501509
 20
17.6567871352
 10
61.63843779069999
 20
17.6583390913
 10
61.6490233995
 20
17.660042201
 10
61.65980086810001
 20
17.6619027826
 10
61.67076167680001
 20
17.6639267327
 10
61.6818985235
 20
17.6661201011
 10
61.6931999442
 20
17.6684879912
 10
61.7046635243
 20
17.6710373028
 10
61.71628449319999
 20
17.673774552
 10
61.7280561116
 20
17.676705824
 10
61.739971995
 20
17.6798372531
 10
61.752024843
 20
17.6831746722
 10
61.76420660529999
 20
17.6867235936
 10
61.7765136205
 20
17.6904907621
 10
61.7889410822
 20
17.6944826314
 10
61.8014861586
 20
17.6987062945
 10
61.80771489779999
 20
17.7008766484
  0
LINE
  5
154E
330
218
100
AcDbEntity
  8
0
  6
Continuous
 62
     7
100
AcDbLine
 10
38.4961779032
 20
17.6472490703
 30
0.0
 11
61.5021941442
 21
17.6472805256
 31
0.0
  0
LINE
  5
154F
330
218
100
AcDbEntity
  8
0
  6
Continuous
 62
     7
100
AcDbLine
 10
66.02763594549999
 20
18.372422779
 30
0.0
 11
62.44442910229999
 21
18.372422779
 31
0.0
  0
LINE
  5
1550
330
218
100
AcDbEntity
  8
0
  6
Continuous
 62
     7
100
AcDbLine
 10
37.5483427888
 20
18.372422779
 30
0.0
 11
33.9651359455
 21
18.372422779
 31
0.0
  0
LINE
  5
1551
330
218
100
AcDbEntity
  8
0
  6
Continuous
 62
     7
100
AcDbLine
 10
38.4905785869
 20
17.647280523
 30
0.0
 11
38.4963859425
 21
17.6472626281
 31
0.0
  0
LINE
  5
1552
330
218
100
AcDbEntity
  8
0
  6
Continuous
 62
     7
100
AcDbLine
 10
33.2340461057
 20
19.2692249639
 30
0.0
 11
33.4614539825
 21
19.263375282
 31
0.0
  0
LINE
  5
1553
330
218
100
AcDbEntity
  8
0
  6
Continuous
 62
     7
100
AcDbLine
 10
33.1906746733
 20
19.2718536495
 30
0.0
 11
33.4205687507
 21
19.2659336191
 31
0.0
  0
LINE
  5
1554
330
218
100
AcDbEntity
  8
0
  6
Continuous
 62
     7
100
AcDbLine
 10
36.4152753376
 20
19.2102983802
 30
0.0
 11
37.0057416535
 21
19.1940882251
 31
0.0
  0
LINE
  5
1555
330
218
100
AcDbEntity
  8
0
  6
Continuous
 62
     7
100
AcDbLine
 10
33.4205687507
 20
19.2659336191
 30
0.0
 11
33.6782647474
 21
19.2588685803
 31
0.0
  0
LINE
  5
1556
330
218
100
AcDbEntity
  8
0
  6
Continuous
 62
     7
100
AcDbLine
 10
36.2967965348
 20
19.1800782057
 30
0.0
 11
37.0659428802
 21
19.1585319768
 31
0.0
  0
LWPOLYLINE
  5
1557
330
218
100
AcDbEntity
  8
0
  6
Continuous
 62
     7
100
AcDbPolyline
 90
        3
 70
     0
 43
0.0
 10
35.330406936
 20
19.2098326455
 10
36.66224717369999
 20
19.1722062441
 10
37.0615867317
 20
19.1614946844
  0
LINE
  5
1558
330
218
100
AcDbEntity
  8
0
  6
Continuous
 62
     7
100
AcDbLine
 10
33.4614539825
 20
19.263375282
 30
0.0
 11
33.72372925900001
 21
19.2561396132
 31
0.0
  0
LINE
  5
1559
330
218
100
AcDbEntity
  8
0
  6
Continuous
 62
     7
100
AcDbLine
 10
35.7072214492
 20
19.2302610289
 30
0.0
 11
36.4152753376
 21
19.2102983802
 31
0.0
  0
LINE
  5
155A
330
218
100
AcDbEntity
  8
0
  6
Continuous
 62
     7
100
AcDbLine
 10
33.4681720803
 20
19.2959216473
 30
0.0
 11
33.7186387338
 21
19.2889834666
 31
0.0
  0
LINE
  5
155B
330
218
100
AcDbEntity
  8
0
  6
Continuous
 62
     7
100
AcDbLine
 10
35.0166214057
 20
19.2502754469
 30
0.0
 11
35.7072214492
 21
19.2302610289
 31
0.0
  0
LINE
  5
155C
330
218
100
AcDbEntity
  8
0
  6
Continuous
 62
     7
100
AcDbLine
 10
35.3583758814
 20
19.2072327178
 30
0.0
 11
36.2967965348
 21
19.1800782057
 31
0.0
  0
LWPOLYLINE
  5
155D
330
218
100
AcDbEntity
  8
0
  6
Continuous
 62
     7
100
AcDbPolyline
 90
        3
 70
     0
 43
0.0
 10
33.6782647474
 20
19.2588685803
 10
33.95043165070001
 20
19.2509437431
 10
35.330406936
 20
19.2098326455
  0
LINE
  5
155E
330
218
100
AcDbEntity
  8
0
  6
Continuous
 62
     7
100
AcDbLine
 10
33.72372925900001
 20
19.2561396132
 30
0.0
 11
33.9635572699
 21
19.2490944925
 31
0.0
  0
LINE
  5
155F
330
218
100
AcDbEntity
  8
0
  6
Continuous
 62
     7
100
AcDbLine
 10
33.7186387338
 20
19.2889834666
 30
0.0
 11
33.9971181494
 21
19.2808004893
 31
0.0
  0
LINE
  5
1560
330
218
100
AcDbEntity
  8
0
  6
Continuous
 62
     7
100
AcDbLine
 10
33.9635572699
 20
19.2490944925
 30
0.0
 11
34.0040088008
 21
19.2478642043
 31
0.0
  0
LWPOLYLINE
  5
1561
330
218
100
AcDbEntity
  8
0
  6
Continuous
 62
     7
100
AcDbPolyline
 90
        3
 70
     0
 43
0.0
 10
33.9971181494
 20
19.2808004893
 10
34.3370550729
 20
19.270496504
 10
35.0166214057
 20
19.2502754469
  0
LWPOLYLINE
  5
1562
330
218
100
AcDbEntity
  8
0
  6
Continuous
 62
     7
100
AcDbPolyline
 90
        3
 70
     0
 43
0.0
 10
34.0040088008
 20
19.2478642043
 10
34.3537679569
 20
19.2372217796
 10
35.3583758814
 20
19.2072327178
  0
LINE
  5
1563
330
218
100
AcDbEntity
  8
0
  6
Continuous
 62
     7
100
AcDbLine
 10
31.5837830428
 20
19.4440873215
 30
0.0
 11
36.7077593447
 21
19.2668727975
 31
0.0
  0
LINE
  5
1564
330
218
100
AcDbEntity
  8
0
  6
Continuous
 62
     7
100
AcDbLine
 10
32.9202374929
 20
19.2731090663
 30
0.0
 11
32.8084455857
 21
19.2773663108
 31
0.0
  0
LWPOLYLINE
  5
1565
330
218
100
AcDbEntity
  8
0
  6
Continuous
 62
     7
100
AcDbPolyline
 90
        6
 70
     0
 43
0.0
 10
31.5945108139
 20
19.4436957586
 10
31.5890103977
 20
19.4439192269
 10
31.5845312888
 20
19.4441344366
 10
31.5810903733
 20
19.4443414471
 10
31.5786867142
 20
19.4445408891
 10
31.577318031
 20
19.444733404
  0
LINE
  5
1566
330
218
100
AcDbEntity
  8
0
  6
Continuous
 62
     7
100
AcDbLine
 10
31.5641088391
 20
19.444887631
 30
0.0
 11
31.5837830428
 21
19.4440873215
 31
0.0
  0
LINE
  5
1567
330
218
100
AcDbEntity
  8
0
  6
Continuous
 62
     7
100
AcDbLine
 10
32.8084455857
 20
19.2773663108
 30
0.0
 11
32.7715284537
 21
19.278942032
 31
0.0
  0
LINE
  5
1568
330
218
100
AcDbEntity
  8
0
  6
Continuous
 62
     7
100
AcDbLine
 10
31.5451176352
 20
19.4457661055
 30
0.0
 11
31.5641088391
 21
19.444887631
 31
0.0
  0
LWPOLYLINE
  5
1569
330
218
100
AcDbEntity
  8
0
  6
Continuous
 62
     7
100
AcDbPolyline
 90
        6
 70
     0
 43
0.0
 10
32.7715284537
 20
19.278942032
 10
32.7549367964
 20
19.2797575312
 10
32.7490950054
 20
19.2800938632
 10
32.7449153917
 20
19.2803819498
 10
32.7423954667
 20
19.2806220602
 10
32.7415426635
 20
19.2808171212
  0
LINE
  5
156A
330
218
100
AcDbEntity
  8
0
  6
Continuous
 62
     7
100
AcDbLine
 10
31.5297705559
 20
19.4465615377
 30
0.0
 11
31.5451176352
 21
19.4457661055
 31
0.0
  0
LINE
  5
156B
330
218
100
AcDbEntity
  8
0
  6
Continuous
 62
     7
100
AcDbLine
 10
32.9076889855
 20
19.2746314535
 30
0.0
 11
32.9017327409
 21
19.2749537069
 31
0.0
  0
LINE
  5
156C
330
218
100
AcDbEntity
  8
0
  6
Continuous
 62
     7
100
AcDbLine
 10
31.5120272085
 20
19.4475822985
 30
0.0
 11
31.5297705559
 21
19.4465615377
 31
0.0
  0
LWPOLYLINE
  5
156D
330
218
100
AcDbEntity
  8
0
  6
Continuous
 62
     7
100
AcDbPolyline
 90
        8
 70
     0
 43
0.0
 10
32.9017327409
 20
19.2749537069
 10
32.8969565525
 20
19.2752463756
 10
32.8935729575
 20
19.275499599
 10
32.8916063465
 20
19.275712432
 10
32.8911036067
 20
19.2758830332
 10
32.8920643928
 20
19.2760114382
 10
32.8945034922
 20
19.2760969965
 10
32.8984129747
 20
19.2761399413
  0
LINE
  5
156E
330
218
100
AcDbEntity
  8
0
  6
Continuous
 62
     7
100
AcDbLine
 10
31.4918406798
 20
19.4488801845
 30
0.0
 11
31.5120272085
 21
19.4475822985
 31
0.0
  0
LINE
  5
156F
330
218
100
AcDbEntity
  8
0
  6
Continuous
 62
     7
100
AcDbLine
 10
36.9318067902
 20
19.2235381611
 30
0.0
 11
36.8995002908
 21
19.2256610984
 31
0.0
  0
LINE
  5
1570
330
218
100
AcDbEntity
  8
0
  6
Continuous
 62
     7
100
AcDbLine
 10
32.9053369151
 20
19.2748283388
 30
0.0
 11
32.9053072577
 21
19.2748303425
 31
0.0
  0
LWPOLYLINE
  5
1571
330
218
100
AcDbEntity
  8
0
  6
Continuous
 62
     7
100
AcDbPolyline
 90
       16
 70
     0
 43
0.0
 10
36.8995002908
 20
19.2256610984
 10
36.8739871135
 20
19.2274513288
 10
36.8502137016
 20
19.2292272345
 10
36.8282230643
 20
19.23098733099999
 10
36.8080328955
 20
19.2327302902
 10
36.7896736918
 20
19.2344547169
 10
36.7731468264
 20
19.2361593284
 10
36.7584590367
 20
19.2378428132
 10
36.74561852530001
 20
19.2395038622
 10
36.7346304407
 20
19.2411411711
 10
36.7255036168
 20
19.2427534132
 10
36.7182430562
 20
19.2443392772
 10
36.7128577242
 20
19.2458974112
 10
36.7093525042
 20
19.2474264877
 10
36.7077364672
 20
19.2489251228
 10
36.7076172571
 20
19.2494712442
  0
LINE
  5
1572
330
218
100
AcDbEntity
  8
0
  6
Continuous
 62
     7
100
AcDbLine
 10
32.9052940795
 20
19.2748311781
 30
0.0
 11
32.9053916934
 21
19.2748240687
 31
0.0
  0
LINE
  5
1573
330
218
100
AcDbEntity
  8
0
  6
Continuous
 62
     7
100
AcDbLine
 10
32.90556335530001
 20
19.2748111908
 30
0.0
 11
32.9061600953
 21
19.2747640561
 31
0.0
  0
LINE
  5
1574
330
218
100
AcDbEntity
  8
0
  6
Continuous
 62
     7
100
AcDbLine
 10
36.90315565080001
 20
19.2311252587
 30
0.0
 11
36.8900979361
 21
19.2322432304
 31
0.0
  0
LINE
  5
1575
330
218
100
AcDbEntity
  8
0
  6
Continuous
 62
     7
100
AcDbLine
 10
32.9061600953
 20
19.2747640561
 30
0.0
 11
32.9071493861
 21
19.2746800415
 31
0.0
  0
LWPOLYLINE
  5
1576
330
218
100
AcDbEntity
  8
0
  6
Continuous
 62
     7
100
AcDbPolyline
 90
       13
 70
     0
 43
0.0
 10
36.8900979361
 20
19.2322432304
 10
36.872011261
 20
19.2339252147
 10
36.8556949786
 20
19.2355892936
 10
36.8411447672
 20
19.2372360879
 10
36.828383379
 20
19.2388642532
 10
36.8174220787
 20
19.2404736238
 10
36.8082880766
 20
19.2420612847
 10
36.8010062886
 20
19.2436249888
 10
36.7955857149
 20
19.2451625667
 10
36.7920410152
 20
19.2466717987
 10
36.7903688675
 20
19.248150588
 10
36.7905610107
 20
19.249595743
 10
36.792633691
 20
19.251008328
  0
LWPOLYLINE
  5
1577
330
218
100
AcDbEntity
  8
0
  6
Continuous
 62
     7
100
AcDbPolyline
 90
       64
 70
     0
 43
0.0
 10
32.9071493861
 20
19.2746800415
 10
32.9086069948
 20
19.2745455827
 10
32.9095382409
 20
19.274453767
 10
32.9106199658
 20
19.2743417085
 10
32.9118643993
 20
19.2742058873
 10
32.9132846172
 20
19.2740421288
 10
32.9148878339
 20
19.2738463298
 10
32.9166792804
 20
19.2736140704
 10
32.9186766036
 20
19.2733385846
 10
32.9208922412
 20
19.2730127899
 10
32.9233466414
 20
19.272627243
 10
32.9260604716
 20
19.2721708914
 10
32.9290443403
 20
19.2716327322
 10
32.9323291916
 20
19.2709961315
 10
32.9358723191
 20
19.2702573953
 10
32.9396569747
 20
19.269408231
 10
32.9436350232
 20
19.2684482399
 10
32.94776483270001
 20
19.267377761
 10
32.9520116091
 20
19.2661975452
 10
32.9563272108
 20
19.2649145702
 10
32.96071281550001
 20
19.2635230831
 10
32.9651547254
 20
19.2620220747
 10
32.9696499276
 20
19.2604073887
 10
32.9741924214
 20
19.2586759519
 10
32.9787770733
 20
19.256824501
 10
32.983398569
 20
19.2548499432
 10
32.9880508456
 20
19.2527496389
 10
32.9927280522
 20
19.2505210231
 10
32.9974236725
 20
19.24816203269999
 10
33.0021299095
 20
19.245671531
 10
33.00684431540001
 20
19.2430457085
 10
33.011562896
 20
19.2402814592
 10
33.0162813491
 20
19.2373757959
 10
33.0209953764
 20
19.2343256671
 10
33.0256997751
 20
19.2311285627
 10
33.03038933550001
 20
19.227781985
 10
33.0350586669
 20
19.2242835614
 10
33.0397021924
 20
19.2206310589
 10
33.0443141397
 20
19.2168224021
 10
33.0488884609
 20
19.2128557591
 10
33.0534192908
 20
19.2087291457
 10
33.0579004037
 20
19.2044408873
 10
33.0623256345
 20
19.1999892363
 10
33.06668853780001
 20
19.1953726886
 10
33.0709824645
 20
19.1905899287
 10
33.0752005538
 20
19.1856398533
 10
33.0793357422
 20
19.1805215779
 10
33.0833807612
 20
19.1752344576
 10
33.0873281417
 20
19.1697781019
 10
33.0911702191
 20
19.1641523884
 10
33.0948991359
 20
19.1583574839
 10
33.09850684940001
 20
19.1523938584
 10
33.1019851452
 20
19.146262291
 10
33.1053256326
 20
19.1399639075
 10
33.1085197801
 20
19.1335001471
 10
33.1115588991
 20
19.1268728231
 10
33.1144341542
 20
19.1200841458
 10
33.1171365831
 20
19.1131367258
 10
33.1196571079
 20
19.1060335937
 10
33.121986551
 20
19.0987782185
 10
33.1241156502
 20
19.0913745235
 10
33.1260350771
 20
19.0838269044
 10
33.12773545530001
 20
19.0761402463
 10
33.1287982067
 20
19.0706364598
  0
LWPOLYLINE
  5
1578
330
218
100
AcDbEntity
  8
0
  6
Continuous
 62
     7
100
AcDbPolyline
 90
       46
 70
     0
 43
0.0
 10
36.8855420606
 20
19.2345737349
 10
36.8854997205
 20
19.2345798753
 10
36.8856307229
 20
19.2345601446
 10
36.8861551422
 20
19.2344783442
 10
36.88709654650001
 20
19.2343251279
 10
36.8884718672
 20
19.2340910759
 10
36.8903072592
 20
19.2337639044
 10
36.8926277294
 20
19.2333298731
 10
36.8954492726
 20
19.23277518
 10
36.8987961948
 20
19.2320824852
 10
36.9026599693
 20
19.2312394187
 10
36.9070471668
 20
19.2302290068
 10
36.911923551
 20
19.2290425871
 10
36.9172744412
 20
19.227666588
 10
36.92303964900001
 20
19.2260993947
 10
36.9291593624
 20
19.2243414246
 10
36.93561765
 20
19.2223818973
 10
36.9423656539
 20
19.220220666
 10
36.9494497769
 20
19.2178267452
 10
36.9568836021
 20
19.2151764655
 10
36.96471966820001
 20
19.2122284651
 10
36.9730080725
 20
19.2089360465
 10
36.9817618181
 20
19.2052614295
 10
36.9910350367
 20
19.2011435135
 10
37.0007393917
 20
19.1965804164
 10
37.01083097170001
 20
19.1915526612
 10
37.0212251347
 20
19.1860636429
 10
37.03184542360001
 20
19.1801182929
 10
37.0426277622
 20
19.173720078
 10
37.0534902225
 20
19.1668891716
 10
37.0644184643
 20
19.1596079768
 10
37.0753778585
 20
19.1518723533
 10
37.0863465797
 20
19.1436702291
 10
37.0972987868
 20
19.1349925574
 10
37.1082082595
 20
19.1258309799
 10
37.1190483877
 20
19.1161778474
 10
37.1297906041
 20
19.106027753
 10
37.1404045415
 20
19.0953778462
 10
37.1508656368
 20
19.0842200013
 10
37.1611458548
 20
19.0725496311
 10
37.1712197743
 20
19.0603590757
 10
37.1810600606
 20
19.0476423048
 10
37.1906373572
 20
19.0343954414
 10
37.199921436
 20
19.0206155189
 10
37.2088808849
 20
19.006301011
 10
37.21748385090001
 20
18.9914506979
  0
LWPOLYLINE
  5
1579
330
218
100
AcDbEntity
  8
0
  6
Continuous
 62
     7
100
AcDbPolyline
 90
        3
 70
     0
 43
0.0
 10
36.7076172571
 20
19.2494712442
 10
36.70801284639999
 20
19.2503912617
 10
36.7101954616
 20
19.2518255897
  0
LWPOLYLINE
  5
157A
330
218
100
AcDbEntity
  8
0
  6
Continuous
 62
     7
100
AcDbPolyline
 90
        3
 70
     0
 43
0.0
 10
36.7082326292
 20
19.2807078922
 10
36.7086501606
 20
19.2816609518
 10
36.7108095145
 20
19.2830592542
  0
LINE
  5
157C
330
218
100
AcDbEntity
  8
0
  6
Continuous
 62
     7
100
AcDbLine
 10
36.9499614891
 20
19.2649499624
 30
0.0
 11
36.9989629341
 21
19.2667799078
 31
0.0
  0
LINE
  5
157D
330
218
100
AcDbEntity
  8
0
  6
Continuous
 62
     7
100
AcDbLine
 10
36.8735675799
 20
19.266117145
 30
0.0
 11
36.9245291624
 21
19.2679975601
 31
0.0
  0
LINE
  5
157E
330
218
100
AcDbEntity
  8
0
  6
Continuous
 62
     7
100
AcDbLine
 10
36.8756071086
 20
19.2974106984
 30
0.0
 11
36.9266865342
 21
19.2992837431
 31
0.0
  0
LINE
  5
157F
330
218
100
AcDbEntity
  8
0
  6
Continuous
 62
     7
100
AcDbLine
 10
36.9989629341
 20
19.2667799078
 30
0.0
 11
37.0542861087
 21
19.2684639155
 31
0.0
  0
LINE
  5
1580
330
218
100
AcDbEntity
  8
0
  6
Continuous
 62
     7
100
AcDbLine
 10
36.9245291624
 20
19.2679975601
 30
0.0
 11
36.981799613
 21
19.2697188897
 31
0.0
  0
LINE
  5
1581
330
218
100
AcDbEntity
  8
0
  6
Continuous
 62
     7
100
AcDbLine
 10
36.9266865342
 20
19.2992837431
 30
0.0
 11
36.984241793
 21
19.3010032537
 31
0.0
  0
LWPOLYLINE
  5
1582
330
218
100
AcDbEntity
  8
0
  6
Continuous
 62
     7
100
AcDbPolyline
 90
        3
 70
     0
 43
0.0
 10
31.5865185937
 20
19.4455914928
 10
31.5976710024
 20
19.4458881344
 10
31.613055487
 20
19.4461606743
  0
LINE
  5
1583
330
218
100
AcDbEntity
  8
0
  6
Continuous
 62
     7
100
AcDbLine
 10
66.5243151345
 20
19.2959134958
 30
0.0
 11
66.7856387633
 21
19.302699635
 31
0.0
  0
LINE
  5
1584
330
218
100
AcDbEntity
  8
0
  6
Continuous
 62
     7
100
AcDbLine
 10
37.0542861087
 20
19.2684639155
 30
0.0
 11
37.1157289578
 21
19.269995627
 31
0.0
  0
LINE
  5
1585
330
218
100
AcDbEntity
  8
0
  6
Continuous
 62
     7
100
AcDbLine
 10
36.981799613
 20
19.2697188897
 30
0.0
 11
37.04509961300001
 21
19.2712786329
 31
0.0
  0
LINE
  5
1586
330
218
100
AcDbEntity
  8
0
  6
Continuous
 62
     7
100
AcDbLine
 10
36.984241793
 20
19.3010032537
 30
0.0
 11
37.0480778194
 21
19.3025657514
 31
0.0
  0
LINE
  5
1587
330
218
100
AcDbEntity
  8
0
  6
Continuous
 62
     7
100
AcDbLine
 10
66.7856387633
 20
19.302699635
 30
0.0
 11
67.0006871091
 21
19.3078605003
 31
0.0
  0
LINE
  5
1588
330
218
100
AcDbEntity
  8
0
  6
Continuous
 62
     7
100
AcDbLine
 10
66.80202795460001
 20
19.2718502952
 30
0.0
 11
67.0197424185
 21
19.2770365278
 31
0.0
  0
LINE
  5
1589
330
218
100
AcDbEntity
  8
0
  6
Continuous
 62
     7
100
AcDbLine
 10
66.7588205734
 20
19.269227305
 30
0.0
 11
66.9364872557
 21
19.2734099489
 31
0.0
  0
LINE
  5
158A
330
218
100
AcDbEntity
  8
0
  6
Continuous
 62
     7
100
AcDbLine
 10
67.0197424185
 20
19.2770365278
 30
0.0
 11
67.15332600089999
 21
19.279862914
 31
0.0
  0
LINE
  5
158B
330
218
100
AcDbEntity
  8
0
  6
Continuous
 62
     7
100
AcDbLine
 10
67.0006871091
 20
19.3078605003
 30
0.0
 11
67.1559082094
 21
19.3111643713
 31
0.0
  0
LINE
  5
158C
330
218
100
AcDbEntity
  8
0
  6
Continuous
 62
     7
100
AcDbLine
 10
66.9364872557
 20
19.2734099489
 30
0.0
 11
67.0404352916
 21
19.2755106942
 31
0.0
  0
LINE
  5
158D
330
218
100
AcDbEntity
  8
0
  6
Continuous
 62
     7
100
AcDbLine
 10
37.1157289578
 20
19.269995627
 30
0.0
 11
37.2181051408
 21
19.2719801921
 31
0.0
  0
LINE
  5
158E
330
218
100
AcDbEntity
  8
0
  6
Continuous
 62
     7
100
AcDbLine
 10
37.04509961300001
 20
19.2712786329
 30
0.0
 11
37.15074357840001
 21
19.2733081996
 31
0.0
  0
LINE
  5
158F
330
218
100
AcDbEntity
  8
0
  6
Continuous
 62
     7
100
AcDbLine
 10
37.0480778194
 20
19.3025657514
 30
0.0
 11
37.1551378142
 21
19.3046041643
 31
0.0
  0
LINE
  5
1590
330
218
100
AcDbEntity
  8
0
  6
Continuous
 62
     7
100
AcDbLine
 10
67.15332600089999
 20
19.279862914
 30
0.0
 11
67.21150413869999
 21
19.28085230309999
 31
0.0
  0
LINE
  5
1591
330
218
100
AcDbEntity
  8
0
  6
Continuous
 62
     7
100
AcDbLine
 10
67.1559082094
 20
19.3111643713
 30
0.0
 11
67.2120064378
 21
19.312105967
 31
0.0
  0
LINE
  5
1592
330
218
100
AcDbEntity
  8
0
  6
Continuous
 62
     7
100
AcDbLine
 10
67.0404352916
 20
19.2755106942
 30
0.0
 11
67.07387328840001
 21
19.276013865
 31
0.0
  0
LINE
  5
1593
330
218
100
AcDbEntity
  8
0
  6
Continuous
 62
     7
100
AcDbLine
 10
37.2181051408
 20
19.2719801921
 30
0.0
 11
37.3317875983
 21
19.273577225
 31
0.0
  0
LINE
  5
1594
330
218
100
AcDbEntity
  8
0
  6
Continuous
 62
     7
100
AcDbLine
 10
37.15074357840001
 20
19.2733081996
 30
0.0
 11
37.2683835419
 21
19.2749533844
 31
0.0
  0
LINE
  5
1595
330
218
100
AcDbEntity
  8
0
  6
Continuous
 62
     7
100
AcDbLine
 10
37.1551378142
 20
19.3046041643
 30
0.0
 11
37.27429190880001
 21
19.3062486693
 31
0.0
  0
LINE
  5
1596
330
218
100
AcDbEntity
  8
0
  6
Continuous
 62
     7
100
AcDbLine
 10
60.9141234305
 20
19.2648059429
 30
0.0
 11
61.5398172355
 21
19.2720770885
 31
0.0
  0
LINE
  5
1597
330
218
100
AcDbEntity
  8
0
  6
Continuous
 62
     7
100
AcDbLine
 10
61.36618004859999
 20
19.3026051111
 30
0.0
 11
61.6010390066
 21
19.3052229427
 31
0.0
  0
LWPOLYLINE
  5
1598
330
218
100
AcDbEntity
  8
0
  6
Continuous
 62
     7
100
AcDbPolyline
 90
        7
 70
     0
 43
0.0
 10
67.21150413869999
 20
19.28085230309999
 10
67.23097253
 20
19.2810724917
 10
67.2382863677
 20
19.2811137307
 10
67.2439770146
 20
19.2811087658
 10
67.24804001009999
 20
19.2810574238
 10
67.250465818
 20
19.2809593335
 10
67.25124852029999
 20
19.2808190302
  0
LINE
  5
1599
330
218
100
AcDbEntity
  8
0
  6
Continuous
 62
     7
100
AcDbLine
 10
31.613055487
 20
19.4461606743
 30
0.0
 11
31.6563570746
 21
19.4466399387
 31
0.0
  0
LINE
  5
159A
330
218
100
AcDbEntity
  8
0
  6
Continuous
 62
     7
100
AcDbLine
 10
60.39319530100001
 20
19.2596082065
 30
0.0
 11
60.9141234305
 21
19.2648059429
 31
0.0
  0
LWPOLYLINE
  5
159B
330
218
100
AcDbEntity
  8
0
  6
Continuous
 62
     7
100
AcDbPolyline
 90
        7
 70
     0
 43
0.0
 10
67.2120064378
 20
19.312105967
 10
67.2308792181
 20
19.3123124926
 10
67.23795665139999
 20
19.3123482259
 10
67.243439004
 20
19.3123383335
 10
67.24731444559999
 20
19.3122826547
 10
67.2495684599
 20
19.3121808413
 10
67.250213553
 20
19.312051887
  0
LINE
  5
159C
330
218
100
AcDbEntity
  8
0
  6
Continuous
 62
     7
100
AcDbLine
 10
61.5398172355
 20
19.2720770885
 30
0.0
 11
61.69445259189999
 21
19.2736551097
 31
0.0
  0
LINE
  5
159D
330
218
100
AcDbEntity
  8
0
  6
Continuous
 62
     7
100
AcDbLine
 10
60.3424986729
 20
19.2921349505
 30
0.0
 11
61.36618004859999
 21
19.3026051111
 31
0.0
  0
LINE
  5
159E
330
218
100
AcDbEntity
  8
0
  6
Continuous
 62
     7
100
AcDbLine
 10
61.6010390066
 20
19.3052229427
 30
0.0
 11
61.76528121789999
 21
19.3067477822
 31
0.0
  0
LINE
  5
159F
330
218
100
AcDbEntity
  8
0
  6
Continuous
 62
     7
100
AcDbLine
 10
37.3317875983
 20
19.273577225
 30
0.0
 11
37.45608643340001
 21
19.274778005
 31
0.0
  0
LINE
  5
15A0
330
218
100
AcDbEntity
  8
0
  6
Continuous
 62
     7
100
AcDbLine
 10
37.2683835419
 20
19.2749533844
 30
0.0
 11
37.3970466256
 21
19.2761983908
 31
0.0
  0
LINE
  5
15A1
330
218
100
AcDbEntity
  8
0
  6
Continuous
 62
     7
100
AcDbLine
 10
61.60677489939999
 20
19.2740486811
 30
0.0
 11
61.7748468004
 21
19.2755897984
 31
0.0
  0
LINE
  5
15A2
330
218
100
AcDbEntity
  8
0
  6
Continuous
 62
     7
100
AcDbLine
 10
37.27429190880001
 20
19.3062486693
 30
0.0
 11
37.40447360280001
 21
19.3074838354
 31
0.0
  0
LINE
  5
15A3
330
218
100
AcDbEntity
  8
0
  6
Continuous
 62
     7
100
AcDbLine
 10
59.3810920571
 20
19.2512334705
 30
0.0
 11
60.39319530100001
 21
19.2596082065
 31
0.0
  0
LINE
  5
15A4
330
218
100
AcDbEntity
  8
0
  6
Continuous
 62
     7
100
AcDbLine
 10
59.19008946419999
 20
19.2822937776
 30
0.0
 11
60.3424986729
 21
19.2921349505
 31
0.0
  0
LINE
  5
15A5
330
218
100
AcDbEntity
  8
0
  6
Continuous
 62
     7
100
AcDbLine
 10
58.05438613319999
 20
19.2413348782
 30
0.0
 11
59.3810920571
 21
19.2512334705
 31
0.0
  0
LINE
  5
15A6
330
218
100
AcDbEntity
  8
0
  6
Continuous
 62
     7
100
AcDbLine
 10
58.0616045951
 20
19.2740270097
 30
0.0
 11
59.19008946419999
 21
19.2822937776
 31
0.0
  0
LINE
  5
15A7
330
218
100
AcDbEntity
  8
0
  6
Continuous
 62
     7
100
AcDbLine
 10
61.69445259189999
 20
19.2736551097
 30
0.0
 11
61.852757002
 21
19.2748582705
 31
0.0
  0
LINE
  5
15A8
330
218
100
AcDbEntity
  8
0
  6
Continuous
 62
     7
100
AcDbLine
 10
57.0597007439
 20
19.2347001625
 30
0.0
 11
58.05438613319999
 21
19.2413348782
 31
0.0
  0
LINE
  5
15A9
330
218
100
AcDbEntity
  8
0
  6
Continuous
 62
     7
100
AcDbLine
 10
57.1658917593
 20
19.2681315798
 30
0.0
 11
58.0616045951
 21
19.2740270097
 31
0.0
  0
LWPOLYLINE
  5
15AA
330
218
100
AcDbEntity
  8
0
  6
Continuous
 62
     7
100
AcDbPolyline
 90
        3
 70
     0
 43
0.0
 10
67.07387328840001
 20
19.276013865
 10
67.0889924304
 20
19.2761402241
 10
67.09436702959999
 20
19.2761399037
  0
LINE
  5
15AB
330
218
100
AcDbEntity
  8
0
  6
Continuous
 62
     7
100
AcDbLine
 10
56.2880320443
 20
19.2300573184
 30
0.0
 11
57.0597007439
 21
19.2347001625
 31
0.0
  0
LINE
  5
15AC
330
218
100
AcDbEntity
  8
0
  6
Continuous
 62
     7
100
AcDbLine
 10
61.76528121789999
 20
19.3067477822
 30
0.0
 11
61.93022582010001
 21
19.3078559059
 31
0.0
  0
LINE
  5
15AD
330
218
100
AcDbEntity
  8
0
  6
Continuous
 62
     7
100
AcDbLine
 10
61.7748468004
 20
19.2755897984
 30
0.0
 11
61.9408093997
 21
19.2766790184
 31
0.0
  0
LINE
  5
15AE
330
218
100
AcDbEntity
  8
0
  6
Continuous
 62
     7
100
AcDbLine
 10
56.0553198426
 20
19.2615177973
 30
0.0
 11
57.1658917593
 21
19.2681315798
 31
0.0
  0
LINE
  5
15AF
330
218
100
AcDbEntity
  8
0
  6
Continuous
 62
     7
100
AcDbLine
 10
55.4070905863
 20
19.2253357402
 30
0.0
 11
56.2880320443
 21
19.2300573184
 31
0.0
  0
LINE
  5
15B0
330
218
100
AcDbEntity
  8
0
  6
Continuous
 62
     7
100
AcDbLine
 10
55.07115193529999
 20
19.2564690589
 30
0.0
 11
56.0553198426
 21
19.2615177973
 31
0.0
  0
LINE
  5
15B1
330
218
100
AcDbEntity
  8
0
  6
Continuous
 62
     7
100
AcDbLine
 10
37.3970466256
 20
19.2761983908
 30
0.0
 11
37.5355548265
 21
19.2770322483
 31
0.0
  0
LINE
  5
15B2
330
218
100
AcDbEntity
  8
0
  6
Continuous
 62
     7
100
AcDbLine
 10
37.45608643340001
 20
19.274778005
 30
0.0
 11
37.5904381873
 21
19.2755761597
 31
0.0
  0
LINE
  5
15B3
330
218
100
AcDbEntity
  8
0
  6
Continuous
 62
     7
100
AcDbLine
 10
37.40447360280001
 20
19.3074838354
 30
0.0
 11
37.5445498336
 21
19.3083005739
 31
0.0
  0
LINE
  5
15B4
330
218
100
AcDbEntity
  8
0
  6
Continuous
 62
     7
100
AcDbLine
 10
31.6563570746
 20
19.4466399387
 30
0.0
 11
31.7519608637
 21
19.4471992766
 31
0.0
  0
LINE
  5
15B5
330
218
100
AcDbEntity
  8
0
  6
Continuous
 62
     7
100
AcDbLine
 10
61.852757002
 20
19.2748582705
 30
0.0
 11
62.0093749151
 21
19.2756336986
 31
0.0
  0
LWPOLYLINE
  5
15B6
330
218
100
AcDbEntity
  8
0
  6
Continuous
 62
     7
100
AcDbPolyline
 90
        3
 70
     0
 43
0.0
 10
61.7919877847
 20
19.4238795132
 10
61.81510763270001
 20
19.4239735762
 10
64.83126331220001
 20
19.43803846299999
  0
LWPOLYLINE
  5
15B7
330
218
100
AcDbEntity
  8
0
  6
Continuous
 62
     7
100
AcDbPolyline
 90
        4
 70
     0
 43
0.0
 10
64.83126331220001
 20
19.43803846299999
 10
65.14226720829999
 20
19.4393353228
 10
65.25527540119999
 20
19.4397970901
 10
65.37298365489999
 20
19.440272238
  0
LINE
  5
15B8
330
218
100
AcDbEntity
  8
0
  6
Continuous
 62
     7
100
AcDbLine
 10
54.0514384743
 20
19.2521249031
 30
0.0
 11
55.07115193529999
 21
19.2564690589
 31
0.0
  0
LINE
  5
15B9
330
218
100
AcDbEntity
  8
0
  6
Continuous
 62
     7
100
AcDbLine
 10
61.74468766890001
 20
19.4236922237
 30
0.0
 11
61.7919877847
 21
19.4238795132
 31
0.0
  0
LWPOLYLINE
  5
15BA
330
218
100
AcDbEntity
  8
0
  6
Continuous
 62
     7
100
AcDbPolyline
 90
        3
 70
     0
 43
0.0
 10
65.37298365489999
 20
19.440272238
 10
65.62224862859999
 20
19.4412586692
 10
65.75262890020001
 20
19.4417626804
  0
LWPOLYLINE
  5
15BB
330
218
100
AcDbEntity
  8
0
  6
Continuous
 62
     7
100
AcDbPolyline
 90
        3
 70
     0
 43
0.0
 10
61.6751538958
 20
19.4234294843
 10
61.6977592553
 20
19.42351324
 10
61.74468766890001
 20
19.4236922237
  0
LINE
  5
15BC
330
218
100
AcDbEntity
  8
0
  6
Continuous
 62
     7
100
AcDbLine
 10
65.75262890020001
 20
19.4417626804
 30
0.0
 11
66.01608403670001
 21
19.4427535932
 31
0.0
  0
LWPOLYLINE
  5
15BD
330
218
100
AcDbEntity
  8
0
  6
Continuous
 62
     7
100
AcDbPolyline
 90
        3
 70
     0
 43
0.0
 10
61.61317592069999
 20
19.4232079395
 10
61.6327682217
 20
19.4232766704
 10
61.6751538958
 20
19.4234294843
  0
LINE
  5
15BE
330
218
100
AcDbEntity
  8
0
  6
Continuous
 62
     7
100
AcDbLine
 10
66.01608403670001
 20
19.4427535932
 30
0.0
 11
66.2710584191
 21
19.443672762
 31
0.0
  0
LINE
  5
15BF
330
218
100
AcDbEntity
  8
0
  6
Continuous
 62
     7
100
AcDbLine
 10
66.2710584191
 20
19.443672762
 30
0.0
 11
66.5117563759
 21
19.444497912
 31
0.0
  0
LINE
  5
15C0
330
218
100
AcDbEntity
  8
0
  6
Continuous
 62
     7
100
AcDbLine
 10
53.13470077299999
 20
19.2489945694
 30
0.0
 11
54.0514384743
 21
19.2521249031
 31
0.0
  0
LINE
  5
15C1
330
218
100
AcDbEntity
  8
0
  6
Continuous
 62
     7
100
AcDbLine
 10
61.93022582010001
 20
19.3078559059
 30
0.0
 11
62.0918201517
 21
19.30851469
 31
0.0
  0
LINE
  5
15C2
330
218
100
AcDbEntity
  8
0
  6
Continuous
 62
     7
100
AcDbLine
 10
61.9408093997
 20
19.2766790184
 30
0.0
 11
62.10288700020001
 21
19.2773111304
 31
0.0
  0
LINE
  5
15C3
330
218
100
AcDbEntity
  8
0
  6
Continuous
 62
     7
100
AcDbLine
 10
66.5117563759
 20
19.444497912
 30
0.0
 11
66.8480187555
 21
19.4455657285
 31
0.0
  0
LINE
  5
15C4
330
218
100
AcDbEntity
  8
0
  6
Continuous
 62
     7
100
AcDbLine
 10
52.0640348084
 20
19.2463109926
 30
0.0
 11
53.13470077299999
 21
19.2489945694
 31
0.0
  0
LINE
  5
15C5
330
218
100
AcDbEntity
  8
0
  6
Continuous
 62
     7
100
AcDbLine
 10
66.8480187555
 20
19.4455657285
 30
0.0
 11
67.4279268146
 21
19.4470614015
 31
0.0
  0
LINE
  5
15C6
330
218
100
AcDbEntity
  8
0
  6
Continuous
 62
     7
100
AcDbLine
 10
61.1283762811
 20
19.4218928437
 30
0.0
 11
61.61317592069999
 21
19.4232079395
 31
0.0
  0
LINE
  5
15C7
330
218
100
AcDbEntity
  8
0
  6
Continuous
 62
     7
100
AcDbLine
 10
37.5355548265
 20
19.2770322483
 30
0.0
 11
37.6826362084
 21
19.2774441743
 31
0.0
  0
LINE
  5
15C8
330
218
100
AcDbEntity
  8
0
  6
Continuous
 62
     7
100
AcDbLine
 10
61.0933765232
 20
19.4218279325
 30
0.0
 11
61.1283762811
 21
19.4218928437
 31
0.0
  0
LINE
  5
15C9
330
218
100
AcDbEntity
  8
0
  6
Continuous
 62
     7
100
AcDbLine
 10
37.5904381873
 20
19.2755761597
 30
0.0
 11
37.7327442057
 21
19.2759557119
 31
0.0
  0
LINE
  5
15CA
330
218
100
AcDbEntity
  8
0
  6
Continuous
 62
     7
100
AcDbLine
 10
37.5445498336
 20
19.3083005739
 30
0.0
 11
37.6926622386
 21
19.3086873414
 31
0.0
  0
LWPOLYLINE
  5
15CB
330
218
100
AcDbEntity
  8
0
  6
Continuous
 62
     7
100
AcDbPolyline
 90
        3
 70
     0
 43
0.0
 10
61.03251102729999
 20
19.4217255435
 10
61.0539962864
 20
19.4217601443
 10
61.0933765232
 20
19.4218279325
  0
LINE
  5
15CC
330
218
100
AcDbEntity
  8
0
  6
Continuous
 62
     7
100
AcDbLine
 10
62.0093749151
 20
19.2756336986
 30
0.0
 11
62.1615724607
 21
19.2759715421
 31
0.0
  0
LWPOLYLINE
  5
15CD
330
218
100
AcDbEntity
  8
0
  6
Continuous
 62
     7
100
AcDbPolyline
 90
        3
 70
     0
 43
0.0
 10
60.93492991619999
 20
19.4215899419
 10
60.9608730707
 20
19.4216226872
 10
61.03251102729999
 20
19.4217255435
  0
LINE
  5
15CE
330
218
100
AcDbEntity
  8
0
  6
Continuous
 62
     7
100
AcDbLine
 10
31.7519608637
 20
19.4471992766
 30
0.0
 11
31.9347672883
 21
19.447618374
 31
0.0
  0
LINE
  5
15CF
330
218
100
AcDbEntity
  8
0
  6
Continuous
 62
     7
100
AcDbLine
 10
51.03038004560001
 20
19.2447586903
 30
0.0
 11
52.0640348084
 21
19.2463109926
 31
0.0
  0
LINE
  5
15D0
330
218
100
AcDbEntity
  8
0
  6
Continuous
 62
     7
100
AcDbLine
 10
67.4279268146
 20
19.4470614015
 30
0.0
 11
67.8142730678
 21
19.4476297066
 31
0.0
  0
LWPOLYLINE
  5
15D1
330
218
100
AcDbEntity
  8
0
  6
Continuous
 62
     7
100
AcDbPolyline
 90
       13
 70
     0
 43
0.0
 10
49.9963859455
 20
19.213004691
 10
50.9565353733
 20
19.2134639928
 10
51.91276328909999
 20
19.21479483369999
 10
52.87084189529999
 20
19.2170111489
 10
53.82913635689999
 20
19.2200713041
 10
54.7871691897
 20
19.2239527817
 10
55.74549758569999
 20
19.2286122532
 10
56.7035070174
 20
19.2340146852
 10
57.6618393134
 20
19.2401127743
 10
58.6195013882
 20
19.2467242693
 10
59.57815714689999
 20
19.2542189136
 10
60.5392060788
 20
19.2629402315
 10
61.60677489939999
 20
19.2740486811
  0
LINE
  5
15D2
330
218
100
AcDbEntity
  8
0
  6
Continuous
 62
     7
100
AcDbLine
 10
62.0918201517
 20
19.30851469
 30
0.0
 11
62.24828109649999
 21
19.308719394
 31
0.0
  0
LINE
  5
15D3
330
218
100
AcDbEntity
  8
0
  6
Continuous
 62
     7
100
AcDbLine
 10
52.793126051
 20
19.4147537282
 30
0.0
 11
60.93492991619999
 21
19.4215899419
 31
0.0
  0
LWPOLYLINE
  5
15D4
330
218
100
AcDbEntity
  8
0
  6
Continuous
 62
     7
100
AcDbPolyline
 90
       11
 70
     0
 43
0.0
 10
49.9963859455
 20
19.2113887198
 10
50.48937346649999
 20
19.2115086742
 10
50.9822284001
 20
19.211866332
 10
51.4758700449
 20
19.2124628666
 10
51.9697833221
 20
19.2132947735
 10
52.46384213689999
 20
19.214360773
 10
52.9577237258
 20
19.2156553727
 10
53.45082117729999
 20
19.2171737646
 10
53.9437154574
 20
19.2189126293
 10
54.4399817146
 20
19.2208866324
 10
55.4070905863
 20
19.2253357402
  0
LINE
  5
15D5
330
218
100
AcDbEntity
  8
0
  6
Continuous
 62
     7
100
AcDbLine
 10
49.9963859455
 20
19.2442289385
 30
0.0
 11
51.03038004560001
 21
19.2447586903
 31
0.0
  0
LINE
  5
15D6
330
218
100
AcDbEntity
  8
0
  6
Continuous
 62
     7
100
AcDbLine
 10
62.10288700020001
 20
19.2773111304
 30
0.0
 11
62.25942568149999
 21
19.2774854252
 31
0.0
  0
LINE
  5
15D7
330
218
100
AcDbEntity
  8
0
  6
Continuous
 62
     7
100
AcDbLine
 10
32.8984129747
 20
19.2761399413
 30
0.0
 11
32.9037901894
 21
19.2761401902
 31
0.0
  0
LINE
  5
15D8
330
218
100
AcDbEntity
  8
0
  6
Continuous
 62
     7
100
AcDbLine
 10
31.9347672883
 20
19.447618374
 30
0.0
 11
32.17787229440001
 21
19.4476301593
 31
0.0
  0
LINE
  5
15D9
330
218
100
AcDbEntity
  8
0
  6
Continuous
 62
     7
100
AcDbLine
 10
48.95674455139999
 20
19.2447643844
 30
0.0
 11
49.9963859455
 21
19.2442289385
 31
0.0
  0
LINE
  5
15DA
330
218
100
AcDbEntity
  8
0
  6
Continuous
 62
     7
100
AcDbLine
 10
67.8142730678
 20
19.4476297066
 30
0.0
 11
68.05762755599999
 21
19.447618762
 31
0.0
  0
LINE
  5
15DB
330
218
100
AcDbEntity
  8
0
  6
Continuous
 62
     7
100
AcDbLine
 10
42.7054676667
 20
19.41787688119999
 30
0.0
 11
52.793126051
 21
19.4147537282
 31
0.0
  0
LINE
  5
15DC
330
218
100
AcDbEntity
  8
0
  6
Continuous
 62
     7
100
AcDbLine
 10
37.6826362084
 20
19.2774441743
 30
0.0
 11
37.8370202064
 21
19.2774194968
 31
0.0
  0
LINE
  5
15DD
330
218
100
AcDbEntity
  8
0
  6
Continuous
 62
     7
100
AcDbLine
 10
37.7327442057
 20
19.2759557119
 30
0.0
 11
37.8812775341
 21
19.2759076004
 31
0.0
  0
LINE
  5
15DE
330
218
100
AcDbEntity
  8
0
  6
Continuous
 62
     7
100
AcDbLine
 10
37.6926622386
 20
19.3086873414
 30
0.0
 11
37.8471222985
 21
19.3086347782
 31
0.0
  0
LINE
  5
15DF
330
218
100
AcDbEntity
  8
0
  6
Continuous
 62
     7
100
AcDbLine
 10
62.1615724607
 20
19.2759715421
 30
0.0
 11
62.3081093623
 21
19.2758765551
 31
0.0
  0
LINE
  5
15E0
330
218
100
AcDbEntity
  8
0
  6
Continuous
 62
     7
100
AcDbLine
 10
47.9168025788
 20
19.2463349569
 30
0.0
 11
48.95674455139999
 21
19.2447643844
 31
0.0
  0
LINE
  5
15E1
330
218
100
AcDbEntity
  8
0
  6
Continuous
 62
     7
100
AcDbLine
 10
32.17787229440001
 20
19.4476301593
 30
0.0
 11
32.56381396510001
 21
19.447063515
 31
0.0
  0
LINE
  5
15E2
330
218
100
AcDbEntity
  8
0
  6
Continuous
 62
     7
100
AcDbLine
 10
47.1156051612
 20
19.2482505186
 30
0.0
 11
47.9168025788
 21
19.2463349569
 31
0.0
  0
LINE
  5
15E3
330
218
100
AcDbEntity
  8
0
  6
Continuous
 62
     7
100
AcDbLine
 10
62.24828109649999
 20
19.308719394
 30
0.0
 11
62.3988280054
 21
19.3084804898
 31
0.0
  0
LINE
  5
15E4
330
218
100
AcDbEntity
  8
0
  6
Continuous
 62
     7
100
AcDbLine
 10
62.25942568149999
 20
19.2774854252
 30
0.0
 11
62.4090823821
 21
19.2772172288
 31
0.0
  0
LINE
  5
15E5
330
218
100
AcDbEntity
  8
0
  6
Continuous
 62
     7
100
AcDbLine
 10
32.56381396510001
 20
19.447063515
 30
0.0
 11
33.1431197929
 21
19.445570626
 31
0.0
  0
LWPOLYLINE
  5
15E6
330
218
100
AcDbEntity
  8
0
  6
Continuous
 62
     7
100
AcDbPolyline
 90
        9
 70
     0
 43
0.0
 10
46.05328755619999
 20
19.218896774
 10
46.5456704453
 20
19.2171614602
 10
47.03823089310001
 20
19.2156463001
 10
47.5315838279
 20
19.2143544297
 10
48.02511256119999
 20
19.2132906933
 10
48.5184958114
 20
19.2124605601
 10
49.01160689680001
 20
19.2118653037
 10
49.50393137359999
 20
19.211508413
 10
49.9963859455
 20
19.2113887198
  0
LINE
  5
15E7
330
218
100
AcDbEntity
  8
0
  6
Continuous
 62
     7
100
AcDbLine
 10
46.2307635001
 20
19.25105547
 30
0.0
 11
47.1156051612
 21
19.2482505186
 31
0.0
  0
LINE
  5
15E8
330
218
100
AcDbEntity
  8
0
  6
Continuous
 62
     7
100
AcDbLine
 10
68.05762755599999
 20
19.447618762
 30
0.0
 11
68.24062530439999
 21
19.4472000245
 31
0.0
  0
LINE
  5
15E9
330
218
100
AcDbEntity
  8
0
  6
Continuous
 62
     7
100
AcDbLine
 10
33.1431197929
 20
19.445570626
 30
0.0
 11
33.8446744544
 21
19.4432349538
 31
0.0
  0
LINE
  5
15EA
330
218
100
AcDbEntity
  8
0
  6
Continuous
 62
     7
100
AcDbLine
 10
37.8812775341
 20
19.2759076004
 30
0.0
 11
38.0351144486
 21
19.275424211
 31
0.0
  0
LINE
  5
15EB
330
218
100
AcDbEntity
  8
0
  6
Continuous
 62
     7
100
AcDbLine
 10
37.8370202064
 20
19.2774194968
 30
0.0
 11
37.9974194614
 21
19.2769407681
 31
0.0
  0
LINE
  5
15EC
330
218
100
AcDbEntity
  8
0
  6
Continuous
 62
     7
100
AcDbLine
 10
37.8471222985
 20
19.3086347782
 30
0.0
 11
38.0070313447
 21
19.308131225
 31
0.0
  0
LINE
  5
15ED
330
218
100
AcDbEntity
  8
0
  6
Continuous
 62
     7
100
AcDbLine
 10
33.8446744544
 20
19.4432349538
 30
0.0
 11
34.849535404
 21
19.439339305
 31
0.0
  0
LINE
  5
15EE
330
218
100
AcDbEntity
  8
0
  6
Continuous
 62
     7
100
AcDbLine
 10
45.0679392689
 20
19.2230136112
 30
0.0
 11
46.05328755619999
 21
19.218896774
 31
0.0
  0
LINE
  5
15EF
330
218
100
AcDbEntity
  8
0
  6
Continuous
 62
     7
100
AcDbLine
 10
45.22513800279999
 20
19.2550838849
 30
0.0
 11
46.2307635001
 21
19.25105547
 31
0.0
  0
LINE
  5
15F0
330
218
100
AcDbEntity
  8
0
  6
Continuous
 62
     7
100
AcDbLine
 10
34.849535404
 20
19.439339305
 30
0.0
 11
36.2484130168
 21
19.4332384697
 31
0.0
  0
LINE
  5
15F1
330
218
100
AcDbEntity
  8
0
  6
Continuous
 62
     7
100
AcDbLine
 10
62.3081093623
 20
19.2758765551
 30
0.0
 11
62.4480916307
 21
19.2753559896
 31
0.0
  0
LINE
  5
15F2
330
218
100
AcDbEntity
  8
0
  6
Continuous
 62
     7
100
AcDbLine
 10
36.2484130168
 20
19.4332384697
 30
0.0
 11
37.7351422396
 21
19.4260615778
 31
0.0
  0
LINE
  5
15F3
330
218
100
AcDbEntity
  8
0
  6
Continuous
 62
     7
100
AcDbLine
 10
44.13304380409999
 20
19.2276825604
 30
0.0
 11
45.0679392689
 21
19.2230136112
 31
0.0
  0
LINE
  5
15F4
330
218
100
AcDbEntity
  8
0
  6
Continuous
 62
     7
100
AcDbLine
 10
44.2143189071
 20
19.2600135922
 30
0.0
 11
45.22513800279999
 21
19.2550838849
 31
0.0
  0
LINE
  5
15F5
330
218
100
AcDbEntity
  8
0
  6
Continuous
 62
     7
100
AcDbLine
 10
37.7351422396
 20
19.4260615778
 30
0.0
 11
42.7054676667
 21
19.41787688119999
 31
0.0
  0
LINE
  5
15F6
330
218
100
AcDbEntity
  8
0
  6
Continuous
 62
     7
100
AcDbLine
 10
43.30933363959999
 20
19.2323812584
 30
0.0
 11
44.13304380409999
 21
19.2276825604
 31
0.0
  0
LINE
  5
15F7
330
218
100
AcDbEntity
  8
0
  6
Continuous
 62
     7
100
AcDbLine
 10
62.3988280054
 20
19.3084804898
 30
0.0
 11
62.54190329850001
 21
19.3078078565
 31
0.0
  0
LINE
  5
15F8
330
218
100
AcDbEntity
  8
0
  6
Continuous
 62
     7
100
AcDbLine
 10
62.4090823821
 20
19.2772172288
 30
0.0
 11
62.550588458
 21
19.2765225664
 31
0.0
  0
LINE
  5
15F9
330
218
100
AcDbEntity
  8
0
  6
Continuous
 62
     7
100
AcDbLine
 10
42.81125217
 20
19.2682304738
 30
0.0
 11
44.2143189071
 21
19.2600135922
 31
0.0
  0
LINE
  5
15FA
330
218
100
AcDbEntity
  8
0
  6
Continuous
 62
     7
100
AcDbLine
 10
37.9974194614
 20
19.2769407681
 30
0.0
 11
38.1622835134
 21
19.276003205
 31
0.0
  0
LINE
  5
15FB
330
218
100
AcDbEntity
  8
0
  6
Continuous
 62
     7
100
AcDbLine
 10
42.2510401613
 20
19.2391729046
 30
0.0
 11
43.30933363959999
 21
19.2323812584
 31
0.0
  0
LINE
  5
15FC
330
218
100
AcDbEntity
  8
0
  6
Continuous
 62
     7
100
AcDbLine
 10
38.0351144486
 20
19.275424211
 30
0.0
 11
38.1926363517
 21
19.2745046955
 31
0.0
  0
LINE
  5
15FD
330
218
100
AcDbEntity
  8
0
  6
Continuous
 62
     7
100
AcDbLine
 10
38.0070313447
 20
19.308131225
 30
0.0
 11
38.1714141211
 21
19.307172457
 31
0.0
  0
LINE
  5
15FE
330
218
100
AcDbEntity
  8
0
  6
Continuous
 62
     7
100
AcDbLine
 10
41.5630506016
 20
19.2765971254
 30
0.0
 11
42.81125217
 21
19.2682304738
 31
0.0
  0
LINE
  5
15FF
330
218
100
AcDbEntity
  8
0
  6
Continuous
 62
     7
100
AcDbLine
 10
68.24062530439999
 20
19.4472000245
 30
0.0
 11
68.3363310276
 21
19.4466406505
 31
0.0
  0
LINE
  5
1600
330
218
100
AcDbEntity
  8
0
  6
Continuous
 62
     7
100
AcDbLine
 10
40.6089475039
 20
19.2512550291
 30
0.0
 11
42.2510401613
 21
19.2391729046
 31
0.0
  0
LINE
  5
1601
330
218
100
AcDbEntity
  8
0
  6
Continuous
 62
     7
100
AcDbLine
 10
62.4480916307
 20
19.2753559896
 30
0.0
 11
62.57920391999999
 21
19.2744225548
 31
0.0
  0
LINE
  5
1602
330
218
100
AcDbEntity
  8
0
  6
Continuous
 62
     7
100
AcDbLine
 10
40.30112687969999
 20
19.2864071743
 30
0.0
 11
41.5630506016
 21
19.2765971254
 31
0.0
  0
LINE
  5
1603
330
218
100
AcDbEntity
  8
0
  6
Continuous
 62
     7
100
AcDbLine
 10
39.5950642405
 20
19.25964961
 30
0.0
 11
40.6089475039
 21
19.2512550291
 31
0.0
  0
LWPOLYLINE
  5
1604
330
218
100
AcDbEntity
  8
0
  6
Continuous
 62
     7
100
AcDbPolyline
 90
       12
 70
     0
 43
0.0
 10
39.45356584400001
 20
19.2629401909
 10
40.41461474320001
 20
19.2542188494
 10
41.37327051289999
 20
19.2467241983
 10
42.3309325856
 20
19.2401127147
 10
43.2892648391
 20
19.2340146668
 10
44.2472743113
 20
19.2286122772
 10
45.2056027143
 20
19.2239528191
 10
46.16363553569999
 20
19.2200713417
 10
47.1219300067
 20
19.2170111777
 10
48.08000859829999
 20
19.21479485
 10
49.03623651189999
 20
19.2134640003
 10
49.9963859455
 20
19.213004691
  0
LINE
  5
1605
330
218
100
AcDbEntity
  8
0
  6
Continuous
 62
     7
100
AcDbLine
 10
38.1622835134
 20
19.276003205
 30
0.0
 11
38.3298486193
 21
19.2746123846
 31
0.0
  0
LINE
  5
1606
330
218
100
AcDbEntity
  8
0
  6
Continuous
 62
     7
100
AcDbLine
 10
38.1714141211
 20
19.307172457
 30
0.0
 11
38.3367598268
 21
19.3057799368
 31
0.0
  0
LINE
  5
1607
330
218
100
AcDbEntity
  8
0
  6
Continuous
 62
     7
100
AcDbLine
 10
32.7548677212
 20
19.3123468366
 30
0.0
 11
32.7706438047
 21
19.3122305547
 31
0.0
  0
LINE
  5
1608
330
218
100
AcDbEntity
  8
0
  6
Continuous
 62
     7
100
AcDbLine
 10
38.1926363517
 20
19.2745046955
 30
0.0
 11
38.35071065000001
 21
19.2731646514
 31
0.0
  0
LINE
  5
1609
330
218
100
AcDbEntity
  8
0
  6
Continuous
 62
     7
100
AcDbLine
 10
62.54190329850001
 20
19.3078078565
 30
0.0
 11
62.6756757031
 21
19.3067123753
 31
0.0
  0
LINE
  5
160A
330
218
100
AcDbEntity
  8
0
  6
Continuous
 62
     7
100
AcDbLine
 10
32.75454552780001
 20
19.281112363
 30
0.0
 11
32.7707569165
 21
19.280985079
 31
0.0
  0
LINE
  5
160B
330
218
100
AcDbEntity
  8
0
  6
Continuous
 62
     7
100
AcDbLine
 10
62.550588458
 20
19.2765225664
 30
0.0
 11
62.6826718757
 21
19.2754135296
 31
0.0
  0
LINE
  5
160C
330
218
100
AcDbEntity
  8
0
  6
Continuous
 62
     7
100
AcDbLine
 10
32.9037901894
 20
19.2761401902
 30
0.0
 11
32.9189128072
 21
19.2760137007
 31
0.0
  0
LINE
  5
160D
330
218
100
AcDbEntity
  8
0
  6
Continuous
 62
     7
100
AcDbLine
 10
39.0751739472
 20
19.2648433924
 30
0.0
 11
39.5950642405
 21
19.25964961
 31
0.0
  0
LINE
  5
160E
330
218
100
AcDbEntity
  8
0
  6
Continuous
 62
     7
100
AcDbLine
 10
39.0136240302
 20
19.2984637488
 30
0.0
 11
40.30112687969999
 21
19.2864071743
 31
0.0
  0
LWPOLYLINE
  5
160F
330
218
100
AcDbEntity
  8
0
  6
Continuous
 62
     7
100
AcDbPolyline
 90
        8
 70
     0
 43
0.0
 10
67.09436702959999
 20
19.2761399037
 10
67.09827333319999
 20
19.2760969018
 10
67.10070954799999
 20
19.2760113092
 10
67.1016687443
 20
19.2758829231
 10
67.10116494250001
 20
19.2757123386
 10
67.0991967586
 20
19.275499437
 10
67.0958123012
 20
19.2752461727
 10
67.09103779670001
 20
19.2749536191
  0
LINE
  5
1610
330
218
100
AcDbEntity
  8
0
  6
Continuous
 62
     7
100
AcDbLine
 10
38.3298486193
 20
19.2746123846
 30
0.0
 11
39.45356584400001
 21
19.2629401909
 31
0.0
  0
LINE
  5
1611
330
218
100
AcDbEntity
  8
0
  6
Continuous
 62
     7
100
AcDbLine
 10
38.3367598268
 20
19.3057799368
 30
0.0
 11
39.0136240302
 21
19.2984637488
 31
0.0
  0
LINE
  5
1612
330
218
100
AcDbEntity
  8
0
  6
Continuous
 62
     7
100
AcDbLine
 10
38.5024740441
 20
19.2714844922
 30
0.0
 11
39.0751739472
 21
19.2648433924
 31
0.0
  0
LINE
  5
1613
330
218
100
AcDbEntity
  8
0
  6
Continuous
 62
     7
100
AcDbLine
 10
38.35071065000001
 20
19.2731646514
 30
0.0
 11
38.5024740441
 21
19.2714844922
 31
0.0
  0
LINE
  5
1614
330
218
100
AcDbEntity
  8
0
  6
Continuous
 62
     7
100
AcDbLine
 10
62.57920391999999
 20
19.2744225548
 30
0.0
 11
62.7000411351
 21
19.2730891513
 31
0.0
  0
LWPOLYLINE
  5
1615
330
218
100
AcDbEntity
  8
0
  6
Continuous
 62
     7
100
AcDbPolyline
 90
        5
 70
     0
 43
0.0
 10
68.3363310276
 20
19.4466406505
 10
68.3796787078
 20
19.4461612364
 10
68.3950796104
 20
19.4458885897
 10
68.4062437791
 20
19.4455918193
 10
68.4131454282
 20
19.4452694087
  0
LINE
  5
1616
330
218
100
AcDbEntity
  8
0
  6
Continuous
 62
     7
100
AcDbLine
 10
62.6756757031
 20
19.3067123753
 30
0.0
 11
62.79871109800001
 21
19.305204175
 31
0.0
  0
LINE
  5
1617
330
218
100
AcDbEntity
  8
0
  6
Continuous
 62
     7
100
AcDbLine
 10
62.6826718757
 20
19.2754135296
 30
0.0
 11
62.8041011718
 21
19.2739000835
 31
0.0
  0
LINE
  5
1618
330
218
100
AcDbEntity
  8
0
  6
Continuous
 62
     7
100
AcDbLine
 10
32.7706438047
 20
19.3122305547
 30
0.0
 11
32.8059004866
 21
19.311722458
 31
0.0
  0
LINE
  5
1619
330
218
100
AcDbEntity
  8
0
  6
Continuous
 62
     7
100
AcDbLine
 10
32.7707569165
 20
19.280985079
 30
0.0
 11
32.8070965264
 21
19.2804520744
 31
0.0
  0
LINE
  5
161A
330
218
100
AcDbEntity
  8
0
  6
Continuous
 62
     7
100
AcDbLine
 10
32.9189128072
 20
19.2760137007
 30
0.0
 11
32.9523553165
 21
19.27551037
 31
0.0
  0
LINE
  5
161B
330
218
100
AcDbEntity
  8
0
  6
Continuous
 62
     7
100
AcDbLine
 10
62.7000411351
 20
19.2730891513
 30
0.0
 11
62.8100572062
 21
19.2713618349
 31
0.0
  0
LINE
  5
161C
330
218
100
AcDbEntity
  8
0
  6
Continuous
 62
     7
100
AcDbLine
 10
62.79871109800001
 20
19.305204175
 30
0.0
 11
62.9100765763
 21
19.3032947794
 31
0.0
  0
LINE
  5
161D
330
218
100
AcDbEntity
  8
0
  6
Continuous
 62
     7
100
AcDbLine
 10
62.8041011718
 20
19.2739000835
 30
0.0
 11
62.9138486441
 21
19.2719969701
 31
0.0
  0
LINE
  5
161E
330
218
100
AcDbEntity
  8
0
  6
Continuous
 62
     7
100
AcDbLine
 10
32.8059004866
 20
19.311722458
 30
0.0
 11
32.9168191705
 21
19.3095351103
 31
0.0
  0
LINE
  5
161F
330
218
100
AcDbEntity
  8
0
  6
Continuous
 62
     7
100
AcDbLine
 10
32.8070965264
 20
19.2804520744
 30
0.0
 11
32.9224788432
 21
19.2781579198
 31
0.0
  0
LINE
  5
1620
330
218
100
AcDbEntity
  8
0
  6
Continuous
 62
     7
100
AcDbLine
 10
32.9523553165
 20
19.27551037
 30
0.0
 11
33.0782023068
 21
19.272921771
 31
0.0
  0
LINE
  5
1621
330
218
100
AcDbEntity
  8
0
  6
Continuous
 62
     7
100
AcDbLine
 10
62.9100765763
 20
19.3032947794
 30
0.0
 11
62.97708598609999
 21
19.3018117367
 31
0.0
  0
LINE
  5
1622
330
218
100
AcDbEntity
  8
0
  6
Continuous
 62
     7
100
AcDbLine
 10
62.9138486441
 20
19.2719969701
 30
0.0
 11
62.9800584783
 21
19.2705191524
 31
0.0
  0
LINE
  5
1623
330
218
100
AcDbEntity
  8
0
  6
Continuous
 62
     7
100
AcDbLine
 10
62.8100572062
 20
19.2713618349
 30
0.0
 11
62.9084673021
 21
19.2692502889
 31
0.0
  0
LINE
  5
1624
330
218
100
AcDbEntity
  8
0
  6
Continuous
 62
     7
100
AcDbLine
 10
32.9224788432
 20
19.2781579198
 30
0.0
 11
33.1222873285
 21
19.2735351203
 31
0.0
  0
LINE
  5
1625
330
218
100
AcDbEntity
  8
0
  6
Continuous
 62
     7
100
AcDbLine
 10
32.9168191705
 20
19.3095351103
 30
0.0
 11
33.1084448774
 21
19.3051276714
 31
0.0
  0
LINE
  5
1626
330
218
100
AcDbEntity
  8
0
  6
Continuous
 62
     7
100
AcDbLine
 10
33.0782023068
 20
19.272921771
 30
0.0
 11
33.2340461057
 21
19.2692249639
 31
0.0
  0
LINE
  5
1627
330
218
100
AcDbEntity
  8
0
  6
Continuous
 62
     7
100
AcDbLine
 10
33.1222873285
 20
19.2735351203
 30
0.0
 11
33.1906746733
 21
19.2718536495
 31
0.0
  0
LINE
  5
1628
330
218
100
AcDbEntity
  8
0
  6
Continuous
 62
     7
100
AcDbLine
 10
33.1084448774
 20
19.3051276714
 30
0.0
 11
33.3515885902
 21
19.2990085762
 31
0.0
  0
LINE
  5
1629
330
218
100
AcDbEntity
  8
0
  6
Continuous
 62
     7
100
AcDbLine
 10
33.3515885902
 20
19.2990085762
 30
0.0
 11
33.4681720803
 21
19.2959216473
 31
0.0
  0
LINE
  5
162A
330
218
100
AcDbEntity
  8
0
  6
Continuous
 62
     7
100
AcDbLine
 10
62.97708598609999
 20
19.3018117367
 30
0.0
 11
63.037865867
 21
19.3001700343
 31
0.0
  0
LINE
  5
162B
330
218
100
AcDbEntity
  8
0
  6
Continuous
 62
     7
100
AcDbLine
 10
62.9800584783
 20
19.2705191524
 30
0.0
 11
63.0403785163
 21
19.2688782571
 31
0.0
  0
LINE
  5
162C
330
218
100
AcDbEntity
  8
0
  6
Continuous
 62
     7
100
AcDbLine
 10
62.9084673021
 20
19.2692502889
 30
0.0
 11
62.96690180229999
 21
19.2676412857
 31
0.0
  0
LWPOLYLINE
  5
162D
330
218
100
AcDbEntity
  8
0
  6
Continuous
 62
     7
100
AcDbPolyline
 90
       15
 70
     0
 43
0.0
 10
63.037865867
 20
19.3001700343
 10
63.0922544985
 20
19.2983733044
 10
63.1170059808
 20
19.2974171412
 10
63.1401238958
 20
19.2964214328
 10
63.16159214959999
 20
19.2953870174
 10
63.1813977296
 20
19.2943144619
 10
63.1995321998
 20
19.2932038211
 10
63.2159988551
 20
19.2920546517
 10
63.230753388
 20
19.2908690147
 10
63.24376342699999
 20
19.2896485988
 10
63.2550104658
 20
19.2883940779
 10
63.264477147
 20
19.2871060194
 10
63.27213793399999
 20
19.2857864309
 10
63.2779581636
 20
19.2844377839
 10
63.2819623765
 20
19.2830592542
  0
LWPOLYLINE
  5
162E
330
218
100
AcDbEntity
  8
0
  6
Continuous
 62
     7
100
AcDbPolyline
 90
       15
 70
     0
 43
0.0
 10
63.0403785163
 20
19.2688782571
 10
63.0945282663
 20
19.2670770547
 10
63.1192037441
 20
19.2661171348
 10
63.1422310931
 20
19.2651178499
 10
63.1635963023
 20
19.2640803988
 10
63.18328048499999
 20
19.2630056191
 10
63.201270051
 20
19.261894655
 10
63.2175536065
 20
19.2607486093
 10
63.2321150928
 20
19.2595684428
 10
63.2449431007
 20
19.2583551849
 10
63.25602159359999
 20
19.2571097332
 10
63.2653394044
 20
19.2558329561
 10
63.27287972939999
 20
19.2545259702
 10
63.2786184791
 20
19.2531903573
 10
63.28257642949999
 20
19.2518255897
  0
LWPOLYLINE
  5
162F
330
218
100
AcDbEntity
  8
0
  6
Continuous
 62
     7
100
AcDbPolyline
 90
       15
 70
     0
 43
0.0
 10
62.96690180229999
 20
19.2676412857
 10
63.01907682319999
 20
19.2658841754
 10
63.0427965613
 20
19.2649505371
 10
63.0649564823
 20
19.2639789138
 10
63.08552859159999
 20
19.262970315
 10
63.1044977871
 20
19.2619252201
 10
63.1218451708
 20
19.2608442938
 10
63.1375571438
 20
19.2597280074
 10
63.15161009649999
 20
19.2585774217
 10
63.1639847061
 20
19.257393417
 10
63.1746637681
 20
19.2561770069
 10
63.1836311662
 20
19.254929083
 10
63.1908736875
 20
19.2536508907
 10
63.1963698374
 20
19.2523441654
 10
63.20013819999999
 20
19.251008328
  0
LWPOLYLINE
  5
1633
330
218
100
AcDbEntity
  8
0
  6
Continuous
 62
     7
100
AcDbPolyline
 90
        5
 70
     0
 43
0.0
 10
32.7425776232
 20
19.3120499781
 10
32.7432232104
 20
19.3121789414
 10
32.7454811345
 20
19.3122808809
 10
32.7493683828
 20
19.3123367398
 10
32.7548677212
 20
19.3123468366
  0
LWPOLYLINE
  5
1634
330
218
100
AcDbEntity
  8
0
  6
Continuous
 62
     7
100
AcDbPolyline
 90
        5
 70
     0
 43
0.0
 10
32.7415426635
 20
19.2808171212
 10
32.7423422751
 20
19.2809586617
 10
32.7447828377
 20
19.2810562866
 10
32.748855136
 20
19.28110735089999
 10
32.75454552780001
 20
19.281112363
  0
LWPOLYLINE
  5
1635
330
218
100
AcDbEntity
  8
0
  6
Continuous
 62
     7
100
AcDbPolyline
 90
        3
 70
     0
 43
0.0
 10
31.5769998909
 20
19.4449190749
 10
31.57962399340001
 20
19.4452692325
 10
31.5865185937
 20
19.4455914928
  0
LINE
  5
16C2
330
218
100
AcDbEntity
  8
0
  6
Continuous
 62
     7
100
AcDbLine
 10
68.4131454282
 20
19.4452694087
 30
0.0
 11
68.41577200020001
 21
19.4449190749
 31
0.0
  0
LINE
  5
16D3
330
218
100
AcDbEntity
  8
0
  6
Continuous
 62
     7
100
AcDbLine
 10
49.9963859455
 20
19.2113887198
 30
0.0
 11
49.9963859455
 21
19.213004691
 31
0.0
  0
LINE
  5
16D4
330
218
100
AcDbEntity
  8
0
  6
CENTER
 62
     7
100
AcDbLine
 10
49.99638594549999
 20
15.25397923271118
 30
0.0
 11
49.9963859455
 21
43.64526452464221
 31
0.0
  0
LWPOLYLINE
  5
16E3
330
218
100
AcDbEntity
  8
0
  6
Continuous
 62
     7
100
AcDbPolyline
 90
        3
 70
     0
 43
0.0
 10
63.2819623765
 20
19.2830592542
 10
63.2841177445
 20
19.2816653869
 10
63.28453914229999
 20
19.2807078931
  0
LWPOLYLINE
  5
16E4
330
218
100
AcDbEntity
  8
0
  6
Continuous
 62
     7
100
AcDbPolyline
 90
        3
 70
     0
 43
0.0
 10
63.28257642949999
 20
19.2518255897
 10
63.284759043
 20
19.2503912616
 10
63.28515463
 20
19.2494712474
  0
LWPOLYLINE
  5
16E5
330
218
100
AcDbEntity
  8
0
  6
Continuous
 62
     7
100
AcDbPolyline
 90
       12
 70
     0
 43
0.0
 10
63.20013819999999
 20
19.251008328
 10
63.2022108056
 20
19.2495958949
 10
63.20240316359999
 20
19.2481508672
 10
63.2007315407
 20
19.2466721808
 10
63.1971875311
 20
19.2451630272
 10
63.1917677016
 20
19.2436255022
 10
63.18448664539999
 20
19.2420618281
 10
63.17535327539999
 20
19.2404741754
 10
63.1643924791
 20
19.2388647945
 10
63.1516313997
 20
19.2372366015
 10
63.13708135159999
 20
19.2355897697
 10
63.1207650838
 20
19.2339256487
  0
LWPOLYLINE
  5
16F7
330
218
100
AcDbEntity
  8
0
  6
Continuous
 62
     7
100
AcDbPolyline
 90
       13
 70
     0
 43
0.0
 10
36.792633691
 20
19.251008328
 10
36.7964019597
 20
19.2523441349
 10
36.8018978746
 20
19.253650824
 10
36.80914001810001
 20
19.2549289734
 10
36.8181068765
 20
19.2561768505
 10
36.8287852171
 20
19.2573932125
 10
36.8411589327
 20
19.2585771689
 10
36.8552108274
 20
19.2597277089
 10
36.8709215714
 20
19.2608439517
 10
36.8882676733
 20
19.2619248418
 10
36.9072351695
 20
19.2629698928
 10
36.9278049403
 20
19.2639784273
 10
36.9499614891
 20
19.2649499624
  0
LWPOLYLINE
  5
16F8
330
218
100
AcDbEntity
  8
0
  6
Continuous
 62
     7
100
AcDbPolyline
 90
       13
 70
     0
 43
0.0
 10
36.7101954616
 20
19.2518255897
 10
36.714153401
 20
19.2531903562
 10
36.7198921287
 20
19.2545259685
 10
36.7274324197
 20
19.2558329544
 10
36.7367501874
 20
19.2571097319
 10
36.7478286298
 20
19.2583551844
 10
36.7606565818
 20
19.2595684433
 10
36.7752180083
 20
19.2607486111
 10
36.7915015021
 20
19.2618946583
 10
36.8094910063
 20
19.2630056241
 10
36.8291751289
 20
19.2640804055
 10
36.8505402789
 20
19.2651178585
 10
36.8735675799
 20
19.266117145
  0
LWPOLYLINE
  5
16F9
330
218
100
AcDbEntity
  8
0
  6
Continuous
 62
     7
100
AcDbPolyline
 90
       13
 70
     0
 43
0.0
 10
36.7108095145
 20
19.2830592542
 10
36.7148109996
 20
19.2844370329
 10
36.72062652760001
 20
19.2857849651
 10
36.7282806046
 20
19.2871038747
 10
36.7377386187
 20
19.2883912913
 10
36.7489750645
 20
19.2896452072
 10
36.76197263050001
 20
19.2908650583
 10
36.7767128786
 20
19.2920501746
 10
36.7931634314
 20
19.2931988661
 10
36.8112800134
 20
19.294309071
 10
36.8310658849
 20
19.2953812332
 10
36.8525125737
 20
19.2964152984
 10
36.8756071086
 20
19.2974106984
  0
LINE
  5
1702
330
218
100
AcDbEntity
  8
0
  6
Continuous
 62
     7
100
AcDbLine
 10
16.9963859458
 20
36.9972490703
 30
0.0
 11
82.9963859453
 21
36.9972490703
 31
0.0
  0
LWPOLYLINE
  5
1709
330
218
100
AcDbEntity
  8
0
  6
Continuous
 62
     7
100
AcDbPolyline
 90
       41
 70
     0
 43
0.0
 10
19.3372300508
 20
39.49716806860001
 10
19.2608854936
 20
39.4965369063
 10
19.1751377915
 20
39.49279258340001
 10
19.0895692097
 20
39.4858441829
 10
19.0043185041
 20
39.4757031375
 10
18.9195241508
 20
39.4623837007
 10
18.835288007
 20
39.44589850030001
 10
18.7517101063
 20
39.42627050730001
 10
18.66892544849999
 20
39.4035336894
 10
18.5870683316
 20
39.3777247606
 10
18.5062377961
 20
39.3488709989
 10
18.4265300649
 20
39.3170074453
 10
18.348072839
 20
39.2821895263
 10
18.2709926488
 20
39.24447544920001
 10
18.1953827113
 20
39.2039080721
 10
18.1213370058
 20
39.1605349183
 10
18.0489651922
 20
39.1144256864
 10
17.9783730122
 20
39.065650766
 10
17.9096559074
 20
39.0142738495
 10
17.8429130945
 20
38.9603636162
 10
17.7782267428
 20
38.9039906893
 10
17.7156729313
 20
38.8452238022
 10
17.6553549111
 20
38.7841564418
 10
17.5973736556
 20
38.7208844234
 10
17.5417979341
 20
38.6554835307
 10
17.4886915615
 20
38.5880342264
 10
17.4381410904
 20
38.5186456036
 10
17.3902308023
 20
38.4474284696
 10
17.3450201264
 20
38.3744664321
 10
17.3025599555
 20
38.2998487116
 10
17.2629177922
 20
38.2236970171
 10
17.2261586627
 20
38.1461344299
 10
17.1923300047
 20
38.0672520165
 10
17.1614706024
 20
37.9871445875
 10
17.1336272354
 20
37.9059433313
 10
17.1088439484
 20
37.8237803914
 10
17.087153295
 20
37.74075320420001
 10
17.0685827312
 20
37.65696035219999
 10
17.0531576539
 20
37.572538567
 10
17.0408993686
 20
37.4876211597
 10
17.031825218
 20
37.4023218079
  0
LINE
  5
170D
330
218
100
AcDbEntity
  8
0
  6
Continuous
 62
     7
100
AcDbLine
 10
80.6555418403
 20
39.49716806860001
 30
0.0
 11
80.45091876229999
 21
39.4957420067
 31
0.0
  0
LINE
  5
1713
330
218
100
AcDbEntity
  8
0
  6
Continuous
 62
     7
100
AcDbLine
 10
80.45091876229999
 20
39.4957420067
 30
0.0
 11
80.1664647289
 21
39.4943067672
 31
0.0
  0
LINE
  5
1718
330
218
100
AcDbEntity
  8
0
  6
Continuous
 62
     7
100
AcDbLine
 10
80.1664647289
 20
39.4943067672
 30
0.0
 11
79.8828844926
 21
39.4933423055
 31
0.0
  0
LINE
  5
171E
330
218
100
AcDbEntity
  8
0
  6
Continuous
 62
     7
100
AcDbLine
 10
79.8828844926
 20
39.4933423055
 30
0.0
 11
79.541852173
 21
39.4926766129
 31
0.0
  0
LINE
  5
1720
330
218
100
AcDbEntity
  8
0
  6
Continuous
 62
     7
100
AcDbLine
 10
23.9508508026
 20
39.495877239
 30
0.0
 11
21.6582823756
 21
39.4928439286
 31
0.0
  0
LINE
  5
1722
330
218
100
AcDbEntity
  8
0
  6
Continuous
 62
     7
100
AcDbLine
 10
25.1897048902
 20
39.4969157866
 30
0.0
 11
23.9508508026
 21
39.495877239
 31
0.0
  0
LINE
  5
1724
330
218
100
AcDbEntity
  8
0
  6
Continuous
 62
     7
100
AcDbLine
 10
79.541852173
 20
39.4926766129
 30
0.0
 11
79.14234781319999
 21
39.492392201
 31
0.0
  0
LINE
  5
1725
330
218
100
AcDbEntity
  8
0
  6
Continuous
 62
     7
100
AcDbLine
 10
21.6582823756
 20
39.4928439286
 30
0.0
 11
20.9971458209
 21
39.4923898623
 31
0.0
  0
LINE
  5
1727
330
218
100
AcDbEntity
  8
0
  6
Continuous
 62
     7
100
AcDbLine
 10
37.8603857469
 20
39.4972276876
 30
0.0
 11
35.4413224904
 21
39.4965672874
 31
0.0
  0
LWPOLYLINE
  5
1729
330
218
100
AcDbEntity
  8
0
  6
Continuous
 62
     7
100
AcDbPolyline
 90
        4
 70
     0
 43
0.0
 10
72.5810455813
 20
39.4974695095
 10
72.167377636
 20
39.497459877
 10
71.7409873371
 20
39.4974274051
 10
66.2671175455
 20
39.4964192435
  0
LINE
  5
172A
330
218
100
AcDbEntity
  8
0
  6
Continuous
 62
     7
100
AcDbLine
 10
41.09560512909999
 20
39.497798934
 30
0.0
 11
37.8603857469
 21
39.4972276876
 31
0.0
  0
LINE
  5
172B
330
218
100
AcDbEntity
  8
0
  6
Continuous
 62
     7
100
AcDbLine
 10
27.0105904619
 20
39.4974527488
 30
0.0
 11
25.1897048902
 21
39.4969157866
 31
0.0
  0
LINE
  5
172D
330
218
100
AcDbEntity
  8
0
  6
Continuous
 62
     7
100
AcDbLine
 10
35.4413224904
 20
39.4965672874
 30
0.0
 11
33.173606781
 21
39.496494029
 31
0.0
  0
LINE
  5
172E
330
218
100
AcDbEntity
  8
0
  6
Continuous
 62
     7
100
AcDbLine
 10
28.2517845587
 20
39.4974274051
 30
0.0
 11
27.0105904619
 21
39.4974527488
 31
0.0
  0
LINE
  5
172F
330
218
100
AcDbEntity
  8
0
  6
Continuous
 62
     7
100
AcDbLine
 10
44.590396203
 20
39.4977659918
 30
0.0
 11
41.09560512909999
 21
39.497798934
 31
0.0
  0
LINE
  5
1730
330
218
100
AcDbEntity
  8
0
  6
Continuous
 62
     7
100
AcDbLine
 10
49.9963859455
 20
39.4972466828
 30
0.0
 11
43.86812721890001
 21
39.4978150962
 31
0.0
  0
LINE
  5
1731
330
218
100
AcDbEntity
  8
0
  6
Continuous
 62
     7
100
AcDbLine
 10
66.2671175455
 20
39.4964192435
 30
0.0
 11
65.1330537102
 21
39.4964672919
 31
0.0
  0
LINE
  5
1732
330
218
100
AcDbEntity
  8
0
  6
Continuous
 62
     7
100
AcDbLine
 10
61.5048840761
 20
39.4973876773
 30
0.0
 11
49.9963859455
 21
39.4972466828
 31
0.0
  0
LINE
  5
1733
330
218
100
AcDbEntity
  8
0
  6
Continuous
 62
     7
100
AcDbLine
 10
73.37081272209999
 20
39.49740574630001
 30
0.0
 11
72.5810455813
 21
39.4974695095
 31
0.0
  0
LINE
  5
1734
330
218
100
AcDbEntity
  8
0
  6
Continuous
 62
     7
100
AcDbLine
 10
33.7256543456
 20
39.4964192435
 30
0.0
 11
28.2517845587
 21
39.4974274051
 31
0.0
  0
LINE
  5
1735
330
218
100
AcDbEntity
  8
0
  6
Continuous
 62
     7
100
AcDbLine
 10
65.1330537102
 20
39.4964672919
 30
0.0
 11
61.5048840761
 21
39.4973876773
 31
0.0
  0
LINE
  5
1736
330
218
100
AcDbEntity
  8
0
  6
Continuous
 62
     7
100
AcDbLine
 10
74.11103217229999
 20
39.4972198078
 30
0.0
 11
73.37081272209999
 21
39.49740574630001
 31
0.0
  0
LINE
  5
1738
330
218
100
AcDbEntity
  8
0
  6
Continuous
 62
     7
100
AcDbLine
 10
20.9971458209
 20
39.4923898623
 30
0.0
 11
20.5774939521
 21
39.4925375462
 31
0.0
  0
LINE
  5
1739
330
218
100
AcDbEntity
  8
0
  6
Continuous
 62
     7
100
AcDbLine
 10
79.14234781319999
 20
39.492392201
 30
0.0
 11
78.68039641580001
 21
39.4925304092
 31
0.0
  0
LINE
  5
173B
330
218
100
AcDbEntity
  8
0
  6
Continuous
 62
     7
100
AcDbLine
 10
75.4470579004
 20
39.4964600477
 30
0.0
 11
74.11103217229999
 21
39.4972198078
 31
0.0
  0
LINE
  5
173D
330
218
100
AcDbEntity
  8
0
  6
Continuous
 62
     7
100
AcDbLine
 10
76.32082176739999
 20
39.4955550069
 30
0.0
 11
75.4470579004
 21
39.4964600477
 31
0.0
  0
LWPOLYLINE
  5
173E
330
218
100
AcDbEntity
  8
0
  6
Continuous
 62
     7
100
AcDbPolyline
 90
        3
 70
     0
 43
0.0
 10
78.68039641580001
 20
39.4925304092
 10
77.9554592467
 20
39.49330416809999
 10
77.7525738097
 20
39.4935809408
  0
LWPOLYLINE
  5
173F
330
218
100
AcDbEntity
  8
0
  6
Continuous
 62
     7
100
AcDbPolyline
 90
        3
 70
     0
 43
0.0
 10
77.0854372829
 20
39.4945390764
 10
76.8420463851
 20
39.494880563
 10
76.32082176739999
 20
39.4955550069
  0
LINE
  5
1741
330
218
100
AcDbEntity
  8
0
  6
Continuous
 62
     7
100
AcDbLine
 10
77.7525738097
 20
39.4935809408
 30
0.0
 11
77.0854372829
 21
39.4945390764
 31
0.0
  0
LINE
  5
1743
330
218
100
AcDbEntity
  8
0
  6
Continuous
 62
     7
100
AcDbLine
 10
20.5774939521
 20
39.4925375462
 30
0.0
 11
20.2171377287
 21
39.4930805017
 31
0.0
  0
LINE
  5
1747
330
218
100
AcDbEntity
  8
0
  6
Continuous
 62
     7
100
AcDbLine
 10
20.2171377287
 20
39.4930805017
 30
0.0
 11
19.9144300743
 21
39.4939618598
 31
0.0
  0
LINE
  5
1750
330
218
100
AcDbEntity
  8
0
  6
Continuous
 62
     7
100
AcDbLine
 10
19.9144300743
 20
39.4939618598
 30
0.0
 11
19.602345598
 21
39.4953906337
 31
0.0
  0
LINE
  5
175D
330
218
100
AcDbEntity
  8
0
  6
Continuous
 62
     7
100
AcDbLine
 10
19.602345598
 20
39.4953906337
 30
0.0
 11
19.3540164935
 21
39.4970318232
 31
0.0
  0
LINE
  5
175F
330
218
100
AcDbEntity
  8
0
  6
Continuous
 62
     7
100
AcDbLine
 10
19.3540164935
 20
39.4970318232
 30
0.0
 11
19.3372300508
 21
39.49716806860001
 31
0.0
  0
LWPOLYLINE
  5
1760
330
218
100
AcDbEntity
  8
0
  6
Continuous
 62
     7
100
AcDbPolyline
 90
       41
 70
     0
 43
0.0
 10
80.6555418403
 20
39.49716806860001
 10
80.73188639740001
 20
39.4965369063
 10
80.8176340996
 20
39.49279258340001
 10
80.90320268140001
 20
39.4858441829
 10
80.98845338689999
 20
39.4757031375
 10
81.07324774029999
 20
39.4623837007
 10
81.15748388410001
 20
39.44589850030001
 10
81.24106178479999
 20
39.42627050730001
 10
81.3238464426
 20
39.4035336894
 10
81.4057035595
 20
39.3777247606
 10
81.48653409499999
 20
39.3488709989
 10
81.56624182619999
 20
39.3170074453
 10
81.64469905209999
 20
39.2821895263
 10
81.7217792423
 20
39.24447544920001
 10
81.79738917979999
 20
39.2039080721
 10
81.87143488529999
 20
39.1605349183
 10
81.9438066989
 20
39.1144256864
 10
82.01439887890002
 20
39.065650766
 10
82.08311598359999
 20
39.0142738495
 10
82.1498587966
 20
38.9603636162
 10
82.21454514820001
 20
38.9039906893
 10
82.2770989598
 20
38.8452238022
 10
82.3374169799
 20
38.7841564418
 10
82.3953982355
 20
38.7208844234
 10
82.450973957
 20
38.6554835307
 10
82.50408032960001
 20
38.5880342264
 10
82.55463080069999
 20
38.5186456036
 10
82.60254108879999
 20
38.4474284696
 10
82.64775176470001
 20
38.3744664321
 10
82.69021193550001
 20
38.2998487116
 10
82.72985409890001
 20
38.2236970171
 10
82.7666132284
 20
38.1461344299
 10
82.80044188640001
 20
38.0672520165
 10
82.8313012887
 20
37.9871445875
 10
82.8591446557
 20
37.9059433313
 10
82.88392794259999
 20
37.8237803914
 10
82.90561859609999
 20
37.74075320420001
 10
82.92418915989999
 20
37.65696035219999
 10
82.9396142372
 20
37.572538567
 10
82.9518725225
 20
37.4876211597
 10
82.96094667310001
 20
37.4023218079
  0
LINE
  5
1763
330
218
100
AcDbEntity
  8
0
  6
Continuous
 62
     7
100
AcDbLine
 10
62.10542074390001
 20
17.9076785888
 30
0.0
 11
62.10553364119999
 21
17.9071165745
 31
0.0
  0
LWPOLYLINE
  5
1764
330
218
100
AcDbEntity
  8
0
  6
Continuous
 62
     7
100
AcDbPolyline
 90
        5
 70
     0
 43
0.0
 10
62.32795860159999
 20
18.1555631736
 10
62.3277816177
 20
18.1577895224
 10
62.32725034739999
 20
18.1600188596
 10
62.32636432140001
 20
18.1622502514
 10
62.3251230824
 20
18.1644827541
  0
LINE
  5
1765
330
218
100
AcDbEntity
  8
0
  6
Continuous
 62
     7
100
AcDbLine
 10
63.2851542998
 20
19.2494712408
 30
0.0
 11
63.28453411
 21
19.2807077932
 31
0.0
  0
LINE
  5
1766
330
218
100
AcDbEntity
  8
0
  6
Continuous
 62
     7
100
AcDbLine
 10
63.28257642949999
 20
19.2518255897
 30
0.0
 11
63.2819623765
 21
19.2830592542
 31
0.0
  0
LINE
  5
1767
330
218
100
AcDbEntity
  8
0
  6
Continuous
 62
     7
100
AcDbLine
 10
61.49443000609999
 20
19.2727715193
 30
0.0
 11
61.4940519637
 21
19.304001914
 31
0.0
  0
LINE
  5
176B
330
218
100
AcDbEntity
  8
0
  6
Continuous
 62
     7
100
AcDbLine
 10
65.99659910449999
 20
19.2495663487
 30
0.0
 11
65.99565374169999
 21
19.2808004893
 31
0.0
  0
LWPOLYLINE
  5
176D
330
218
100
AcDbEntity
  8
0
  6
Continuous
 62
     7
100
AcDbPolyline
 90
       15
 70
     0
 43
0.0
 10
63.28515463
 20
19.2494712474
 10
63.28503541829999
 20
19.2489251226
 10
63.2834193748
 20
19.2474264873
 10
63.2799141466
 20
19.2458974106
 10
63.2745288049
 20
19.2443392762
 10
63.2672682338
 20
19.2427534119
 10
63.258141399
 20
19.2411411696
 10
63.2471533035
 20
19.2395038602
 10
63.2343127816
 20
19.2378428109
 10
63.2196249824
 20
19.2361593257
 10
63.2030981091
 20
19.2344547138
 10
63.18473889899999
 20
19.2327302868
 10
63.16454872619999
 20
19.2309873273
 10
63.14255808609999
 20
19.2292272305
 10
63.1187846713
 20
19.2274513245
  0
LWPOLYLINE
  5
176E
330
218
100
AcDbEntity
  8
0
  6
Continuous
 62
     7
100
AcDbPolyline
 90
        5
 70
     0
 43
0.0
 10
62.32601652060001
 20
18.1481821398
 10
62.3263643213
 20
18.1488760956
 10
62.32725034729999
 20
18.1511074875
 10
62.3277816177
 20
18.1533368248
 10
62.32795860159999
 20
18.1555631736
  0
LWPOLYLINE
  5
176F
330
218
100
AcDbEntity
  8
0
  6
Continuous
 62
     7
100
AcDbPolyline
 90
        5
 70
     0
 43
0.0
 10
62.32601652060001
 20
18.1481821398
 10
62.39255189819999
 20
18.274428406
 10
62.4675358736
 20
18.4160707282
 10
62.54653348409999
 20
18.5646212068
 10
62.6295418726
 20
18.7200437595
  0
LINE
  5
1770
330
218
100
AcDbEntity
  8
0
  6
Continuous
 62
     7
100
AcDbLine
 10
62.32795860159999
 20
18.1555631736
 30
0.0
 11
62.4222519674
 21
18.33461587
 31
0.0
  0
LINE
  5
1771
330
218
100
AcDbEntity
  8
0
  6
Continuous
 62
     7
100
AcDbLine
 10
62.4222519674
 20
18.33461587
 30
0.0
 11
62.5280616251
 21
18.5343420176
 31
0.0
  0
LINE
  5
1772
330
218
100
AcDbEntity
  8
0
  6
Continuous
 62
     7
100
AcDbLine
 10
62.5280616251
 20
18.5343420176
 30
0.0
 11
62.6439974795
 21
18.7519053272
 31
0.0
  0
LINE
  5
1773
330
218
100
AcDbEntity
  8
0
  6
Continuous
 62
     7
100
AcDbLine
 10
62.6439974795
 20
18.7519053272
 30
0.0
 11
62.76849233890001
 21
18.984313974
 31
0.0
  0
LINE
  5
1774
330
218
100
AcDbEntity
  8
0
  6
Continuous
 62
     7
100
AcDbLine
 10
62.6295418726
 20
18.7200437595
 30
0.0
 11
62.7719108039
 21
18.9852802742
 31
0.0
  0
LINE
  5
1775
330
218
100
AcDbEntity
  8
0
  6
Continuous
 62
     7
100
AcDbLine
 10
62.77191087430001
 20
18.9852803755
 30
0.0
 11
62.77523056869999
 21
18.9913474021
 31
0.0
  0
LWPOLYLINE
  5
1776
330
218
100
AcDbEntity
  8
0
  6
Continuous
 62
     7
100
AcDbPolyline
 90
       25
 70
     0
 43
0.0
 10
62.7684907632
 20
18.9843085339
 10
62.7792768989
 20
19.0036945613
 10
62.7909107122
 20
19.0225836479
 10
62.8033693001
 20
19.0409386071
 10
62.8166281356
 20
19.0587233038
 10
62.8306611165
 20
19.0759027257
 10
62.8454406165
 20
19.0924430519
 10
62.8609375395
 20
19.1083117198
 10
62.8771213772
 20
19.1234774891
 10
62.8939602689
 20
19.1379105032
 10
62.91142106439999
 20
19.1515823481
 10
62.929469389
 20
19.1644661084
 10
62.9480697114
 20
19.1765364199
 10
62.9671854138
 20
19.1877695201
 10
62.98677886350001
 20
19.1981432945
 10
63.0068114874
 20
19.2076373206
 10
63.02724384770001
 20
19.2162329076
 10
63.04803571989999
 20
19.2239131335
 10
63.06914617149999
 20
19.2306628784
 10
63.0905336428
 20
19.2364688542
 10
63.1121560289
 20
19.24131963069999
 10
63.1339707624
 20
19.2452056583
 10
63.1559348971
 20
19.2481192866
 10
63.17800519270001
 20
19.2500547795
 10
63.2001382001
 20
19.2510083268
  0
LWPOLYLINE
  5
1777
330
218
100
AcDbEntity
  8
0
  6
Continuous
 62
     7
100
AcDbPolyline
 90
       45
 70
     0
 43
0.0
 10
62.77523056869999
 20
18.9913474021
 10
62.7837681314
 20
19.0060969769
 10
62.7926542553
 20
19.0203133179
 10
62.80185798819999
 20
19.0339989914
 10
62.811348718
 20
19.0471564325
 10
62.8210971045
 20
19.0597894307
 10
62.83107477369999
 20
19.0719026148
 10
62.84125536649999
 20
19.0835025901
 10
62.8516143805
 20
19.0945973976
 10
62.8621252518
 20
19.1051924258
 10
62.87276489629999
 20
19.1152964059
 10
62.8835042527
 20
19.124912427
 10
62.8943161834
 20
19.1340461144
 10
62.9051754053
 20
19.1427051285
 10
62.9160570574
 20
19.1508977614
 10
62.9269367197
 20
19.1586329397
 10
62.9377927321
 20
19.1659217186
 10
62.9485956198
 20
19.1727703231
 10
62.9593325262
 20
19.1791957944
 10
62.96993351720001
 20
19.1851827782
 10
62.98034620520001
 20
19.1907312318
 10
62.99049817770001
 20
19.1958347702
 10
63.00031561529999
 20
19.2004915986
 10
63.0097451561
 20
19.2047134752
 10
63.0187116403
 20
19.2085051511
 10
63.0272088726
 20
19.211901683
 10
63.03519328090001
 20
19.2149214184
 10
63.04271197529999
 20
19.2176145617
 10
63.0497946602
 20
19.2200190512
 10
63.0564608177
 20
19.22216516549999
 10
63.06273925479999
 20
19.2240827061
 10
63.0686354652
 20
19.2257914441
 10
63.074173833
 20
19.2273144821
 10
63.0793241193
 20
19.2286584349
 10
63.08407161339999
 20
19.2298341532
 10
63.08839202369999
 20
19.2308498919
 10
63.09225699449999
 20
19.231713039
 10
63.0956680489
 20
19.232437265
 10
63.09861727689999
 20
19.2330331774
 10
63.1011120588
 20
19.2335134882
 10
63.10315326609999
 20
19.2338884573
 10
63.104762298
 20
19.234170919
 10
63.10595657909999
 20
19.2343715867
 10
63.1067575031
 20
19.2345006164
 10
63.1071890271
 20
19.234567408
  0
LWPOLYLINE
  5
1779
330
218
100
AcDbEntity
  8
0
  6
Continuous
 62
     7
100
AcDbPolyline
 90
       41
 70
     0
 43
0.0
 10
61.8076993288
 20
17.7008711637
 10
61.8138423185
 20
17.703122727
 10
61.8198578504
 20
17.7054781251
 10
61.8262010793
 20
17.708097462
 10
61.8328955188
 20
17.7109899495
 10
61.839963711
 20
17.7141659284
 10
61.8474261213
 20
17.717636319
 10
61.8552812316
 20
17.7214025538
 10
61.8635278509
 20
17.7254663321
 10
61.87215183350001
 20
17.7298229056
 10
61.881139892
 20
17.7344675622
 10
61.8904559572
 20
17.7393834391
 10
61.900065812
 20
17.7445535172
 10
61.9099184206
 20
17.7499509896
 10
61.91996025979999
 20
17.7555462497
 10
61.93013709229999
 20
17.7613083492
 10
61.94038048100001
 20
17.7671964227
 10
61.950666104
 20
17.7731943878
 10
61.96095221010001
 20
17.7792757808
 10
61.9712256765
 20
17.7854312119
 10
61.981466553
 20
17.7916475843
 10
61.99165580999999
 20
17.7979128408
 10
62.001773283
 20
17.804214425
 10
62.0118035603
 20
17.8105432027
 10
62.0217282571
 20
17.8168885189
 10
62.03153336989999
 20
17.8232429199
 10
62.04120267229999
 20
17.8295977787
 10
62.0507185593
 20
17.8359440749
 10
62.0600744152
 20
17.8422806939
 10
62.06921308810001
 20
17.8485725491
 10
62.0781099591
 20
17.8548063912
 10
62.0866711669
 20
17.8609193353
 10
62.09483216899999
 20
17.866866399
 10
62.1025369839
 20
17.8726059913
 10
62.10974090989999
 20
17.8781023004
 10
62.1164197577
 20
17.8833322108
 10
62.12254781689999
 20
17.8882689864
 10
62.128160498
 20
17.8929332273
 10
62.13327410899999
 20
17.8973308015
 10
62.137953295
 20
17.9015106588
 10
62.1416099499
 20
17.9049076635
  0
LWPOLYLINE
  5
177A
330
218
100
AcDbEntity
  8
0
  6
Continuous
 62
     7
100
AcDbPolyline
 90
       49
 70
     0
 43
0.0
 10
69.0622247701
 20
19.5483788613
 10
69.0932524319
 20
19.5576418817
 10
69.1245193705
 20
19.5674001922
 10
69.1560160518
 20
19.5776654713
 10
69.1877335324
 20
19.5884496811
 10
69.2196622386
 20
19.5997646858
 10
69.2517921583
 20
19.6116222993
 10
69.284113006
 20
19.624034337
 10
69.3166136276
 20
19.6370123744
 10
69.3492827397
 20
19.6505680139
 10
69.3821080286
 20
19.6647125009
 10
69.4150770022
 20
19.6794570505
 10
69.4481764988
 20
19.6948126225
 10
69.4813867146
 20
19.7107869626
 10
69.5147126583
 20
19.7273999972
 10
69.54814268069999
 20
19.7446642876
 10
69.5817022847
 20
19.7626128722
 10
69.6154051458
 20
19.7812752743
 10
69.6492663169
 20
19.8006842857
 10
69.6832983954
 20
19.8208740104
 10
69.7175121063
 20
19.8418802246
 10
69.7519208293
 20
19.8637433742
 10
69.78651745579999
 20
19.8864936928
 10
69.821308852
 20
19.9101730286
 10
69.8562555101
 20
19.9347935254
 10
69.89132993040001
 20
19.9603754762
 10
69.92649705009999
 20
19.9869338471
 10
69.961722658
 20
20.0144840493
 10
69.99697172640001
 20
20.0430407291
 10
70.0322084204
 20
20.0726177169
 10
70.0673961066
 20
20.1032279736
 10
70.1024963169
 20
20.1348825751
 10
70.137474058
 20
20.1675955214
 10
70.1722844412
 20
20.2013711952
 10
70.2069133705
 20
20.2362443698
 10
70.24133291910001
 20
20.2722387124
 10
70.2755272004
 20
20.309393162
 10
70.30947376890001
 20
20.3477435802
 10
70.3431472793
 20
20.3873264158
 10
70.3765192514
 20
20.4281784892
 10
70.4095579546
 20
20.4703368986
 10
70.44222827
 20
20.5138388915
 10
70.47449155569999
 20
20.5587217325
 10
70.5063054994
 20
20.6050225425
 10
70.5376239863
 20
20.6527781475
 10
70.56839694899998
 20
20.7020248859
 10
70.59857022830001
 20
20.752798416
 10
70.6280854345
 20
20.8051335037
 10
70.6568798109
 20
20.8590637928
  0
LINE
  5
177B
330
218
100
AcDbEntity
  8
0
  6
Continuous
 62
     7
100
AcDbLine
 10
67.2512491959
 20
19.2808190526
 30
0.0
 11
67.2502132993
 21
19.3120518785
 31
0.0
  0
LWPOLYLINE
  5
177F
330
218
100
AcDbEntity
  8
0
  6
Continuous
 62
     7
100
AcDbPolyline
 90
       69
 70
     0
 43
0.0
 10
66.8639736831
 20
19.0706364612
 10
66.8646562558
 20
19.0742462453
 10
66.8660866659
 20
19.0810210384
 10
66.86768630999999
 20
19.0876835526
 10
66.8694484897
 20
19.0942311653
 10
66.87136661930001
 20
19.1006615538
 10
66.873434234
 20
19.1069726799
 10
66.87564499629999
 20
19.1131627756
 10
66.8779927019
 20
19.1192303296
 10
66.8804712851
 20
19.1251740723
 10
66.88307482289999
 20
19.1309929632
 10
66.8857975395
 20
19.1366861788
 10
66.88863380789999
 20
19.1422530966
 10
66.8915781571
 20
19.1476932919
 10
66.8946252739
 20
19.1530065237
 10
66.89776998390001
 20
19.1581926891
 10
66.90100727259999
 20
19.1632518491
 10
66.90433227879999
 20
19.1681842072
 10
66.9077402973
 20
19.1729901019
 10
66.9112267796
 20
19.1776699983
 10
66.9147873311
 20
19.1822244761
 10
66.9184177116
 20
19.1866542209
 10
66.922113833
 20
19.1909600149
 10
66.9258717565
 20
19.1951427269
 10
66.9296876934
 20
19.1992033067
 10
66.9335579966
 20
19.2031427711
 10
66.9374791177
 20
19.2069621583
 10
66.94144783529999
 20
19.2106627407
 10
66.9454611187
 20
19.2142458644
 10
66.9495157228
 20
19.2177125991
 10
66.95360884199999
 20
19.2210643226
 10
66.957736885
 20
19.2243017228
 10
66.9618965576
 20
19.2274257413
 10
66.9660847129
 20
19.2304374275
 10
66.9702982644
 20
19.2333378684
 10
66.9745342904
 20
19.2361282566
 10
66.97878993029999
 20
19.2388098119
 10
66.98306246930001
 20
19.2413838327
 10
66.98734926810001
 20
19.2438516459
 10
66.99164778210001
 20
19.2462146166
 10
66.995955581
 20
19.2484741543
 10
67.0002701976
 20
19.2506316337
 10
67.0045893779
 20
19.2526885227
 10
67.0089105169
 20
19.25464611569999
 10
67.01323068319999
 20
19.2565055903
 10
67.01754897239999
 20
19.2582689821
 10
67.0218708381
 20
19.259940601
 10
67.02617474170001
 20
19.2615145287
 10
67.03044843749999
 20
19.2629895624
 10
67.03466778090001
 20
19.2643615203
 10
67.0388099445
 20
19.265628248
 10
67.0428567535
 20
19.266790302
 10
67.04678799709999
 20
19.2678486757
 10
67.0505859232
 20
19.2688059717
 10
67.0542325991
 20
19.2696654885
 10
67.05770784329999
 20
19.2704306914
 10
67.0609832837
 20
19.2711040828
 10
67.0640652834
 20
19.2716955581
 10
67.0669474021
 20
19.2722118249
 10
67.06964003350001
 20
19.2726620134
 10
67.07215818859999
 20
19.2730549098
 10
67.0744807219
 20
19.2733930962
 10
67.076593047
 20
19.2736803718
 10
67.07848961819999
 20
19.2739216366
 10
67.0801538379
 20
19.2741201351
 10
67.0816059455
 20
19.2742830157
 10
67.0828547484
 20
19.2744151658
 10
67.08392016720001
 20
19.2745218837
 10
67.08482152640001
 20
19.2746076106
  0
LWPOLYLINE
  5
1781
330
218
100
AcDbEntity
  8
0
  6
Continuous
 62
     7
100
AcDbPolyline
 90
       16
 70
     0
 43
0.0
 10
62.1597188217
 20
17.9225326672
 10
62.1724855989
 20
17.9355519886
 10
62.1851154634
 20
17.9489497051
 10
62.1975955453
 20
17.962726282
 10
62.2099133308
 20
17.9768818703
 10
62.22205636139999
 20
17.9914168378
 10
62.2340117557
 20
18.0063312469
 10
62.2457664899
 20
18.021625199
 10
62.25730712609999
 20
18.0372985075
 10
62.268620033
 20
18.0533509965
 10
62.2796911365
 20
18.069782173
 10
62.290506133
 20
18.0865915394
 10
62.3010502492
 20
18.1037782463
 10
62.3113084493
 20
18.121341422
 10
62.3212656111
 20
18.139280555
 10
62.3260103703
 20
18.1481704541
  0
LINE
  5
1782
330
218
100
AcDbEntity
  8
0
  6
Continuous
 62
     7
100
AcDbLine
 10
62.1468270032
 20
17.9098880021
 30
0.0
 11
62.1597188217
 21
17.9225326672
 31
0.0
  0
LINE
  5
1784
330
218
100
AcDbEntity
  8
0
  6
Continuous
 62
     7
100
AcDbLine
 10
62.1416096507
 20
17.9049073747
 30
0.0
 11
62.1468270032
 21
17.9098880021
 31
0.0
  0
LINE
  5
1785
330
218
100
AcDbEntity
  8
0
  6
Continuous
 62
     7
100
AcDbLine
 10
66.7222079564
 20
18.7324536762
 30
0.0
 11
66.6339778081
 21
18.6575469432
 31
0.0
  0
LINE
  5
1786
330
218
100
AcDbEntity
  8
0
  6
Continuous
 62
     7
100
AcDbLine
 10
66.6072467991
 20
18.6324504388
 30
0.0
 11
66.7116333079
 21
18.72087560549999
 31
0.0
  0
LINE
  5
1787
330
218
100
AcDbEntity
  8
0
  6
Continuous
 62
     7
100
AcDbLine
 10
66.6339778081
 20
18.6575469432
 30
0.0
 11
66.5559458993
 21
18.5918227592
 31
0.0
  0
LINE
  5
1788
330
218
100
AcDbEntity
  8
0
  6
Continuous
 62
     7
100
AcDbLine
 10
66.5297036794
 20
18.5673874316
 30
0.0
 11
66.6072467991
 21
18.6324504388
 31
0.0
  0
LINE
  5
1789
330
218
100
AcDbEntity
  8
0
  6
Continuous
 62
     7
100
AcDbLine
 10
66.5559458993
 20
18.5918227592
 30
0.0
 11
66.494233777
 21
18.540316973
 31
0.0
  0
LINE
  5
178A
330
218
100
AcDbEntity
  8
0
  6
Continuous
 62
     7
100
AcDbLine
 10
66.4802749233
 20
18.5263034054
 30
0.0
 11
66.5297036794
 21
18.5673874316
 31
0.0
  0
LINE
  5
178B
330
218
100
AcDbEntity
  8
0
  6
Continuous
 62
     7
100
AcDbLine
 10
66.494233777
 20
18.540316973
 30
0.0
 11
66.4508515416
 21
18.5044576145
 31
0.0
  0
LINE
  5
178C
330
218
100
AcDbEntity
  8
0
  6
Continuous
 62
     7
100
AcDbLine
 10
66.4390823359
 20
18.4923915412
 30
0.0
 11
66.4802749233
 21
18.5263034054
 31
0.0
  0
LINE
  5
178D
330
218
100
AcDbEntity
  8
0
  6
Continuous
 62
     7
100
AcDbLine
 10
66.4508515416
 20
18.5044576145
 30
0.0
 11
66.4198583247
 21
18.4790829537
 31
0.0
  0
LINE
  5
178E
330
218
100
AcDbEntity
  8
0
  6
Continuous
 62
     7
100
AcDbLine
 10
66.4108748677
 20
18.4694065277
 30
0.0
 11
66.4390823359
 21
18.4923915412
 31
0.0
  0
LINE
  5
178F
330
218
100
AcDbEntity
  8
0
  6
Continuous
 62
     7
100
AcDbLine
 10
66.4198583247
 20
18.4790829537
 30
0.0
 11
66.39250400919999
 21
18.4569202414
 31
0.0
  0
LINE
  5
1790
330
218
100
AcDbEntity
  8
0
  6
Continuous
 62
     7
100
AcDbLine
 10
66.3987825404
 20
18.4596308099
 30
0.0
 11
66.4108748677
 21
18.4694065277
 31
0.0
  0
LINE
  5
1791
330
218
100
AcDbEntity
  8
0
  6
Continuous
 62
     7
100
AcDbLine
 10
66.39250400919999
 20
18.4569202414
 30
0.0
 11
66.3859056316
 21
18.4516161677
 31
0.0
  0
LWPOLYLINE
  5
1792
330
218
100
AcDbEntity
  8
0
  6
Continuous
 62
     7
100
AcDbPolyline
 90
        6
 70
     0
 43
0.0
 10
68.41577200020001
 20
19.4449190749
 10
68.41545388029999
 20
19.4447334077
 10
68.41408523350001
 20
19.4445408949
 10
68.41168159689999
 20
19.4443414526
 10
68.4082406781
 20
19.4441344407
 10
68.40376154649999
 20
19.4439192293
  0
LINE
  5
1797
330
218
100
AcDbEntity
  8
0
  6
Continuous
 62
     7
100
AcDbLine
 10
71.2840803161
 20
22.1985078139
 30
0.0
 11
71.30560306140001
 21
22.245202611
 31
0.0
  0
LINE
  5
1798
330
218
100
AcDbEntity
  8
0
  6
Continuous
 62
     7
100
AcDbLine
 10
78.18484669819999
 20
36.9972490703
 30
0.0
 11
71.3501142431
 21
22.3401180206
 31
0.0
  0
LINE
  5
1799
330
218
100
AcDbEntity
  8
0
  6
Continuous
 62
     7
100
AcDbLine
 10
71.2840804977
 20
22.1985081965
 30
0.0
 11
70.7060851026
 21
20.9589930718
 31
0.0
  0
LINE
  5
179A
330
218
100
AcDbEntity
  8
0
  6
Continuous
 62
     7
100
AcDbLine
 10
71.30560306140001
 20
22.245202611
 30
0.0
 11
71.32821369
 21
22.2936901283
 31
0.0
  0
LINE
  5
179B
330
218
100
AcDbEntity
  8
0
  6
Continuous
 62
     7
100
AcDbLine
 10
71.32821369
 20
22.2936901283
 30
0.0
 11
71.3501144196
 21
22.3401184056
 31
0.0
  0
LWPOLYLINE
  5
179C
330
218
100
AcDbEntity
  8
0
  6
Continuous
 62
     7
100
AcDbPolyline
 90
       31
 70
     0
 43
0.0
 10
70.70608510140001
 20
20.9589930724
 10
70.6637916649
 20
20.8724744587
 10
70.6183531219
 20
20.7875654236
 10
70.5698306293
 20
20.7043802483
 10
70.51828949449999
 20
20.6230308936
 10
70.4637990881
 20
20.5436268495
 10
70.40643274989999
 20
20.4662749878
 10
70.3462676907
 20
20.3910794183
 10
70.283384888
 20
20.3181413483
 10
70.2178689773
 20
20.247558947
 10
70.149808138
 20
20.1794272128
 10
70.0792939747
 20
20.113837846
 10
70.0064213942
 20
20.0508791247
 10
69.9312884774
 20
19.9906357867
 10
69.8539963474
 20
19.9331889147
 10
69.7746490336
 20
19.878615828
 10
69.6933533313
 20
19.8269899777
 10
69.6102186584
 20
19.7783808483
 10
69.5253569078
 20
19.7328538639
 10
69.43888229689999
 20
19.6904703005
 10
69.35091121390001
 20
19.651287203
 10
69.26156206129999
 20
19.6153573088
 10
69.170955096
 20
19.582728977
 10
69.0792122683
 20
19.5534461226
 10
68.9864570568
 20
19.5275481583
 10
68.89281430310001
 20
19.5050699407
 10
68.79841004319999
 20
19.4860417237
 10
68.70337133789999
 20
19.4704891179
 10
68.60782610210001
 20
19.4584330559
 10
68.51190293229999
 20
19.4498897643
 10
68.4157309338
 20
19.4448707416
  0
LWPOLYLINE
  5
179D
330
218
100
AcDbEntity
  8
0
  6
Continuous
 62
     7
100
AcDbPolyline
 90
        3
 70
     0
 43
0.0
 10
70.6568798109
 20
20.8590637928
 10
70.6848926903
 20
20.9146350244
 10
70.7060851041
 20
20.9589930782
  0
LINE
  5
179E
330
218
100
AcDbEntity
  8
0
  6
Continuous
 62
     7
100
AcDbLine
 10
82.96094667310001
 20
37.4023218079
 30
0.0
 11
82.9963859455
 21
36.9972490703
 31
0.0
  0
ARC
  5
1DD7
330
218
100
AcDbEntity
  8
0
  6
Continuous
 62
     7
100
AcDbCircle
 10
33.9651359455
 20
19.222422779
 30
0.0
 40
0.85
100
AcDbArc
 50
245.0710699656
 51
270.0
  0
ARC
  5
1DD8
330
218
100
AcDbEntity
  8
0
  6
Continuous
 62
     7
100
AcDbCircle
 10
33.9651359455
 20
19.222422779
 30
0.0
 40
0.85
100
AcDbArc
 50
190.2876939498
 51
215.2001347951
  0
ARC
  5
1DD9
330
218
100
AcDbEntity
  8
0
  6
Continuous
 62
     7
100
AcDbCircle
 10
66.02763594549999
 20
19.222422779
 30
0.0
 40
0.85
100
AcDbArc
 50
270.0
 51
294.9289300344
  0
ARC
  5
1DDA
330
218
100
AcDbEntity
  8
0
  6
Continuous
 62
     7
100
AcDbCircle
 10
66.02763594549999
 20
19.222422779
 30
0.0
 40
0.85
100
AcDbArc
 50
324.7998652049
 51
349.7123065151999
  0
ARC
  5
1DDB
330
218
100
AcDbEntity
  8
0
  6
Continuous
 62
     7
100
AcDbCircle
 10
33.32163540030001
 20
18.7684808199
 30
0.0
 40
0.0625000006
100
AcDbArc
 50
215.200140644
 51
229.6131242514
  0
ARC
  5
1DDC
330
218
100
AcDbEntity
  8
0
  6
Continuous
 62
     7
100
AcDbCircle
 10
66.35956227130001
 20
18.5082931222
 30
0.0
 40
0.0625000001
100
AcDbArc
 50
294.9289317633
 51
308.8677047287
  0
ARC
  5
1DDD
330
218
100
AcDbEntity
  8
0
  6
Continuous
 62
     7
100
AcDbCircle
 10
33.6332096169
 20
18.5082931235
 30
0.0
 40
0.0624999996
100
AcDbArc
 50
231.1336133836
 51
245.0710711418
  0
ARC
  5
1DDE
330
218
100
AcDbEntity
  8
0
  6
Continuous
 62
     7
100
AcDbCircle
 10
66.6711364457
 20
18.7684807823
 30
0.0
 40
0.0624999942
100
AcDbArc
 50
310.38721018
 51
324.7999113581
  0
ENDSEC
  0
SECTION
  2
OBJECTS
  0
DICTIONARY
  5
C
330
0
100
AcDbDictionary
281
     1
  3
ACAD_COLOR
350
1E26
  3
ACAD_GROUP
350
D
  3
ACAD_LAYOUT
350
1A
  3
ACAD_MATERIAL
350
1DF9
  3
ACAD_MLEADERSTYLE
350
1E4B
  3
ACAD_MLINESTYLE
350
17
  3
ACAD_PLOTSETTINGS
350
19
  3
ACAD_PLOTSTYLENAME
350
E
  3
ACAD_SCALELIST
350
1E29
  3
ACAD_TABLESTYLE
350
1E27
  3
ACAD_VISUALSTYLE
350
1E12
  3
ACDB_RECOMPOSE_DATA
350
1E51
  3
AcDbVariableDictionary
350
1E83
  3
DWGPROPS
350
1EF2
  0
DICTIONARY
  5
1E52
330
8
100
AcDbDictionary
280
     1
281
     1
  0
DICTIONARY
  5
1EA3
330
10
100
AcDbDictionary
280
     1
281
     1
  3
ADSK_XREC_LAYER_RECONCILED
360
1EA4
  0
DICTIONARY
  5
1EA5
330
1FA
100
AcDbDictionary
280
     1
281
     1
  3
ADSK_XREC_LAYER_RECONCILED
360
1EA6
  0
DICTIONARY
  5
1EA7
330
1FB
100
AcDbDictionary
280
     1
281
     1
  3
ADSK_XREC_LAYER_RECONCILED
360
1EA8
  0
DICTIONARY
  5
1EA9
330
1FC
100
AcDbDictionary
280
     1
281
     1
  3
ADSK_XREC_LAYER_RECONCILED
360
1EAA
  0
DICTIONARY
  5
1EAB
330
1FD
100
AcDbDictionary
280
     1
281
     1
  3
ADSK_XREC_LAYER_RECONCILED
360
1EAC
  0
DICTIONARY
  5
1EAD
330
1FE
100
AcDbDictionary
280
     1
281
     1
  3
ADSK_XREC_LAYER_RECONCILED
360
1EAE
  0
DICTIONARY
  5
1EAF
330
1FF
100
AcDbDictionary
280
     1
281
     1
  3
ADSK_XREC_LAYER_RECONCILED
360
1EB0
  0
DICTIONARY
  5
1EB1
330
200
100
AcDbDictionary
280
     1
281
     1
  3
ADSK_XREC_LAYER_RECONCILED
360
1EB2
  0
DICTIONARY
  5
1EB3
330
201
100
AcDbDictionary
280
     1
281
     1
  3
ADSK_XREC_LAYER_RECONCILED
360
1EB4
  0
DICTIONARY
  5
1EB5
330
202
100
AcDbDictionary
280
     1
281
     1
  3
ADSK_XREC_LAYER_RECONCILED
360
1EB6
  0
DICTIONARY
  5
1EB7
330
203
100
AcDbDictionary
280
     1
281
     1
  3
ADSK_XREC_LAYER_RECONCILED
360
1EB8
  0
DICTIONARY
  5
1EB9
330
204
100
AcDbDictionary
280
     1
281
     1
  3
ADSK_XREC_LAYER_RECONCILED
360
1EBA
  0
DICTIONARY
  5
1EBB
330
205
100
AcDbDictionary
280
     1
281
     1
  3
ADSK_XREC_LAYER_RECONCILED
360
1EBC
  0
DICTIONARY
  5
1EBD
330
206
100
AcDbDictionary
280
     1
281
     1
  3
ADSK_XREC_LAYER_RECONCILED
360
1EBE
  0
DICTIONARY
  5
1EBF
330
207
100
AcDbDictionary
280
     1
281
     1
  3
ADSK_XREC_LAYER_RECONCILED
360
1EC0
  0
DICTIONARY
  5
1EC1
330
208
100
AcDbDictionary
280
     1
281
     1
  3
ADSK_XREC_LAYER_RECONCILED
360
1EC2
  0
DICTIONARY
  5
1EC3
330
209
100
AcDbDictionary
280
     1
281
     1
  3
ADSK_XREC_LAYER_RECONCILED
360
1EC4
  0
DICTIONARY
  5
1EC5
330
20A
100
AcDbDictionary
280
     1
281
     1
  3
ADSK_XREC_LAYER_RECONCILED
360
1EC6
  0
DICTIONARY
  5
1EC7
330
20B
100
AcDbDictionary
280
     1
281
     1
  3
ADSK_XREC_LAYER_RECONCILED
360
1EC8
  0
DICTIONARY
  5
1EC9
330
20C
100
AcDbDictionary
280
     1
281
     1
  3
ADSK_XREC_LAYER_RECONCILED
360
1ECA
  0
DICTIONARY
  5
1ECB
330
20D
100
AcDbDictionary
280
     1
281
     1
  3
ADSK_XREC_LAYER_RECONCILED
360
1ECC
  0
DICTIONARY
  5
1ECD
330
20E
100
AcDbDictionary
280
     1
281
     1
  3
ADSK_XREC_LAYER_RECONCILED
360
1ECE
  0
DICTIONARY
  5
1ECF
330
20F
100
AcDbDictionary
280
     1
281
     1
  3
ADSK_XREC_LAYER_RECONCILED
360
1ED0
  0
DICTIONARY
  5
1E26
102
{ACAD_REACTORS
330
C
102
}
330
C
100
AcDbDictionary
281
     1
  0
DICTIONARY
  5
D
102
{ACAD_REACTORS
330
C
102
}
330
C
100
AcDbDictionary
281
     1
  0
DICTIONARY
  5
1A
102
{ACAD_REACTORS
330
C
102
}
330
C
100
AcDbDictionary
281
     1
  3
Layout1
350
1DF5
  3
Model
350
1DF4
  0
DICTIONARY
  5
1DF9
102
{ACAD_REACTORS
330
C
102
}
330
C
100
AcDbDictionary
281
     1
  3
ByBlock
350
1E02
  3
ByLayer
350
1DFA
  3
Global
350
1E0A
  0
DICTIONARY
  5
1E4B
102
{ACAD_REACTORS
330
C
102
}
330
C
100
AcDbDictionary
281
     1
  3
Standard
350
1E4C
  0
DICTIONARY
  5
17
102
{ACAD_REACTORS
330
C
102
}
330
C
100
AcDbDictionary
281
     1
  3
Standard
350
18
  0
DICTIONARY
  5
19
102
{ACAD_REACTORS
330
C
102
}
330
C
100
AcDbDictionary
281
     1
  0
ACDBDICTIONARYWDFLT
  5
E
102
{ACAD_REACTORS
330
C
102
}
330
C
100
AcDbDictionary
281
     1
  3
Normal
350
F
100
AcDbDictionaryWithDefault
340
F
  0
DICTIONARY
  5
1E29
102
{ACAD_REACTORS
330
C
102
}
330
C
100
AcDbDictionary
281
     1
  3
A0
350
1E2A
  3
A1
350
1E2B
  3
A2
350
1E2C
  3
A3
350
1E2D
  3
A4
350
1E2E
  3
A5
350
1E2F
  3
A6
350
1E30
  3
A7
350
1E31
  3
A8
350
1E32
  3
A9
350
1E33
  3
B0
350
1E34
  3
B1
350
1E35
  3
B2
350
1E36
  3
B3
350
1E37
  3
B4
350
1E38
  3
B5
350
1E39
  3
B6
350
1E3A
  3
B7
350
1E3B
  3
B8
350
1E3C
  3
B9
350
1E3D
  3
C0
350
1E3E
  3
C1
350
1E3F
  3
C2
350
1E40
  3
C3
350
1E41
  3
C4
350
1E42
  3
C5
350
1E43
  3
C6
350
1E44
  3
C7
350
1E45
  3
C8
350
1E46
  3
C9
350
1E47
  3
D0
350
1E48
  3
D1
350
1E49
  3
D2
350
1E4A
  0
DICTIONARY
  5
1E27
102
{ACAD_REACTORS
330
C
102
}
330
C
100
AcDbDictionary
281
     1
  3
Standard
350
1E28
  0
DICTIONARY
  5
1E12
102
{ACAD_REACTORS
330
C
102
}
330
C
100
AcDbDictionary
281
     1
  3
2dWireframe
350
1E18
  3
3D Hidden
350
1E1A
  3
3dWireframe
350
1E19
  3
Basic
350
1E17
  3
Brighten
350
1E1E
  3
ColorChange
350
1E22
  3
Conceptual
350
1E1B
  3
Dim
350
1E1D
  3
EdgeColorOff
350
1E25
  3
Facepattern
350
1E21
  3
Flat
350
1E13
  3
FlatWithEdges
350
1E14
  3
Gouraud
350
1E15
  3
GouraudWithEdges
350
1E16
  3
JitterOff
350
1E23
  3
Linepattern
350
1E20
  3
OverhangOff
350
1E24
  3
Realistic
350
1E1C
  3
Thicken
350
1E1F
  0
XRECORD
  5
1E51
102
{ACAD_REACTORS
330
C
102
}
330
C
100
AcDbXrecord
280
     1
 90
        1
330
1E28
  0
DICTIONARY
  5
1E83
102
{ACAD_REACTORS
330
C
102
}
330
C
100
AcDbDictionary
281
     1
  3
CANNOSCALE
350
1E86
  3
CMLEADERSTYLE
350
1E85
  3
CTABLESTYLE
350
1E84
  3
DIMASSOC
350
1E89
  3
INDEXCTL
350
1E88
  3
SORTENTS
350
1E87
  3
XCLIPFRAME
350
1E8A
  0
XRECORD
  5
1EF2
102
{ACAD_REACTORS
330
C
102
}
330
C
100
AcDbXrecord
280
     1
  1
DWGPROPS COOKIE
  2

  3

  4

  6

  7

  8
francoisbu
  9

300
=
301
=
302
=
303
=
304
=
305
=
306
=
307
=
308
=
309
=
 40
0.0139371527777778
 41
2456086.647553878
 42
2456087.378228229
  1

 90
        0
  0
XRECORD
  5
1EA4
102
{ACAD_REACTORS
330
1EA3
102
}
330
1EA3
100
AcDbXrecord
280
     1
290
     1
  0
XRECORD
  5
1EA6
102
{ACAD_REACTORS
330
1EA5
102
}
330
1EA5
100
AcDbXrecord
280
     1
290
     1
  0
XRECORD
  5
1EA8
102
{ACAD_REACTORS
330
1EA7
102
}
330
1EA7
100
AcDbXrecord
280
     1
290
     1
  0
XRECORD
  5
1EAA
102
{ACAD_REACTORS
330
1EA9
102
}
330
1EA9
100
AcDbXrecord
280
     1
290
     1
  0
XRECORD
  5
1EAC
102
{ACAD_REACTORS
330
1EAB
102
}
330
1EAB
100
AcDbXrecord
280
     1
290
     1
  0
XRECORD
  5
1EAE
102
{ACAD_REACTORS
330
1EAD
102
}
330
1EAD
100
AcDbXrecord
280
     1
290
     1
  0
XRECORD
  5
1EB0
102
{ACAD_REACTORS
330
1EAF
102
}
330
1EAF
100
AcDbXrecord
280
     1
290
     1
  0
XRECORD
  5
1EB2
102
{ACAD_REACTORS
330
1EB1
102
}
330
1EB1
100
AcDbXrecord
280
     1
290
     1
  0
XRECORD
  5
1EB4
102
{ACAD_REACTORS
330
1EB3
102
}
330
1EB3
100
AcDbXrecord
280
     1
290
     1
  0
XRECORD
  5
1EB6
102
{ACAD_REACTORS
330
1EB5
102
}
330
1EB5
100
AcDbXrecord
280
     1
290
     1
  0
XRECORD
  5
1EB8
102
{ACAD_REACTORS
330
1EB7
102
}
330
1EB7
100
AcDbXrecord
280
     1
290
     1
  0
XRECORD
  5
1EBA
102
{ACAD_REACTORS
330
1EB9
102
}
330
1EB9
100
AcDbXrecord
280
     1
290
     1
  0
XRECORD
  5
1EBC
102
{ACAD_REACTORS
330
1EBB
102
}
330
1EBB
100
AcDbXrecord
280
     1
290
     1
  0
XRECORD
  5
1EBE
102
{ACAD_REACTORS
330
1EBD
102
}
330
1EBD
100
AcDbXrecord
280
     1
290
     1
  0
XRECORD
  5
1EC0
102
{ACAD_REACTORS
330
1EBF
102
}
330
1EBF
100
AcDbXrecord
280
     1
290
     1
  0
XRECORD
  5
1EC2
102
{ACAD_REACTORS
330
1EC1
102
}
330
1EC1
100
AcDbXrecord
280
     1
290
     1
  0
XRECORD
  5
1EC4
102
{ACAD_REACTORS
330
1EC3
102
}
330
1EC3
100
AcDbXrecord
280
     1
290
     1
  0
XRECORD
  5
1EC6
102
{ACAD_REACTORS
330
1EC5
102
}
330
1EC5
100
AcDbXrecord
280
     1
290
     1
  0
XRECORD
  5
1EC8
102
{ACAD_REACTORS
330
1EC7
102
}
330
1EC7
100
AcDbXrecord
280
     1
290
     1
  0
XRECORD
  5
1ECA
102
{ACAD_REACTORS
330
1EC9
102
}
330
1EC9
100
AcDbXrecord
280
     1
290
     1
  0
XRECORD
  5
1ECC
102
{ACAD_REACTORS
330
1ECB
102
}
330
1ECB
100
AcDbXrecord
280
     1
290
     1
  0
XRECORD
  5
1ECE
102
{ACAD_REACTORS
330
1ECD
102
}
330
1ECD
100
AcDbXrecord
280
     1
290
     1
  0
XRECORD
  5
1ED0
102
{ACAD_REACTORS
330
1ECF
102
}
330
1ECF
100
AcDbXrecord
280
     1
290
     1
  0
LAYOUT
  5
1DF5
102
{ACAD_XDICTIONARY
360
1EF5
102
}
102
{ACAD_REACTORS
330
1A
102
}
330
1A
100
AcDbPlotSettings
  1

  2
none_device
  4
ANSI_B_(17.00_x_11.00_Inches)
  6

 40
0.0
 41
0.0
 42
0.0
 43
0.0
 44
431.8
 45
279.4
 46
0.0
 47
0.0
 48
0.0
 49
0.0
140
0.0
141
0.0
142
1.0
143
1.0
 70
     0
 72
     0
 73
     0
 74
     0
  7

 75
     0
147
1.0
148
0.0
149
0.0
100
AcDbLayout
  1
Layout1
 70
     1
 71
     1
 10
0.0
 20
0.0
 11
12.0
 21
9.0
 12
0.0
 22
0.0
 32
0.0
 14
1.000000000000000E+20
 24
1.000000000000000E+20
 34
1.000000000000000E+20
 15
-1.000000000000000E+20
 25
-1.000000000000000E+20
 35
-1.000000000000000E+20
146
0.0
 13
0.0
 23
0.0
 33
0.0
 16
1.0
 26
0.0
 36
0.0
 17
0.0
 27
1.0
 37
0.0
 76
     0
330
219
  0
LAYOUT
  5
1DF4
102
{ACAD_XDICTIONARY
360
1EF3
102
}
102
{ACAD_REACTORS
330
1A
102
}
330
1A
100
AcDbPlotSettings
  1

  2
none_device
  4
ANSI_B_(17.00_x_11.00_Inches)
  6

 40
0.0
 41
0.0
 42
0.0
 43
0.0
 44
431.8
 45
279.4
 46
0.0
 47
0.0
 48
0.0
 49
0.0
140
0.0
141
0.0
142
1.0
143
1.0
 70
  1024
 72
     0
 73
     0
 74
     0
  7

 75
     0
147
1.0
148
0.0
149
0.0
100
AcDbLayout
  1
Model
 70
     0
 71
     0
 10
0.0
 20
0.0
 11
17.0
 21
11.0
 12
0.0
 22
0.0
 32
0.0
 14
0.0
 24
0.0
 34
0.0
 15
0.0
 25
0.0
 35
0.0
146
0.0
 13
0.0
 23
0.0
 33
0.0
 16
1.0
 26
0.0
 36
0.0
 17
0.0
 27
1.0
 37
0.0
 76
     0
330
218
331
1F4
  0
MATERIAL
  5
1E02
102
{ACAD_XDICTIONARY
360
1E03
102
}
102
{ACAD_REACTORS
330
1DF9
102
}
330
1DF9
100
AcDbMaterial
  1
ByBlock
 72
     0
 43
0.0208333333333333
 43
0.0
 43
0.0
 43
0.0
 43
0.0
 43
0.0208333333333333
 43
0.0
 43
0.0
 43
0.0
 43
0.0
 43
1.0
 43
0.0
 43
0.0
 43
0.0
 43
0.0
 43
1.0
 77
     0
 47
0.0208333333333333
 47
0.0
 47
0.0
 47
0.0
 47
0.0
 47
0.0208333333333333
 47
0.0
 47
0.0
 47
0.0
 47
0.0
 47
1.0
 47
0.0
 47
0.0
 47
0.0
 47
0.0
 47
1.0
171
     0
 49
0.0208333333333333
 49
0.0
 49
0.0
 49
0.0
 49
0.0
 49
0.0208333333333333
 49
0.0
 49
0.0
 49
0.0
 49
0.0
 49
1.0
 49
0.0
 49
0.0
 49
0.0
 49
0.0
 49
1.0
175
     0
142
0.0208333333333333
142
0.0
142
0.0
142
0.0
142
0.0
142
0.0208333333333333
142
0.0
142
0.0
142
0.0
142
0.0
142
1.0
142
0.0
142
0.0
142
0.0
142
0.0
142
1.0
179
     0
144
0.0208333333333333
144
0.0
144
0.0
144
0.0
144
0.0
144
0.0208333333333333
144
0.0
144
0.0
144
0.0
144
0.0
144
1.0
144
0.0
144
0.0
144
0.0
144
0.0
144
1.0
147
0.0208333333333333
147
0.0
147
0.0
147
0.0
147
0.0
147
0.0208333333333333
147
0.0
147
0.0
147
0.0
147
0.0
147
1.0
147
0.0
147
0.0
147
0.0
147
0.0
147
1.0
  0
MATERIAL
  5
1DFA
102
{ACAD_XDICTIONARY
360
1DFB
102
}
102
{ACAD_REACTORS
330
1DF9
102
}
330
1DF9
100
AcDbMaterial
  1
ByLayer
 72
     0
 43
0.0208333333333333
 43
0.0
 43
0.0
 43
0.0
 43
0.0
 43
0.0208333333333333
 43
0.0
 43
0.0
 43
0.0
 43
0.0
 43
1.0
 43
0.0
 43
0.0
 43
0.0
 43
0.0
 43
1.0
 77
     0
 47
0.0208333333333333
 47
0.0
 47
0.0
 47
0.0
 47
0.0
 47
0.0208333333333333
 47
0.0
 47
0.0
 47
0.0
 47
0.0
 47
1.0
 47
0.0
 47
0.0
 47
0.0
 47
0.0
 47
1.0
171
     0
 49
0.0208333333333333
 49
0.0
 49
0.0
 49
0.0
 49
0.0
 49
0.0208333333333333
 49
0.0
 49
0.0
 49
0.0
 49
0.0
 49
1.0
 49
0.0
 49
0.0
 49
0.0
 49
0.0
 49
1.0
175
     0
142
0.0208333333333333
142
0.0
142
0.0
142
0.0
142
0.0
142
0.0208333333333333
142
0.0
142
0.0
142
0.0
142
0.0
142
1.0
142
0.0
142
0.0
142
0.0
142
0.0
142
1.0
179
     0
144
0.0208333333333333
144
0.0
144
0.0
144
0.0
144
0.0
144
0.0208333333333333
144
0.0
144
0.0
144
0.0
144
0.0
144
1.0
144
0.0
144
0.0
144
0.0
144
0.0
144
1.0
147
0.0208333333333333
147
0.0
147
0.0
147
0.0
147
0.0
147
0.0208333333333333
147
0.0
147
0.0
147
0.0
147
0.0
147
1.0
147
0.0
147
0.0
147
0.0
147
0.0
147
1.0
  0
MATERIAL
  5
1E0A
102
{ACAD_XDICTIONARY
360
1E0B
102
}
102
{ACAD_REACTORS
330
1DF9
102
}
330
1DF9
100
AcDbMaterial
  1
Global
 72
     0
 43
0.0208333333333333
 43
0.0
 43
0.0
 43
0.0
 43
0.0
 43
0.0208333333333333
 43
0.0
 43
0.0
 43
0.0
 43
0.0
 43
1.0
 43
0.0
 43
0.0
 43
0.0
 43
0.0
 43
1.0
 77
     0
 47
0.0208333333333333
 47
0.0
 47
0.0
 47
0.0
 47
0.0
 47
0.0208333333333333
 47
0.0
 47
0.0
 47
0.0
 47
0.0
 47
1.0
 47
0.0
 47
0.0
 47
0.0
 47
0.0
 47
1.0
171
     0
 49
0.0208333333333333
 49
0.0
 49
0.0
 49
0.0
 49
0.0
 49
0.0208333333333333
 49
0.0
 49
0.0
 49
0.0
 49
0.0
 49
1.0
 49
0.0
 49
0.0
 49
0.0
 49
0.0
 49
1.0
175
     0
142
0.0208333333333333
142
0.0
142
0.0
142
0.0
142
0.0
142
0.0208333333333333
142
0.0
142
0.0
142
0.0
142
0.0
142
1.0
142
0.0
142
0.0
142
0.0
142
0.0
142
1.0
179
     0
144
0.0208333333333333
144
0.0
144
0.0
144
0.0
144
0.0
144
0.0208333333333333
144
0.0
144
0.0
144
0.0
144
0.0
144
1.0
144
0.0
144
0.0
144
0.0
144
0.0
144
1.0
147
0.0208333333333333
147
0.0
147
0.0
147
0.0
147
0.0
147
0.0208333333333333
147
0.0
147
0.0
147
0.0
147
0.0
147
1.0
147
0.0
147
0.0
147
0.0
147
0.0
147
1.0
  0
MLEADERSTYLE
  5
1E4C
102
{ACAD_REACTORS
330
1E4B
102
}
330
1E4B
100
AcDbMLeaderStyle
170
     2
171
     1
172
     0
 90
        2
 40
0.0
 41
0.0
173
     1
 91
-1056964608
340
14
 92
       -2
290
     1
 42
0.09
291
     1
 43
0.36
  3
Standard
 44
0.18
300

342
11
174
     1
178
     6
175
     1
176
     0
 93
-1056964608
 45
0.18
292
     0
297
     0
 46
0.18
 94
-1056964608
 47
1.0
 49
1.0
140
1.0
293
     1
141
0.0
294
     1
177
     0
142
1.0
295
     0
296
     0
143
0.125
1001
ACAD_MLEADERVER
1070
     2
  0
MLINESTYLE
  5
18
102
{ACAD_REACTORS
330
17
102
}
330
17
100
AcDbMlineStyle
  2
STANDARD
 70
     0
  3

 62
   256
 51
90.0
 52
90.0
 71
     2
 49
0.5
 62
   256
  6
BYLAYER
 49
-0.5
 62
   256
  6
BYLAYER
  0
ACDBPLACEHOLDER
  5
F
102
{ACAD_REACTORS
330
E
102
}
330
E
  0
SCALE
  5
1E2A
102
{ACAD_REACTORS
330
1E29
102
}
330
1E29
100
AcDbScale
 70
     0
300
1:1
140
1.0
141
1.0
290
     1
  0
SCALE
  5
1E2B
102
{ACAD_REACTORS
330
1E29
102
}
330
1E29
100
AcDbScale
 70
     0
300
1:2
140
1.0
141
2.0
290
     0
  0
SCALE
  5
1E2C
102
{ACAD_REACTORS
330
1E29
102
}
330
1E29
100
AcDbScale
 70
     0
300
1:4
140
1.0
141
4.0
290
     0
  0
SCALE
  5
1E2D
102
{ACAD_REACTORS
330
1E29
102
}
330
1E29
100
AcDbScale
 70
     0
300
1:5
140
1.0
141
5.0
290
     0
  0
SCALE
  5
1E2E
102
{ACAD_REACTORS
330
1E29
102
}
330
1E29
100
AcDbScale
 70
     0
300
1:8
140
1.0
141
8.0
290
     0
  0
SCALE
  5
1E2F
102
{ACAD_REACTORS
330
1E29
102
}
330
1E29
100
AcDbScale
 70
     0
300
1:10
140
1.0
141
10.0
290
     0
  0
SCALE
  5
1E30
102
{ACAD_REACTORS
330
1E29
102
}
330
1E29
100
AcDbScale
 70
     0
300
1:16
140
1.0
141
16.0
290
     0
  0
SCALE
  5
1E31
102
{ACAD_REACTORS
330
1E29
102
}
330
1E29
100
AcDbScale
 70
     0
300
1:20
140
1.0
141
20.0
290
     0
  0
SCALE
  5
1E32
102
{ACAD_REACTORS
330
1E29
102
}
330
1E29
100
AcDbScale
 70
     0
300
1:30
140
1.0
141
30.0
290
     0
  0
SCALE
  5
1E33
102
{ACAD_REACTORS
330
1E29
102
}
330
1E29
100
AcDbScale
 70
     0
300
1:40
140
1.0
141
40.0
290
     0
  0
SCALE
  5
1E34
102
{ACAD_REACTORS
330
1E29
102
}
330
1E29
100
AcDbScale
 70
     0
300
1:50
140
1.0
141
50.0
290
     0
  0
SCALE
  5
1E35
102
{ACAD_REACTORS
330
1E29
102
}
330
1E29
100
AcDbScale
 70
     0
300
1:100
140
1.0
141
100.0
290
     0
  0
SCALE
  5
1E36
102
{ACAD_REACTORS
330
1E29
102
}
330
1E29
100
AcDbScale
 70
     0
300
2:1
140
2.0
141
1.0
290
     0
  0
SCALE
  5
1E37
102
{ACAD_REACTORS
330
1E29
102
}
330
1E29
100
AcDbScale
 70
     0
300
4:1
140
4.0
141
1.0
290
     0
  0
SCALE
  5
1E38
102
{ACAD_REACTORS
330
1E29
102
}
330
1E29
100
AcDbScale
 70
     0
300
8:1
140
8.0
141
1.0
290
     0
  0
SCALE
  5
1E39
102
{ACAD_REACTORS
330
1E29
102
}
330
1E29
100
AcDbScale
 70
     0
300
10:1
140
10.0
141
1.0
290
     0
  0
SCALE
  5
1E3A
102
{ACAD_REACTORS
330
1E29
102
}
330
1E29
100
AcDbScale
 70
     0
300
100:1
140
100.0
141
1.0
290
     0
  0
SCALE
  5
1E3B
102
{ACAD_REACTORS
330
1E29
102
}
330
1E29
100
AcDbScale
 70
     0
300
1/128" = 1'-0"
140
0.0078125
141
12.0
290
     0
  0
SCALE
  5
1E3C
102
{ACAD_REACTORS
330
1E29
102
}
330
1E29
100
AcDbScale
 70
     0
300
1/64" = 1'-0"
140
0.015625
141
12.0
290
     0
  0
SCALE
  5
1E3D
102
{ACAD_REACTORS
330
1E29
102
}
330
1E29
100
AcDbScale
 70
     0
300
1/32" = 1'-0"
140
0.03125
141
12.0
290
     0
  0
SCALE
  5
1E3E
102
{ACAD_REACTORS
330
1E29
102
}
330
1E29
100
AcDbScale
 70
     0
300
1/16" = 1'-0"
140
0.0625
141
12.0
290
     0
  0
SCALE
  5
1E3F
102
{ACAD_REACTORS
330
1E29
102
}
330
1E29
100
AcDbScale
 70
     0
300
3/32" = 1'-0"
140
0.09375
141
12.0
290
     0
  0
SCALE
  5
1E40
102
{ACAD_REACTORS
330
1E29
102
}
330
1E29
100
AcDbScale
 70
     0
300
1/8" = 1'-0"
140
0.125
141
12.0
290
     0
  0
SCALE
  5
1E41
102
{ACAD_REACTORS
330
1E29
102
}
330
1E29
100
AcDbScale
 70
     0
300
3/16" = 1'-0"
140
0.1875
141
12.0
290
     0
  0
SCALE
  5
1E42
102
{ACAD_REACTORS
330
1E29
102
}
330
1E29
100
AcDbScale
 70
     0
300
1/4" = 1'-0"
140
0.25
141
12.0
290
     0
  0
SCALE
  5
1E43
102
{ACAD_REACTORS
330
1E29
102
}
330
1E29
100
AcDbScale
 70
     0
300
3/8" = 1'-0"
140
0.375
141
12.0
290
     0
  0
SCALE
  5
1E44
102
{ACAD_REACTORS
330
1E29
102
}
330
1E29
100
AcDbScale
 70
     0
300
1/2" = 1'-0"
140
0.5
141
12.0
290
     0
  0
SCALE
  5
1E45
102
{ACAD_REACTORS
330
1E29
102
}
330
1E29
100
AcDbScale
 70
     0
300
3/4" = 1'-0"
140
0.75
141
12.0
290
     0
  0
SCALE
  5
1E46
102
{ACAD_REACTORS
330
1E29
102
}
330
1E29
100
AcDbScale
 70
     0
300
1" = 1'-0"
140
1.0
141
12.0
290
     0
  0
SCALE
  5
1E47
102
{ACAD_REACTORS
330
1E29
102
}
330
1E29
100
AcDbScale
 70
     0
300
1-1/2" = 1'-0"
140
1.5
141
12.0
290
     0
  0
SCALE
  5
1E48
102
{ACAD_REACTORS
330
1E29
102
}
330
1E29
100
AcDbScale
 70
     0
300
3" = 1'-0"
140
3.0
141
12.0
290
     0
  0
SCALE
  5
1E49
102
{ACAD_REACTORS
330
1E29
102
}
330
1E29
100
AcDbScale
 70
     0
300
6" = 1'-0"
140
6.0
141
12.0
290
     0
  0
SCALE
  5
1E4A
102
{ACAD_REACTORS
330
1E29
102
}
330
1E29
100
AcDbScale
 70
     0
300
1'-0" = 1'-0"
140
12.0
141
12.0
290
     0
  0
TABLESTYLE
  5
1E28
102
{ACAD_XDICTIONARY
360
1E4F
102
}
102
{ACAD_REACTORS
330
1E27
102
}
330
1E27
100
AcDbTableStyle
  3
Standard
 70
     0
 71
     0
 40
0.06
 41
0.06
280
     0
281
     0
  7
STANDARD
140
0.18
170
     2
 62
     0
 63
     7
283
     0
274
    -2
284
     1
 64
     0
275
    -2
285
     1
 65
     0
276
    -2
286
     1
 66
     0
277
    -2
287
     1
 67
     0
278
    -2
288
     1
 68
     0
279
    -2
289
     1
 69
     0
  7
STANDARD
140
0.25
170
     5
 62
     0
 63
     7
283
     0
274
    -2
284
     1
 64
     0
275
    -2
285
     1
 65
     0
276
    -2
286
     1
 66
     0
277
    -2
287
     1
 67
     0
278
    -2
288
     1
 68
     0
279
    -2
289
     1
 69
     0
  7
STANDARD
140
0.18
170
     5
 62
     0
 63
     7
283
     0
274
    -2
284
     1
 64
     0
275
    -2
285
     1
 65
     0
276
    -2
286
     1
 66
     0
277
    -2
287
     1
 67
     0
278
    -2
288
     1
 68
     0
279
    -2
289
     1
 69
     0
  0
VISUALSTYLE
  5
1E18
102
{ACAD_XDICTIONARY
360
1E65
102
}
102
{ACAD_REACTORS
330
1E12
102
}
330
1E12
100
AcDbVisualStyle
  2
2dWireframe
 70
     4
 71
     0
 72
     2
 73
     0
 90
        0
 40
-0.6
 41
-30.0
 62
     5
 63
     7
 74
     1
 91
        4
 64
     7
 65
   257
 75
     1
175
     1
 42
1.0
 92
        0
 66
   257
 43
1.0
 76
     1
 77
     6
 78
     2
 67
     7
 79
     5
170
     0
171
     0
290
     0
174
     0
 93
        1
 44
0.0
173
     0
291
     0
 45
0.0
1001
ACAD
1000
AcDbSavedByObjectVersion
1070
     0
  0
VISUALSTYLE
  5
1E1A
102
{ACAD_XDICTIONARY
360
1E69
102
}
102
{ACAD_REACTORS
330
1E12
102
}
330
1E12
100
AcDbVisualStyle
  2
3D Hidden
 70
     6
 71
     1
 72
     2
 73
     2
 90
        0
 40
-0.6
 41
-30.0
 62
     5
 63
     7
 74
     2
 91
        2
 64
     7
 65
   257
 75
     2
175
     1
 42
179.0
 92
        0
 66
   257
 43
1.0
 76
     1
 77
     6
 78
     2
 67
     7
 79
     3
170
     0
171
     0
290
     0
174
     0
 93
        1
 44
0.0
173
     0
291
     0
 45
0.0
1001
ACAD
1000
AcDbSavedByObjectVersion
1070
     0
  0
VISUALSTYLE
  5
1E19
102
{ACAD_XDICTIONARY
360
1E67
102
}
102
{ACAD_REACTORS
330
1E12
102
}
330
1E12
100
AcDbVisualStyle
  2
3dWireframe
 70
     5
 71
     0
 72
     2
 73
     0
 90
        0
 40
-0.6
 41
-30.0
 62
     5
 63
     7
 74
     1
 91
        4
 64
     7
 65
   257
 75
     1
175
     1
 42
1.0
 92
        0
 66
   257
 43
1.0
 76
     1
 77
     6
 78
     2
 67
     7
 79
     5
170
     0
171
     0
290
     0
174
     0
 93
        1
 44
0.0
173
     0
291
     0
 45
0.0
1001
ACAD
1000
AcDbSavedByObjectVersion
1070
     0
  0
VISUALSTYLE
  5
1E17
102
{ACAD_XDICTIONARY
360
1E63
102
}
102
{ACAD_REACTORS
330
1E12
102
}
330
1E12
100
AcDbVisualStyle
  2
Basic
 70
     7
 71
     1
 72
     0
 73
     1
 90
        0
 40
-0.6
 41
-30.0
 62
     5
 63
     7
 74
     0
 91
        4
 64
     7
 65
   257
 75
     1
175
     1
 42
1.0
 92
        8
 66
     7
 43
1.0
 76
     1
 77
     6
 78
     2
 67
     7
 79
     5
170
     0
171
     0
290
     0
174
     0
 93
        1
 44
0.0
173
     0
291
     1
 45
0.0
1001
ACAD
1000
AcDbSavedByObjectVersion
1070
     0
  0
VISUALSTYLE
  5
1E1E
102
{ACAD_XDICTIONARY
360
1E71
102
}
102
{ACAD_REACTORS
330
1E12
102
}
330
1E12
100
AcDbVisualStyle
  2
Brighten
 70
    12
 71
     2
 72
     2
 73
     0
 90
        0
 40
-0.6
 41
-30.0
 62
     5
 63
     7
 74
     1
 91
        4
 64
     7
 65
   257
 75
     1
175
     1
 42
1.0
 92
        8
 66
     7
 43
1.0
 76
     1
 77
     6
 78
     2
 67
     7
 79
     5
170
     0
171
     0
290
     0
174
     0
 93
        1
 44
50.0
173
     0
291
     1
 45
0.0
1001
ACAD
1000
AcDbSavedByObjectVersion
1070
     0
  0
VISUALSTYLE
  5
1E22
102
{ACAD_XDICTIONARY
360
1E79
102
}
102
{ACAD_REACTORS
330
1E12
102
}
330
1E12
100
AcDbVisualStyle
  2
ColorChange
 70
    16
 71
     2
 72
     2
 73
     3
 90
        0
 40
-0.6
 41
-30.0
 62
     5
 63
     8
 74
     1
 91
        4
 64
     7
 65
   257
 75
     1
175
     1
 42
1.0
 92
        8
 66
     8
 43
1.0
 76
     1
 77
     6
 78
     2
 67
     7
 79
     5
170
     0
171
     0
290
     0
174
     0
 93
        1
 44
0.0
173
     0
291
     1
 45
0.0
1001
ACAD
1000
AcDbSavedByObjectVersion
1070
     0
  0
VISUALSTYLE
  5
1E1B
102
{ACAD_XDICTIONARY
360
1E6B
102
}
102
{ACAD_REACTORS
330
1E12
102
}
330
1E12
100
AcDbVisualStyle
  2
Conceptual
 70
     9
 71
     3
 72
     2
 73
     0
 90
        0
 40
-0.6
 41
-30.0
 62
     5
 63
     7
 74
     2
 91
        2
 64
     7
 65
   257
 75
     1
175
     1
 42
179.0
 92
        8
 66
     7
 43
1.0
 76
     1
 77
     6
 78
     2
 67
     7
 79
     3
170
     0
171
     0
290
     0
174
     0
 93
        1
 44
0.0
173
     0
291
     0
 45
0.0
1001
ACAD
1000
AcDbSavedByObjectVersion
1070
     0
  0
VISUALSTYLE
  5
1E1D
102
{ACAD_XDICTIONARY
360
1E6F
102
}
102
{ACAD_REACTORS
330
1E12
102
}
330
1E12
100
AcDbVisualStyle
  2
Dim
 70
    11
 71
     2
 72
     2
 73
     0
 90
        0
 40
-0.6
 41
-30.0
 62
     5
 63
     7
 74
     1
 91
        4
 64
     7
 65
   257
 75
     1
175
     1
 42
1.0
 92
        8
 66
     7
 43
1.0
 76
     1
 77
     6
 78
     2
 67
     7
 79
     5
170
     0
171
     0
290
     0
174
     0
 93
        1
 44
-50.0
173
     0
291
     1
 45
0.0
1001
ACAD
1000
AcDbSavedByObjectVersion
1070
     0
  0
VISUALSTYLE
  5
1E25
102
{ACAD_XDICTIONARY
360
1E7F
102
}
102
{ACAD_REACTORS
330
1E12
102
}
330
1E12
100
AcDbVisualStyle
  2
EdgeColorOff
 70
    22
 71
     2
 72
     2
 73
     0
 90
        0
 40
-0.6
 41
-30.0
 62
     5
 63
     7
 74
     1
 91
        4
 64
     7
 65
   257
 75
     1
175
     1
 42
1.0
 92
        8
 66
     7
 43
1.0
 76
     1
 77
     6
 78
     2
 67
     7
 79
     5
170
     0
171
     0
290
     0
174
     0
 93
        1
 44
0.0
173
     0
291
     1
 45
0.0
1001
ACAD
1000
AcDbSavedByObjectVersion
1070
     0
  0
VISUALSTYLE
  5
1E21
102
{ACAD_XDICTIONARY
360
1E77
102
}
102
{ACAD_REACTORS
330
1E12
102
}
330
1E12
100
AcDbVisualStyle
  2
Facepattern
 70
    15
 71
     2
 72
     2
 73
     0
 90
        0
 40
-0.6
 41
-30.0
 62
     5
 63
     7
 74
     1
 91
        4
 64
     7
 65
   257
 75
     1
175
     1
 42
1.0
 92
        8
 66
     7
 43
1.0
 76
     1
 77
     6
 78
     2
 67
     7
 79
     5
170
     0
171
     0
290
     0
174
     0
 93
        1
 44
0.0
173
     0
291
     1
 45
0.0
1001
ACAD
1000
AcDbSavedByObjectVersion
1070
     0
  0
VISUALSTYLE
  5
1E13
102
{ACAD_XDICTIONARY
360
1E5B
102
}
102
{ACAD_REACTORS
330
1E12
102
}
330
1E12
100
AcDbVisualStyle
  2
Flat
 70
     0
 71
     2
 72
     1
 73
     1
 90
        2
 40
-0.6
 41
30.0
 62
     5
 63
     7
 74
     0
 91
        4
 64
     7
 65
   257
 75
     1
175
     1
 42
1.0
 92
        8
 66
     7
 43
1.0
 76
     1
 77
     6
 78
     2
 67
     7
 79
     5
170
     0
171
     0
290
     0
174
     0
 93
       13
 44
0.0
173
     0
291
     1
 45
0.0
1001
ACAD
1000
AcDbSavedByObjectVersion
1070
     0
  0
VISUALSTYLE
  5
1E14
102
{ACAD_XDICTIONARY
360
1E5D
102
}
102
{ACAD_REACTORS
330
1E12
102
}
330
1E12
100
AcDbVisualStyle
  2
FlatWithEdges
 70
     1
 71
     2
 72
     1
 73
     1
 90
        2
 40
-0.6
 41
30.0
 62
     5
 63
     7
 74
     1
 91
        4
 64
     7
 65
   257
 75
     1
175
     1
 42
1.0
 92
        0
 66
   257
 43
1.0
 76
     1
 77
     6
 78
     2
 67
     7
 79
     5
170
     0
171
     0
290
     0
174
     0
 93
       13
 44
0.0
173
     0
291
     1
 45
0.0
1001
ACAD
1000
AcDbSavedByObjectVersion
1070
     0
  0
VISUALSTYLE
  5
1E15
102
{ACAD_XDICTIONARY
360
1E5F
102
}
102
{ACAD_REACTORS
330
1E12
102
}
330
1E12
100
AcDbVisualStyle
  2
Gouraud
 70
     2
 71
     2
 72
     2
 73
     1
 90
        2
 40
-0.6
 41
30.0
 62
     5
 63
     7
 74
     0
 91
        4
 64
     7
 65
   257
 75
     1
175
     1
 42
1.0
 92
        0
 66
     7
 43
1.0
 76
     1
 77
     6
 78
     2
 67
     7
 79
     5
170
     0
171
     0
290
     0
174
     0
 93
       13
 44
0.0
173
     0
291
     1
 45
0.0
1001
ACAD
1000
AcDbSavedByObjectVersion
1070
     0
  0
VISUALSTYLE
  5
1E16
102
{ACAD_XDICTIONARY
360
1E61
102
}
102
{ACAD_REACTORS
330
1E12
102
}
330
1E12
100
AcDbVisualStyle
  2
GouraudWithEdges
 70
     3
 71
     2
 72
     2
 73
     1
 90
        2
 40
-0.6
 41
30.0
 62
     5
 63
     7
 74
     1
 91
        4
 64
     7
 65
   257
 75
     1
175
     1
 42
1.0
 92
        0
 66
   257
 43
1.0
 76
     1
 77
     6
 78
     2
 67
     7
 79
     5
170
     0
171
     0
290
     0
174
     0
 93
       13
 44
0.0
173
     0
291
     1
 45
0.0
1001
ACAD
1000
AcDbSavedByObjectVersion
1070
     0
  0
VISUALSTYLE
  5
1E23
102
{ACAD_XDICTIONARY
360
1E7B
102
}
102
{ACAD_REACTORS
330
1E12
102
}
330
1E12
100
AcDbVisualStyle
  2
JitterOff
 70
    20
 71
     2
 72
     2
 73
     0
 90
        0
 40
-0.6
 41
-30.0
 62
     5
 63
     7
 74
     1
 91
        4
 64
     7
 65
   257
 75
     1
175
     1
 42
1.0
 92
       10
 66
     7
 43
1.0
 76
     1
 77
     6
 78
     2
 67
     7
 79
     5
170
     0
171
     0
290
     0
174
     0
 93
        1
 44
0.0
173
     0
291
     1
 45
0.0
1001
ACAD
1000
AcDbSavedByObjectVersion
1070
     0
  0
VISUALSTYLE
  5
1E20
102
{ACAD_XDICTIONARY
360
1E75
102
}
102
{ACAD_REACTORS
330
1E12
102
}
330
1E12
100
AcDbVisualStyle
  2
Linepattern
 70
    14
 71
     2
 72
     2
 73
     0
 90
        0
 40
-0.6
 41
-30.0
 62
     5
 63
     7
 74
     1
 91
        4
 64
     7
 65
   257
 75
     7
175
     7
 42
1.0
 92
        8
 66
     7
 43
1.0
 76
     1
 77
     6
 78
     2
 67
     7
 79
     5
170
     0
171
     0
290
     0
174
     0
 93
        1
 44
0.0
173
     0
291
     1
 45
0.0
1001
ACAD
1000
AcDbSavedByObjectVersion
1070
     0
  0
VISUALSTYLE
  5
1E24
102
{ACAD_XDICTIONARY
360
1E7D
102
}
102
{ACAD_REACTORS
330
1E12
102
}
330
1E12
100
AcDbVisualStyle
  2
OverhangOff
 70
    21
 71
     2
 72
     2
 73
     0
 90
        0
 40
-0.6
 41
-30.0
 62
     5
 63
     7
 74
     1
 91
        4
 64
     7
 65
   257
 75
     1
175
     1
 42
1.0
 92
        9
 66
     7
 43
1.0
 76
     1
 77
     6
 78
     2
 67
     7
 79
     5
170
     0
171
     0
290
     0
174
     0
 93
        1
 44
0.0
173
     0
291
     1
 45
0.0
1001
ACAD
1000
AcDbSavedByObjectVersion
1070
     0
  0
VISUALSTYLE
  5
1E1C
102
{ACAD_XDICTIONARY
360
1E6D
102
}
102
{ACAD_REACTORS
330
1E12
102
}
330
1E12
100
AcDbVisualStyle
  2
Realistic
 70
     8
 71
     2
 72
     2
 73
     0
 90
        0
 40
-0.6
 41
-30.0
 62
     5
 63
     7
 74
     1
 91
        0
 64
     7
 65
   257
 75
     1
175
     1
 42
1.0
 92
        8
 66
     8
 43
1.0
 76
     1
 77
     6
 78
     2
 67
     7
 79
     5
170
     0
171
     0
290
     0
174
     0
 93
       13
 44
0.0
173
     0
291
     0
 45
0.0
1001
ACAD
1000
AcDbSavedByObjectVersion
1070
     0
  0
VISUALSTYLE
  5
1E1F
102
{ACAD_XDICTIONARY
360
1E73
102
}
102
{ACAD_REACTORS
330
1E12
102
}
330
1E12
100
AcDbVisualStyle
  2
Thicken
 70
    13
 71
     2
 72
     2
 73
     0
 90
        0
 40
-0.6
 41
-30.0
 62
     5
 63
     7
 74
     1
 91
        4
 64
     7
 65
   257
 75
     1
175
     1
 42
1.0
 92
       12
 66
     7
 43
1.0
 76
     1
 77
     6
 78
     2
 67
     7
 79
     5
170
     0
171
     0
290
     0
174
     0
 93
        1
 44
0.0
173
     0
291
     1
 45
0.0
1001
ACAD
1000
AcDbSavedByObjectVersion
1070
     0
  0
DICTIONARYVAR
  5
1E86
102
{ACAD_REACTORS
330
1E83
102
}
330
1E83
100
DictionaryVariables
280
     0
  1
1:1
  0
DICTIONARYVAR
  5
1E85
102
{ACAD_REACTORS
330
1E83
102
}
330
1E83
100
DictionaryVariables
280
     0
  1
STANDARD
  0
DICTIONARYVAR
  5
1E84
102
{ACAD_REACTORS
330
1E83
102
}
330
1E83
100
DictionaryVariables
280
     0
  1
STANDARD
  0
DICTIONARYVAR
  5
1E89
102
{ACAD_REACTORS
330
1E83
102
}
330
1E83
100
DictionaryVariables
280
     0
  1
1
  0
DICTIONARYVAR
  5
1E88
102
{ACAD_REACTORS
330
1E83
102
}
330
1E83
100
DictionaryVariables
280
     0
  1
0
  0
DICTIONARYVAR
  5
1E87
102
{ACAD_REACTORS
330
1E83
102
}
330
1E83
100
DictionaryVariables
280
     0
  1
127
  0
DICTIONARYVAR
  5
1E8A
102
{ACAD_REACTORS
330
1E83
102
}
330
1E83
100
DictionaryVariables
280
     0
  1
0
  0
DICTIONARY
  5
1EF5
330
1DF5
100
AcDbDictionary
280
     1
281
     1
  3
ACAD_XREC_ROUNDTRIP
360
1EF6
  0
DICTIONARY
  5
1EF3
330
1DF4
100
AcDbDictionary
280
     1
281
     1
  3
ACAD_XREC_ROUNDTRIP
360
1EF4
  0
DICTIONARY
  5
1E03
330
1E02
100
AcDbDictionary
280
     1
281
     1
  3
ACAD_XREC_ROUNDTRIP
360
1EF8
  3
BUMPTILE
360
1E05
  3
DIFFUSETILE
360
1E04
  3
OPACITYTILE
360
1E08
  3
REFLECTIONTILE
360
1E07
  3
REFRACTIONTILE
360
1E09
  3
SPECULARTILE
360
1E06
  0
DICTIONARY
  5
1DFB
330
1DFA
100
AcDbDictionary
280
     1
281
     1
  3
ACAD_XREC_ROUNDTRIP
360
1EF7
  3
BUMPTILE
360
1DFD
  3
DIFFUSETILE
360
1DFC
  3
OPACITYTILE
360
1E00
  3
REFLECTIONTILE
360
1DFF
  3
REFRACTIONTILE
360
1E01
  3
SPECULARTILE
360
1DFE
  0
DICTIONARY
  5
1E0B
330
1E0A
100
AcDbDictionary
280
     1
281
     1
  3
ACAD_XREC_ROUNDTRIP
360
1EF9
  3
BUMPTILE
360
1E0D
  3
DIFFUSETILE
360
1E0C
  3
OPACITYTILE
360
1E10
  3
REFLECTIONTILE
360
1E0F
  3
REFRACTIONTILE
360
1E11
  3
SPECULARTILE
360
1E0E
  0
DICTIONARY
  5
1E4F
330
1E28
100
AcDbDictionary
280
     1
281
     1
  3
ACAD_ROUNDTRIP_2008_TABLESTYLE_CELLSTYLEMAP
360
1EF1
  3
ACAD_XREC_ROUNDTRIP
360
1EFA
  0
DICTIONARY
  5
1E65
330
1E18
100
AcDbDictionary
280
     1
281
     1
  3
ACAD_XREC_ROUNDTRIP
360
1E66
  0
DICTIONARY
  5
1E69
330
1E1A
100
AcDbDictionary
280
     1
281
     1
  3
ACAD_XREC_ROUNDTRIP
360
1E6A
  0
DICTIONARY
  5
1E67
330
1E19
100
AcDbDictionary
280
     1
281
     1
  3
ACAD_XREC_ROUNDTRIP
360
1E68
  0
DICTIONARY
  5
1E63
330
1E17
100
AcDbDictionary
280
     1
281
     1
  3
ACAD_XREC_ROUNDTRIP
360
1E64
  0
DICTIONARY
  5
1E71
330
1E1E
100
AcDbDictionary
280
     1
281
     1
  3
ACAD_XREC_ROUNDTRIP
360
1E72
  0
DICTIONARY
  5
1E79
330
1E22
100
AcDbDictionary
280
     1
281
     1
  3
ACAD_XREC_ROUNDTRIP
360
1E7A
  0
DICTIONARY
  5
1E6B
330
1E1B
100
AcDbDictionary
280
     1
281
     1
  3
ACAD_XREC_ROUNDTRIP
360
1E6C
  0
DICTIONARY
  5
1E6F
330
1E1D
100
AcDbDictionary
280
     1
281
     1
  3
ACAD_XREC_ROUNDTRIP
360
1E70
  0
DICTIONARY
  5
1E7F
330
1E25
100
AcDbDictionary
280
     1
281
     1
  3
ACAD_XREC_ROUNDTRIP
360
1E80
  0
DICTIONARY
  5
1E77
330
1E21
100
AcDbDictionary
280
     1
281
     1
  3
ACAD_XREC_ROUNDTRIP
360
1E78
  0
DICTIONARY
  5
1E5B
330
1E13
100
AcDbDictionary
280
     1
281
     1
  3
ACAD_XREC_ROUNDTRIP
360
1E5C
  0
DICTIONARY
  5
1E5D
330
1E14
100
AcDbDictionary
280
     1
281
     1
  3
ACAD_XREC_ROUNDTRIP
360
1E5E
  0
DICTIONARY
  5
1E5F
330
1E15
100
AcDbDictionary
280
     1
281
     1
  3
ACAD_XREC_ROUNDTRIP
360
1E60
  0
DICTIONARY
  5
1E61
330
1E16
100
AcDbDictionary
280
     1
281
     1
  3
ACAD_XREC_ROUNDTRIP
360
1E62
  0
DICTIONARY
  5
1E7B
330
1E23
100
AcDbDictionary
280
     1
281
     1
  3
ACAD_XREC_ROUNDTRIP
360
1E7C
  0
DICTIONARY
  5
1E75
330
1E20
100
AcDbDictionary
280
     1
281
     1
  3
ACAD_XREC_ROUNDTRIP
360
1E76
  0
DICTIONARY
  5
1E7D
330
1E24
100
AcDbDictionary
280
     1
281
     1
  3
ACAD_XREC_ROUNDTRIP
360
1E7E
  0
DICTIONARY
  5
1E6D
330
1E1C
100
AcDbDictionary
280
     1
281
     1
  3
ACAD_XREC_ROUNDTRIP
360
1E6E
  0
DICTIONARY
  5
1E73
330
1E1F
100
AcDbDictionary
280
     1
281
     1
  3
ACAD_XREC_ROUNDTRIP
360
1E74
  0
XRECORD
  5
1EF6
102
{ACAD_REACTORS
330
1EF5
102
}
330
1EF5
100
AcDbXrecord
280
     1
102
SHADEPLOT
 70
     0
102
SHADEPLOTRESLEVEL
 70
     2
102
SHADEPLOTCUSTOMDPI
 70
   300
  0
XRECORD
  5
1EF4
102
{ACAD_REACTORS
330
1EF3
102
}
330
1EF3
100
AcDbXrecord
280
     1
102
SHADEPLOT
 70
     0
102
SHADEPLOTRESLEVEL
 70
     2
102
SHADEPLOTCUSTOMDPI
 70
   300
  0
XRECORD
  5
1EF8
102
{ACAD_REACTORS
330
1E03
102
}
330
1E03
100
AcDbXrecord
280
     1
102
MATERIAL
148
0.0
149
0.0
149
0.0
 93
        0
 94
      127
282
     0
 72
     0
 77
     0
171
     0
175
     0
179
     0
273
     0
  0
XRECORD
  5
1E05
102
{ACAD_REACTORS
330
1E03
102
}
330
1E03
100
AcDbXrecord
280
     1
270
     1
271
     1
  0
XRECORD
  5
1E04
102
{ACAD_REACTORS
330
1E03
102
}
330
1E03
100
AcDbXrecord
280
     1
270
     1
271
     1
  0
XRECORD
  5
1E08
102
{ACAD_REACTORS
330
1E03
102
}
330
1E03
100
AcDbXrecord
280
     1
270
     1
271
     1
  0
XRECORD
  5
1E07
102
{ACAD_REACTORS
330
1E03
102
}
330
1E03
100
AcDbXrecord
280
     1
270
     1
271
     1
  0
XRECORD
  5
1E09
102
{ACAD_REACTORS
330
1E03
102
}
330
1E03
100
AcDbXrecord
280
     1
270
     1
271
     1
  0
XRECORD
  5
1E06
102
{ACAD_REACTORS
330
1E03
102
}
330
1E03
100
AcDbXrecord
280
     1
270
     1
271
     1
  0
XRECORD
  5
1EF7
102
{ACAD_REACTORS
330
1DFB
102
}
330
1DFB
100
AcDbXrecord
280
     1
102
MATERIAL
148
0.0
149
0.0
149
0.0
 93
        0
 94
      127
282
     0
 72
     0
 77
     0
171
     0
175
     0
179
     0
273
     0
  0
XRECORD
  5
1DFD
102
{ACAD_REACTORS
330
1DFB
102
}
330
1DFB
100
AcDbXrecord
280
     1
270
     1
271
     1
  0
XRECORD
  5
1DFC
102
{ACAD_REACTORS
330
1DFB
102
}
330
1DFB
100
AcDbXrecord
280
     1
270
     1
271
     1
  0
XRECORD
  5
1E00
102
{ACAD_REACTORS
330
1DFB
102
}
330
1DFB
100
AcDbXrecord
280
     1
270
     1
271
     1
  0
XRECORD
  5
1DFF
102
{ACAD_REACTORS
330
1DFB
102
}
330
1DFB
100
AcDbXrecord
280
     1
270
     1
271
     1
  0
XRECORD
  5
1E01
102
{ACAD_REACTORS
330
1DFB
102
}
330
1DFB
100
AcDbXrecord
280
     1
270
     1
271
     1
  0
XRECORD
  5
1DFE
102
{ACAD_REACTORS
330
1DFB
102
}
330
1DFB
100
AcDbXrecord
280
     1
270
     1
271
     1
  0
XRECORD
  5
1EF9
102
{ACAD_REACTORS
330
1E0B
102
}
330
1E0B
100
AcDbXrecord
280
     1
102
MATERIAL
148
0.0
149
0.0
149
0.0
 93
        0
 94
      127
282
     0
 72
     0
 77
     0
171
     0
175
     0
179
     0
273
     0
  0
XRECORD
  5
1E0D
102
{ACAD_REACTORS
330
1E0B
102
}
330
1E0B
100
AcDbXrecord
280
     1
270
     1
271
     1
  0
XRECORD
  5
1E0C
102
{ACAD_REACTORS
330
1E0B
102
}
330
1E0B
100
AcDbXrecord
280
     1
270
     1
271
     1
  0
XRECORD
  5
1E10
102
{ACAD_REACTORS
330
1E0B
102
}
330
1E0B
100
AcDbXrecord
280
     1
270
     1
271
     1
  0
XRECORD
  5
1E0F
102
{ACAD_REACTORS
330
1E0B
102
}
330
1E0B
100
AcDbXrecord
280
     1
270
     1
271
     1
  0
XRECORD
  5
1E11
102
{ACAD_REACTORS
330
1E0B
102
}
330
1E0B
100
AcDbXrecord
280
     1
270
     1
271
     1
  0
XRECORD
  5
1E0E
102
{ACAD_REACTORS
330
1E0B
102
}
330
1E0B
100
AcDbXrecord
280
     1
270
     1
271
     1
  0
CELLSTYLEMAP
  5
1EF1
102
{ACAD_REACTORS
330
1E4F
102
}
330
1E4F
100
AcDbCellStyleMap
 90
        3
300
CELLSTYLE
  1
TABLEFORMAT_BEGIN
 90
        5
170
     1
 91
        0
 92
    32768
 62
   257
 93
        1
300
CONTENTFORMAT
  1
CONTENTFORMAT_BEGIN
 90
        0
 91
        0
 92
      512
 93
        0
300

 40
0.0
140
1.0
 94
        5
 62
     0
340
11
144
0.25
309
CONTENTFORMAT_END
171
     0
 94
        0
309
TABLEFORMAT_END
  1
CELLSTYLE_BEGIN
 90
        1
 91
        1
300
_TITLE
309
CELLSTYLE_END
300
CELLSTYLE
  1
TABLEFORMAT_BEGIN
 90
        5
170
     1
 91
        0
 92
        0
 62
   257
 93
        1
300
CONTENTFORMAT
  1
CONTENTFORMAT_BEGIN
 90
        0
 91
        0
 92
      512
 93
        0
300

 40
0.0
140
1.0
 94
        5
 62
     0
340
11
144
0.18
309
CONTENTFORMAT_END
171
     0
 94
        0
309
TABLEFORMAT_END
  1
CELLSTYLE_BEGIN
 90
        2
 91
        1
300
_HEADER
309
CELLSTYLE_END
300
CELLSTYLE
  1
TABLEFORMAT_BEGIN
 90
        5
170
     1
 91
        0
 92
        0
 62
   257
 93
        1
300
CONTENTFORMAT
  1
CONTENTFORMAT_BEGIN
 90
        0
 91
        0
 92
      512
 93
        0
300

 40
0.0
140
1.0
 94
        2
 62
     0
340
11
144
0.18
309
CONTENTFORMAT_END
171
     0
 94
        0
309
TABLEFORMAT_END
  1
CELLSTYLE_BEGIN
 90
        3
 91
        2
300
_DATA
309
CELLSTYLE_END
  0
XRECORD
  5
1EFA
102
{ACAD_REACTORS
330
1E4F
102
}
330
1E4F
100
AcDbXrecord
280
     1
102
ACAD_ROUNDTRIP_PRE2007_TABLESTYLE
 90
      512
 91
        0
  1

 92
      512
 93
        0
  2

 94
      512
 95
        0
  3

  0
XRECORD
  5
1E66
102
{ACAD_REACTORS
330
1E65
102
}
330
1E65
100
AcDbXrecord
280
     1
102
RTVSPropertyOp0
 70
     1
102
RTVSPropertyOp1
 70
     1
102
RTVSPropertyOp2
 70
     1
102
RTVSPropertyOp3
 70
     1
102
RTVSPropertyOp4
 70
     1
102
RTVSPropertyOp5
 70
     1
102
RTVSPropertyOp6
 70
     1
102
RTVSPropertyOp7
 70
     1
102
RTVSPropertyOp8
 70
     1
102
RTVSPropertyOp9
 70
     1
102
RTVSPropertyOp10
 70
     1
102
RTVSPropertyOp11
 70
     1
102
RTVSPropertyOp12
 70
     1
102
RTVSPropertyOp13
 70
     1
102
RTVSPropertyOp14
 70
     1
102
RTVSPropertyOp15
 70
     1
102
RTVSPropertyOp16
 70
     1
102
RTVSPropertyOp17
 70
     1
102
RTVSPropertyOp18
 70
     1
102
RTVSPropertyOp19
 70
     1
102
RTVSPropertyOp20
 70
     1
102
RTVSPropertyOp21
 70
     1
102
RTVSPropertyOp22
 70
     1
102
RTVSPropertyOp23
 70
     1
102
RTVSPropertyOp24
 70
     1
102
RTVSPropertyOp25
 70
     1
102
RTVSPropertyOp26
 70
     1
102
RTVSPropertyOp27
 70
     1
  0
XRECORD
  5
1E6A
102
{ACAD_REACTORS
330
1E69
102
}
330
1E69
100
AcDbXrecord
280
     1
102
RTVSPropertyOp0
 70
     1
102
RTVSPropertyOp1
 70
     1
102
RTVSPropertyOp2
 70
     1
102
RTVSPropertyOp3
 70
     1
102
RTVSPropertyOp4
 70
     1
102
RTVSPropertyOp5
 70
     1
102
RTVSPropertyOp6
 70
     1
102
RTVSPropertyOp7
 70
     1
102
RTVSPropertyOp8
 70
     1
102
RTVSPropertyOp9
 70
     1
102
RTVSPropertyOp10
 70
     1
102
RTVSPropertyOp11
 70
     1
102
RTVSPropertyOp12
 70
     1
102
RTVSPropertyOp13
 70
     1
102
RTVSPropertyOp14
 70
     1
102
RTVSPropertyOp15
 70
     1
102
RTVSPropertyOp16
 70
     1
102
RTVSPropertyOp17
 70
     1
102
RTVSPropertyOp18
 70
     1
102
RTVSPropertyOp19
 70
     1
102
RTVSPropertyOp20
 70
     1
102
RTVSPropertyOp21
 70
     1
102
RTVSPropertyOp22
 70
     1
102
RTVSPropertyOp23
 70
     1
102
RTVSPropertyOp24
 70
     1
102
RTVSPropertyOp25
 70
     1
102
RTVSPropertyOp26
 70
     1
102
RTVSPropertyOp27
 70
     1
  0
XRECORD
  5
1E68
102
{ACAD_REACTORS
330
1E67
102
}
330
1E67
100
AcDbXrecord
280
     1
102
RTVSPropertyOp0
 70
     1
102
RTVSPropertyOp1
 70
     1
102
RTVSPropertyOp2
 70
     1
102
RTVSPropertyOp3
 70
     1
102
RTVSPropertyOp4
 70
     1
102
RTVSPropertyOp5
 70
     1
102
RTVSPropertyOp6
 70
     1
102
RTVSPropertyOp7
 70
     1
102
RTVSPropertyOp8
 70
     1
102
RTVSPropertyOp9
 70
     1
102
RTVSPropertyOp10
 70
     1
102
RTVSPropertyOp11
 70
     1
102
RTVSPropertyOp12
 70
     1
102
RTVSPropertyOp13
 70
     1
102
RTVSPropertyOp14
 70
     1
102
RTVSPropertyOp15
 70
     1
102
RTVSPropertyOp16
 70
     1
102
RTVSPropertyOp17
 70
     1
102
RTVSPropertyOp18
 70
     1
102
RTVSPropertyOp19
 70
     1
102
RTVSPropertyOp20
 70
     1
102
RTVSPropertyOp21
 70
     1
102
RTVSPropertyOp22
 70
     1
102
RTVSPropertyOp23
 70
     1
102
RTVSPropertyOp24
 70
     1
102
RTVSPropertyOp25
 70
     1
102
RTVSPropertyOp26
 70
     1
102
RTVSPropertyOp27
 70
     1
  0
XRECORD
  5
1E64
102
{ACAD_REACTORS
330
1E63
102
}
330
1E63
100
AcDbXrecord
280
     1
102
RTVSPropertyOp0
 70
     1
102
RTVSPropertyOp1
 70
     1
102
RTVSPropertyOp2
 70
     1
102
RTVSPropertyOp3
 70
     1
102
RTVSPropertyOp4
 70
     1
102
RTVSPropertyOp5
 70
     1
102
RTVSPropertyOp6
 70
     1
102
RTVSPropertyOp7
 70
     1
102
RTVSPropertyOp8
 70
     1
102
RTVSPropertyOp9
 70
     1
102
RTVSPropertyOp10
 70
     1
102
RTVSPropertyOp11
 70
     1
102
RTVSPropertyOp12
 70
     1
102
RTVSPropertyOp13
 70
     1
102
RTVSPropertyOp14
 70
     1
102
RTVSPropertyOp15
 70
     1
102
RTVSPropertyOp16
 70
     1
102
RTVSPropertyOp17
 70
     1
102
RTVSPropertyOp18
 70
     1
102
RTVSPropertyOp19
 70
     1
102
RTVSPropertyOp20
 70
     1
102
RTVSPropertyOp21
 70
     1
102
RTVSPropertyOp22
 70
     1
102
RTVSPropertyOp23
 70
     1
102
RTVSPropertyOp24
 70
     1
102
RTVSPropertyOp25
 70
     1
102
RTVSPropertyOp26
 70
     1
102
RTVSPropertyOp27
 70
     1
  0
XRECORD
  5
1E72
102
{ACAD_REACTORS
330
1E71
102
}
330
1E71
100
AcDbXrecord
280
     1
102
RTVSPropertyOp0
 70
     1
102
RTVSPropertyOp1
 70
     1
102
RTVSPropertyOp2
 70
     1
102
RTVSPropertyOp3
 70
     1
102
RTVSPropertyOp4
 70
     1
102
RTVSPropertyOp5
 70
     1
102
RTVSPropertyOp6
 70
     1
102
RTVSPropertyOp7
 70
     1
102
RTVSPropertyOp8
 70
     1
102
RTVSPropertyOp9
 70
     1
102
RTVSPropertyOp10
 70
     1
102
RTVSPropertyOp11
 70
     1
102
RTVSPropertyOp12
 70
     1
102
RTVSPropertyOp13
 70
     1
102
RTVSPropertyOp14
 70
     1
102
RTVSPropertyOp15
 70
     1
102
RTVSPropertyOp16
 70
     1
102
RTVSPropertyOp17
 70
     1
102
RTVSPropertyOp18
 70
     1
102
RTVSPropertyOp19
 70
     1
102
RTVSPropertyOp20
 70
     1
102
RTVSPropertyOp21
 70
     1
102
RTVSPropertyOp22
 70
     1
102
RTVSPropertyOp23
 70
     1
102
RTVSPropertyOp24
 70
     1
102
RTVSPropertyOp25
 70
     1
102
RTVSPropertyOp26
 70
     1
102
RTVSPropertyOp27
 70
     1
  0
XRECORD
  5
1E7A
102
{ACAD_REACTORS
330
1E79
102
}
330
1E79
100
AcDbXrecord
280
     1
102
RTVSPropertyOp0
 70
     1
102
RTVSPropertyOp1
 70
     1
102
RTVSPropertyOp2
 70
     1
102
RTVSPropertyOp3
 70
     1
102
RTVSPropertyOp4
 70
     1
102
RTVSPropertyOp5
 70
     1
102
RTVSPropertyOp6
 70
     1
102
RTVSPropertyOp7
 70
     1
102
RTVSPropertyOp8
 70
     1
102
RTVSPropertyOp9
 70
     1
102
RTVSPropertyOp10
 70
     1
102
RTVSPropertyOp11
 70
     1
102
RTVSPropertyOp12
 70
     1
102
RTVSPropertyOp13
 70
     1
102
RTVSPropertyOp14
 70
     1
102
RTVSPropertyOp15
 70
     1
102
RTVSPropertyOp16
 70
     1
102
RTVSPropertyOp17
 70
     1
102
RTVSPropertyOp18
 70
     1
102
RTVSPropertyOp19
 70
     1
102
RTVSPropertyOp20
 70
     1
102
RTVSPropertyOp21
 70
     1
102
RTVSPropertyOp22
 70
     1
102
RTVSPropertyOp23
 70
     1
102
RTVSPropertyOp24
 70
     1
102
RTVSPropertyOp25
 70
     1
102
RTVSPropertyOp26
 70
     1
102
RTVSPropertyOp27
 70
     1
  0
XRECORD
  5
1E6C
102
{ACAD_REACTORS
330
1E6B
102
}
330
1E6B
100
AcDbXrecord
280
     1
102
RTVSPropertyOp0
 70
     1
102
RTVSPropertyOp1
 70
     1
102
RTVSPropertyOp2
 70
     1
102
RTVSPropertyOp3
 70
     1
102
RTVSPropertyOp4
 70
     1
102
RTVSPropertyOp5
 70
     1
102
RTVSPropertyOp6
 70
     1
102
RTVSPropertyOp7
 70
     1
102
RTVSPropertyOp8
 70
     1
102
RTVSPropertyOp9
 70
     1
102
RTVSPropertyOp10
 70
     1
102
RTVSPropertyOp11
 70
     1
102
RTVSPropertyOp12
 70
     1
102
RTVSPropertyOp13
 70
     1
102
RTVSPropertyOp14
 70
     1
102
RTVSPropertyOp15
 70
     1
102
RTVSPropertyOp16
 70
     1
102
RTVSPropertyOp17
 70
     1
102
RTVSPropertyOp18
 70
     1
102
RTVSPropertyOp19
 70
     1
102
RTVSPropertyOp20
 70
     1
102
RTVSPropertyOp21
 70
     1
102
RTVSPropertyOp22
 70
     1
102
RTVSPropertyOp23
 70
     1
102
RTVSPropertyOp24
 70
     1
102
RTVSPropertyOp25
 70
     1
102
RTVSPropertyOp26
 70
     1
102
RTVSPropertyOp27
 70
     1
  0
XRECORD
  5
1E70
102
{ACAD_REACTORS
330
1E6F
102
}
330
1E6F
100
AcDbXrecord
280
     1
102
RTVSPropertyOp0
 70
     1
102
RTVSPropertyOp1
 70
     1
102
RTVSPropertyOp2
 70
     1
102
RTVSPropertyOp3
 70
     1
102
RTVSPropertyOp4
 70
     1
102
RTVSPropertyOp5
 70
     1
102
RTVSPropertyOp6
 70
     1
102
RTVSPropertyOp7
 70
     1
102
RTVSPropertyOp8
 70
     1
102
RTVSPropertyOp9
 70
     1
102
RTVSPropertyOp10
 70
     1
102
RTVSPropertyOp11
 70
     1
102
RTVSPropertyOp12
 70
     1
102
RTVSPropertyOp13
 70
     1
102
RTVSPropertyOp14
 70
     1
102
RTVSPropertyOp15
 70
     1
102
RTVSPropertyOp16
 70
     1
102
RTVSPropertyOp17
 70
     1
102
RTVSPropertyOp18
 70
     1
102
RTVSPropertyOp19
 70
     1
102
RTVSPropertyOp20
 70
     1
102
RTVSPropertyOp21
 70
     1
102
RTVSPropertyOp22
 70
     1
102
RTVSPropertyOp23
 70
     1
102
RTVSPropertyOp24
 70
     1
102
RTVSPropertyOp25
 70
     1
102
RTVSPropertyOp26
 70
     1
102
RTVSPropertyOp27
 70
     1
  0
XRECORD
  5
1E80
102
{ACAD_REACTORS
330
1E7F
102
}
330
1E7F
100
AcDbXrecord
280
     1
102
RTVSPropertyOp0
 70
     0
102
RTVSPropertyOp1
 70
     0
102
RTVSPropertyOp2
 70
     0
102
RTVSPropertyOp3
 70
     0
102
RTVSPropertyOp4
 70
     0
102
RTVSPropertyOp5
 70
     0
102
RTVSPropertyOp6
 70
     0
102
RTVSPropertyOp7
 70
     0
102
RTVSPropertyOp8
 70
     0
102
RTVSPropertyOp9
 70
     0
102
RTVSPropertyOp10
 70
     0
102
RTVSPropertyOp11
 70
     0
102
RTVSPropertyOp12
 70
     0
102
RTVSPropertyOp13
 70
     0
102
RTVSPropertyOp14
 70
     2
102
RTVSPropertyOp15
 70
     0
102
RTVSPropertyOp16
 70
     0
102
RTVSPropertyOp17
 70
     0
102
RTVSPropertyOp18
 70
     0
102
RTVSPropertyOp19
 70
     0
102
RTVSPropertyOp20
 70
     0
102
RTVSPropertyOp21
 70
     0
102
RTVSPropertyOp22
 70
     0
102
RTVSPropertyOp23
 70
     0
102
RTVSPropertyOp24
 70
     0
102
RTVSPropertyOp25
 70
     0
102
RTVSPropertyOp26
 70
     0
102
RTVSPropertyOp27
 70
     0
  0
XRECORD
  5
1E78
102
{ACAD_REACTORS
330
1E77
102
}
330
1E77
100
AcDbXrecord
280
     1
102
RTVSPropertyOp0
 70
     1
102
RTVSPropertyOp1
 70
     1
102
RTVSPropertyOp2
 70
     1
102
RTVSPropertyOp3
 70
     1
102
RTVSPropertyOp4
 70
     1
102
RTVSPropertyOp5
 70
     1
102
RTVSPropertyOp6
 70
     1
102
RTVSPropertyOp7
 70
     1
102
RTVSPropertyOp8
 70
     1
102
RTVSPropertyOp9
 70
     1
102
RTVSPropertyOp10
 70
     1
102
RTVSPropertyOp11
 70
     1
102
RTVSPropertyOp12
 70
     1
102
RTVSPropertyOp13
 70
     1
102
RTVSPropertyOp14
 70
     1
102
RTVSPropertyOp15
 70
     1
102
RTVSPropertyOp16
 70
     1
102
RTVSPropertyOp17
 70
     1
102
RTVSPropertyOp18
 70
     1
102
RTVSPropertyOp19
 70
     1
102
RTVSPropertyOp20
 70
     1
102
RTVSPropertyOp21
 70
     1
102
RTVSPropertyOp22
 70
     1
102
RTVSPropertyOp23
 70
     1
102
RTVSPropertyOp24
 70
     1
102
RTVSPropertyOp25
 70
     1
102
RTVSPropertyOp26
 70
     1
102
RTVSPropertyOp27
 70
     1
  0
XRECORD
  5
1E5C
102
{ACAD_REACTORS
330
1E5B
102
}
330
1E5B
100
AcDbXrecord
280
     1
102
RTVSPropertyOp0
 70
     1
102
RTVSPropertyOp1
 70
     1
102
RTVSPropertyOp2
 70
     1
102
RTVSPropertyOp3
 70
     1
102
RTVSPropertyOp4
 70
     1
102
RTVSPropertyOp5
 70
     1
102
RTVSPropertyOp6
 70
     1
102
RTVSPropertyOp7
 70
     1
102
RTVSPropertyOp8
 70
     1
102
RTVSPropertyOp9
 70
     1
102
RTVSPropertyOp10
 70
     1
102
RTVSPropertyOp11
 70
     1
102
RTVSPropertyOp12
 70
     1
102
RTVSPropertyOp13
 70
     1
102
RTVSPropertyOp14
 70
     1
102
RTVSPropertyOp15
 70
     1
102
RTVSPropertyOp16
 70
     1
102
RTVSPropertyOp17
 70
     1
102
RTVSPropertyOp18
 70
     1
102
RTVSPropertyOp19
 70
     1
102
RTVSPropertyOp20
 70
     1
102
RTVSPropertyOp21
 70
     1
102
RTVSPropertyOp22
 70
     1
102
RTVSPropertyOp23
 70
     1
102
RTVSPropertyOp24
 70
     1
102
RTVSPropertyOp25
 70
     1
102
RTVSPropertyOp26
 70
     1
102
RTVSPropertyOp27
 70
     1
  0
XRECORD
  5
1E5E
102
{ACAD_REACTORS
330
1E5D
102
}
330
1E5D
100
AcDbXrecord
280
     1
102
RTVSPropertyOp0
 70
     1
102
RTVSPropertyOp1
 70
     1
102
RTVSPropertyOp2
 70
     1
102
RTVSPropertyOp3
 70
     1
102
RTVSPropertyOp4
 70
     1
102
RTVSPropertyOp5
 70
     1
102
RTVSPropertyOp6
 70
     1
102
RTVSPropertyOp7
 70
     1
102
RTVSPropertyOp8
 70
     1
102
RTVSPropertyOp9
 70
     1
102
RTVSPropertyOp10
 70
     1
102
RTVSPropertyOp11
 70
     1
102
RTVSPropertyOp12
 70
     1
102
RTVSPropertyOp13
 70
     1
102
RTVSPropertyOp14
 70
     1
102
RTVSPropertyOp15
 70
     1
102
RTVSPropertyOp16
 70
     1
102
RTVSPropertyOp17
 70
     1
102
RTVSPropertyOp18
 70
     1
102
RTVSPropertyOp19
 70
     1
102
RTVSPropertyOp20
 70
     1
102
RTVSPropertyOp21
 70
     1
102
RTVSPropertyOp22
 70
     1
102
RTVSPropertyOp23
 70
     1
102
RTVSPropertyOp24
 70
     1
102
RTVSPropertyOp25
 70
     1
102
RTVSPropertyOp26
 70
     1
102
RTVSPropertyOp27
 70
     1
  0
XRECORD
  5
1E60
102
{ACAD_REACTORS
330
1E5F
102
}
330
1E5F
100
AcDbXrecord
280
     1
102
RTVSPropertyOp0
 70
     1
102
RTVSPropertyOp1
 70
     1
102
RTVSPropertyOp2
 70
     1
102
RTVSPropertyOp3
 70
     1
102
RTVSPropertyOp4
 70
     1
102
RTVSPropertyOp5
 70
     1
102
RTVSPropertyOp6
 70
     1
102
RTVSPropertyOp7
 70
     1
102
RTVSPropertyOp8
 70
     1
102
RTVSPropertyOp9
 70
     1
102
RTVSPropertyOp10
 70
     1
102
RTVSPropertyOp11
 70
     1
102
RTVSPropertyOp12
 70
     1
102
RTVSPropertyOp13
 70
     1
102
RTVSPropertyOp14
 70
     1
102
RTVSPropertyOp15
 70
     1
102
RTVSPropertyOp16
 70
     1
102
RTVSPropertyOp17
 70
     1
102
RTVSPropertyOp18
 70
     1
102
RTVSPropertyOp19
 70
     1
102
RTVSPropertyOp20
 70
     1
102
RTVSPropertyOp21
 70
     1
102
RTVSPropertyOp22
 70
     1
102
RTVSPropertyOp23
 70
     1
102
RTVSPropertyOp24
 70
     1
102
RTVSPropertyOp25
 70
     1
102
RTVSPropertyOp26
 70
     1
102
RTVSPropertyOp27
 70
     1
  0
XRECORD
  5
1E62
102
{ACAD_REACTORS
330
1E61
102
}
330
1E61
100
AcDbXrecord
280
     1
102
RTVSPropertyOp0
 70
     1
102
RTVSPropertyOp1
 70
     1
102
RTVSPropertyOp2
 70
     1
102
RTVSPropertyOp3
 70
     1
102
RTVSPropertyOp4
 70
     1
102
RTVSPropertyOp5
 70
     1
102
RTVSPropertyOp6
 70
     1
102
RTVSPropertyOp7
 70
     1
102
RTVSPropertyOp8
 70
     1
102
RTVSPropertyOp9
 70
     1
102
RTVSPropertyOp10
 70
     1
102
RTVSPropertyOp11
 70
     1
102
RTVSPropertyOp12
 70
     1
102
RTVSPropertyOp13
 70
     1
102
RTVSPropertyOp14
 70
     1
102
RTVSPropertyOp15
 70
     1
102
RTVSPropertyOp16
 70
     1
102
RTVSPropertyOp17
 70
     1
102
RTVSPropertyOp18
 70
     1
102
RTVSPropertyOp19
 70
     1
102
RTVSPropertyOp20
 70
     1
102
RTVSPropertyOp21
 70
     1
102
RTVSPropertyOp22
 70
     1
102
RTVSPropertyOp23
 70
     1
102
RTVSPropertyOp24
 70
     1
102
RTVSPropertyOp25
 70
     1
102
RTVSPropertyOp26
 70
     1
102
RTVSPropertyOp27
 70
     1
  0
XRECORD
  5
1E7C
102
{ACAD_REACTORS
330
1E7B
102
}
330
1E7B
100
AcDbXrecord
280
     1
102
RTVSPropertyOp0
 70
     0
102
RTVSPropertyOp1
 70
     0
102
RTVSPropertyOp2
 70
     0
102
RTVSPropertyOp3
 70
     0
102
RTVSPropertyOp4
 70
     0
102
RTVSPropertyOp5
 70
     0
102
RTVSPropertyOp6
 70
     0
102
RTVSPropertyOp7
 70
     0
102
RTVSPropertyOp8
 70
     0
102
RTVSPropertyOp9
 70
     0
102
RTVSPropertyOp10
 70
     0
102
RTVSPropertyOp11
 70
     0
102
RTVSPropertyOp12
 70
     0
102
RTVSPropertyOp13
 70
     0
102
RTVSPropertyOp14
 70
     2
102
RTVSPropertyOp15
 70
     0
102
RTVSPropertyOp16
 70
     0
102
RTVSPropertyOp17
 70
     0
102
RTVSPropertyOp18
 70
     0
102
RTVSPropertyOp19
 70
     0
102
RTVSPropertyOp20
 70
     0
102
RTVSPropertyOp21
 70
     0
102
RTVSPropertyOp22
 70
     0
102
RTVSPropertyOp23
 70
     0
102
RTVSPropertyOp24
 70
     0
102
RTVSPropertyOp25
 70
     0
102
RTVSPropertyOp26
 70
     0
102
RTVSPropertyOp27
 70
     0
  0
XRECORD
  5
1E76
102
{ACAD_REACTORS
330
1E75
102
}
330
1E75
100
AcDbXrecord
280
     1
102
RTVSPropertyOp0
 70
     1
102
RTVSPropertyOp1
 70
     1
102
RTVSPropertyOp2
 70
     1
102
RTVSPropertyOp3
 70
     1
102
RTVSPropertyOp4
 70
     1
102
RTVSPropertyOp5
 70
     1
102
RTVSPropertyOp6
 70
     1
102
RTVSPropertyOp7
 70
     1
102
RTVSPropertyOp8
 70
     1
102
RTVSPropertyOp9
 70
     1
102
RTVSPropertyOp10
 70
     1
102
RTVSPropertyOp11
 70
     1
102
RTVSPropertyOp12
 70
     1
102
RTVSPropertyOp13
 70
     1
102
RTVSPropertyOp14
 70
     1
102
RTVSPropertyOp15
 70
     1
102
RTVSPropertyOp16
 70
     1
102
RTVSPropertyOp17
 70
     1
102
RTVSPropertyOp18
 70
     1
102
RTVSPropertyOp19
 70
     1
102
RTVSPropertyOp20
 70
     1
102
RTVSPropertyOp21
 70
     1
102
RTVSPropertyOp22
 70
     1
102
RTVSPropertyOp23
 70
     1
102
RTVSPropertyOp24
 70
     1
102
RTVSPropertyOp25
 70
     1
102
RTVSPropertyOp26
 70
     1
102
RTVSPropertyOp27
 70
     1
  0
XRECORD
  5
1E7E
102
{ACAD_REACTORS
330
1E7D
102
}
330
1E7D
100
AcDbXrecord
280
     1
102
RTVSPropertyOp0
 70
     0
102
RTVSPropertyOp1
 70
     0
102
RTVSPropertyOp2
 70
     0
102
RTVSPropertyOp3
 70
     0
102
RTVSPropertyOp4
 70
     0
102
RTVSPropertyOp5
 70
     0
102
RTVSPropertyOp6
 70
     0
102
RTVSPropertyOp7
 70
     0
102
RTVSPropertyOp8
 70
     0
102
RTVSPropertyOp9
 70
     0
102
RTVSPropertyOp10
 70
     0
102
RTVSPropertyOp11
 70
     0
102
RTVSPropertyOp12
 70
     0
102
RTVSPropertyOp13
 70
     0
102
RTVSPropertyOp14
 70
     2
102
RTVSPropertyOp15
 70
     0
102
RTVSPropertyOp16
 70
     0
102
RTVSPropertyOp17
 70
     0
102
RTVSPropertyOp18
 70
     0
102
RTVSPropertyOp19
 70
     0
102
RTVSPropertyOp20
 70
     0
102
RTVSPropertyOp21
 70
     0
102
RTVSPropertyOp22
 70
     0
102
RTVSPropertyOp23
 70
     0
102
RTVSPropertyOp24
 70
     0
102
RTVSPropertyOp25
 70
     0
102
RTVSPropertyOp26
 70
     0
102
RTVSPropertyOp27
 70
     0
  0
XRECORD
  5
1E6E
102
{ACAD_REACTORS
330
1E6D
102
}
330
1E6D
100
AcDbXrecord
280
     1
102
RTVSPropertyOp0
 70
     1
102
RTVSPropertyOp1
 70
     1
102
RTVSPropertyOp2
 70
     1
102
RTVSPropertyOp3
 70
     1
102
RTVSPropertyOp4
 70
     1
102
RTVSPropertyOp5
 70
     1
102
RTVSPropertyOp6
 70
     1
102
RTVSPropertyOp7
 70
     1
102
RTVSPropertyOp8
 70
     1
102
RTVSPropertyOp9
 70
     1
102
RTVSPropertyOp10
 70
     1
102
RTVSPropertyOp11
 70
     1
102
RTVSPropertyOp12
 70
     1
102
RTVSPropertyOp13
 70
     1
102
RTVSPropertyOp14
 70
     1
102
RTVSPropertyOp15
 70
     1
102
RTVSPropertyOp16
 70
     1
102
RTVSPropertyOp17
 70
     1
102
RTVSPropertyOp18
 70
     1
102
RTVSPropertyOp19
 70
     1
102
RTVSPropertyOp20
 70
     1
102
RTVSPropertyOp21
 70
     1
102
RTVSPropertyOp22
 70
     1
102
RTVSPropertyOp23
 70
     1
102
RTVSPropertyOp24
 70
     1
102
RTVSPropertyOp25
 70
     1
102
RTVSPropertyOp26
 70
     1
102
RTVSPropertyOp27
 70
     1
  0
XRECORD
  5
1E74
102
{ACAD_REACTORS
330
1E73
102
}
330
1E73
100
AcDbXrecord
280
     1
102
RTVSPropertyOp0
 70
     1
102
RTVSPropertyOp1
 70
     1
102
RTVSPropertyOp2
 70
     1
102
RTVSPropertyOp3
 70
     1
102
RTVSPropertyOp4
 70
     1
102
RTVSPropertyOp5
 70
     1
102
RTVSPropertyOp6
 70
     1
102
RTVSPropertyOp7
 70
     1
102
RTVSPropertyOp8
 70
     1
102
RTVSPropertyOp9
 70
     1
102
RTVSPropertyOp10
 70
     1
102
RTVSPropertyOp11
 70
     1
102
RTVSPropertyOp12
 70
     1
102
RTVSPropertyOp13
 70
     1
102
RTVSPropertyOp14
 70
     1
102
RTVSPropertyOp15
 70
     1
102
RTVSPropertyOp16
 70
     1
102
RTVSPropertyOp17
 70
     1
102
RTVSPropertyOp18
 70
     1
102
RTVSPropertyOp19
 70
     1
102
RTVSPropertyOp20
 70
     1
102
RTVSPropertyOp21
 70
     1
102
RTVSPropertyOp22
 70
     1
102
RTVSPropertyOp23
 70
     1
102
RTVSPropertyOp24
 70
     1
102
RTVSPropertyOp25
 70
     1
102
RTVSPropertyOp26
 70
     1
102
RTVSPropertyOp27
 70
     1
  0
ENDSEC
  0
EOF
