  0
SECTION
  2
HEADER
  9
$ACADVER
  1
AC1015
  9
$ACADMAINTVER
 70
    20
  9
$DWGCODEPAGE
  3
ANSI_1252
  9
$INSBASE
 10
0.0
 20
0.0
 30
0.0
  9
$EXTMIN
 10
15.61220579711386
 20
59.38806303658563
 30
0.0
  9
$EXTMAX
 10
84.40154791318178
 20
96.89509031012956
 30
0.0
  9
$LIMMIN
 10
0.0
 20
0.0
  9
$LIMMAX
 10
181.3333333333
 20
117.3333333333
  9
$ORTHOMODE
 70
     0
  9
$REGENMODE
 70
     1
  9
$FILLMODE
 70
     1
  9
$QTEXTMODE
 70
     0
  9
$MIRRTEXT
 70
     0
  9
$LTSCALE
 40
9.973333333300001
  9
$ATTMODE
 70
     1
  9
$TEXTSIZE
 40
0.2
  9
$TRACEWID
 40
0.05
  9
$TEXTSTYLE
  7
STANDARD
  9
$CLAYER
  8
0
  9
$CELTYPE
  6
CENTER
  9
$CECOLOR
 62
   256
  9
$CELTSCALE
 40
1.0
  9
$DISPSILH
 70
     0
  9
$DIMSCALE
 40
1.0
  9
$DIMASZ
 40
2.0
  9
$DIMEXO
 40
0.0625
  9
$DIMDLI
 40
6.890666666699999
  9
$DIMRND
 40
0.0
  9
$DIMDLE
 40
0.0
  9
$DIMEXE
 40
0.125
  9
$DIMTP
 40
0.0
  9
$DIMTM
 40
0.0
  9
$DIMTXT
 40
1.333333333299999
  9
$DIMCEN
 40
1.631999999999999
  9
$DIMTSZ
 40
0.0
  9
$DIMTOL
 70
     0
  9
$DIMLIM
 70
     0
  9
$DIMTIH
 70
     1
  9
$DIMTOH
 70
     1
  9
$DIMSE1
 70
     0
  9
$DIMSE2
 70
     0
  9
$DIMTAD
 70
     0
  9
$DIMZIN
 70
     0
  9
$DIMBLK
  1
_FILLED
  9
$DIMASO
 70
     1
  9
$DIMSHO
 70
     1
  9
$DIMPOST
  1

  9
$DIMAPOST
  1

  9
$DIMALT
 70
     0
  9
$DIMALTD
 70
     2
  9
$DIMALTF
 40
25.4
  9
$DIMLFAC
 40
1.0
  9
$DIMTOFL
 70
     0
  9
$DIMTVP
 40
0.0
  9
$DIMTIX
 70
     0
  9
$DIMSOXD
 70
     0
  9
$DIMSAH
 70
     0
  9
$DIMBLK1
  1

  9
$DIMBLK2
  1

  9
$DIMSTYLE
  2
STANDARD
  9
$DIMCLRD
 70
     0
  9
$DIMCLRE
 70
     0
  9
$DIMCLRT
 70
     0
  9
$DIMTFAC
 40
1.0
  9
$DIMGAP
 40
0.09
  9
$DIMJUST
 70
     0
  9
$DIMSD1
 70
     0
  9
$DIMSD2
 70
     0
  9
$DIMTOLJ
 70
     1
  9
$DIMTZIN
 70
     0
  9
$DIMALTZ
 70
     0
  9
$DIMALTTZ
 70
     0
  9
$DIMUPT
 70
     0
  9
$DIMDEC
 70
     4
  9
$DIMTDEC
 70
     4
  9
$DIMALTU
 70
     2
  9
$DIMALTTD
 70
     2
  9
$DIMTXSTY
  7
STANDARD
  9
$DIMAUNIT
 70
     0
  9
$DIMADEC
 70
     0
  9
$DIMALTRND
 40
0.0
  9
$DIMAZIN
 70
     0
  9
$DIMDSEP
 70
    46
  9
$DIMATFIT
 70
     3
  9
$DIMFRAC
 70
     0
  9
$DIMLDRBLK
  1

  9
$DIMLUNIT
 70
     2
  9
$DIMLWD
 70
    -2
  9
$DIMLWE
 70
    -2
  9
$DIMTMOVE
 70
     0
  9
$LUNITS
 70
     2
  9
$LUPREC
 70
     4
  9
$SKETCHINC
 40
0.1
  9
$FILLETRAD
 40
0.0
  9
$AUNITS
 70
     0
  9
$AUPREC
 70
     0
  9
$MENU
  1
.
  9
$ELEVATION
 40
0.0
  9
$PELEVATION
 40
0.0
  9
$THICKNESS
 40
0.0
  9
$LIMCHECK
 70
     0
  9
$CHAMFERA
 40
0.0
  9
$CHAMFERB
 40
0.0
  9
$CHAMFERC
 40
0.0
  9
$CHAMFERD
 40
0.0
  9
$SKPOLY
 70
     0
  9
$TDCREATE
 40
2456086.647553878
  9
$TDUCREATE
 40
2456086.814220544
  9
$TDUPDATE
 40
2456087.379059051
  9
$TDUUPDATE
 40
2456087.545725718
  9
$TDINDWG
 40
0.0137775231
  9
$TDUSRTIMER
 40
0.0137775231
  9
$USRTIMER
 70
     1
  9
$ANGBASE
 50
0.0
  9
$ANGDIR
 70
     0
  9
$PDMODE
 70
     3
  9
$PDSIZE
 40
0.03125
  9
$PLINEWID
 40
0.0
  9
$SPLFRAME
 70
     0
  9
$SPLINETYPE
 70
     6
  9
$SPLINESEGS
 70
     8
  9
$HANDSEED
  5
1EFB
  9
$SURFTAB1
 70
     6
  9
$SURFTAB2
 70
     6
  9
$SURFTYPE
 70
     6
  9
$SURFU
 70
     6
  9
$SURFV
 70
     6
  9
$UCSBASE
  2

  9
$UCSNAME
  2

  9
$UCSORG
 10
0.0
 20
0.0
 30
0.0
  9
$UCSXDIR
 10
1.0
 20
0.0
 30
0.0
  9
$UCSYDIR
 10
0.0
 20
1.0
 30
0.0
  9
$UCSORTHOREF
  2

  9
$UCSORTHOVIEW
 70
     0
  9
$UCSORGTOP
 10
0.0
 20
0.0
 30
0.0
  9
$UCSORGBOTTOM
 10
0.0
 20
0.0
 30
0.0
  9
$UCSORGLEFT
 10
0.0
 20
0.0
 30
0.0
  9
$UCSORGRIGHT
 10
0.0
 20
0.0
 30
0.0
  9
$UCSORGFRONT
 10
0.0
 20
0.0
 30
0.0
  9
$UCSORGBACK
 10
0.0
 20
0.0
 30
0.0
  9
$PUCSBASE
  2

  9
$PUCSNAME
  2

  9
$PUCSORG
 10
0.0
 20
0.0
 30
0.0
  9
$PUCSXDIR
 10
1.0
 20
0.0
 30
0.0
  9
$PUCSYDIR
 10
0.0
 20
1.0
 30
0.0
  9
$PUCSORTHOREF
  2

  9
$PUCSORTHOVIEW
 70
     0
  9
$PUCSORGTOP
 10
0.0
 20
0.0
 30
0.0
  9
$PUCSORGBOTTOM
 10
0.0
 20
0.0
 30
0.0
  9
$PUCSORGLEFT
 10
0.0
 20
0.0
 30
0.0
  9
$PUCSORGRIGHT
 10
0.0
 20
0.0
 30
0.0
  9
$PUCSORGFRONT
 10
0.0
 20
0.0
 30
0.0
  9
$PUCSORGBACK
 10
0.0
 20
0.0
 30
0.0
  9
$USERI1
 70
     0
  9
$USERI2
 70
     0
  9
$USERI3
 70
     0
  9
$USERI4
 70
     0
  9
$USERI5
 70
     0
  9
$USERR1
 40
0.0
  9
$USERR2
 40
0.0
  9
$USERR3
 40
0.0
  9
$USERR4
 40
0.0
  9
$USERR5
 40
0.0
  9
$WORLDVIEW
 70
     1
  9
$SHADEDGE
 70
     3
  9
$SHADEDIF
 70
    70
  9
$TILEMODE
 70
     1
  9
$MAXACTVP
 70
    64
  9
$PINSBASE
 10
0.0
 20
0.0
 30
0.0
  9
$PLIMCHECK
 70
     0
  9
$PEXTMIN
 10
1.000000000000000E+20
 20
1.000000000000000E+20
 30
1.000000000000000E+20
  9
$PEXTMAX
 10
-1.000000000000000E+20
 20
-1.000000000000000E+20
 30
-1.000000000000000E+20
  9
$PLIMMIN
 10
0.0
 20
0.0
  9
$PLIMMAX
 10
12.0
 20
9.0
  9
$UNITMODE
 70
     0
  9
$VISRETAIN
 70
     1
  9
$PLINEGEN
 70
     0
  9
$PSLTSCALE
 70
     1
  9
$TREEDEPTH
 70
  3020
  9
$CMLSTYLE
  2
Standard
  9
$CMLJUST
 70
     0
  9
$CMLSCALE
 40
1.0
  9
$PROXYGRAPHICS
 70
     1
  9
$MEASUREMENT
 70
     0
  9
$CELWEIGHT
370
    -1
  9
$ENDCAPS
280
     0
  9
$JOINSTYLE
280
     0
  9
$LWDISPLAY
290
     0
  9
$INSUNITS
 70
     1
  9
$HYPERLINKBASE
  1

  9
$STYLESHEET
  1

  9
$XEDIT
290
     1
  9
$CEPSNTYPE
380
     0
  9
$PSTYLEMODE
290
     1
  9
$FINGERPRINTGUID
  2
{86DB31D1-75E1-4F8A-949C-8DBB71A4827B}
  9
$VERSIONGUID
  2
{F45D5925-31E3-4646-96BE-CF7C2ADF05E9}
  9
$EXTNAMES
290
     1
  9
$PSVPSCALE
 40
0.0
  9
$OLESTARTUP
290
     0
  0
ENDSEC
  0
SECTION
  2
CLASSES
  0
CLASS
  1
ACDBDICTIONARYWDFLT
  2
AcDbDictionaryWithDefault
  3
ObjectDBX Classes
 90
        0
280
     0
281
     0
  0
CLASS
  1
ACDBPLACEHOLDER
  2
AcDbPlaceHolder
  3
ObjectDBX Classes
 90
        0
280
     0
281
     0
  0
CLASS
  1
LAYOUT
  2
AcDbLayout
  3
ObjectDBX Classes
 90
        0
280
     0
281
     0
  0
CLASS
  1
MATERIAL
  2
AcDbMaterial
  3
ObjectDBX Classes
 90
     1153
280
     0
281
     0
  0
CLASS
  1
VISUALSTYLE
  2
AcDbVisualStyle
  3
ObjectDBX Classes
 90
     4095
280
     0
281
     0
  0
CLASS
  1
TABLESTYLE
  2
AcDbTableStyle
  3
ObjectDBX Classes
 90
     4095
280
     0
281
     0
  0
CLASS
  1
SCALE
  2
AcDbScale
  3
ObjectDBX Classes
 90
     1153
280
     0
281
     0
  0
CLASS
  1
MLEADERSTYLE
  2
AcDbMLeaderStyle
  3
ACDB_MLEADERSTYLE_CLASS
 90
     4095
280
     0
281
     0
  0
CLASS
  1
CELLSTYLEMAP
  2
AcDbCellStyleMap
  3
ObjectDBX Classes
 90
     1152
280
     0
281
     0
  0
CLASS
  1
DICTIONARYVAR
  2
AcDbDictionaryVar
  3
ObjectDBX Classes
 90
        0
280
     0
281
     0
  0
ENDSEC
  0
SECTION
  2
TABLES
  0
TABLE
  2
VPORT
  5
8
102
{ACAD_XDICTIONARY
360
1E52
102
}
330
0
100
AcDbSymbolTable
 70
     1
  0
VPORT
  5
1F4
330
8
100
AcDbSymbolTableRecord
100
AcDbViewportTableRecord
  2
*ACTIVE
 70
     0
 10
0.0
 20
0.0
 11
1.0
 21
1.0
 12
72.46630769748998
 22
64.30130644382877
 13
0.0
 23
0.0
 14
1.0
 24
1.0
 15
0.0
 25
0.0
 16
0.0
 26
0.0
 36
1.0
 17
0.0
 27
0.0
 37
0.0
 40
108.1330458640853
 41
2.280385078219013
 42
50.0
 43
0.0
 44
0.0
 50
0.0
 51
0.0
 71
     0
 72
   100
 73
     1
 74
     1
 75
     0
 76
     0
 77
     0
 78
     0
281
     0
 65
     1
110
0.0
120
0.0
130
0.0
111
1.0
121
0.0
131
0.0
112
0.0
122
1.0
132
0.0
 79
     0
146
0.0
  0
ENDTAB
  0
TABLE
  2
LTYPE
  5
5
330
0
100
AcDbSymbolTable
 70
     6
  0
LTYPE
  5
14
330
5
100
AcDbSymbolTableRecord
100
AcDbLinetypeTableRecord
  2
BYBLOCK
 70
     0
  3

 72
    65
 73
     0
 40
0.0
  0
LTYPE
  5
15
330
5
100
AcDbSymbolTableRecord
100
AcDbLinetypeTableRecord
  2
BYLAYER
 70
     0
  3

 72
    65
 73
     0
 40
0.0
  0
LTYPE
  5
16
330
5
100
AcDbSymbolTableRecord
100
AcDbLinetypeTableRecord
  2
CONTINUOUS
 70
     0
  3
Solid line
 72
    65
 73
     0
 40
0.0
  0
LTYPE
  5
1F5
330
5
100
AcDbSymbolTableRecord
100
AcDbLinetypeTableRecord
  2
CENTER
 70
     0
  3
____ _ ____ _ ____ _ ____ _ ____ _ ____ _ ____
 72
    65
 73
     4
 40
0.6
 49
0.375
 74
     0
 49
-0.075
 74
     0
 49
0.075
 74
     0
 49
-0.075
 74
     0
  0
LTYPE
  5
1F6
330
5
100
AcDbSymbolTableRecord
100
AcDbLinetypeTableRecord
  2
HIDDEN
 70
     0
  3
- - - - - - - - - - - - - - - - - - - -
 72
    65
 73
     2
 40
0.2
 49
0.1
 74
     0
 49
-0.1
 74
     0
  0
LTYPE
  5
1F7
330
5
100
AcDbSymbolTableRecord
100
AcDbLinetypeTableRecord
  2
PHANTOM
 70
     0
  3
_____ _ _ _____ _ _ _____ _ _ _____
 72
    65
 73
     6
 40
0.8
 49
0.45
 74
     0
 49
-0.05
 74
     0
 49
0.1
 74
     0
 49
-0.05
 74
     0
 49
0.1
 74
     0
 49
-0.05
 74
     0
  0
LTYPE
  5
1F8
330
5
100
AcDbSymbolTableRecord
100
AcDbLinetypeTableRecord
  2
DOT
 70
     0
  3
. . . . . . . . . . . . . . . . . . . .
 72
    65
 73
     2
 40
0.2
 49
0.1
 74
     0
 49
-0.1
 74
     0
  0
LTYPE
  5
1F9
330
5
100
AcDbSymbolTableRecord
100
AcDbLinetypeTableRecord
  2
DASHED
 70
     0
  3
- - - - - - - - - - - - - - - - - - - -
 72
    65
 73
     2
 40
0.2
 49
0.1
 74
     0
 49
-0.1
 74
     0
  0
ENDTAB
  0
TABLE
  2
LAYER
  5
2
330
0
100
AcDbSymbolTable
 70
    23
  0
LAYER
  5
10
102
{ACAD_XDICTIONARY
360
1EA3
102
}
330
2
100
AcDbSymbolTableRecord
100
AcDbLayerTableRecord
  2
0
 70
     0
 62
     7
  6
CONTINUOUS
370
    -3
390
F
  0
LAYER
  5
1FA
102
{ACAD_XDICTIONARY
360
1EA5
102
}
330
2
100
AcDbSymbolTableRecord
100
AcDbLayerTableRecord
  2
DEFAULT_1
 70
     0
 62
     7
  6
CENTER
370
    -3
390
F
  0
LAYER
  5
1FB
102
{ACAD_XDICTIONARY
360
1EA7
102
}
330
2
100
AcDbSymbolTableRecord
100
AcDbLayerTableRecord
  2
DEFAULT_2
 70
     0
 62
     7
  6
HIDDEN
370
    -3
390
F
  0
LAYER
  5
1FC
102
{ACAD_XDICTIONARY
360
1EA9
102
}
330
2
100
AcDbSymbolTableRecord
100
AcDbLayerTableRecord
  2
DEFAULT_3
 70
     0
 62
     7
  6
PHANTOM
370
    -3
390
F
  0
LAYER
  5
1FD
102
{ACAD_XDICTIONARY
360
1EAB
102
}
330
2
100
AcDbSymbolTableRecord
100
AcDbLayerTableRecord
  2
1_CURVES
 70
     0
 62
     7
  6
CONTINUOUS
370
    -3
390
F
  0
LAYER
  5
1FE
102
{ACAD_XDICTIONARY
360
1EAD
102
}
330
2
100
AcDbSymbolTableRecord
100
AcDbLayerTableRecord
  2
1_CURVES-CONTOUR-REBORD
 70
     0
 62
     7
  6
CONTINUOUS
370
    -3
390
F
  0
LAYER
  5
1FF
102
{ACAD_XDICTIONARY
360
1EAF
102
}
330
2
100
AcDbSymbolTableRecord
100
AcDbLayerTableRecord
  2
1_CURVES-JETS
 70
     0
 62
     7
  6
CONTINUOUS
370
    -3
390
F
  0
LAYER
  5
200
102
{ACAD_XDICTIONARY
360
1EB1
102
}
330
2
100
AcDbSymbolTableRecord
100
AcDbLayerTableRecord
  2
1_CURVES-ROLL-EDGE
 70
     0
 62
     7
  6
CONTINUOUS
370
    -3
390
F
  0
LAYER
  5
201
102
{ACAD_XDICTIONARY
360
1EB3
102
}
330
2
100
AcDbSymbolTableRecord
100
AcDbLayerTableRecord
  2
1_CURVES-SPEC-FRONT
 70
     0
 62
     7
  6
CONTINUOUS
370
    -3
390
F
  0
LAYER
  5
202
102
{ACAD_XDICTIONARY
360
1EB5
102
}
330
2
100
AcDbSymbolTableRecord
100
AcDbLayerTableRecord
  2
2_PLANES
 70
     0
 62
     7
  6
CONTINUOUS
370
    -3
390
F
  0
LAYER
  5
203
102
{ACAD_XDICTIONARY
360
1EB7
102
}
330
2
100
AcDbSymbolTableRecord
100
AcDbLayerTableRecord
  2
3_POINTS
 70
     0
 62
     7
  6
CONTINUOUS
370
    -3
390
F
  0
LAYER
  5
204
102
{ACAD_XDICTIONARY
360
1EB9
102
}
330
2
100
AcDbSymbolTableRecord
100
AcDbLayerTableRecord
  2
3_POINTS-JETS
 70
     0
 62
     7
  6
CONTINUOUS
370
    -3
390
F
  0
LAYER
  5
205
102
{ACAD_XDICTIONARY
360
1EBB
102
}
330
2
100
AcDbSymbolTableRecord
100
AcDbLayerTableRecord
  2
4_CSYS
 70
     0
 62
     7
  6
CONTINUOUS
370
    -3
390
F
  0
LAYER
  5
206
102
{ACAD_XDICTIONARY
360
1EBD
102
}
330
2
100
AcDbSymbolTableRecord
100
AcDbLayerTableRecord
  2
5-AXIS-JETS
 70
     0
 62
     7
  6
CONTINUOUS
370
    -3
390
F
  0
LAYER
  5
207
102
{ACAD_XDICTIONARY
360
1EBF
102
}
330
2
100
AcDbSymbolTableRecord
100
AcDbLayerTableRecord
  2
5_AXIS
 70
     0
 62
     7
  6
CONTINUOUS
370
    -3
390
F
  0
LAYER
  5
208
102
{ACAD_XDICTIONARY
360
1EC1
102
}
330
2
100
AcDbSymbolTableRecord
100
AcDbLayerTableRecord
  2
6_SURFACE-OFFSET-FIBRE-ACRYLIQU
 70
     0
 62
     7
  6
CONTINUOUS
370
    -3
390
F
  0
LAYER
  5
209
102
{ACAD_XDICTIONARY
360
1EC3
102
}
330
2
100
AcDbSymbolTableRecord
100
AcDbLayerTableRecord
  2
6_SURFACES
 70
     0
 62
     7
  6
CONTINUOUS
370
    -3
390
F
  0
LAYER
  5
20A
102
{ACAD_XDICTIONARY
360
1EC5
102
}
330
2
100
AcDbSymbolTableRecord
100
AcDbLayerTableRecord
  2
6_SURFACES_TOOLING
 70
     0
 62
     7
  6
CONTINUOUS
370
    -3
390
F
  0
LAYER
  5
20B
102
{ACAD_XDICTIONARY
360
1EC7
102
}
330
2
100
AcDbSymbolTableRecord
100
AcDbLayerTableRecord
  2
6_SURFACE_FLAT_EDGE
 70
     0
 62
     7
  6
CONTINUOUS
370
    -3
390
F
  0
LAYER
  5
20C
102
{ACAD_XDICTIONARY
360
1EC9
102
}
330
2
100
AcDbSymbolTableRecord
100
AcDbLayerTableRecord
  2
6_SURFACE_ROLL_EDGE
 70
     0
 62
     7
  6
CONTINUOUS
370
    -3
390
F
  0
LAYER
  5
20D
102
{ACAD_XDICTIONARY
360
1ECB
102
}
330
2
100
AcDbSymbolTableRecord
100
AcDbLayerTableRecord
  2
7_NOTES
 70
     0
 62
     7
  6
CONTINUOUS
370
    -3
390
F
  0
LAYER
  5
20E
102
{ACAD_XDICTIONARY
360
1ECD
102
}
330
2
100
AcDbSymbolTableRecord
100
AcDbLayerTableRecord
  2
8_ZONE-ROBINETERIE
 70
     0
 62
     7
  6
CONTINUOUS
370
    -3
390
F
  0
LAYER
  5
20F
102
{ACAD_XDICTIONARY
360
1ECF
102
}
330
2
100
AcDbSymbolTableRecord
100
AcDbLayerTableRecord
  2
XSEC_DATUMS
 70
     0
 62
     7
  6
CONTINUOUS
370
    -3
390
F
  0
ENDTAB
  0
TABLE
  2
STYLE
  5
3
330
0
100
AcDbSymbolTable
 70
     8
  0
STYLE
  5
11
330
3
100
AcDbSymbolTableRecord
100
AcDbTextStyleTableRecord
  2
STANDARD
 70
     0
 40
0.0
 41
0.8
 50
0.0
 71
     0
 42
0.2
  3
txt
  4

  0
STYLE
  5
210
330
3
100
AcDbSymbolTableRecord
100
AcDbTextStyleTableRecord
  2
TEXTSTYLE_1
 70
     0
 40
0.0
 41
0.8
 50
0.0
 71
     0
 42
0.2
  3
gdt
  4

  0
STYLE
  5
211
330
3
100
AcDbSymbolTableRecord
100
AcDbTextStyleTableRecord
  2
TEXTSTYLE_2
 70
     0
 40
0.0
 41
1.0
 50
0.0
 71
     0
 42
0.2
  3
trium.ttf
  4

  0
STYLE
  5
212
330
3
100
AcDbSymbolTableRecord
100
AcDbTextStyleTableRecord
  2
TEXTSTYLE_3
 70
     0
 40
0.0
 41
1.0
 50
0.0
 71
     0
 42
0.2
  3
trium.ttf
  4

  0
STYLE
  5
213
330
3
100
AcDbSymbolTableRecord
100
AcDbTextStyleTableRecord
  2
TEXTSTYLE_4
 70
     0
 40
0.0
 41
1.0
 50
0.0
 71
     0
 42
0.2
  3
txt_____.ttf
  4

1001
ACAD
1000
txt
1071
        2
  0
STYLE
  5
214
330
3
100
AcDbSymbolTableRecord
100
AcDbTextStyleTableRecord
  2
TEXTSTYLE_5
 70
     0
 40
0.0
 41
1.0
 50
0.0
 71
     0
 42
0.2
  3
txt_____.ttf
  4

1001
ACAD
1000
txt
1071
        2
  0
STYLE
  5
215
330
3
100
AcDbSymbolTableRecord
100
AcDbTextStyleTableRecord
  2
TEXTSTYLE_6
 70
     0
 40
0.0
 41
1.0
 50
0.0
 71
     0
 42
0.2
  3
trium.ttf
  4

  0
STYLE
  5
216
330
3
100
AcDbSymbolTableRecord
100
AcDbTextStyleTableRecord
  2
TEXTSTYLE_7
 70
     0
 40
0.0
 41
0.8
 50
0.0
 71
     0
 42
0.2
  3
txt_____.ttf
  4

1001
ACAD
1000
txt
1071
        2
  0
ENDTAB
  0
TABLE
  2
VIEW
  5
6
330
0
100
AcDbSymbolTable
 70
     0
  0
ENDTAB
  0
TABLE
  2
UCS
  5
7
330
0
100
AcDbSymbolTable
 70
     0
  0
ENDTAB
  0
TABLE
  2
APPID
  5
9
330
0
100
AcDbSymbolTable
 70
     2
  0
APPID
  5
217
330
9
100
AcDbSymbolTableRecord
100
AcDbRegAppTableRecord
  2
ACAD
 70
     0
  0
APPID
  5
1E82
330
9
100
AcDbSymbolTableRecord
100
AcDbRegAppTableRecord
  2
ACAD_MLEADERVER
 70
     0
  0
ENDTAB
  0
TABLE
  2
DIMSTYLE
  5
A
330
0
100
AcDbSymbolTable
 70
     3
100
AcDbDimStyleTable
 71
     0
  0
DIMSTYLE
105
238
330
A
100
AcDbSymbolTableRecord
100
AcDbDimStyleTableRecord
  2
STANDARD
 70
     0
 41
2.0
 44
0.125
 47
0.00001
 48
0.00001
 78
     4
140
1.333333333299999
271
     5
272
     5
284
     4
340
11
341
21A
342
21A
343
21A
344
21A
  0
DIMSTYLE
105
239
330
A
100
AcDbSymbolTableRecord
100
AcDbDimStyleTableRecord
  2
DIMSTYLE_1
 70
     0
 41
2.0
 44
0.125
 78
     4
140
1.333333333299999
147
0.0625
271
     3
272
     3
284
     4
340
11
341
21A
342
21A
343
21A
344
21A
  0
DIMSTYLE
105
23A
330
A
100
AcDbSymbolTableRecord
100
AcDbDimStyleTableRecord
  2
DIMSTYLE_2
 70
     0
 41
2.0
 44
0.125
 78
     4
140
1.333333333299999
271
     0
272
     0
284
     4
340
11
341
21A
342
21A
343
21A
344
21A
  0
ENDTAB
  0
TABLE
  2
BLOCK_RECORD
  5
1
330
0
100
AcDbSymbolTable
 70
     7
  0
BLOCK_RECORD
  5
218
330
1
100
AcDbSymbolTableRecord
100
AcDbBlockTableRecord
  2
*Model_Space
340
1DF4
  0
BLOCK_RECORD
  5
219
330
1
100
AcDbSymbolTableRecord
100
AcDbBlockTableRecord
  2
*Paper_Space
340
1DF5
  0
BLOCK_RECORD
  5
21A
330
1
100
AcDbSymbolTableRecord
100
AcDbBlockTableRecord
  2
_FILLED
340
0
  0
BLOCK_RECORD
  5
232
330
1
100
AcDbSymbolTableRecord
100
AcDbBlockTableRecord
  2
SYMBOL_7_BL5
340
0
  0
BLOCK_RECORD
  5
233
330
1
100
AcDbSymbolTableRecord
100
AcDbBlockTableRecord
  2
SYMBOL_4_BL4
340
0
  0
BLOCK_RECORD
  5
234
330
1
100
AcDbSymbolTableRecord
100
AcDbBlockTableRecord
  2
SYMBOL_10_BL3
340
0
  0
BLOCK_RECORD
  5
235
330
1
100
AcDbSymbolTableRecord
100
AcDbBlockTableRecord
  2
SYMBOL_6_BL2
340
0
  0
BLOCK_RECORD
  5
236
330
1
100
AcDbSymbolTableRecord
100
AcDbBlockTableRecord
  2
SYMBOL_3_BL1
340
0
  0
BLOCK_RECORD
  5
237
330
1
100
AcDbSymbolTableRecord
100
AcDbBlockTableRecord
  2
SYMBOL_0_BL0
340
0
  0
ENDTAB
  0
ENDSEC
  0
SECTION
  2
BLOCKS
  0
BLOCK
  5
20
330
218
100
AcDbEntity
  8
0
100
AcDbBlockBegin
  2
*Model_Space
 70
     0
 10
0.0
 20
0.0
 30
0.0
  3
*Model_Space
  1

  0
ENDBLK
  5
21
330
218
100
AcDbEntity
  8
0
100
AcDbBlockEnd
  0
BLOCK
  5
1C
330
219
100
AcDbEntity
 67
     1
  8
0
100
AcDbBlockBegin
  2
*Paper_Space
 70
     0
 10
0.0
 20
0.0
 30
0.0
  3
*Paper_Space
  1

  0
ENDBLK
  5
1D
330
219
100
AcDbEntity
 67
     1
  8
0
100
AcDbBlockEnd
  0
BLOCK
  5
31A
330
21A
100
AcDbEntity
  8
0
100
AcDbBlockBegin
  2
_FILLED
 70
     0
 10
0.0
 20
0.0
 30
0.0
  3
_FILLED
  1

  0
SOLID
  5
31B
330
21A
100
AcDbEntity
  8
0
  6
ByBlock
 62
     0
100
AcDbTrace
 10
0.0
 20
0.0
 30
0.0
 11
-1.0
 21
0.1666666667
 31
0.0
 12
-1.0
 22
-0.1666666667
 32
0.0
 13
-1.0
 23
-0.1666666667
 33
0.0
  0
ENDBLK
  5
31C
330
21A
100
AcDbEntity
  8
0
  6
ByBlock
 62
     0
100
AcDbBlockEnd
  0
BLOCK
  5
23B
330
232
100
AcDbEntity
  8
0
  6
Continuous
 62
     7
100
AcDbBlockBegin
  2
SYMBOL_7_BL5
 70
     0
 10
61.7791764196
 20
67.1849258593
 30
0.0
  3
SYMBOL_7_BL5
  1

  0
TEXT
  5
23C
330
232
100
AcDbEntity
  8
0
  6
Continuous
 62
     7
100
AcDbText
 10
61.35596959699999
 20
66.420749455
 30
0.0
 40
1.333333852099999
  1
L
 50
10.0
  7
TEXTSTYLE_2
100
AcDbText
  0
TEXT
  5
23D
330
232
100
AcDbEntity
  8
0
  6
Continuous
 62
     7
100
AcDbText
 10
57.2218589652
 20
65.7043964945
 30
0.0
 40
1.333333852099999
  1
16
 50
10.0
  7
TEXTSTYLE_2
100
AcDbText
  0
TEXT
  5
23E
330
232
100
AcDbEntity
  8
0
  6
Continuous
 62
     7
100
AcDbText
 10
64.55463934489999
 20
66.99736351899999
 30
0.0
 40
1.333333852099999
  1
15
 50
10.0
  7
TEXTSTYLE_2
100
AcDbText
  0
ELLIPSE
  5
23F
330
232
100
AcDbEntity
  8
0
  6
Continuous
 62
     7
100
AcDbEllipse
 10
61.76057185609999
 20
67.16904308770001
 30
0.0
 11
-1.913370740099999
 21
-0.3373788856
 31
0.0
210
0.0
220
0.0
230
1.0
 40
0.6606458385
 41
0.0
 42
6.283185307179586
  0
ENDBLK
  5
240
330
232
100
AcDbEntity
  8
0
  6
ByBlock
 62
     0
100
AcDbBlockEnd
  0
BLOCK
  5
241
330
233
100
AcDbEntity
  8
0
  6
Continuous
 62
     7
100
AcDbBlockBegin
  2
SYMBOL_4_BL4
 70
     0
 10
75.82079054340001
 20
77.966753099
 30
0.0
  3
SYMBOL_4_BL4
  1

  0
TEXT
  5
242
330
233
100
AcDbEntity
  8
0
  6
Continuous
 62
     7
100
AcDbText
 10
75.25782736149999
 20
77.3000861729
 30
0.0
 40
1.333333852099999
  1
T
  7
TEXTSTYLE_2
100
AcDbText
  0
ELLIPSE
  5
243
330
233
100
AcDbEntity
  8
0
  6
Continuous
 62
     7
100
AcDbEllipse
 10
75.82079054340001
 20
77.966753099
 30
0.0
 11
-1.942887567899999
 21
0.0
 31
0.0
210
0.0
220
0.0
230
1.0
 40
0.6606458385
 41
0.0
 42
6.283185307179586
  0
ENDBLK
  5
244
330
233
100
AcDbEntity
  8
0
  6
ByBlock
 62
     0
100
AcDbBlockEnd
  0
BLOCK
  5
245
330
234
100
AcDbEntity
  8
0
  6
Continuous
 62
     7
100
AcDbBlockBegin
  2
SYMBOL_10_BL3
 70
     0
 10
109.221562367
 20
44.8326375423
 30
0.0
  3
SYMBOL_10_BL3
  1

  0
TEXT
  5
246
330
234
100
AcDbEntity
  8
0
  6
Continuous
 62
     7
100
AcDbText
 10
102.9075020652
 20
47.077671528
 30
0.0
 40
1.1626666667
  1
INTERNAL USE 
 50
10.0
  7
TEXTSTYLE_3
100
AcDbText
  0
TEXT
  5
247
330
234
100
AcDbEntity
  8
0
  6
Continuous
 62
     7
100
AcDbText
 10
102.1638178612
 20
45.07615035039999
 30
0.0
 40
1.1626666667
  1
DOCUMENT ONLY
 50
10.0
  7
TEXTSTYLE_3
100
AcDbText
  0
TEXT
  5
248
330
234
100
AcDbEntity
  8
0
  6
Continuous
 62
     7
100
AcDbText
 10
107.9485454245
 20
44.82772229979999
 30
0.0
 40
1.1626666667
  1
 
 50
10.0
  7
TEXTSTYLE_5
100
AcDbText
  0
TEXT
  5
249
330
234
100
AcDbEntity
  8
0
  6
Continuous
 62
     7
100
AcDbText
 10
99.5038975415
 20
40.6506278935
 30
0.0
 40
1.1626666667
  1
DOCUMENT POUR USAGE
 50
10.0
  7
TEXTSTYLE_3
100
AcDbText
  0
TEXT
  5
24A
330
234
100
AcDbEntity
  8
0
  6
Continuous
 62
     7
100
AcDbText
 10
99.9329969875
 20
38.6338794331
 30
0.0
 40
1.1626666667
  1
A L'INTERNE SEULEMENT
 50
10.0
  7
TEXTSTYLE_3
100
AcDbText
  0
LINE
  5
24B
330
234
100
AcDbEntity
  8
0
  6
Continuous
 62
     7
100
AcDbLine
 10
123.0781140903
 20
40.48910392429999
 30
0.0
 11
123.084873023
 21
40.4958628569
 31
0.0
  0
LINE
  5
24C
330
234
100
AcDbEntity
  8
0
  6
Continuous
 62
     7
100
AcDbLine
 10
122.3455445239
 20
40.3599321445
 30
0.0
 11
122.994425969
 21
41.0088135896
 31
0.0
  0
LINE
  5
24D
330
234
100
AcDbEntity
  8
0
  6
Continuous
 62
     7
100
AcDbLine
 10
121.6129749575
 20
40.2307603647
 30
0.0
 11
122.9039789151
 21
41.5217643223
 31
0.0
  0
LINE
  5
24E
330
234
100
AcDbEntity
  8
0
  6
Continuous
 62
     7
100
AcDbLine
 10
120.8804053911
 20
40.1015885849
 30
0.0
 11
122.8135318611
 21
42.03471505489999
 31
0.0
  0
LINE
  5
24F
330
234
100
AcDbEntity
  8
0
  6
Continuous
 62
     7
100
AcDbLine
 10
120.1478358246
 20
39.97241680510001
 30
0.0
 11
122.7230848072
 21
42.5476657876
 31
0.0
  0
LINE
  5
250
330
234
100
AcDbEntity
  8
0
  6
Continuous
 62
     7
100
AcDbLine
 10
119.4152662582
 20
39.8432450252
 30
0.0
 11
120.956270073
 21
41.38424883999999
 31
0.0
  0
LINE
  5
251
330
234
100
AcDbEntity
  8
0
  6
Continuous
 62
     7
100
AcDbLine
 10
121.5536152657
 20
41.9815940327
 30
0.0
 11
122.6326377532
 21
43.06061652029999
 31
0.0
  0
LINE
  5
252
330
234
100
AcDbEntity
  8
0
  6
Continuous
 62
     7
100
AcDbLine
 10
118.6826966918
 20
39.7140732454
 30
0.0
 11
120.2237005066
 21
41.2550770602
 31
0.0
  0
LINE
  5
253
330
234
100
AcDbEntity
  8
0
  6
Continuous
 62
     7
100
AcDbLine
 10
121.4631682118
 20
42.4945447654
 30
0.0
 11
122.5421906993
 21
43.57356725289999
 31
0.0
  0
LINE
  5
254
330
234
100
AcDbEntity
  8
0
  6
Continuous
 62
     7
100
AcDbLine
 10
117.9501271254
 20
39.5849014656
 30
0.0
 11
119.4911309402
 21
41.1259052804
 31
0.0
  0
LINE
  5
255
330
234
100
AcDbEntity
  8
0
  6
Continuous
 62
     7
100
AcDbLine
 10
121.3727211578
 20
43.0074954981
 30
0.0
 11
122.4517436454
 21
44.0865179856
 31
0.0
  0
LINE
  5
256
330
234
100
AcDbEntity
  8
0
  6
Continuous
 62
     7
100
AcDbLine
 10
117.217557559
 20
39.4557296858
 30
0.0
 11
118.7585613737
 21
40.9967335006
 31
0.0
  0
LINE
  5
257
330
234
100
AcDbEntity
  8
0
  6
Continuous
 62
     7
100
AcDbLine
 10
121.2822741039
 20
43.5204462308
 30
0.0
 11
122.3612965914
 21
44.5994687183
 31
0.0
  0
LINE
  5
258
330
234
100
AcDbEntity
  8
0
  6
Continuous
 62
     7
100
AcDbLine
 10
116.4849879926
 20
39.326557906
 30
0.0
 11
118.0259918073
 21
40.8675617208
 31
0.0
  0
LINE
  5
259
330
234
100
AcDbEntity
  8
0
  6
Continuous
 62
     7
100
AcDbLine
 10
121.1918270499
 20
44.0333969634
 30
0.0
 11
122.2708495375
 21
45.1124194509
 31
0.0
  0
LINE
  5
25A
330
234
100
AcDbEntity
  8
0
  6
Continuous
 62
     7
100
AcDbLine
 10
115.7524184261
 20
39.1973861262
 30
0.0
 11
117.2934222409
 21
40.73838994099999
 31
0.0
  0
LINE
  5
25B
330
234
100
AcDbEntity
  8
0
  6
Continuous
 62
     7
100
AcDbLine
 10
121.101379996
 20
44.5463476961
 30
0.0
 11
122.1804024835
 21
45.62537018359999
 31
0.0
  0
LINE
  5
25C
330
234
100
AcDbEntity
  8
0
  6
Continuous
 62
     7
100
AcDbLine
 10
115.0198488597
 20
39.0682143464
 30
0.0
 11
116.5608526745
 21
40.60921816119999
 31
0.0
  0
LINE
  5
25D
330
234
100
AcDbEntity
  8
0
  6
Continuous
 62
     7
100
AcDbLine
 10
121.0109329421
 20
45.05929842879999
 30
0.0
 11
122.0899554296
 21
46.1383209163
 31
0.0
  0
LINE
  5
25E
330
234
100
AcDbEntity
  8
0
  6
Continuous
 62
     7
100
AcDbLine
 10
114.2872792933
 20
38.9390425666
 30
0.0
 11
115.8282831081
 21
40.4800463814
 31
0.0
  0
LINE
  5
25F
330
234
100
AcDbEntity
  8
0
  6
Continuous
 62
     7
100
AcDbLine
 10
120.9204858881
 20
45.5722491614
 30
0.0
 11
121.9995083756
 21
46.6512716489
 31
0.0
  0
LINE
  5
260
330
234
100
AcDbEntity
  8
0
  6
Continuous
 62
     7
100
AcDbLine
 10
113.5547097269
 20
38.8098707868
 30
0.0
 11
115.0957135417
 21
40.35087460159999
 31
0.0
  0
LINE
  5
261
330
234
100
AcDbEntity
  8
0
  6
Continuous
 62
     7
100
AcDbLine
 10
120.8300388342
 20
46.0851998941
 30
0.0
 11
121.9090613217
 21
47.16422238159999
 31
0.0
  0
LINE
  5
262
330
234
100
AcDbEntity
  8
0
  6
Continuous
 62
     7
100
AcDbLine
 10
112.8221401605
 20
38.680699007
 30
0.0
 11
114.3631439752
 21
40.2217028218
 31
0.0
  0
LINE
  5
263
330
234
100
AcDbEntity
  8
0
  6
Continuous
 62
     7
100
AcDbLine
 10
120.5271592343
 20
46.3857180809
 30
0.0
 11
121.8186142677
 21
47.6771731143
 31
0.0
  0
LINE
  5
264
330
234
100
AcDbEntity
  8
0
  6
Continuous
 62
     7
100
AcDbLine
 10
112.089570594
 20
38.5515272272
 30
0.0
 11
113.6305744088
 21
40.09253104199999
 31
0.0
  0
LINE
  5
265
330
234
100
AcDbEntity
  8
0
  6
Continuous
 62
     7
100
AcDbLine
 10
119.7945896679
 20
46.25654630109999
 30
0.0
 11
121.7281672138
 21
48.19012384699999
 31
0.0
  0
LINE
  5
266
330
234
100
AcDbEntity
  8
0
  6
Continuous
 62
     7
100
AcDbLine
 10
111.3570010276
 20
38.4223554474
 30
0.0
 11
112.8980048424
 21
39.9633592622
 31
0.0
  0
LINE
  5
267
330
234
100
AcDbEntity
  8
0
  6
Continuous
 62
     7
100
AcDbLine
 10
119.0620201015
 20
46.1273745213
 30
0.0
 11
120.0893623998
 21
47.15471681949999
 31
0.0
  0
LINE
  5
268
330
234
100
AcDbEntity
  8
0
  6
Continuous
 62
     7
100
AcDbLine
 10
120.5586976723
 20
47.6240520921
 30
0.0
 11
121.6377201599
 21
48.7030745796
 31
0.0
  0
LINE
  5
269
330
234
100
AcDbEntity
  8
0
  6
Continuous
 62
     7
100
AcDbLine
 10
110.6244314612
 20
38.29318366760001
 30
0.0
 11
112.165435276
 21
39.8341874824
 31
0.0
  0
LINE
  5
26A
330
234
100
AcDbEntity
  8
0
  6
Continuous
 62
     7
100
AcDbLine
 10
118.3294505351
 20
45.99820274149999
 30
0.0
 11
119.3567926237
 21
47.0255448301
 31
0.0
  0
LINE
  5
26B
330
234
100
AcDbEntity
  8
0
  6
Continuous
 62
     7
100
AcDbLine
 10
120.4682506184
 20
48.13700282479999
 30
0.0
 11
121.5472731059
 21
49.2160253123
 31
0.0
  0
LINE
  5
26C
330
234
100
AcDbEntity
  8
0
  6
Continuous
 62
     7
100
AcDbLine
 10
109.8918618948
 20
38.1640118878
 30
0.0
 11
111.4328657096
 21
39.7050157026
 31
0.0
  0
LINE
  5
26D
330
234
100
AcDbEntity
  8
0
  6
Continuous
 62
     7
100
AcDbLine
 10
117.5968809687
 20
45.8690309617
 30
0.0
 11
118.6242228477
 21
46.89637284069999
 31
0.0
  0
LINE
  5
26E
330
234
100
AcDbEntity
  8
0
  6
Continuous
 62
     7
100
AcDbLine
 10
120.3778035645
 20
48.64995355739999
 30
0.0
 11
121.456826052
 21
49.728976045
 31
0.0
  0
LINE
  5
26F
330
234
100
AcDbEntity
  8
0
  6
Continuous
 62
     7
100
AcDbLine
 10
109.1592923284
 20
38.034840108
 30
0.0
 11
110.7002961431
 21
39.5758439227
 31
0.0
  0
LINE
  5
270
330
234
100
AcDbEntity
  8
0
  6
Continuous
 62
     7
100
AcDbLine
 10
116.8643114023
 20
45.73985918189999
 30
0.0
 11
117.8916530717
 21
46.7672008513
 31
0.0
  0
LINE
  5
271
330
234
100
AcDbEntity
  8
0
  6
Continuous
 62
     7
100
AcDbLine
 10
120.2873565105
 20
49.1629042901
 30
0.0
 11
121.366378998
 21
50.2419267776
 31
0.0
  0
LINE
  5
272
330
234
100
AcDbEntity
  8
0
  6
Continuous
 62
     7
100
AcDbLine
 10
108.426722762
 20
37.9056683282
 30
0.0
 11
109.9677265767
 21
39.4466721429
 31
0.0
  0
LINE
  5
273
330
234
100
AcDbEntity
  8
0
  6
Continuous
 62
     7
100
AcDbLine
 10
116.1317418358
 20
45.61068740199999
 30
0.0
 11
117.1590832957
 21
46.6380288619
 31
0.0
  0
LINE
  5
274
330
234
100
AcDbEntity
  8
0
  6
Continuous
 62
     7
100
AcDbLine
 10
120.1969094566
 20
49.6758550228
 30
0.0
 11
121.2759319441
 21
50.75487751029999
 31
0.0
  0
LINE
  5
275
330
234
100
AcDbEntity
  8
0
  6
Continuous
 62
     7
100
AcDbLine
 10
107.6941531955
 20
37.77649654840001
 30
0.0
 11
109.2351570103
 21
39.3175003631
 31
0.0
  0
LINE
  5
276
330
234
100
AcDbEntity
  8
0
  6
Continuous
 62
     7
100
AcDbLine
 10
115.3991722694
 20
45.4815156222
 30
0.0
 11
116.4265135196
 21
46.50885687249999
 31
0.0
  0
LINE
  5
277
330
234
100
AcDbEntity
  8
0
  6
Continuous
 62
     7
100
AcDbLine
 10
120.1064624026
 20
50.18880575539999
 30
0.0
 11
121.1854848901
 21
51.26782824300001
 31
0.0
  0
LINE
  5
278
330
234
100
AcDbEntity
  8
0
  6
Continuous
 62
     7
100
AcDbLine
 10
106.9615836291
 20
37.6473247686
 30
0.0
 11
108.5025874439
 21
39.1883285833
 31
0.0
  0
LINE
  5
279
330
234
100
AcDbEntity
  8
0
  6
Continuous
 62
     7
100
AcDbLine
 10
114.666602703
 20
45.35234384239999
 30
0.0
 11
115.6939437436
 21
46.379684883
 31
0.0
  0
LINE
  5
27A
330
234
100
AcDbEntity
  8
0
  6
Continuous
 62
     7
100
AcDbLine
 10
120.0160153487
 20
50.7017564881
 30
0.0
 11
121.0950378362
 21
51.78077897560001
 31
0.0
  0
LINE
  5
27B
330
234
100
AcDbEntity
  8
0
  6
Continuous
 62
     7
100
AcDbLine
 10
106.2290140627
 20
37.51815298869999
 30
0.0
 11
107.7700178775
 21
39.0591568035
 31
0.0
  0
LINE
  5
27C
330
234
100
AcDbEntity
  8
0
  6
Continuous
 62
     7
100
AcDbLine
 10
113.9340331366
 20
45.2231720626
 30
0.0
 11
114.9613739676
 21
46.25051289359999
 31
0.0
  0
LINE
  5
27D
330
234
100
AcDbEntity
  8
0
  6
Continuous
 62
     7
100
AcDbLine
 10
119.9255682947
 20
51.2147072208
 30
0.0
 11
121.0045907823
 21
52.2937297083
 31
0.0
  0
LINE
  5
27E
330
234
100
AcDbEntity
  8
0
  6
Continuous
 62
     7
100
AcDbLine
 10
105.4964444963
 20
37.3889812089
 30
0.0
 11
107.0374483111
 21
38.9299850237
 31
0.0
  0
LINE
  5
27F
330
234
100
AcDbEntity
  8
0
  6
Continuous
 62
     7
100
AcDbLine
 10
113.2014635702
 20
45.09400028279999
 30
0.0
 11
114.2288041915
 21
46.1213409042
 31
0.0
  0
LINE
  5
280
330
234
100
AcDbEntity
  8
0
  6
Continuous
 62
     7
100
AcDbLine
 10
119.8351212408
 20
51.72765795350001
 30
0.0
 11
120.9141437283
 21
52.806680441
 31
0.0
  0
LINE
  5
281
330
234
100
AcDbEntity
  8
0
  6
Continuous
 62
     7
100
AcDbLine
 10
104.7638749299
 20
37.2598094291
 30
0.0
 11
106.3048787446
 21
38.8008132439
 31
0.0
  0
LINE
  5
282
330
234
100
AcDbEntity
  8
0
  6
Continuous
 62
     7
100
AcDbLine
 10
112.4688940037
 20
44.964828503
 30
0.0
 11
113.4962344155
 21
45.9921689148
 31
0.0
  0
LINE
  5
283
330
234
100
AcDbEntity
  8
0
  6
Continuous
 62
     7
100
AcDbLine
 10
119.6602451394
 20
52.15617963859999
 30
0.0
 11
120.8236966744
 21
53.31963117359999
 31
0.0
  0
LINE
  5
284
330
234
100
AcDbEntity
  8
0
  6
Continuous
 62
     7
100
AcDbLine
 10
104.0313053634
 20
37.1306376493
 30
0.0
 11
105.5723091782
 21
38.6716414641
 31
0.0
  0
LINE
  5
285
330
234
100
AcDbEntity
  8
0
  6
Continuous
 62
     7
100
AcDbLine
 10
111.7363244373
 20
44.8356567232
 30
0.0
 11
112.7636646395
 21
45.86299692539999
 31
0.0
  0
LINE
  5
286
330
234
100
AcDbEntity
  8
0
  6
Continuous
 62
     7
100
AcDbLine
 10
118.927675573
 20
52.02700785880001
 30
0.0
 11
120.4686793877
 21
53.5680116736
 31
0.0
  0
LINE
  5
287
330
234
100
AcDbEntity
  8
0
  6
Continuous
 62
     7
100
AcDbLine
 10
103.298735797
 20
37.0014658695
 30
0.0
 11
104.8397396118
 21
38.5424696843
 31
0.0
  0
LINE
  5
288
330
234
100
AcDbEntity
  8
0
  6
Continuous
 62
     7
100
AcDbLine
 10
111.0037548709
 20
44.70648494339999
 30
0.0
 11
112.0310948635
 21
45.733824936
 31
0.0
  0
LINE
  5
289
330
234
100
AcDbEntity
  8
0
  6
Continuous
 62
     7
100
AcDbLine
 10
118.1951060065
 20
51.89783607899999
 30
0.0
 11
119.7361098213
 21
53.4388398938
 31
0.0
  0
LINE
  5
28A
330
234
100
AcDbEntity
  8
0
  6
Continuous
 62
     7
100
AcDbLine
 10
102.5661662306
 20
36.8722940897
 30
0.0
 11
104.1071700454
 21
38.4132979045
 31
0.0
  0
LINE
  5
28B
330
234
100
AcDbEntity
  8
0
  6
Continuous
 62
     7
100
AcDbLine
 10
110.2711853045
 20
44.57731316359999
 30
0.0
 11
111.2985250874
 21
45.6046529465
 31
0.0
  0
LINE
  5
28C
330
234
100
AcDbEntity
  8
0
  6
Continuous
 62
     7
100
AcDbLine
 10
117.4625364401
 20
51.7686642992
 30
0.0
 11
119.0035402549
 21
53.30966811399999
 31
0.0
  0
LINE
  5
28D
330
234
100
AcDbEntity
  8
0
  6
Continuous
 62
     7
100
AcDbLine
 10
101.8335966642
 20
36.7431223099
 30
0.0
 11
103.374600479
 21
38.2841261247
 31
0.0
  0
LINE
  5
28E
330
234
100
AcDbEntity
  8
0
  6
Continuous
 62
     7
100
AcDbLine
 10
109.5386157381
 20
44.44814138379999
 30
0.0
 11
110.5659553114
 21
45.4754809571
 31
0.0
  0
LINE
  5
28F
330
234
100
AcDbEntity
  8
0
  6
Continuous
 62
     7
100
AcDbLine
 10
116.7299668737
 20
51.6394925194
 30
0.0
 11
118.2709706885
 21
53.1804963342
 31
0.0
  0
LINE
  5
290
330
234
100
AcDbEntity
  8
0
  6
Continuous
 62
     7
100
AcDbLine
 10
101.1010270978
 20
36.61395053010001
 30
0.0
 11
102.6420309126
 21
38.1549543449
 31
0.0
  0
LINE
  5
291
330
234
100
AcDbEntity
  8
0
  6
Continuous
 62
     7
100
AcDbLine
 10
108.8060461717
 20
44.31896960399999
 30
0.0
 11
109.8333855354
 21
45.3463089677
 31
0.0
  0
LINE
  5
292
330
234
100
AcDbEntity
  8
0
  6
Continuous
 62
     7
100
AcDbLine
 10
115.9973973073
 20
51.51032073959999
 30
0.0
 11
117.5384011221
 21
53.05132455439999
 31
0.0
  0
LINE
  5
293
330
234
100
AcDbEntity
  8
0
  6
Continuous
 62
     7
100
AcDbLine
 10
100.3684575314
 20
36.4847787503
 30
0.0
 11
101.9094613461
 21
38.0257825651
 31
0.0
  0
LINE
  5
294
330
234
100
AcDbEntity
  8
0
  6
Continuous
 62
     7
100
AcDbLine
 10
108.0734766052
 20
44.1897978242
 30
0.0
 11
109.1008157593
 21
45.2171369783
 31
0.0
  0
LINE
  5
295
330
234
100
AcDbEntity
  8
0
  6
Continuous
 62
     7
100
AcDbLine
 10
115.2648277409
 20
51.38114895979999
 30
0.0
 11
116.8058315556
 21
52.9221527746
 31
0.0
  0
LINE
  5
296
330
234
100
AcDbEntity
  8
0
  6
Continuous
 62
     7
100
AcDbLine
 10
99.6358879649
 20
36.3556069705
 30
0.0
 11
101.1768917797
 21
37.89661078530001
 31
0.0
  0
LINE
  5
297
330
234
100
AcDbEntity
  8
0
  6
Continuous
 62
     7
100
AcDbLine
 10
107.3409070388
 20
44.06062604439999
 30
0.0
 11
108.3682459833
 21
45.0879649889
 31
0.0
  0
LINE
  5
298
330
234
100
AcDbEntity
  8
0
  6
Continuous
 62
     7
100
AcDbLine
 10
114.5322581745
 20
51.25197717999999
 30
0.0
 11
116.0732619892
 21
52.7929809948
 31
0.0
  0
LINE
  5
299
330
234
100
AcDbEntity
  8
0
  6
Continuous
 62
     7
100
AcDbLine
 10
98.9033183985
 20
36.2264351907
 30
0.0
 11
100.4443222133
 21
37.7674390055
 31
0.0
  0
LINE
  5
29A
330
234
100
AcDbEntity
  8
0
  6
Continuous
 62
     7
100
AcDbLine
 10
106.6083374724
 20
43.9314542646
 30
0.0
 11
107.6356762073
 21
44.9587929995
 31
0.0
  0
LINE
  5
29B
330
234
100
AcDbEntity
  8
0
  6
Continuous
 62
     7
100
AcDbLine
 10
113.799688608
 20
51.12280540020001
 30
0.0
 11
115.3406924228
 21
52.663809215
 31
0.0
  0
LINE
  5
29C
330
234
100
AcDbEntity
  8
0
  6
Continuous
 62
     7
100
AcDbLine
 10
98.17074883209999
 20
36.0972634109
 30
0.0
 11
99.71175264690002
 21
37.6382672257
 31
0.0
  0
LINE
  5
29D
330
234
100
AcDbEntity
  8
0
  6
Continuous
 62
     7
100
AcDbLine
 10
105.875767906
 20
43.80228248479999
 30
0.0
 11
106.9031064313
 21
44.82962101
 31
0.0
  0
LINE
  5
29E
330
234
100
AcDbEntity
  8
0
  6
Continuous
 62
     7
100
AcDbLine
 10
113.0671190416
 20
50.9936336204
 30
0.0
 11
114.6081228564
 21
52.53463743520001
 31
0.0
  0
LINE
  5
29F
330
234
100
AcDbEntity
  8
0
  6
Continuous
 62
     7
100
AcDbLine
 10
97.6194280596
 20
36.149340425
 30
0.0
 11
98.9791830805
 21
37.5090954459
 31
0.0
  0
LINE
  5
2A0
330
234
100
AcDbEntity
  8
0
  6
Continuous
 62
     7
100
AcDbLine
 10
105.1431983396
 20
43.673110705
 30
0.0
 11
106.1705366552
 21
44.7004490206
 31
0.0
  0
LINE
  5
2A1
330
234
100
AcDbEntity
  8
0
  6
Continuous
 62
     7
100
AcDbLine
 10
112.3345494752
 20
50.86446184060001
 30
0.0
 11
113.87555329
 21
52.4054656554
 31
0.0
  0
LINE
  5
2A2
330
234
100
AcDbEntity
  8
0
  6
Continuous
 62
     7
100
AcDbLine
 10
97.52898100559999
 20
36.6622911576
 30
0.0
 11
98.60800349320001
 21
37.7413136452
 31
0.0
  0
LINE
  5
2A3
330
234
100
AcDbEntity
  8
0
  6
Continuous
 62
     7
100
AcDbLine
 10
104.4106287732
 20
43.5439389252
 30
0.0
 11
105.4379668792
 21
44.5712770312
 31
0.0
  0
LINE
  5
2A4
330
234
100
AcDbEntity
  8
0
  6
Continuous
 62
     7
100
AcDbLine
 10
111.6019799088
 20
50.7352900608
 30
0.0
 11
113.1429837236
 21
52.2762938756
 31
0.0
  0
LINE
  5
2A5
330
234
100
AcDbEntity
  8
0
  6
Continuous
 62
     7
100
AcDbLine
 10
97.43853395169999
 20
37.1752418903
 30
0.0
 11
98.5175564392
 21
38.25426437780001
 31
0.0
  0
LINE
  5
2A6
330
234
100
AcDbEntity
  8
0
  6
Continuous
 62
     7
100
AcDbLine
 10
103.6780592067
 20
43.41476714539999
 30
0.0
 11
104.7053971032
 21
44.4421050418
 31
0.0
  0
LINE
  5
2A7
330
234
100
AcDbEntity
  8
0
  6
Continuous
 62
     7
100
AcDbLine
 10
110.8694103424
 20
50.606118281
 30
0.0
 11
112.4104141571
 21
52.1471220958
 31
0.0
  0
LINE
  5
2A8
330
234
100
AcDbEntity
  8
0
  6
Continuous
 62
     7
100
AcDbLine
 10
97.34808689780001
 20
37.688192623
 30
0.0
 11
98.42710938530002
 21
38.7672151105
 31
0.0
  0
LINE
  5
2A9
330
234
100
AcDbEntity
  8
0
  6
Continuous
 62
     7
100
AcDbLine
 10
102.9454896403
 20
43.2855953656
 30
0.0
 11
103.9728273271
 21
44.31293305239999
 31
0.0
  0
LINE
  5
2AA
330
234
100
AcDbEntity
  8
0
  6
Continuous
 62
     7
100
AcDbLine
 10
110.1368407759
 20
50.4769465012
 30
0.0
 11
111.6778445907
 21
52.017950316
 31
0.0
  0
LINE
  5
2AB
330
234
100
AcDbEntity
  8
0
  6
Continuous
 62
     7
100
AcDbLine
 10
97.2576398438
 20
38.2011433557
 30
0.0
 11
98.33666233129999
 21
39.2801658432
 31
0.0
  0
LINE
  5
2AC
330
234
100
AcDbEntity
  8
0
  6
Continuous
 62
     7
100
AcDbLine
 10
102.2129200739
 20
43.15642358569999
 30
0.0
 11
103.2402575511
 21
44.183761063
 31
0.0
  0
LINE
  5
2AD
330
234
100
AcDbEntity
  8
0
  6
Continuous
 62
     7
100
AcDbLine
 10
109.4042712095
 20
50.3477747214
 30
0.0
 11
110.9452750243
 21
51.8887785362
 31
0.0
  0
LINE
  5
2AE
330
234
100
AcDbEntity
  8
0
  6
Continuous
 62
     7
100
AcDbLine
 10
97.1671927899
 20
38.7140940883
 30
0.0
 11
98.24621527739999
 21
39.7931165758
 31
0.0
  0
LINE
  5
2AF
330
234
100
AcDbEntity
  8
0
  6
Continuous
 62
     7
100
AcDbLine
 10
101.4803505075
 20
43.0272518059
 30
0.0
 11
102.5076877751
 21
44.0545890735
 31
0.0
  0
LINE
  5
2B0
330
234
100
AcDbEntity
  8
0
  6
Continuous
 62
     7
100
AcDbLine
 10
108.6717016431
 20
50.21860294159999
 30
0.0
 11
110.2127054579
 21
51.7596067563
 31
0.0
  0
LINE
  5
2B1
330
234
100
AcDbEntity
  8
0
  6
Continuous
 62
     7
100
AcDbLine
 10
97.07674573590001
 20
39.227044821
 30
0.0
 11
98.1557682234
 21
40.30606730849999
 31
0.0
  0
LINE
  5
2B2
330
234
100
AcDbEntity
  8
0
  6
Continuous
 62
     7
100
AcDbLine
 10
100.7477809411
 20
42.8980800261
 30
0.0
 11
101.7751179991
 21
43.92541708409999
 31
0.0
  0
LINE
  5
2B3
330
234
100
AcDbEntity
  8
0
  6
Continuous
 62
     7
100
AcDbLine
 10
107.9391320767
 20
50.0894311618
 30
0.0
 11
109.4801358915
 21
51.6304349765
 31
0.0
  0
LINE
  5
2B4
330
234
100
AcDbEntity
  8
0
  6
Continuous
 62
     7
100
AcDbLine
 10
96.98629868200001
 20
39.7399955537
 30
0.0
 11
98.06532116950002
 21
40.8190180412
 31
0.0
  0
LINE
  5
2B5
330
234
100
AcDbEntity
  8
0
  6
Continuous
 62
     7
100
AcDbLine
 10
100.0152113746
 20
42.7689082463
 30
0.0
 11
101.042548223
 21
43.79624509470001
 31
0.0
  0
LINE
  5
2B6
330
234
100
AcDbEntity
  8
0
  6
Continuous
 62
     7
100
AcDbLine
 10
107.2065625103
 20
49.96025938199999
 30
0.0
 11
108.747566325
 21
51.5012631967
 31
0.0
  0
LINE
  5
2B7
330
234
100
AcDbEntity
  8
0
  6
Continuous
 62
     7
100
AcDbLine
 10
96.895851628
 20
40.2529462863
 30
0.0
 11
97.97487411549999
 21
41.3319687738
 31
0.0
  0
LINE
  5
2B8
330
234
100
AcDbEntity
  8
0
  6
Continuous
 62
     7
100
AcDbLine
 10
99.28264180820001
 20
42.6397364665
 30
0.0
 11
100.309978447
 21
43.66707310529999
 31
0.0
  0
LINE
  5
2B9
330
234
100
AcDbEntity
  8
0
  6
Continuous
 62
     7
100
AcDbLine
 10
106.4739929439
 20
49.8310876022
 30
0.0
 11
108.0149967586
 21
51.3720914169
 31
0.0
  0
LINE
  5
2BA
330
234
100
AcDbEntity
  8
0
  6
Continuous
 62
     7
100
AcDbLine
 10
96.8054045741
 20
40.765897019
 30
0.0
 11
97.88442706159999
 21
41.8449195065
 31
0.0
  0
LINE
  5
2BB
330
234
100
AcDbEntity
  8
0
  6
Continuous
 62
     7
100
AcDbLine
 10
98.55007224180001
 20
42.51056468669999
 30
0.0
 11
99.577408671
 21
43.5379011159
 31
0.0
  0
LINE
  5
2BC
330
234
100
AcDbEntity
  8
0
  6
Continuous
 62
     7
100
AcDbLine
 10
105.7414233774
 20
49.7019158223
 30
0.0
 11
107.2824271922
 21
51.2429196371
 31
0.0
  0
LINE
  5
2BD
330
234
100
AcDbEntity
  8
0
  6
Continuous
 62
     7
100
AcDbLine
 10
96.71495752010001
 20
41.2788477517
 30
0.0
 11
97.79398000770001
 21
42.3578702392
 31
0.0
  0
LINE
  5
2BE
330
234
100
AcDbEntity
  8
0
  6
Continuous
 62
     7
100
AcDbLine
 10
97.81750267540001
 20
42.3813929069
 30
0.0
 11
98.84483889489999
 21
43.4087291265
 31
0.0
  0
LINE
  5
2BF
330
234
100
AcDbEntity
  8
0
  6
Continuous
 62
     7
100
AcDbLine
 10
105.008853811
 20
49.5727440425
 30
0.0
 11
106.5498576258
 21
51.11374785729999
 31
0.0
  0
LINE
  5
2C0
330
234
100
AcDbEntity
  8
0
  6
Continuous
 62
     7
100
AcDbLine
 10
96.62451046620001
 20
41.79179848429999
 30
0.0
 11
98.11226911889999
 21
43.27955713709999
 31
0.0
  0
LINE
  5
2C1
330
234
100
AcDbEntity
  8
0
  6
Continuous
 62
     7
100
AcDbLine
 10
104.2762842446
 20
49.4435722627
 30
0.0
 11
105.8172880594
 21
50.9845760775
 31
0.0
  0
LINE
  5
2C2
330
234
100
AcDbEntity
  8
0
  6
Continuous
 62
     7
100
AcDbLine
 10
96.53406341230001
 20
42.30474921699999
 30
0.0
 11
97.6130858998
 21
43.3837717045
 31
0.0
  0
LINE
  5
2C3
330
234
100
AcDbEntity
  8
0
  6
Continuous
 62
     7
100
AcDbLine
 10
103.5437146782
 20
49.31440048289999
 30
0.0
 11
105.084718493
 21
50.8554042977
 31
0.0
  0
LINE
  5
2C4
330
234
100
AcDbEntity
  8
0
  6
Continuous
 62
     7
100
AcDbLine
 10
96.44361635830001
 20
42.8176999497
 30
0.0
 11
97.52263884580001
 21
43.8967224372
 31
0.0
  0
LINE
  5
2C5
330
234
100
AcDbEntity
  8
0
  6
Continuous
 62
     7
100
AcDbLine
 10
102.8111451118
 20
49.1852287031
 30
0.0
 11
104.3521489265
 21
50.7262325179
 31
0.0
  0
LINE
  5
2C6
330
234
100
AcDbEntity
  8
0
  6
Continuous
 62
     7
100
AcDbLine
 10
96.35316930440001
 20
43.33065068229999
 30
0.0
 11
97.43219179190001
 21
44.4096731699
 31
0.0
  0
LINE
  5
2C7
330
234
100
AcDbEntity
  8
0
  6
Continuous
 62
     7
100
AcDbLine
 10
102.0785755453
 20
49.05605692329999
 30
0.0
 11
103.6195793601
 21
50.59706073810001
 31
0.0
  0
LINE
  5
2C8
330
234
100
AcDbEntity
  8
0
  6
Continuous
 62
     7
100
AcDbLine
 10
96.26272225040001
 20
43.843601415
 30
0.0
 11
97.34174473790002
 21
44.9226239025
 31
0.0
  0
LINE
  5
2C9
330
234
100
AcDbEntity
  8
0
  6
Continuous
 62
     7
100
AcDbLine
 10
101.3460059789
 20
48.9268851435
 30
0.0
 11
102.8870097937
 21
50.4678889583
 31
0.0
  0
LINE
  5
2CA
330
234
100
AcDbEntity
  8
0
  6
Continuous
 62
     7
100
AcDbLine
 10
96.1722751965
 20
44.3565521477
 30
0.0
 11
97.251297684
 21
45.4355746352
 31
0.0
  0
LINE
  5
2CB
330
234
100
AcDbEntity
  8
0
  6
Continuous
 62
     7
100
AcDbLine
 10
100.6134364125
 20
48.7977133637
 30
0.0
 11
102.1544402273
 21
50.33871717850001
 31
0.0
  0
LINE
  5
2CC
330
234
100
AcDbEntity
  8
0
  6
Continuous
 62
     7
100
AcDbLine
 10
96.0818281425
 20
44.8695028804
 30
0.0
 11
97.1608506301
 21
45.94852536789999
 31
0.0
  0
LINE
  5
2CD
330
234
100
AcDbEntity
  8
0
  6
Continuous
 62
     7
100
AcDbLine
 10
99.88086684610001
 20
48.6685415839
 30
0.0
 11
101.4218706609
 21
50.2095453987
 31
0.0
  0
LINE
  5
2CE
330
234
100
AcDbEntity
  8
0
  6
Continuous
 62
     7
100
AcDbLine
 10
95.99138108860001
 20
45.382453613
 30
0.0
 11
97.07040357610001
 21
46.46147610049999
 31
0.0
  0
LINE
  5
2CF
330
234
100
AcDbEntity
  8
0
  6
Continuous
 62
     7
100
AcDbLine
 10
99.14829727969999
 20
48.5393698041
 30
0.0
 11
100.6893010945
 21
50.0803736189
 31
0.0
  0
LINE
  5
2D0
330
234
100
AcDbEntity
  8
0
  6
Continuous
 62
     7
100
AcDbLine
 10
95.90093403469998
 20
45.89540434569999
 30
0.0
 11
96.97995652220001
 21
46.9744268332
 31
0.0
  0
LINE
  5
2D1
330
234
100
AcDbEntity
  8
0
  6
Continuous
 62
     7
100
AcDbLine
 10
98.4157277133
 20
48.4101980243
 30
0.0
 11
99.956731528
 21
49.9512018391
 31
0.0
  0
LINE
  5
2D2
330
234
100
AcDbEntity
  8
0
  6
Continuous
 62
     7
100
AcDbLine
 10
95.81048698069999
 20
46.4083550784
 30
0.0
 11
96.8895094682
 21
47.4873775659
 31
0.0
  0
LINE
  5
2D3
330
234
100
AcDbEntity
  8
0
  6
Continuous
 62
     7
100
AcDbLine
 10
97.68315814680001
 20
48.2810262445
 30
0.0
 11
99.2241619616
 21
49.8220300593
 31
0.0
  0
LINE
  5
2D4
330
234
100
AcDbEntity
  8
0
  6
Continuous
 62
     7
100
AcDbLine
 10
95.7200399268
 20
46.921305811
 30
0.0
 11
96.7990624143
 21
48.0003282985
 31
0.0
  0
LINE
  5
2D5
330
234
100
AcDbEntity
  8
0
  6
Continuous
 62
     7
100
AcDbLine
 10
96.95058858040001
 20
48.1518544647
 30
0.0
 11
98.4915923952
 21
49.6928582795
 31
0.0
  0
LINE
  5
2D6
330
234
100
AcDbEntity
  8
0
  6
Continuous
 62
     7
100
AcDbLine
 10
95.62959287279999
 20
47.4342565437
 30
0.0
 11
97.75902282879998
 21
49.5636864997
 31
0.0
  0
LINE
  5
2D7
330
234
100
AcDbEntity
  8
0
  6
Continuous
 62
     7
100
AcDbLine
 10
95.53914581889999
 20
47.9472072764
 30
0.0
 11
97.0264532624
 21
49.43451471979999
 31
0.0
  0
LINE
  5
2D8
330
234
100
AcDbEntity
  8
0
  6
Continuous
 62
     7
100
AcDbLine
 10
95.4486987649
 20
48.460158009
 30
0.0
 11
96.29388369590001
 21
49.30534294
 31
0.0
  0
LINE
  5
2D9
330
234
100
AcDbEntity
  8
0
  6
Continuous
 62
     7
100
AcDbLine
 10
95.358251711
 20
48.9731087417
 30
0.0
 11
95.5613141295
 21
49.1761711602
 31
0.0
  0
ENDBLK
  5
2DA
330
234
100
AcDbEntity
  8
0
  6
ByBlock
 62
     0
100
AcDbBlockEnd
  0
BLOCK
  5
2DB
330
235
100
AcDbEntity
  8
0
  6
Continuous
 62
     7
100
AcDbBlockBegin
  2
SYMBOL_6_BL2
 70
     0
 10
38.4012627395
 20
88.88790978040001
 30
0.0
  3
SYMBOL_6_BL2
  1

  0
TEXT
  5
2DC
330
235
100
AcDbEntity
  8
0
  6
Continuous
 62
     7
100
AcDbText
 10
37.9780559169
 20
88.1237333762
 30
0.0
 40
1.333333852099999
  1
L
 50
10.0
  7
TEXTSTYLE_2
100
AcDbText
  0
TEXT
  5
2DD
330
235
100
AcDbEntity
  8
0
  6
Continuous
 62
     7
100
AcDbText
 10
34.3472916657
 20
87.4961339631
 30
0.0
 40
1.333333852099999
  1
5
 50
10.0
  7
TEXTSTYLE_2
100
AcDbText
  0
TEXT
  5
2DE
330
235
100
AcDbEntity
  8
0
  6
Continuous
 62
     7
100
AcDbText
 10
41.6800720455
 20
88.78910098770001
 30
0.0
 40
1.333333852099999
  1
4
 50
10.0
  7
TEXTSTYLE_2
100
AcDbText
  0
ELLIPSE
  5
2DF
330
235
100
AcDbEntity
  8
0
  6
Continuous
 62
     7
100
AcDbEllipse
 10
38.38265817590001
 20
88.87202700879999
 30
0.0
 11
-1.913370740099999
 21
-0.3373788856
 31
0.0
210
0.0
220
0.0
230
1.0
 40
0.6606458385
 41
0.0
 42
6.283185307179586
  0
ENDBLK
  5
2E0
330
235
100
AcDbEntity
  8
0
  6
ByBlock
 62
     0
100
AcDbBlockEnd
  0
BLOCK
  5
2E1
330
236
100
AcDbEntity
  8
0
  6
Continuous
 62
     7
100
AcDbBlockBegin
  2
SYMBOL_3_BL1
 70
     0
 10
58.2160710414
 20
93.44058608719999
 30
0.0
  3
SYMBOL_3_BL1
  1

  0
TEXT
  5
2E2
330
236
100
AcDbEntity
  8
0
  6
Continuous
 62
     7
100
AcDbText
 10
57.5494041154
 20
92.7739191612
 30
0.0
 40
1.333333852099999
  1
C
  7
TEXTSTYLE_2
100
AcDbText
  0
ELLIPSE
  5
2E3
330
236
100
AcDbEntity
  8
0
  6
Continuous
 62
     7
100
AcDbEllipse
 10
58.2160710414
 20
93.44058608719999
 30
0.0
 11
-1.942887567899999
 21
0.0
 31
0.0
210
0.0
220
0.0
230
1.0
 40
0.6606458385
 41
0.0
 42
6.283185307179586
  0
ENDBLK
  5
2E4
330
236
100
AcDbEntity
  8
0
  6
ByBlock
 62
     0
100
AcDbBlockEnd
  0
BLOCK
  5
2E5
330
237
100
AcDbEntity
  8
0
  6
Continuous
 62
     7
100
AcDbBlockBegin
  2
SYMBOL_0_BL0
 70
     0
 10
160.6666666667
 20
55.33333333329999
 30
0.0
  3
SYMBOL_0_BL0
  1

  0
TEXT
  5
2E6
330
237
100
AcDbEntity
  8
0
  6
Continuous
 62
     7
100
AcDbText
 10
144.4188815905
 20
63.10676672439999
 30
0.0
 40
0.5
  1
Infomations Techniques/Technical Infomations
  7
TEXTSTYLE_2
100
AcDbText
  0
TEXT
  5
2E7
330
237
100
AcDbEntity
  8
0
  6
Continuous
 62
     7
100
AcDbText
 10
144.6666666667
 20
61.6666666667
 30
0.0
 40
0.6666666667
  1
NOMBRE DE JETS:     
  7
TEXTSTYLE_2
100
AcDbText
  0
TEXT
  5
2E8
330
237
100
AcDbEntity
  8
0
  6
Continuous
 62
     7
100
AcDbText
 10
154.5111111111
 20
61.6666666667
 30
0.0
 40
0.6666666667
  1
38
  7
TEXTSTYLE_2
100
AcDbText
  0
TEXT
  5
2E9
330
237
100
AcDbEntity
  8
0
  6
Continuous
 62
     7
100
AcDbText
 10
144.6666666667
 20
60.6666666667
 30
0.0
 40
0.6666666667
  1
 
  7
TEXTSTYLE_2
100
AcDbText
  0
TEXT
  5
2EA
330
237
100
AcDbEntity
  8
0
  6
Continuous
 62
     7
100
AcDbText
 10
144.6666666667
 20
59.66666666670001
 30
0.0
 40
0.6666666667
  1
NIVEAU D'EAU              GALLONS(US)        LITRES        GALLONS(UK)
  7
TEXTSTYLE_2
100
AcDbText
  0
TEXT
  5
2EB
330
237
100
AcDbEntity
  8
0
  6
Continuous
 62
     7
100
AcDbText
 10
144.6666666667
 20
58.6666666667
 30
0.0
 40
0.6666666667
  1
PLEIN
  7
TEXTSTYLE_2
100
AcDbText
  0
TEXT
  5
2EC
330
237
100
AcDbEntity
  8
0
  6
Continuous
 62
     7
100
AcDbText
 10
144.6666666667
 20
57.6666666667
 30
0.0
 40
0.6666666667
  1
HAUT T.PLEIN
  7
TEXTSTYLE_2
100
AcDbText
  0
TEXT
  5
2ED
330
237
100
AcDbEntity
  8
0
  6
Continuous
 62
     7
100
AcDbText
 10
144.6666666667
 20
56.6666666667
 30
0.0
 40
0.6666666667
  1
MILIEU T.PLEIN
  7
TEXTSTYLE_2
100
AcDbText
  0
TEXT
  5
2EE
330
237
100
AcDbEntity
  8
0
  6
Continuous
 62
     7
100
AcDbText
 10
144.6666666667
 20
55.6666666667
 30
0.0
 40
0.6666666667
  1
BAS T.PLEIN
  7
TEXTSTYLE_2
100
AcDbText
  0
TEXT
  5
2EF
330
237
100
AcDbEntity
  8
0
  6
Continuous
 62
     7
100
AcDbText
 10
144.6666666667
 20
54.66666666670001
 30
0.0
 40
0.6666666667
  1
3" EN BAS T.PLEIN
  7
TEXTSTYLE_2
100
AcDbText
  0
TEXT
  5
2F0
330
237
100
AcDbEntity
  8
0
  6
Continuous
 62
     7
100
AcDbText
 10
144.6666666667
 20
53.6666666667
 30
0.0
 40
0.6666666667
  1
 
  7
TEXTSTYLE_2
100
AcDbText
  0
TEXT
  5
2F1
330
237
100
AcDbEntity
  8
0
  6
Continuous
 62
     7
100
AcDbText
 10
144.4665051611
 20
53.1198797418
 30
0.0
 40
0.5
  1
Legende/Legend
  7
TEXTSTYLE_2
100
AcDbText
  0
TEXT
  5
2F2
330
237
100
AcDbEntity
  8
0
  6
Continuous
 62
     7
100
AcDbText
 10
150.9953401051
 20
51.6086147641
 30
0.0
 40
0.6666666667
  1
ZONE DE ROBINETTERIE
  7
TEXTSTYLE_2
100
AcDbText
  0
TEXT
  5
2F3
330
237
100
AcDbEntity
  8
0
  6
Continuous
 62
     7
100
AcDbText
 10
145.9156155382
 20
50.1133702497
 30
0.0
 40
0.6666666667
  1
L   :  SYSTEME LED       DC   :  DOUBLE DOSSIER CHAUFFANT
  7
TEXTSTYLE_2
100
AcDbText
  0
TEXT
  5
2F4
330
237
100
AcDbEntity
  8
0
  6
Continuous
 62
     7
100
AcDbText
 10
145.9156155382
 20
48.7800369164
 30
0.0
 40
0.6666666667
  1
C   :  CONTROLE
  7
TEXTSTYLE_2
100
AcDbText
  0
TEXT
  5
2F5
330
237
100
AcDbEntity
  8
0
  6
Continuous
 62
     7
100
AcDbText
 10
145.9156155382
 20
47.4467035831
 30
0.0
 40
0.6666666667
  1
T   :  MOTEUR
  7
TEXTSTYLE_2
100
AcDbText
  0
TEXT
  5
2F6
330
237
100
AcDbEntity
  8
0
  6
Continuous
 62
     7
100
AcDbText
 10
157.499363366
 20
58.6666666667
 30
0.0
 40
0.6666666667
  1
82
  7
TEXTSTYLE_2
100
AcDbText
  0
TEXT
  5
2F7
330
237
100
AcDbEntity
  8
0
  6
Continuous
 62
     7
100
AcDbText
 10
157.499363366
 20
57.6666666667
 30
0.0
 40
0.6666666667
  1
69
  7
TEXTSTYLE_2
100
AcDbText
  0
TEXT
  5
2F8
330
237
100
AcDbEntity
  8
0
  6
Continuous
 62
     7
100
AcDbText
 10
157.499363366
 20
56.6666666667
 30
0.0
 40
0.6666666667
  1
63
  7
TEXTSTYLE_2
100
AcDbText
  0
TEXT
  5
2F9
330
237
100
AcDbEntity
  8
0
  6
Continuous
 62
     7
100
AcDbText
 10
157.499363366
 20
55.6666666667
 30
0.0
 40
0.6666666667
  1
57
  7
TEXTSTYLE_2
100
AcDbText
  0
TEXT
  5
2FA
330
237
100
AcDbEntity
  8
0
  6
Continuous
 62
     7
100
AcDbText
 10
157.499363366
 20
54.66666666670001
 30
0.0
 40
0.6666666667
  1
48
  7
TEXTSTYLE_2
100
AcDbText
  0
TEXT
  5
2FB
330
237
100
AcDbEntity
  8
0
  6
Continuous
 62
     7
100
AcDbText
 10
164.4195693097
 20
58.68374606879999
 30
0.0
 40
0.6666666667
  1
309
  7
TEXTSTYLE_2
100
AcDbText
  0
TEXT
  5
2FC
330
237
100
AcDbEntity
  8
0
  6
Continuous
 62
     7
100
AcDbText
 10
164.4195693097
 20
57.6837460688
 30
0.0
 40
0.6666666667
  1
262
  7
TEXTSTYLE_2
100
AcDbText
  0
TEXT
  5
2FD
330
237
100
AcDbEntity
  8
0
  6
Continuous
 62
     7
100
AcDbText
 10
164.4195693097
 20
56.6837460688
 30
0.0
 40
0.6666666667
  1
238
  7
TEXTSTYLE_2
100
AcDbText
  0
TEXT
  5
2FE
330
237
100
AcDbEntity
  8
0
  6
Continuous
 62
     7
100
AcDbText
 10
164.4195693097
 20
55.68374606879999
 30
0.0
 40
0.6666666667
  1
216
  7
TEXTSTYLE_2
100
AcDbText
  0
TEXT
  5
2FF
330
237
100
AcDbEntity
  8
0
  6
Continuous
 62
     7
100
AcDbText
 10
164.4195693097
 20
54.6837460688
 30
0.0
 40
0.6666666667
  1
183
  7
TEXTSTYLE_2
100
AcDbText
  0
TEXT
  5
300
330
237
100
AcDbEntity
  8
0
  6
Continuous
 62
     7
100
AcDbText
 10
171.3642082472
 20
58.6666666667
 30
0.0
 40
0.6666666667
  1
68
  7
TEXTSTYLE_2
100
AcDbText
  0
TEXT
  5
301
330
237
100
AcDbEntity
  8
0
  6
Continuous
 62
     7
100
AcDbText
 10
171.3642082472
 20
57.6666666667
 30
0.0
 40
0.6666666667
  1
58
  7
TEXTSTYLE_2
100
AcDbText
  0
TEXT
  5
302
330
237
100
AcDbEntity
  8
0
  6
Continuous
 62
     7
100
AcDbText
 10
171.3642082472
 20
56.6666666667
 30
0.0
 40
0.6666666667
  1
52
  7
TEXTSTYLE_2
100
AcDbText
  0
TEXT
  5
303
330
237
100
AcDbEntity
  8
0
  6
Continuous
 62
     7
100
AcDbText
 10
171.3642082472
 20
55.6666666667
 30
0.0
 40
0.6666666667
  1
48
  7
TEXTSTYLE_2
100
AcDbText
  0
TEXT
  5
304
330
237
100
AcDbEntity
  8
0
  6
Continuous
 62
     7
100
AcDbText
 10
171.3642082472
 20
54.66666666670001
 30
0.0
 40
0.6666666667
  1
40
  7
TEXTSTYLE_2
100
AcDbText
  0
LINE
  5
305
330
237
100
AcDbEntity
  8
0
  6
Continuous
 62
     7
100
AcDbLine
 10
144.0
 20
64.0
 30
0.0
 11
144.0
 21
46.6666666667
 31
0.0
  0
LINE
  5
306
330
237
100
AcDbEntity
  8
0
  6
Continuous
 62
     7
100
AcDbLine
 10
144.0
 20
64.0
 30
0.0
 11
177.3333333333
 21
64.0
 31
0.0
  0
LINE
  5
307
330
237
100
AcDbEntity
  8
0
  6
Continuous
 62
     7
100
AcDbLine
 10
177.3333333333
 20
64.0
 30
0.0
 11
177.3333333333
 21
46.6666666667
 31
0.0
  0
LINE
  5
308
330
237
100
AcDbEntity
  8
0
  6
Continuous
 62
     7
100
AcDbLine
 10
144.0
 20
46.6666666667
 30
0.0
 11
177.3333333333
 21
46.6666666667
 31
0.0
  0
LINE
  5
309
330
237
100
AcDbEntity
  8
0
  6
Continuous
 62
     7
100
AcDbLine
 10
145.3333333333
 20
54.0
 30
0.0
 11
176.0
 21
54.0
 31
0.0
  0
LINE
  5
30A
330
237
100
AcDbEntity
  8
0
  6
Continuous
 62
     7
100
AcDbLine
 10
145.3333333333
 20
61.0
 30
0.0
 11
176.0
 21
61.0
 31
0.0
  0
LINE
  5
30B
330
237
100
AcDbEntity
  8
0
  6
Continuous
 62
     7
100
AcDbLine
 10
144.8089065593
 20
52.3781645044
 30
0.0
 11
144.4398858169
 21
52.009143762
 31
0.0
  0
LINE
  5
30C
330
237
100
AcDbEntity
  8
0
  6
Continuous
 62
     7
100
AcDbLine
 10
145.4755732259
 20
52.3781645044
 30
0.0
 11
144.6775574355
 21
51.5801487139
 31
0.0
  0
LINE
  5
30D
330
237
100
AcDbEntity
  8
0
  6
Continuous
 62
     7
100
AcDbLine
 10
146.1422398926
 20
52.3781645044
 30
0.0
 11
145.3442241022
 21
51.5801487139
 31
0.0
  0
LINE
  5
30E
330
237
100
AcDbEntity
  8
0
  6
Continuous
 62
     7
100
AcDbLine
 10
146.8089065593
 20
52.3781645044
 30
0.0
 11
146.0108907688
 21
51.5801487139
 31
0.0
  0
LINE
  5
30F
330
237
100
AcDbEntity
  8
0
  6
Continuous
 62
     7
100
AcDbLine
 10
147.4755732259
 20
52.3781645044
 30
0.0
 11
146.6775574355
 21
51.5801487139
 31
0.0
  0
LINE
  5
310
330
237
100
AcDbEntity
  8
0
  6
Continuous
 62
     7
100
AcDbLine
 10
148.1422398926
 20
52.3781645044
 30
0.0
 11
147.3442241022
 21
51.5801487139
 31
0.0
  0
LINE
  5
311
330
237
100
AcDbEntity
  8
0
  6
Continuous
 62
     7
100
AcDbLine
 10
148.8089065593
 20
52.3781645044
 30
0.0
 11
148.0108907688
 21
51.5801487139
 31
0.0
  0
LINE
  5
312
330
237
100
AcDbEntity
  8
0
  6
Continuous
 62
     7
100
AcDbLine
 10
149.4755732259
 20
52.3781645044
 30
0.0
 11
148.6775574355
 21
51.5801487139
 31
0.0
  0
LINE
  5
313
330
237
100
AcDbEntity
  8
0
  6
Continuous
 62
     7
100
AcDbLine
 10
150.1422398926
 20
52.3781645044
 30
0.0
 11
149.3442241022
 21
51.5801487139
 31
0.0
  0
LINE
  5
314
330
237
100
AcDbEntity
  8
0
  6
Continuous
 62
     7
100
AcDbLine
 10
150.5857273268
 20
52.1549852718
 30
0.0
 11
150.0108907688
 21
51.5801487139
 31
0.0
  0
ELLIPSE
  5
315
330
237
100
AcDbEntity
  8
0
  6
Continuous
 62
     7
100
AcDbEllipse
 10
146.1454024822
 20
50.43094770689999
 30
0.0
 11
1.0473539356
 21
0.0
 31
0.0
210
0.0
220
0.0
230
1.0
 40
0.4938647983
 41
0.0
 42
6.283185307179586
  0
ELLIPSE
  5
316
330
237
100
AcDbEntity
  8
0
  6
Continuous
 62
     7
100
AcDbEllipse
 10
146.1454024822
 20
49.0976143736
 30
0.0
 11
1.0473539356
 21
0.0
 31
0.0
210
0.0
220
0.0
230
1.0
 40
0.4938647983
 41
0.0
 42
6.283185307179586
  0
ELLIPSE
  5
317
330
237
100
AcDbEntity
  8
0
  6
Continuous
 62
     7
100
AcDbEllipse
 10
146.1454024822
 20
47.76428104029999
 30
0.0
 11
1.0473539356
 21
0.0
 31
0.0
210
0.0
220
0.0
230
1.0
 40
0.4938647983
 41
0.0
 42
6.283185307179586
  0
ELLIPSE
  5
318
330
237
100
AcDbEntity
  8
0
  6
Continuous
 62
     7
100
AcDbEllipse
 10
157.1640380633
 20
50.45046906399999
 30
0.0
 11
1.0473539356
 21
0.0
 31
0.0
210
0.0
220
0.0
230
1.0
 40
0.4938647983
 41
0.0
 42
6.283185307179586
  0
ENDBLK
  5
319
330
237
100
AcDbEntity
  8
0
  6
ByBlock
 62
     0
100
AcDbBlockEnd
  0
ENDSEC
  0
SECTION
  2
ENTITIES
  0
LWPOLYLINE
  5
179F
330
218
100
AcDbEntity
  8
0
  6
Continuous
 62
     7
100
AcDbPolyline
 90
      113
 70
     0
 43
0.0
 10
16.9963859458
 20
78.1089280044
 10
17.001301772
 20
77.68133681180001
 10
17.0151274375
 20
77.263509651
 10
17.0380204302
 20
76.8555731288
 10
17.0695082866
 20
76.4571474247
 10
17.10925442309999
 20
76.0680166282
 10
17.1570086881
 20
75.68781561680001
 10
17.21246629
 20
75.31630385239999
 10
17.2754545641
 20
74.9528916708
 10
17.3457373216
 20
74.5970128189
 10
17.4232003439
 20
74.24835652590001
 10
17.5076580599
 20
73.906570915
 10
17.5990883376
 20
73.57121304999999
 10
17.6974205669
 20
73.2418257275
 10
17.8026146109
 20
72.91809987169999
 10
17.9145856713
 20
72.5996730186
 10
18.0333971219
 20
72.2862481298
 10
18.1590621462
 20
71.9774587857
 10
18.2916465169
 20
71.6731506655
 10
18.4312322429
 20
71.3730600854
 10
18.5777838
 20
71.07714871489999
 10
18.7312374808
 20
70.7853758525
 10
18.8917598438
 20
70.4974849275
 10
19.0594690379
 20
70.21320988310001
 10
19.2344465841
 20
69.9325384762
 10
19.4167339541
 20
69.6554655636
 10
19.6065694436
 20
69.3817037891
 10
19.8041268324
 20
69.1109947873
 10
20.0096411395
 20
68.84324644270001
 10
20.2232850208
 20
68.5783394461
 10
20.4454193451
 20
68.3160970138
 10
20.6763477243
 20
68.05633929470001
 10
20.9164145859
 20
67.798956182
 10
21.1659096145
 20
67.5438090768
 10
21.4253006499
 20
67.2908036046
 10
21.6949508081
 20
67.0398468921
 10
21.9754639438
 20
66.7907958367
 10
22.2674224553
 20
66.54344456069999
 10
22.5712538284
 20
66.297888516
 10
22.8874318207
 20
66.0541089093
 10
23.216400015
 20
65.8122425982
 10
23.5585131969
 20
65.5724266039
 10
23.9145115162
 20
65.3346416417
 10
24.2850761026
 20
65.098847351
 10
24.670738801
 20
64.8652439812
 10
25.0721403347
 20
64.6339105377
 10
25.4896351978
 20
64.4051703912
 10
25.9234520931
 20
64.1793688633
 10
26.3746091177
 20
63.95651910569999
 10
26.8431585578
 20
63.7369663708
 10
27.332226549
 20
63.52005967770001
 10
27.8440508466
 20
63.30527120420001
 10
28.3813488783
 20
63.092576727
 10
28.9487605065
 20
62.8810456479
 10
29.5427561811
 20
62.67286926939999
 10
30.1657909344
 20
62.4686262234
 10
30.8045508812
 20
62.27222392289999
 10
31.4496242091
 20
62.08744755529999
 10
32.09175973260001
 20
61.91524243039999
 10
32.7194559355
 20
61.7581927504
 10
33.3300519976
 20
61.6151670259
 10
33.91808727780001
 20
61.48617820560001
 10
34.4804597229
 20
61.37037717810001
 10
35.0119426415
 20
61.2673717012
 10
35.5134493064
 20
61.1758041162
 10
35.9828720409
 20
61.09465992659999
 10
36.4240470014
 20
61.0225174035
 10
36.83922198760001
 20
60.9579024279
 10
37.2310543924
 20
60.8999576725
 10
37.60231446760001
 20
60.84752186180001
 10
37.9549114355
 20
60.80003272129999
 10
38.2920953064
 20
60.756573112
 10
38.6126139689
 20
60.71704635239999
 10
38.9166328107
 20
60.68109711189999
 10
39.2031493446
 20
60.648584199
 10
39.4705426895
 20
60.6193871567
 10
39.7208334141
 20
60.59308845029999
 10
39.9541749686
 20
60.56939729839999
 10
40.1745478276
 20
60.5478129843
 10
40.3849246165
 20
60.52784498739999
 10
40.58848233309999
 20
60.5091719364
 10
40.7887073456
 20
60.4913628276
 10
40.98764416769999
 20
60.4742560385
 10
41.1889511282
 20
60.4575062467
 10
41.39127315
 20
60.44123354899999
 10
41.5947880059
 20
60.42545097779999
 10
41.79855547529999
 20
60.4101344038
 10
42.00151181539999
 20
60.3952767144
 10
42.20420536519999
 20
60.3808398917
 10
42.40641631789999
 20
60.3668067662
 10
42.6093853685
 20
60.3531076801
 10
42.8134769094
 20
60.3397094463
 10
43.0211000418
 20
60.326485484
 10
43.2341058075
 20
60.31331949720001
 10
43.45453277779999
 20
60.30014744449999
 10
43.68446292729999
 20
60.28686884249999
 10
43.9256170875
 20
60.2734767221
 10
44.1802892881
 20
60.2598984308
 10
44.44884190969999
 20
60.2462305359
 10
44.7322790242
 20
60.2325071649
 10
45.03096958879999
 20
60.2188429841
 10
45.34544247249999
 20
60.2053203138
 10
45.67622201199999
 20
60.19207031979999
 10
46.0238344054
 20
60.179198328
 10
46.38880293729999
 20
60.1668641785
 10
46.7716493631
 20
60.1551988908
 10
47.1729044681
 20
60.14439425279999
 10
47.59309972959999
 20
60.1346097506
 10
48.0327548263
 20
60.1260733091
 10
48.4923948981
 20
60.11897677189999
 10
48.9725350385
 20
60.1135878696
 10
49.4739516551
 20
60.1102797404
 10
49.9963859454
 20
60.1089280047
  0
LWPOLYLINE
  5
17A0
330
218
100
AcDbEntity
  8
0
  6
Continuous
 62
     7
100
AcDbPolyline
 90
       95
 70
     0
 43
0.0
 10
17.031825218
 20
78.1089280047
 10
17.0348892304
 20
77.7654074756
 10
17.0439592261
 20
77.4282266652
 10
17.0588403735
 20
77.09764374609999
 10
17.079350077
 20
76.773464527
 10
17.1053023694
 20
76.45567625169999
 10
17.1365503709
 20
76.1439042106
 10
17.1729609962
 20
75.83786918289999
 10
17.2144309755
 20
75.537212027
 10
17.260882729
 20
75.24148139330001
 10
17.3121763368
 20
74.9506964075
 10
17.368207155
 20
74.664706314
 10
17.4288449115
 20
74.38353501899999
 10
17.4939268749
 20
74.10733652240001
 10
17.563474674
 20
73.8355276778
 10
17.6375207992
 20
73.56765650479999
 10
17.7160553461
 20
73.3034992883
 10
17.7991246688
 20
73.04263729439999
 10
17.8865941906
 20
72.7852733048
 10
17.9783726113
 20
72.5314627362
 10
18.0743902621
 20
72.2812081664
 10
18.1744903493
 20
72.0347333311
 10
18.2788734844
 20
71.7914146792
 10
18.3877388369
 20
71.5507615052
 10
18.5011182321
 20
71.31266405069999
 10
18.6191624781
 20
71.0767724211
 10
18.7417396413
 20
70.8433422452
 10
18.8687556439
 20
70.61253215589999
 10
19.0002404073
 20
70.3842776411
 10
19.1361080379
 20
70.1587280876
 10
19.2766560918
 20
69.93542472600001
 10
19.4221517577
 20
69.71400540329999
 10
19.5726928894
 20
69.49437383020001
 10
19.7285358635
 20
69.27624213279999
 10
19.88955098
 20
69.0598915079
 10
20.0556191924
 20
68.845562903
 10
20.2269354348
 20
68.63309477999999
 10
20.4035673945
 20
68.422514371
 10
20.5858302639
 20
68.2135537739
 10
20.7740423559
 20
68.005962872
 10
20.9683306269
 20
67.7997390979
 10
21.1689315707
 20
67.5947855035
 10
21.3758805898
 20
67.39123006639999
 10
21.5891706314
 20
67.18923980439999
 10
21.8091541403
 20
66.98864914819999
 10
22.0361141846
 20
66.7893684136
 10
22.27032673550001
 20
66.59133360609999
 10
22.5120997117
 20
66.3944795567
 10
22.7616554009
 20
66.19883320479999
 10
23.0192190991
 20
66.0044340515
 10
23.2850909493
 20
65.81128097220001
 10
23.5595416669
 20
65.61940487390001
 10
23.842973337
 20
65.4287602122
 10
24.1357838104
 20
65.23932907569999
 10
24.438264326
 20
65.05118098050001
 10
24.750673072
 20
64.86441556689999
 10
25.0734868969
 20
64.6790203534
 10
25.4071355513
 20
64.4950382313
 10
25.7521307319
 20
64.3124864019
 10
26.1089918063
 20
64.13139948539999
 10
26.478091227
 20
63.9519016777
 10
26.8597593123
 20
63.7741534052
 10
27.2546909966
 20
63.5981757885
 10
27.6634476032
 20
63.4240741278
 10
28.0867637433
 20
63.2518976553
 10
28.5254159434
 20
63.0817056881
 10
28.9798213707
 20
62.9137411628
 10
29.4504220125
 20
62.7482527635
 10
29.9379641411
 20
62.585385202
 10
30.4429353852
 20
62.425376907
 10
30.9664768939
 20
62.2682999075
 10
31.5097214984
 20
62.1142980405
 10
32.0732917612
 20
61.96367913949999
 10
32.6585816895
 20
61.8165583231
 10
33.264318067
 20
61.67374269919999
 10
33.8901443808
 20
61.5357515985
 10
34.5346289077
 20
61.4032490866
 10
35.1958805474
 20
61.2768713906
 10
35.8747658654
 20
61.1566975905
 10
36.5716824416
 20
61.04290117399999
 10
37.2861061931
 20
60.9357725195
 10
38.0173051659
 20
60.8356157787
 10
38.7663496448
 20
60.74248062270001
 10
39.5297337311
 20
60.6569182306
 10
40.32040659529999
 20
60.57776387789999
 10
41.1484316051
 20
60.5047090446
 10
42.01599268569999
 20
60.4381508918
 10
42.93811504719999
 20
60.3756674115
 10
43.9017867306
 20
60.3187453313
 10
44.89777834069999
 20
60.2688253931
 10
45.9132958103
 20
60.22717799
 10
46.9318671506
 20
60.19472428810001
 10
47.9542826987
 20
60.1714847502
 10
48.9754595754
 20
60.15757655289999
 10
49.9963859455
 20
60.1529428835
  0
LWPOLYLINE
  5
17A1
330
218
100
AcDbEntity
  8
0
  6
Continuous
 62
     7
100
AcDbPolyline
 90
       95
 70
     0
 43
0.0
 10
17.031825218
 20
78.1089280047
 10
17.0348892304
 20
78.45244853369999
 10
17.0439592261
 20
78.78962934409999
 10
17.0588403735
 20
79.12021226330001
 10
17.079350077
 20
79.44439148229999
 10
17.1053023694
 20
79.76217975770001
 10
17.1365503709
 20
80.0739517987
 10
17.1729609962
 20
80.37998682639999
 10
17.2144309755
 20
80.68064398229999
 10
17.260882729
 20
80.97637461599999
 10
17.3121763368
 20
81.2671596018
 10
17.368207155
 20
81.55314969539999
 10
17.4288449115
 20
81.8343209903
 10
17.4939268749
 20
82.11051948689998
 10
17.563474674
 20
82.38232833149998
 10
17.6375207992
 20
82.65019950459999
 10
17.7160553461
 20
82.914356721
 10
17.7991246688
 20
83.175218715
 10
17.8865941906
 20
83.43258270449998
 10
17.9783726113
 20
83.6863932732
 10
18.0743902621
 20
83.93664784290001
 10
18.1744903493
 20
84.18312267819999
 10
18.2788734844
 20
84.42644133020001
 10
18.3877388369
 20
84.66709450419999
 10
18.5011182321
 20
84.90519195860001
 10
18.6191624781
 20
85.14108358819999
 10
18.7417396413
 20
85.3745137641
 10
18.8687556439
 20
85.6053238534
 10
19.0002404073
 20
85.83357836819999
 10
19.1361080379
 20
86.0591279217
 10
19.2766560918
 20
86.2824312833
 10
19.4221517577
 20
86.50385060599999
 10
19.5726928894
 20
86.7234821791
 10
19.7285358635
 20
86.9416138765
 10
19.88955098
 20
87.15796450139999
 10
20.0556191924
 20
87.37229310629999
 10
20.2269354348
 20
87.58476122940001
 10
20.4035673945
 20
87.7953416383
 10
20.5858302639
 20
88.00430223540001
 10
20.7740423559
 20
88.21189313739999
 10
20.9683306269
 20
88.4181169114
 10
21.1689315707
 20
88.6230705058
 10
21.3758805898
 20
88.82662594290001
 10
21.5891706314
 20
89.0286162049
 10
21.8091541403
 20
89.22920686110002
 10
22.0361141846
 20
89.42848759569999
 10
22.27032673550001
 20
89.6265224032
 10
22.5120997117
 20
89.82337645260001
 10
22.7616554009
 20
90.01902280450002
 10
23.0192190991
 20
90.2134219578
 10
23.2850909493
 20
90.4065750372
 10
23.5595416669
 20
90.59845113549998
 10
23.842973337
 20
90.78909579719999
 10
24.1357838104
 20
90.97852693370001
 10
24.438264326
 20
91.16667502879998
 10
24.750673072
 20
91.3534404425
 10
25.0734868969
 20
91.5388356559
 10
25.4071355513
 20
91.722817778
 10
25.7521307319
 20
91.9053696075
 10
26.1089918063
 20
92.08645652399999
 10
26.478091227
 20
92.26595433159999
 10
26.8597593123
 20
92.4437026042
 10
27.2546909966
 20
92.61968022079999
 10
27.6634476032
 20
92.79378188149999
 10
28.0867637433
 20
92.96595835399999
 10
28.5254159434
 20
93.1361503213
 10
28.9798213707
 20
93.30411484649999
 10
29.4504220125
 20
93.4696032459
 10
29.9379641411
 20
93.63247080729999
 10
30.4429353852
 20
93.79247910229999
 10
30.9664768939
 20
93.9495561018
 10
31.5097214984
 20
94.10355796879999
 10
32.0732917612
 20
94.25417686979999
 10
32.6585816895
 20
94.40129768620002
 10
33.264318067
 20
94.5441133101
 10
33.8901443808
 20
94.6821044108
 10
34.5346289077
 20
94.8146069228
 10
35.1958805474
 20
94.94098461870001
 10
35.8747658654
 20
95.06115841879999
 10
36.5716824416
 20
95.17495483530002
 10
37.2861061931
 20
95.28208348979999
 10
38.0173051659
 20
95.38224023059999
 10
38.7663496448
 20
95.4753753866
 10
39.5297337311
 20
95.56093777870001
 10
40.32040659529999
 20
95.64009213149999
 10
41.1484316051
 20
95.71314696469999
 10
42.01599268569999
 20
95.7797051176
 10
42.93811504719999
 20
95.84218859779999
 10
43.9017867306
 20
95.8991106781
 10
44.89777834069999
 20
95.9490306162
 10
45.9132958103
 20
95.9906780194
 10
46.9318671506
 20
96.02313172129999
 10
47.9542826987
 20
96.0463712592
 10
48.9754595754
 20
96.06027945640001
 10
49.9963859455
 20
96.06491312590001
  0
LWPOLYLINE
  5
17A2
330
218
100
AcDbEntity
  8
0
  6
Continuous
 62
     7
100
AcDbPolyline
 90
       99
 70
     0
 43
0.0
 10
21.3979635721
 20
78.1089280047
 10
21.4000855202
 20
77.86408629600001
 10
21.4063266908
 20
77.6240670941
 10
21.4165750479
 20
77.38908368439999
 10
21.430695093
 20
77.1589031561
 10
21.448563093
 20
76.93338202689999
 10
21.4700648853
 20
76.7123995351
 10
21.4950917108
 20
76.495804831
 10
21.5235411715
 20
76.2834944536
 10
21.5553149245
 20
76.07534623479999
 10
21.5903268944
 20
75.8712268564
 10
21.6284889565
 20
75.6710261115
 10
21.6697344599
 20
75.4745650376
 10
21.714003285
 20
75.281682171
 10
21.761248303
 20
75.09221231020001
 10
21.8114393409
 20
74.9059682687
 10
21.864539373
 20
74.7228405885
 10
21.9205150821
 20
74.5426876167
 10
21.9793156925
 20
74.3654477547
 10
22.0408871993
 20
74.191082308
 10
22.1052493122
 20
74.0193768047
 10
22.1724109965
 20
73.8501934187
 10
22.2424434558
 20
73.6832755596
 10
22.3154387995
 20
73.5183281159
 10
22.3913649806
 20
73.35535689869999
 10
22.4702342315
 20
73.1942855491
 10
22.5520493768
 20
73.0350804813
 10
22.636797308
 20
72.8777501075
 10
22.7245848513
 20
72.72210869920001
 10
22.8154619056
 20
72.56806682140001
 10
22.9095974676
 20
72.4153342961
 10
23.007193607
 20
72.26362641049999
 10
23.108312763
 20
72.1129087169
 10
23.2130773615
 20
71.9630803405
 10
23.3215776082
 20
71.81411520090001
 10
23.4338976222
 20
71.66598471579999
 10
23.5501656742
 20
71.51859759060001
 10
23.6704810764
 20
71.37191766079999
 10
23.7950438961
 20
71.2258002076
 10
23.9240463485
 20
71.08014467640001
 10
24.0576771046
 20
70.934876806
 10
24.1961505819
 20
70.78990123220001
 10
24.3396241839
 20
70.6451915101
 10
24.4882736008
 20
70.50071610479999
 10
24.6422773804
 20
70.3564546542
 10
24.8017943218
 20
70.2124203309
 10
24.9670743152
 20
70.06855326090001
 10
25.1383587958
 20
69.9248179729
 10
25.315937534
 20
69.78115222159999
 10
25.500084204
 20
69.63752658
 10
25.6911091763
 20
69.4938966089
 10
25.8893264219
 20
69.350235321
 10
26.0950017181
 20
69.2065606993
 10
26.3084478539
 20
69.06287240579999
 10
26.5298076345
 20
68.91928757689999
 10
26.7592425448
 20
68.77591555550001
 10
26.9970285723
 20
68.63281614909999
 10
27.2433886529
 20
68.4900920403
 10
27.4987198446
 20
68.3477576012
 10
27.7633443403
 20
68.2058772571
 10
28.0376750295
 20
68.0644767811
 10
28.3221836279
 20
67.9235627651
 10
28.6169574574
 20
67.783334166
 10
28.9221495222
 20
67.6439765042
 10
29.2381279758
 20
67.5056076899
 10
29.5651117239
 20
67.3684140029
 10
29.9036918341
 20
67.2324275486
 10
30.2543485036
 20
67.09773848000001
 10
30.6175688192
 20
66.9644394125
 10
30.9941484991
 20
66.8325438106
 10
31.383686996
 20
66.70251963140001
 10
31.78533541510001
 20
66.5749246184
 10
32.2011675198
 20
66.44939575020001
 10
32.6319290101
 20
66.3260498904
 10
33.0807984952
 20
66.2043781804
 10
33.5508873224
 20
66.08404757609999
 10
34.0432811256
 20
65.9650556895
 10
34.5616019701
 20
65.8470942112
 10
35.1014966976
 20
65.73175840399999
 10
35.6601102992
 20
65.62008999149999
 10
36.23637679210001
 20
65.5126281571
 10
36.8280092404
 20
65.4100468756
 10
37.43570577510001
 20
65.31243611869999
 10
38.0601992792
 20
65.21991188289999
 10
38.69906245340001
 20
65.1330063336
 10
39.348039973
 20
65.05231208069999
 10
40.01331895089999
 20
64.97715026529999
 10
40.696599195
 20
64.90764460210001
 10
41.4071803934
 20
64.843328034
 10
42.1544161263
 20
64.78365959689999
 10
42.93992109869999
 20
64.7278943995
 10
43.77478061749999
 20
64.67537510239999
 10
44.6398138393
 20
64.627987406
 10
45.5211678175
 20
64.5870476221
 10
46.41413023699999
 20
64.5531323243
 10
47.3095006105
 20
64.5267294691
 10
48.2067875515
 20
64.50785987989999
 10
49.1020008178
 20
64.496576833
 10
49.9963859455
 20
64.49281921189999
  0
LWPOLYLINE
  5
17A3
330
218
100
AcDbEntity
  8
0
  6
Continuous
 62
     7
100
AcDbPolyline
 90
       99
 70
     0
 43
0.0
 10
21.3979635721
 20
78.1089280047
 10
21.4000855202
 20
78.35376971329999
 10
21.4063266908
 20
78.59378891520001
 10
21.4165750479
 20
78.8287723249
 10
21.430695093
 20
79.0589528533
 10
21.448563093
 20
79.2844739824
 10
21.4700648853
 20
79.5054564742
 10
21.4950917108
 20
79.7220511783
 10
21.5235411715
 20
79.93436155569999
 10
21.5553149245
 20
80.1425097745
 10
21.5903268944
 20
80.34662915289999
 10
21.6284889565
 20
80.54682989779999
 10
21.6697344599
 20
80.7432909717
 10
21.714003285
 20
80.93617383839999
 10
21.761248303
 20
81.1256436991
 10
21.8114393409
 20
81.3118877407
 10
21.864539373
 20
81.49501542080001
 10
21.9205150821
 20
81.67516839260001
 10
21.9793156925
 20
81.85240825460001
 10
22.0408871993
 20
82.0267737013
 10
22.1052493122
 20
82.19847920460001
 10
22.1724109965
 20
82.3676625907
 10
22.2424434558
 20
82.53458044979998
 10
22.3154387995
 20
82.6995278935
 10
22.3913649806
 20
82.86249911069999
 10
22.4702342315
 20
83.0235704602
 10
22.5520493768
 20
83.18277552800001
 10
22.636797308
 20
83.3401059018
 10
22.7245848513
 20
83.4957473102
 10
22.8154619056
 20
83.649789188
 10
22.9095974676
 20
83.8025217132
 10
23.007193607
 20
83.95422959879999
 10
23.108312763
 20
84.10494729239999
 10
23.2130773615
 20
84.25477566880001
 10
23.3215776082
 20
84.4037408085
 10
23.4338976222
 20
84.55187129349999
 10
23.5501656742
 20
84.69925841869999
 10
23.6704810764
 20
84.8459383486
 10
23.7950438961
 20
84.9920558017
 10
23.9240463485
 20
85.137711333
 10
24.0576771046
 20
85.2829792034
 10
24.1961505819
 20
85.42795477709999
 10
24.3396241839
 20
85.5726644992
 10
24.4882736008
 20
85.7171399045
 10
24.6422773804
 20
85.86140135509999
 10
24.8017943218
 20
86.0054356784
 10
24.9670743152
 20
86.1493027484
 10
25.1383587958
 20
86.29303803639999
 10
25.315937534
 20
86.43670378770002
 10
25.500084204
 20
86.58032942930001
 10
25.6911091763
 20
86.72395940040001
 10
25.8893264219
 20
86.86762068829999
 10
26.0950017181
 20
87.01129530999999
 10
26.3084478539
 20
87.1549836035
 10
26.5298076345
 20
87.2985684324
 10
26.7592425448
 20
87.44194045379998
 10
26.9970285723
 20
87.5850398603
 10
27.2433886529
 20
87.72776396899999
 10
27.4987198446
 20
87.87009840809998
 10
27.7633443403
 20
88.01197875219999
 10
28.0376750295
 20
88.15337922819999
 10
28.3221836279
 20
88.2942932443
 10
28.6169574574
 20
88.43452184330001
 10
28.9221495222
 20
88.5738795051
 10
29.2381279758
 20
88.71224831940001
 10
29.5651117239
 20
88.84944200639999
 10
29.9036918341
 20
88.98542846069998
 10
30.2543485036
 20
89.1201175293
 10
30.6175688192
 20
89.2534165968
 10
30.9941484991
 20
89.3853121987
 10
31.383686996
 20
89.51533637790001
 10
31.78533541510001
 20
89.64293139090001
 10
32.2011675198
 20
89.76846025909999
 10
32.6319290101
 20
89.891806119
 10
33.0807984952
 20
90.01347782889999
 10
33.5508873224
 20
90.1338084332
 10
34.0432811256
 20
90.25280031980001
 10
34.5616019701
 20
90.37076179809998
 10
35.1014966976
 20
90.48609760540001
 10
35.6601102992
 20
90.59776601780001
 10
36.23637679210001
 20
90.70522785219999
 10
36.8280092404
 20
90.80780913379999
 10
37.43570577510001
 20
90.9054198906
 10
38.0601992792
 20
90.9979441265
 10
38.69906245340001
 20
91.08484967569999
 10
39.348039973
 20
91.16554392860001
 10
40.01331895089999
 20
91.24070574399999
 10
40.696599195
 20
91.3102114073
 10
41.4071803934
 20
91.3745279753
 10
42.1544161263
 20
91.43419641239999
 10
42.93992109869999
 20
91.48996160979999
 10
43.77478061749999
 20
91.54248090690002
 10
44.6398138393
 20
91.58986860330001
 10
45.5211678175
 20
91.63080838719999
 10
46.41413023699999
 20
91.664723685
 10
47.3095006105
 20
91.6911265402
 10
48.2067875515
 20
91.70999612940001
 10
49.1020008178
 20
91.72127917629998
 10
49.9963859455
 20
91.7250367974
  0
LWPOLYLINE
  5
17A4
330
218
100
AcDbEntity
  8
0
  6
Continuous
 62
     7
100
AcDbPolyline
 90
       75
 70
     0
 43
0.0
 10
29.3999752618
 20
78.1089280047
 10
29.4032672862
 20
77.84088186399999
 10
29.4134898228
 20
77.57350709659999
 10
29.4306511686
 20
77.3069183744
 10
29.454690056
 20
77.04154232899999
 10
29.4855326382
 20
76.7777858605
 10
29.5231250315
 20
76.5157916598
 10
29.5673932679
 20
76.25580829819999
 10
29.6182762929
 20
75.99790454239999
 10
29.6757201271
 20
75.74213467199999
 10
29.7396241692
 20
75.48878828220001
 10
29.8098613777
 20
75.2381595547
 10
29.886379973
 20
74.99028629379999
 10
29.9690996452
 20
74.74531274989999
 10
30.0580002106
 20
74.5032054991
 10
30.1530630563
 20
74.2639190407
 10
30.2542017596
 20
74.02763872050001
 10
30.3613151523
 20
73.79453853120001
 10
30.4744085357
 20
73.564577583
 10
30.5935215854
 20
73.3376850477
 10
30.7185205583
 20
73.11415594979999
 10
30.8492236908
 20
72.8942643469
 10
30.9856708271
 20
72.6779110729
 10
31.1278854921
 20
72.46506657579999
 10
31.2758146881
 20
72.2558362874
 10
31.4294476057
 20
72.05026880750001
 10
31.5887077755
 20
71.84852003039999
 10
31.7535406349
 20
71.6506933469
 10
31.9238515535
 20
71.4569284163
 10
32.099494147
 20
71.2674144276
 10
32.2805453419
 20
71.0821041522
 10
32.4683985167
 20
70.8997364091
 10
32.6590067252
 20
70.7242210454
 10
32.8492027392
 20
70.557957574
 10
33.0362384739
 20
70.4025021602
 10
33.2158806755
 20
70.26023793350001
 10
33.3884642418
 20
70.1296895282
 10
33.5528638263
 20
70.01063256090001
 10
33.70954420909999
 20
69.9017541133
 10
33.8587746497
 20
69.8020458223
 10
34.0005333688
 20
69.710799792
 10
34.1347618861
 20
69.62740985100001
 10
34.2621896115
 20
69.5508654712
 10
34.3833962516
 20
69.48035706049999
 10
34.499115048
 20
69.4150772464
 10
34.6103315947
 20
69.354164958
 10
34.7171305867
 20
69.2973205184
 10
34.8201916353
 20
69.24396452829999
 10
34.9188444905
 20
69.19424270729999
 10
35.01249876070001
 20
69.1482420153
 10
35.101611664
 20
69.10554080029999
 10
35.1863875671
 20
69.06587007289999
 10
35.2670702879
 20
69.0289654919
 10
35.3439067516
 20
68.99458131420001
 10
35.417152836
 20
68.96248670350001
 10
35.48706021800001
 20
68.93246917289999
 10
35.5539363166
 20
68.9043085008
 10
35.6180567815
 20
68.8778123286
 10
35.6798080117
 20
68.8527574223
 10
35.7395527458
 20
68.82894393649999
 10
35.7976717742
 20
68.8061784602
 10
35.8545488029
 20
68.7842779096
 10
35.910565513
 20
68.7630718791
 10
35.9661279523
 20
68.7423909462
 10
36.0215695818
 20
68.72210295489999
 10
36.0773043577
 20
68.702055136
 10
36.1335151324
 20
68.68218665479999
 10
36.1909029452
 20
68.6622628205
 10
36.2483386684
 20
68.64268474010001
 10
36.30536047280001
 20
68.62360466760001
 10
36.3606359577
 20
68.60544602800001
 10
36.4125244865
 20
68.5887008146
 10
36.4614444184
 20
68.5731796747
 10
36.507097157
 20
68.55892737819999
 10
36.5905423311
 20
68.533450026
  0
LWPOLYLINE
  5
17A7
330
218
100
AcDbEntity
  8
0
  6
Continuous
 62
     7
100
AcDbPolyline
 90
        7
 70
     0
 43
0.0
 10
29.4242303244
 20
78.8076020893
 10
29.4169123308
 20
78.69178126920001
 10
29.4108996102
 20
78.5757046037
 10
29.4061963432
 20
78.45940199420001
 10
29.4028047526
 20
78.34284664180001
 10
29.40072901820001
 20
78.2260118578
 10
29.3999752618
 20
78.1089280047
  0
LWPOLYLINE
  5
17AE
330
218
100
AcDbEntity
  8
0
  6
Continuous
 62
     7
100
AcDbPolyline
 90
      113
 70
     0
 43
0.0
 10
49.9963859454
 20
60.1089280047
 10
50.522690146
 20
60.1103008376
 10
51.0276615097
 20
60.11365570399999
 10
51.51103489729999
 20
60.119119612
 10
51.9736057267
 20
60.12631153680001
 10
52.4159016212
 20
60.1349579242
 10
52.8384608245
 20
60.14486337060001
 10
53.2418160899
 20
60.1557953352
 10
53.6265115124
 20
60.1675916747
 10
53.9930905834
 20
60.1800570316
 10
54.3420878676
 20
60.19305850689999
 10
54.6740393962
 20
60.20643359140001
 10
54.9894842614
 20
60.2200757583
 10
55.2889592443
 20
60.2338519395
 10
55.57300730979999
 20
60.24767924949999
 10
55.8419818084
 20
60.2614400779
 10
56.0969883646
 20
60.27510553149999
 10
56.3384623255
 20
60.2885814524
 10
56.56876787369999
 20
60.3019460251
 10
56.7897123006
 20
60.31521141199999
 10
57.00340162729999
 20
60.32848152060001
 10
57.21193304659999
 20
60.34182529069999
 10
57.4171403345
 20
60.3553597883
 10
57.62146633829999
 20
60.3692158753
 10
57.8251810361
 20
60.3834211046
 10
58.02944934420001
 20
60.3980383581
 10
58.2340292959
 20
60.4130925104
 10
58.4395038357
 20
60.4286360579
 10
58.64456314609999
 20
60.44464901609999
 10
58.8479876576
 20
60.4611318686
 10
59.0500895697
 20
60.4780757081
 10
59.2496093847
 20
60.4953613352
 10
59.4500426242
 20
60.5133201104
 10
59.6534485122
 20
60.5321162985
 10
59.86287644379999
 20
60.55213198789999
 10
60.0811852365
 20
60.5736589484
 10
60.31100584749999
 20
60.5971324008
 10
60.5558489882
 20
60.62299710729999
 10
60.815934213
 20
60.651516214
 10
61.0929607095
 20
60.683045273
 10
61.3860002891
 20
60.7177518283
 10
61.69456468279999
 20
60.7558019274
 10
62.01903331869999
 20
60.7975556122
 10
62.3586939304
 20
60.8431560584
 10
62.7163333327
 20
60.8934199114
 10
63.0936832325
 20
60.948866332
 10
63.49319668729999
 20
61.0105309487
 10
63.9172022346
 20
61.07918035149999
 10
64.36780514129999
 20
61.1561408155
 10
64.84814437149999
 20
61.2426130484
 10
65.3574473707
 20
61.3397403419
 10
65.89734737829999
 20
61.4488602975
 10
66.4637659768
 20
61.5705906946
 10
67.0545056406
 20
61.70583355729999
 10
67.6655569331
 20
61.85507375270001
 10
68.2957843658
 20
62.0197526293
 10
68.9343685689
 20
62.19790276689999
 10
69.5737724284
 20
62.3893004351
 10
70.20301368850001
 20
62.5901559139
 10
70.80874167080001
 20
62.7971026616
 10
71.39052453010001
 20
63.0086474127
 10
71.94187821789999
 20
63.22189892369999
 10
72.46760866529999
 20
63.4376845883
 10
72.96962639490001
 20
63.65573346319999
 10
73.4501335839
 20
63.87644931659999
 10
73.91178778869999
 20
64.1002002492
 10
74.3551333939
 20
64.32682231939999
 10
74.78151552639999
 20
64.5563874702
 10
75.1911895154
 20
64.78855614789999
 10
75.58463210939999
 20
65.0230375393
 10
75.9625241774
 20
65.25975736460001
 10
76.3254584208
 20
65.4985204739
 10
76.67417609100001
 20
65.73939866419999
 10
77.0095089692
 20
65.98245465399999
 10
77.3317781665
 20
66.2275205286
 10
77.64142963970001
 20
66.4744545746
 10
77.9389206324
 20
66.7232409062
 10
78.22466942990001
 20
66.97376091069999
 10
78.49923886319999
 20
67.2261810559
 10
78.76318265310001
 20
67.4805790067
 10
79.0169464146
 20
67.7371025583
 10
79.2610674229
 20
67.99588750969999
 10
79.49582441770001
 20
68.25704751439999
 10
79.72156434129999
 20
68.5206713093
 10
79.9386198614
 20
68.78696944399999
 10
80.147383524
 20
69.0561509419
 10
80.34802263659999
 20
69.3283091189
 10
80.54077086720001
 20
69.60351344909999
 10
80.72582168130001
 20
69.88204448010001
 10
80.90343304550001
 20
70.16420363219999
 10
81.07364512430001
 20
70.4499977608
 10
81.23654238029999
 20
70.7394471161
 10
81.3922498868
 20
71.0328129328
 10
81.5409401497
 20
71.330343528
 10
81.68255533419999
 20
71.63209790419999
 10
81.81707176519999
 20
71.93813870619999
 10
81.94455946999999
 20
72.2487033229
 10
82.0650712175
 20
72.5639197552
 10
82.1786351074
 20
72.8841788122
 10
82.2853268499
 20
73.2097957302
 10
82.3850563813
 20
73.5411252283
 10
82.47778155469999
 20
73.8784674389
 10
82.56343432979999
 20
74.2223013577
 10
82.6419953913
 20
74.5730892129
 10
82.71327641739999
 20
74.9311814392
 10
82.77716236599999
 20
75.2968880187
 10
82.8334140824
 20
75.6707925373
 10
82.88185795290001
 20
76.05349885699999
 10
82.9221823127
 20
76.4452561307
 10
82.95413223930001
 20
76.84644114939999
 10
82.9773638936
 20
77.2572748617
 10
82.99139486060001
 20
77.6781471318
 10
82.9963859453
 20
78.10892800489999
  0
LWPOLYLINE
  5
17AF
330
218
100
AcDbEntity
  8
0
  6
Continuous
 62
     7
100
AcDbPolyline
 90
       99
 70
     0
 43
0.0
 10
35.07573231969999
 20
87.0657740713
 10
35.03156826170001
 20
87.04457426419999
 10
34.9851520186
 20
87.02201837169999
 10
34.9360761569
 20
86.99786117120002
 10
34.8847454734
 20
86.97225144289999
 10
34.8313610814
 20
86.9452419027
 10
34.7761232805
 20
86.91688812829999
 10
34.7194020883
 20
86.88733813110001
 10
34.6608833911
 20
86.8563848732
 10
34.6005064206
 20
86.82394624770001
 10
34.53790140520001
 20
86.7897648958
 10
34.4727859328
 20
86.7536162012
 10
34.4048764348
 20
86.7152591267
 10
34.3338999939
 20
86.6744423995
 10
34.2595917709
 20
86.6309002907
 10
34.1816979954
 20
86.58435379409999
 10
34.0999750252
 20
86.53450684370001
 10
34.0141822802
 20
86.48104065950001
 10
33.9241358744
 20
86.42364484119999
 10
33.8296395422
 20
86.36197219459999
 10
33.730585962
 20
86.29570449879999
 10
33.6269002523
 20
86.22451553120001
 10
33.5184016375
 20
86.14797094469999
 10
33.405011446
 20
86.06566534459998
 10
33.2865031442
 20
85.97703866939999
 10
33.1628145091
 20
85.8815936212
 10
33.0335920132
 20
85.77854054200001
 10
32.8986616491
 20
85.66713536489999
 10
32.7577547724
 20
85.54645698379999
 10
32.6085592442
 20
85.41358812909999
 10
32.45749253870001
 20
85.27341299609998
 10
32.3080618179
 20
85.12882921960001
 10
32.1651628631
 20
84.98469113819998
 10
32.0350494432
 20
84.8481345273
 10
31.9149666557
 20
84.71731315859999
 10
31.8046990782
 20
84.5928807377
 10
31.7029731193
 20
84.4742064751
 10
31.6088982656
 20
84.36094524220001
 10
31.521456642
 20
84.2524680045
 10
31.4395166039
 20
84.1478566996
 10
31.3628738312
 20
84.0472762817
 10
31.2908380801
 20
83.95020978079999
 10
31.2238617454
 20
83.8576432688
 10
31.1625331273
 20
83.7708263446
 10
31.1056608918
 20
83.68847771129999
 10
31.0525835402
 20
83.609949275
 10
31.0025510236
 20
83.53438172050001
 10
30.9548874897
 20
83.46093488820001
 10
30.9089395387
 20
83.3887307085
 10
30.8639932274
 20
83.3167102626
 10
30.819760572
 20
83.24443485020001
 10
30.7756692513
 20
83.17094651220001
 10
30.7319908222
 20
83.0966602166
 10
30.688736544
 20
83.02156904649999
 10
30.6460999326
 20
82.94599122660001
 10
30.6041992616
 20
82.87013589689999
 10
30.5632192325
 20
82.79435391379999
 10
30.5235300981
 20
82.719384341
 10
30.4846212422
 20
82.64431067569999
 10
30.4463543978
 20
82.56887209869999
 10
30.40809529340001
 20
82.4917797528
 10
30.369085725
 20
82.41135801570001
 10
30.3297932574
 20
82.32839166460001
 10
30.2902844709
 20
82.2428633153
 10
30.2509722805
 20
82.15552785289998
 10
30.2121513795
 20
82.06695504629999
 10
30.1741080709
 20
81.9777514617
 10
30.1370980099
 20
81.88853008829999
 10
30.10135646530001
 20
81.7999099174
 10
30.0671882465
 20
81.71276869100001
 10
30.034493665
 20
81.6270000587
 10
30.0034661393
 20
81.54328063239999
 10
29.9735087692
 20
81.46014132140001
 10
29.9441269014
 20
81.37621830569999
 10
29.9154271539
 20
81.29178763109999
 10
29.8873062931
 20
81.20651358759999
 10
29.8599263809
 20
81.12085814110001
 10
29.8334083294
 20
81.03521320989999
 10
29.8077125594
 20
80.94947315869999
 10
29.7828718146
 20
80.8637707347
 10
29.758788008
 20
80.7777828859
 10
29.7354651118
 20
80.69151800250001
 10
29.7126789648
 20
80.6041005854
 10
29.6903048064
 20
80.51490953380001
 10
29.6681996718
 20
80.4231526106
 10
29.646262608
 20
80.32806823820001
 10
29.6244262261
 20
80.22890461850002
 10
29.6025916664
 20
80.1245712569
 10
29.580965403
 20
80.01528962630001
 10
29.5595940699
 20
79.9004193787
 10
29.5389238061
 20
79.78146397599999
 10
29.5192232022
 20
79.65925771870001
 10
29.5008103655
 20
79.53523437770001
 10
29.4839411958
 20
79.4109446703
 10
29.4686798277
 20
79.2869392913
 10
29.4551046443
 20
79.1641710627
 10
29.4431927496
 20
79.04301274699999
 10
29.4329381
 20
78.92423048000001
 10
29.4242303244
 20
78.8076020893
  0
LINE
  5
17B0
330
218
100
AcDbEntity
  8
0
  6
Continuous
 62
     7
100
AcDbLine
 10
35.1581414418
 20
87.10465720100001
 30
0.0
 11
35.07573231969999
 21
87.0657740713
 31
0.0
  0
LINE
  5
17B1
330
218
100
AcDbEntity
  8
0
  6
Continuous
 62
     7
100
AcDbLine
 10
35.2361024517
 20
87.14064128049999
 30
0.0
 11
35.1581414418
 21
87.10465720100001
 31
0.0
  0
LINE
  5
17B2
330
218
100
AcDbEntity
  8
0
  6
Continuous
 62
     7
100
AcDbLine
 10
35.3133108303
 20
87.17552090099999
 30
0.0
 11
35.2361024517
 21
87.14064128049999
 31
0.0
  0
LINE
  5
17B3
330
218
100
AcDbEntity
  8
0
  6
Continuous
 62
     7
100
AcDbLine
 10
35.3915335113
 20
87.2100993982
 30
0.0
 11
35.3133108303
 21
87.17552090099999
 31
0.0
  0
LINE
  5
17B4
330
218
100
AcDbEntity
  8
0
  6
Continuous
 62
     7
100
AcDbLine
 10
35.4701715929
 20
87.2441004604
 30
0.0
 11
35.3915335113
 21
87.2100993982
 31
0.0
  0
LINE
  5
17B5
330
218
100
AcDbEntity
  8
0
  6
Continuous
 62
     7
100
AcDbLine
 10
35.5487901008
 20
87.27733988249999
 30
0.0
 11
35.4701715929
 21
87.2441004604
 31
0.0
  0
LINE
  5
17B6
330
218
100
AcDbEntity
  8
0
  6
Continuous
 62
     7
100
AcDbLine
 10
35.6275043531
 20
87.3098746045
 30
0.0
 11
35.5487901008
 21
87.27733988249999
 31
0.0
  0
LWPOLYLINE
  5
17C2
330
218
100
AcDbEntity
  8
0
  6
Continuous
 62
     7
100
AcDbPolyline
 90
       16
 70
     0
 43
0.0
 10
36.4551767392
 20
87.6088815569
 10
36.4071720171
 20
87.5936124623
 10
36.3564080298
 20
87.57719484709999
 10
36.3029267453
 20
87.55959645629998
 10
36.2473350047
 20
87.54097346299998
 10
36.1900479042
 20
87.52142818959999
 10
36.1316688145
 20
87.50113848620001
 10
36.0725995625
 20
87.48022405430001
 10
36.0138367745
 20
87.459031781
 10
35.9562017408
 20
87.43786809259999
 10
35.9005805481
 20
87.41708683959998
 10
35.8482150297
 20
87.39719852749999
 10
35.7988156829
 20
87.37814729570001
 10
35.7528037028
 20
87.36014804969999
 10
35.7092863522
 20
87.34289707569999
 10
35.6275043531
 20
87.3098746045
  0
LINE
  5
17C3
330
218
100
AcDbEntity
  8
0
  6
Continuous
 62
     7
100
AcDbLine
 10
36.54217625760001
 20
87.63592159469999
 30
0.0
 11
36.4551767392
 21
87.6088815569
 31
0.0
  0
LINE
  5
17C4
330
218
100
AcDbEntity
  8
0
  6
Continuous
 62
     7
100
AcDbLine
 10
36.6196176608
 20
87.6593102156
 30
0.0
 11
36.54217625760001
 21
87.63592159469999
 31
0.0
  0
LINE
  5
17C5
330
218
100
AcDbEntity
  8
0
  6
Continuous
 62
     7
100
AcDbLine
 10
36.68995149150001
 20
87.6800044352
 30
0.0
 11
36.6196176608
 21
87.6593102156
 31
0.0
  0
LINE
  5
17C6
330
218
100
AcDbEntity
  8
0
  6
Continuous
 62
     7
100
AcDbLine
 10
36.7542610506
 20
87.69847564299999
 30
0.0
 11
36.68995149150001
 21
87.6800044352
 31
0.0
  0
LINE
  5
17C7
330
218
100
AcDbEntity
  8
0
  6
Continuous
 62
     7
100
AcDbLine
 10
63.2018787507
 20
68.47524545270001
 30
0.0
 11
63.2529306931
 21
68.4896846026
 31
0.0
  0
LINE
  5
17C8
330
218
100
AcDbEntity
  8
0
  6
Continuous
 62
     7
100
AcDbLine
 10
63.13402086149999
 20
68.4564582628
 30
0.0
 11
63.2018787507
 21
68.47524545270001
 31
0.0
  0
LINE
  5
17C9
330
218
100
AcDbEntity
  8
0
  6
Continuous
 62
     7
100
AcDbLine
 10
63.0750444035
 20
68.4404987809
 30
0.0
 11
63.13402086149999
 21
68.4564582628
 31
0.0
  0
LINE
  5
17CA
330
218
100
AcDbEntity
  8
0
  6
Continuous
 62
     7
100
AcDbLine
 10
63.023613355
 20
68.4268634104
 30
0.0
 11
63.0750444035
 21
68.4404987809
 31
0.0
  0
LINE
  5
17CB
330
218
100
AcDbEntity
  8
0
  6
Continuous
 62
     7
100
AcDbLine
 10
62.9647494241
 20
68.41158361959999
 30
0.0
 11
63.023613355
 21
68.4268634104
 31
0.0
  0
LINE
  5
17CC
330
218
100
AcDbEntity
  8
0
  6
Continuous
 62
     7
100
AcDbLine
 10
62.9145764331
 20
68.3988373813
 30
0.0
 11
62.9647494241
 21
68.41158361959999
 31
0.0
  0
LINE
  5
17CD
330
218
100
AcDbEntity
  8
0
  6
Continuous
 62
     7
100
AcDbLine
 10
62.86252981979999
 20
68.3858877392
 30
0.0
 11
62.9145764331
 21
68.3988373813
 31
0.0
  0
LINE
  5
17CE
330
218
100
AcDbEntity
  8
0
  6
Continuous
 62
     7
100
AcDbLine
 10
62.8138299731
 20
68.3740244575
 30
0.0
 11
62.86252981979999
 21
68.3858877392
 31
0.0
  0
LINE
  5
17CF
330
218
100
AcDbEntity
  8
0
  6
Continuous
 62
     7
100
AcDbLine
 10
62.77071889630001
 20
68.3637304601
 30
0.0
 11
62.8138299731
 21
68.3740244575
 31
0.0
  0
LINE
  5
17D0
330
218
100
AcDbEntity
  8
0
  6
Continuous
 62
     7
100
AcDbLine
 10
62.7354138692
 20
68.3554743729
 30
0.0
 11
62.77071889630001
 21
68.3637304601
 31
0.0
  0
LINE
  5
17D1
330
218
100
AcDbEntity
  8
0
  6
Continuous
 62
     7
100
AcDbLine
 10
62.6900163485
 20
68.34508691069999
 30
0.0
 11
62.7354138692
 21
68.3554743729
 31
0.0
  0
LINE
  5
17D2
330
218
100
AcDbEntity
  8
0
  6
Continuous
 62
     7
100
AcDbLine
 10
62.6355710432
 20
68.3329167653
 30
0.0
 11
62.6900163485
 21
68.34508691069999
 31
0.0
  0
LINE
  5
17D3
330
218
100
AcDbEntity
  8
0
  6
Continuous
 62
     7
100
AcDbLine
 10
62.55327654630001
 20
68.3149676874
 30
0.0
 11
62.6355710432
 21
68.3329167653
 31
0.0
  0
LINE
  5
17D4
330
218
100
AcDbEntity
  8
0
  6
Continuous
 62
     7
100
AcDbLine
 10
62.3485610192
 20
68.2712613452
 30
0.0
 11
62.55327654630001
 21
68.3149676874
 31
0.0
  0
LINE
  5
17D5
330
218
100
AcDbEntity
  8
0
  6
Continuous
 62
     7
100
AcDbLine
 10
62.1077395274
 20
68.2209557796
 30
0.0
 11
62.3485610192
 21
68.2712613452
 31
0.0
  0
LINE
  5
17D6
330
218
100
AcDbEntity
  8
0
  6
Continuous
 62
     7
100
AcDbLine
 10
61.8708459304
 20
68.1725695306
 30
0.0
 11
62.1077395274
 21
68.2209557796
 31
0.0
  0
LINE
  5
17D7
330
218
100
AcDbEntity
  8
0
  6
Continuous
 62
     7
100
AcDbLine
 10
61.6381530594
 20
68.1261248822
 30
0.0
 11
61.8708459304
 21
68.1725695306
 31
0.0
  0
LINE
  5
17D8
330
218
100
AcDbEntity
  8
0
  6
Continuous
 62
     7
100
AcDbLine
 10
61.38930609159999
 20
68.0776241562
 30
0.0
 11
61.6381530594
 21
68.1261248822
 31
0.0
  0
LINE
  5
17D9
330
218
100
AcDbEntity
  8
0
  6
Continuous
 62
     7
100
AcDbLine
 10
61.1536262763
 20
68.0327903034
 30
0.0
 11
61.38930609159999
 21
68.0776241562
 31
0.0
  0
LINE
  5
17DA
330
218
100
AcDbEntity
  8
0
  6
Continuous
 62
     7
100
AcDbLine
 10
60.9023510415
 20
67.9861845314
 30
0.0
 11
61.1536262763
 21
68.0327903034
 31
0.0
  0
LINE
  5
17DC
330
218
100
AcDbEntity
  8
0
  6
Continuous
 62
     7
100
AcDbLine
 10
60.633487955
 20
67.9376757026
 30
0.0
 11
60.9023510415
 21
67.9861845314
 31
0.0
  0
LINE
  5
17DD
330
218
100
AcDbEntity
  8
0
  6
Continuous
 62
     7
100
AcDbLine
 10
60.39867551010001
 20
67.89644925000001
 30
0.0
 11
60.633487955
 21
67.9376757026
 31
0.0
  0
LINE
  5
17DF
330
218
100
AcDbEntity
  8
0
  6
Continuous
 62
     7
100
AcDbLine
 10
60.1710317825
 20
67.8574863921
 30
0.0
 11
60.39867551010001
 21
67.89644925000001
 31
0.0
  0
LINE
  5
17E0
330
218
100
AcDbEntity
  8
0
  6
Continuous
 62
     7
100
AcDbLine
 10
59.97105304899999
 20
67.8240685739
 30
0.0
 11
60.1710317825
 21
67.8574863921
 31
0.0
  0
LINE
  5
17E1
330
218
100
AcDbEntity
  8
0
  6
Continuous
 62
     7
100
AcDbLine
 10
59.8228326089
 20
67.79978540720001
 30
0.0
 11
59.97105304899999
 21
67.8240685739
 31
0.0
  0
LINE
  5
17E3
330
218
100
AcDbEntity
  8
0
  6
Continuous
 62
     7
100
AcDbLine
 10
59.6633108938
 20
67.77410988859999
 30
0.0
 11
59.8228326089
 21
67.79978540720001
 31
0.0
  0
LINE
  5
17E4
330
218
100
AcDbEntity
  8
0
  6
Continuous
 62
     7
100
AcDbLine
 10
59.4915162919
 20
67.7469887373
 30
0.0
 11
59.6633108938
 21
67.77410988859999
 31
0.0
  0
LINE
  5
17E5
330
218
100
AcDbEntity
  8
0
  6
Continuous
 62
     7
100
AcDbLine
 10
59.3050973728
 20
67.7181770924
 30
0.0
 11
59.4915162919
 21
67.7469887373
 31
0.0
  0
LWPOLYLINE
  5
17EE
330
218
100
AcDbEntity
  8
0
  6
Continuous
 62
     7
100
AcDbPolyline
 90
       37
 70
     0
 43
0.0
 10
49.9963859455
 20
67.0279133409
 10
50.5357458229
 20
67.03019024079999
 10
51.0473645692
 20
67.03654515060001
 10
51.53027642499999
 20
67.0463016755
 10
51.98726159979999
 20
67.0588957274
 10
52.42033821239999
 20
67.07384972949999
 10
52.8308786774
 20
67.09074293399999
 10
53.22053378729999
 20
67.1092259003
 10
53.59051453180001
 20
67.1289877453
 10
53.94228434489999
 20
67.14977688720001
 10
54.2767515275
 20
67.1713541862
 10
54.5950503295
 20
67.19352896069999
 10
54.8979729981
 20
67.2161207548
 10
55.1863683739
 20
67.23897972919999
 10
55.46120141390001
 20
67.26199560489999
 10
55.7235884635
 20
67.28509763259999
 10
55.97392028579999
 20
67.30817303329999
 10
56.2127030863
 20
67.3311419084
 10
56.4407085774
 20
67.3539650718
 10
56.65880940880001
 20
67.3766264078
 10
56.86720696640001
 20
67.39904893390001
 10
57.0662065921
 20
67.42116327020001
 10
57.2563679414
 20
67.4429402576
 10
57.43821487409999
 20
67.46435631939999
 10
57.61215640949999
 20
67.4853842121
 10
57.778686335
 20
67.50601505189999
 10
57.93807050739999
 20
67.52621922439999
 10
58.09066029770001
 20
67.54598361810001
 10
58.2366900767
 20
67.5652856522
 10
58.3763702264
 20
67.5841039539
 10
58.5101215067
 20
67.60245060449999
 10
58.6383252303
 20
67.6203380639
 10
58.761306583
 20
67.63777553439999
 10
58.8795358887
 20
67.6547974355
 10
58.9929560593
 20
67.6713657455
 10
59.1016257911
 20
67.68746022800001
 10
59.3050973728
 20
67.7181770924
  0
LWPOLYLINE
  5
17F5
330
218
100
AcDbEntity
  8
0
  6
Continuous
 62
     7
100
AcDbPolyline
 90
       35
 70
     0
 43
0.0
 10
41.0076707834
 20
67.67021074829999
 10
41.12098324869999
 20
67.6536742667
 10
41.23908352459999
 20
67.63668740359999
 10
41.36191231539999
 20
67.6192883085
 10
41.4899579462
 20
67.60143993459999
 10
41.6235648557
 20
67.5831304207
 10
41.7631084942
 20
67.56434818439998
 10
41.9090171228
 20
67.54508024399999
 10
42.0614802988
 20
67.52535075139999
 10
42.22070885599999
 20
67.505185173
 10
42.38706966889999
 20
67.4845944595
 10
42.5608337738
 20
67.46360745189999
 10
42.7425024393
 20
67.4422320706
 10
42.93250164199999
 20
67.4204935999
 10
43.1313320558
 20
67.3984183056
 10
43.3395286029
 20
67.3760378679
 10
43.5574180833
 20
67.35341895229999
 10
43.7852199375
 20
67.33063640880001
 10
44.0237923873
 20
67.3077077205
 10
44.27389504699999
 20
67.2846730233
 10
44.5360451247
 20
67.26161120970001
 10
44.81064499619999
 20
67.2386339697
 10
45.0987971545
 20
67.2158131101
 10
45.4014525505
 20
67.1932597576
 10
45.7194720974
 20
67.17112248859999
 10
46.05365749279999
 20
67.14958083339999
 10
46.4051368681
 20
67.1288256178
 10
46.7748166976
 20
67.10909573569999
 10
47.1641569896
 20
67.09064252659999
 10
47.5743635502
 20
67.07377656680001
 10
48.0070906388
 20
67.0588465406
 10
48.46371528409999
 20
67.0462724349
 10
48.9462470587
 20
67.0365313611
 10
49.45745829319999
 20
67.0301865926
 10
49.9963859455
 20
67.0279133409
  0
LINE
  5
17F6
330
218
100
AcDbEntity
  8
0
  6
Continuous
 62
     7
100
AcDbLine
 10
40.7950997426
 20
67.70186505739999
 30
0.0
 11
41.0076707834
 21
67.67021074829999
 31
0.0
  0
LINE
  5
17F7
330
218
100
AcDbEntity
  8
0
  6
Continuous
 62
     7
100
AcDbLine
 10
40.60067006239999
 20
67.73154404999999
 30
0.0
 11
40.7950997426
 21
67.70186505739999
 31
0.0
  0
LINE
  5
17F8
330
218
100
AcDbEntity
  8
0
  6
Continuous
 62
     7
100
AcDbLine
 10
40.4221307484
 20
67.7594120776
 30
0.0
 11
40.60067006239999
 21
67.73154404999999
 31
0.0
  0
LINE
  5
17F9
330
218
100
AcDbEntity
  8
0
  6
Continuous
 62
     7
100
AcDbLine
 10
40.2570922207
 20
67.78569902380001
 30
0.0
 11
40.4221307484
 21
67.7594120776
 31
0.0
  0
LINE
  5
17FC
330
218
100
AcDbEntity
  8
0
  6
Continuous
 62
     7
100
AcDbLine
 10
40.0307608203
 20
67.82257540519999
 30
0.0
 11
40.2570922207
 21
67.78569902380001
 31
0.0
  0
LINE
  5
17FD
330
218
100
AcDbEntity
  8
0
  6
Continuous
 62
     7
100
AcDbLine
 10
39.83082544
 20
67.8559517897
 30
0.0
 11
40.0307608203
 21
67.82257540519999
 31
0.0
  0
LINE
  5
17FE
330
218
100
AcDbEntity
  8
0
  6
Continuous
 62
     7
100
AcDbLine
 10
39.5526106079
 20
67.9036561796
 30
0.0
 11
39.83082544
 21
67.8559517897
 31
0.0
  0
LINE
  5
17FF
330
218
100
AcDbEntity
  8
0
  6
Continuous
 62
     7
100
AcDbLine
 10
39.28729091010001
 20
67.9505278387
 30
0.0
 11
39.5526106079
 21
67.9036561796
 31
0.0
  0
LINE
  5
1800
330
218
100
AcDbEntity
  8
0
  6
Continuous
 62
     7
100
AcDbLine
 10
39.0310807466
 20
67.9970796355
 30
0.0
 11
39.28729091010001
 21
67.9505278387
 31
0.0
  0
LINE
  5
1801
330
218
100
AcDbEntity
  8
0
  6
Continuous
 62
     7
100
AcDbLine
 10
38.7833868273
 20
68.04329968000001
 30
0.0
 11
39.0310807466
 21
67.9970796355
 31
0.0
  0
LINE
  5
1802
330
218
100
AcDbEntity
  8
0
  6
Continuous
 62
     7
100
AcDbLine
 10
38.5275840132
 20
68.09228735579999
 30
0.0
 11
38.7833868273
 21
68.04329968000001
 31
0.0
  0
LINE
  5
1803
330
218
100
AcDbEntity
  8
0
  6
Continuous
 62
     7
100
AcDbLine
 10
38.2781801373
 20
68.14126408159999
 30
0.0
 11
38.5275840132
 21
68.09228735579999
 31
0.0
  0
LINE
  5
1804
330
218
100
AcDbEntity
  8
0
  6
Continuous
 62
     7
100
AcDbLine
 10
38.0488084157
 20
68.18738530579999
 30
0.0
 11
38.2781801373
 21
68.14126408159999
 31
0.0
  0
LINE
  5
1805
330
218
100
AcDbEntity
  8
0
  6
Continuous
 62
     7
100
AcDbLine
 10
37.80781188800001
 20
68.2369655105
 30
0.0
 11
38.0488084157
 21
68.18738530579999
 31
0.0
  0
LINE
  5
1806
330
218
100
AcDbEntity
  8
0
  6
Continuous
 62
     7
100
AcDbLine
 10
37.5651236236
 20
68.2880271742
 30
0.0
 11
37.80781188800001
 21
68.2369655105
 31
0.0
  0
LINE
  5
1807
330
218
100
AcDbEntity
  8
0
  6
Continuous
 62
     7
100
AcDbLine
 10
37.3971583671
 20
68.3241486208
 30
0.0
 11
37.5651236236
 21
68.2880271742
 31
0.0
  0
LINE
  5
1808
330
218
100
AcDbEntity
  8
0
  6
Continuous
 62
     7
100
AcDbLine
 10
37.3367939859
 20
68.3374453534
 30
0.0
 11
37.3971583671
 21
68.3241486208
 31
0.0
  0
LINE
  5
1809
330
218
100
AcDbEntity
  8
0
  6
Continuous
 62
     7
100
AcDbLine
 10
37.2843208149
 20
68.3492761435
 30
0.0
 11
37.3367939859
 21
68.3374453534
 31
0.0
  0
LINE
  5
180A
330
218
100
AcDbEntity
  8
0
  6
Continuous
 62
     7
100
AcDbLine
 10
37.2446545222
 20
68.358425905
 30
0.0
 11
37.2843208149
 21
68.3492761435
 31
0.0
  0
LINE
  5
180B
330
218
100
AcDbEntity
  8
0
  6
Continuous
 62
     7
100
AcDbLine
 10
37.2040381345
 20
68.3680071875
 30
0.0
 11
37.2446545222
 21
68.358425905
 31
0.0
  0
LINE
  5
180C
330
218
100
AcDbEntity
  8
0
  6
Continuous
 62
     7
100
AcDbLine
 10
37.1538246095
 20
68.3801122712
 30
0.0
 11
37.2040381345
 21
68.3680071875
 31
0.0
  0
LINE
  5
180D
330
218
100
AcDbEntity
  8
0
  6
Continuous
 62
     7
100
AcDbLine
 10
37.10322614840001
 20
68.3925747285
 30
0.0
 11
37.1538246095
 21
68.3801122712
 31
0.0
  0
LINE
  5
180E
330
218
100
AcDbEntity
  8
0
  6
Continuous
 62
     7
100
AcDbLine
 10
37.0519231469
 20
68.4054797313
 30
0.0
 11
37.10322614840001
 21
68.3925747285
 31
0.0
  0
LINE
  5
180F
330
218
100
AcDbEntity
  8
0
  6
Continuous
 62
     7
100
AcDbLine
 10
37.0066489177
 20
68.4170912484
 30
0.0
 11
37.0519231469
 21
68.4054797313
 31
0.0
  0
LINE
  5
1810
330
218
100
AcDbEntity
  8
0
  6
Continuous
 62
     7
100
AcDbLine
 10
36.9541555895
 20
68.43081364869999
 30
0.0
 11
37.0066489177
 21
68.4170912484
 31
0.0
  0
LINE
  5
1811
330
218
100
AcDbEntity
  8
0
  6
Continuous
 62
     7
100
AcDbLine
 10
36.8920111486
 20
68.4474155124
 30
0.0
 11
36.9541555895
 21
68.43081364869999
 31
0.0
  0
LINE
  5
1812
330
218
100
AcDbEntity
  8
0
  6
Continuous
 62
     7
100
AcDbLine
 10
36.844199446
 20
68.46044850600001
 30
0.0
 11
36.8920111486
 21
68.4474155124
 31
0.0
  0
LINE
  5
1813
330
218
100
AcDbEntity
  8
0
  6
Continuous
 62
     7
100
AcDbLine
 10
36.790830422
 20
68.475263113
 30
0.0
 11
36.844199446
 21
68.46044850600001
 31
0.0
  0
LINE
  5
1814
330
218
100
AcDbEntity
  8
0
  6
Continuous
 62
     7
100
AcDbLine
 10
36.7313733314
 20
68.492105326
 30
0.0
 11
36.790830422
 21
68.475263113
 31
0.0
  0
LINE
  5
1815
330
218
100
AcDbEntity
  8
0
  6
Continuous
 62
     7
100
AcDbLine
 10
36.6649508967
 20
68.5113491825
 30
0.0
 11
36.7313733314
 21
68.492105326
 31
0.0
  0
LINE
  5
1816
330
218
100
AcDbEntity
  8
0
  6
Continuous
 62
     7
100
AcDbLine
 10
36.5905423311
 20
68.533450026
 30
0.0
 11
36.6649508967
 21
68.5113491825
 31
0.0
  0
LWPOLYLINE
  5
1821
330
218
100
AcDbEntity
  8
0
  6
Continuous
 62
     7
100
AcDbPolyline
 90
       17
 70
     0
 43
0.0
 10
52.0072949172
 20
91.5737257962
 10
52.0154185195
 20
91.5814927191
 10
52.0233521708
 20
91.58916840149998
 10
52.03074545869999
 20
91.5964238033
 10
52.0378561327
 20
91.60352053950001
 10
52.0443716209
 20
91.6101544037
 10
52.0505280515
 20
91.61657272440001
 10
52.0562651157
 20
91.62272454040001
 10
52.0615898506
 20
91.62861904679999
 10
52.0668152506
 20
91.63461829259999
 10
52.07173099689999
 20
91.64050645309998
 10
52.0764075033
 20
91.6463921501
 10
52.0808106493
 20
91.65226236139998
 10
52.0849325248
 20
91.65812541820001
 10
52.08911076879999
 20
91.66451404629999
 10
52.09347880460001
 20
91.67174036620002
 10
52.09794548529999
 20
91.67958713979999
  0
LINE
  5
1822
330
218
100
AcDbEntity
  8
0
  6
Continuous
 62
     7
100
AcDbLine
 10
51.9918809268
 20
91.55918420620002
 30
0.0
 11
52.0072949172
 21
91.5737257962
 31
0.0
  0
LINE
  5
1823
330
218
100
AcDbEntity
  8
0
  6
Continuous
 62
     7
100
AcDbLine
 10
51.9767472324
 20
91.54509141910001
 30
0.0
 11
51.9918809268
 21
91.55918420620002
 31
0.0
  0
LINE
  5
1824
330
218
100
AcDbEntity
  8
0
  6
Continuous
 62
     7
100
AcDbLine
 10
51.95116351020001
 20
91.52154742959998
 30
0.0
 11
51.9767472324
 21
91.54509141910001
 31
0.0
  0
LINE
  5
1825
330
218
100
AcDbEntity
  8
0
  6
Continuous
 62
     7
100
AcDbLine
 10
51.9084713022
 20
91.48272139139999
 30
0.0
 11
51.95116351020001
 21
91.52154742959998
 31
0.0
  0
LINE
  5
187B
330
218
100
AcDbEntity
  8
0
  6
Continuous
 62
     7
100
AcDbLine
 10
52.5372540072
 20
91.33158190260001
 30
0.0
 11
52.5146040245
 21
91.2913252533
 31
0.0
  0
LINE
  5
187C
330
218
100
AcDbEntity
  8
0
  6
Continuous
 62
     7
100
AcDbLine
 10
52.7249786209
 20
91.6652043028
 30
0.0
 11
52.5372540072
 21
91.33158190260001
 31
0.0
  0
LINE
  5
187D
330
218
100
AcDbEntity
  8
0
  6
Continuous
 62
     7
100
AcDbLine
 10
52.5146040245
 20
91.2913252533
 30
0.0
 11
52.4893397182
 21
91.24637956049999
 31
0.0
  0
LWPOLYLINE
  5
187E
330
218
100
AcDbEntity
  8
0
  6
Continuous
 62
     7
100
AcDbPolyline
 90
       74
 70
     0
 43
0.0
 10
52.4893397182
 20
91.24637956049999
 10
52.4881899793
 20
91.2443553626
 10
52.4870238238
 20
91.2423366842
 10
52.4858292212
 20
91.240324879
 10
52.4845977684
 20
91.23832937160001
 10
52.4833210752
 20
91.2363411729
 10
52.4819927788
 20
91.23436095370001
 10
52.4805984366
 20
91.23236915819999
 10
52.4791306138
 20
91.23035384479999
 10
52.4775619997
 20
91.2282928393
 10
52.4758778604
 20
91.2261695998
 10
52.4740331802
 20
91.22395528190001
 10
52.47199464689999
 20
91.22162390339999
 10
52.4697127051
 20
91.2191503208
 10
52.4671414408
 20
91.21650334719999
 10
52.4642370556
 20
91.21367510579998
 10
52.4609417007
 20
91.2106384033
 10
52.4572521531
 20
91.20741996219999
 10
52.4531188885
 20
91.20401288249999
 10
52.4486232721
 20
91.20049080040001
 10
52.4438148141
 20
91.1969157465
 10
52.4387389658
 20
91.19331564920001
 10
52.4334687399
 20
91.18974735469999
 10
52.4279703096
 20
91.1861861676
 10
52.4222515176
 20
91.18263462659999
 10
52.4162604701
 20
91.17906785790001
 10
52.4099790019
 20
91.17547471629999
 10
52.4033143036
 20
91.1718164974
 10
52.39620347399999
 20
91.16806118440001
 10
52.388539771
 20
91.16417744500001
 10
52.3802389896
 20
91.1601318091
 10
52.3711722503
 20
91.15589847009999
 10
52.36121484239999
 20
91.15143955569999
 10
52.3502723073
 20
91.1467574683
 10
52.3382366197
 20
91.14183909620001
 10
52.3250259805
 20
91.13669269559999
 10
52.31058212729999
 20
91.13132633559999
 10
52.2947285774
 20
91.125726957
 10
52.2773413254
 20
91.11989004479999
 10
52.258208383
 20
91.113797154
 10
52.2371572203
 20
91.1074296165
 10
52.21395090489999
 20
91.10078221100001
 10
52.18841182350001
 20
91.0938484593
 10
52.1601963298
 20
91.0866114292
 10
52.129090658
 20
91.07905463809998
 10
52.0945377546
 20
91.0711669488
 10
52.05603952479999
 20
91.0629174854
 10
52.01322140600001
 20
91.05434293040001
 10
51.96535972199999
 20
91.04540339709998
 10
51.9130179419
 20
91.03628995299999
 10
51.8561985582
 20
91.02712547709998
 10
51.7958433876
 20
91.01807322499999
 10
51.7329092363
 20
91.00935032059998
 10
51.6673128593
 20
91.0009251479
 10
51.5992233657
 20
90.9928337662
 10
51.52882767979999
 20
90.9850914491
 10
51.45632034710001
 20
90.97772293469999
 10
51.3818357363
 20
90.97073782889999
 10
51.30557517999999
 20
90.96415631780001
 10
51.2275224908
 20
90.95797330299999
 10
51.1477294664
 20
90.95219017780001
 10
51.06618840350001
 20
90.94680775319998
 10
50.9829220756
 20
90.9418270976
 10
50.8978863991
 20
90.937248401
 10
50.81092115619999
 20
90.9330660764
 10
50.72239356909999
 20
90.92929737530001
 10
50.6324530306
 20
90.9259558197
 10
50.541583012
 20
90.92305197059999
 10
50.4502153796
 20
90.920605239
 10
50.358644645
 20
90.91861199600002
 10
50.2672300149
 20
90.91708022379998
 10
50.17620523819999
 20
90.9160026061
 10
50.0859756642
 20
90.9153754503
 10
49.9963859455
 20
90.9152024687
  0
LWPOLYLINE
  5
1883
330
218
100
AcDbEntity
  8
0
  6
Continuous
 62
     7
100
AcDbPolyline
 90
       41
 70
     0
 43
0.0
 10
48.19135394819999
 20
84.5766895651
 10
48.19400441109999
 20
84.50677841660001
 10
48.1993582155
 20
84.43700456090001
 10
48.20740996979999
 20
84.3674680732
 10
48.218148268
 20
84.29828613949998
 10
48.23155559439999
 20
84.22957532119999
 10
48.2476127673
 20
84.16143391970001
 10
48.2662961085
 20
84.09396384929999
 10
48.2875779893
 20
84.027265963
 10
48.31142713
 20
83.9614395789
 10
48.3378076717
 20
83.8965845359
 10
48.3666799296
 20
83.8327989831
 10
48.3980007197
 20
83.7701784751
 10
48.4317233324
 20
83.7088167151
 10
48.46779649640001
 20
83.64880690280001
 10
48.5061659234
 20
83.5902391896
 10
48.5467720571
 20
83.53320374449999
 10
48.589548767
 20
83.47779178139999
 10
48.63443969609999
 20
83.42407504189999
 10
48.6814062408
 20
83.37210323939999
 10
48.73031608649999
 20
83.32202319470001
 10
48.7809797052
 20
83.2740074368
 10
48.8334740003
 20
83.22797261599999
 10
48.8878932423
 20
83.18385921069999
 10
48.94405573010001
 20
83.14183814379999
 10
49.0018213108
 20
83.10202253079999
 10
49.0611095654
 20
83.0644706112
 10
49.12181446159999
 20
83.02925144200001
 10
49.1838509349
 20
82.9964153793
 10
49.24712625399999
 20
82.9660130046
 10
49.3115449072
 20
82.93809169880001
 10
49.3770104029
 20
82.91269477410001
 10
49.4434219229
 20
82.88986267989999
 10
49.5106767616
 20
82.86963178870001
 10
49.57867445739999
 20
82.852033209
 10
49.6473132564
 20
82.83709436589999
 10
49.7164871941
 20
82.8248392264
 10
49.786091192
 20
82.81528723920001
 10
49.85601534939999
 20
82.8084539185
 10
49.9261486331
 20
82.80435010700001
 10
49.9963859455
 20
82.8029814942
  0
LWPOLYLINE
  5
1884
330
218
100
AcDbEntity
  8
0
  6
Continuous
 62
     7
100
AcDbPolyline
 90
       41
 70
     0
 43
0.0
 10
48.0232446767
 20
84.57353537279999
 10
48.0260225527
 20
84.497122022
 10
48.0317740641
 20
84.42085103009999
 10
48.0404856854
 20
84.34483313840001
 10
48.0521466283
 20
84.26919719359998
 10
48.066738437
 20
84.19407229689999
 10
48.0842394795
 20
84.11956716430001
 10
48.104623642
 20
84.04579471399999
 10
48.1278599499
 20
83.97286650099999
 10
48.15391438409999
 20
83.9008924484
 10
48.182746211
 20
83.82998253050001
 10
48.2143126217
 20
83.7602458953
 10
48.2485646724
 20
83.6917874357
 10
48.2854517195
 20
83.6247115741
 10
48.3249161306
 20
83.55912057140001
 10
48.3668986725
 20
83.4951148873
 10
48.41133277489999
 20
83.4327935794
 10
48.4581460984
 20
83.37225829439999
 10
48.50727536399999
 20
83.31358767279999
 10
48.558675243
 20
83.2568310883
 10
48.6122087152
 20
83.2021711994
 10
48.6676659429
 20
83.14978090930001
 10
48.72512240979999
 20
83.0995427108
 10
48.78468002209999
 20
83.0514207957
 10
48.846136993
 20
83.005583423
 10
48.90933728069999
 20
82.96216337529999
 10
48.97419371369999
 20
82.9212196725
 10
49.0405894557
 20
82.88282667209999
 10
49.10843191569999
 20
82.8470379298
 10
49.1776191271
 20
82.8139076885
 10
49.24804732680001
 20
82.78348612249999
 10
49.31961075
 20
82.7558196314
 10
49.3922000683
 20
82.73095053510001
 10
49.46570304319999
 20
82.70891810909999
 10
49.5400109132
 20
82.6897542062
 10
49.61501288
 20
82.6734888372
 10
49.6905942835
 20
82.66014621949999
 10
49.7666409037
 20
82.64974791230001
 10
49.84303409149999
 20
82.64230901560001
 10
49.9196568737
 20
82.63784248510001
 10
49.9963859455
 20
82.6363521
  0
LINE
  5
1885
330
218
100
AcDbEntity
  8
0
  6
Continuous
 62
     7
100
AcDbLine
 10
48.0232446767
 20
84.57353537279999
 30
0.0
 11
48.02307981310001
 21
84.58528822640001
 31
0.0
  0
LINE
  5
1886
330
218
100
AcDbEntity
  8
0
  6
Continuous
 62
     7
100
AcDbLine
 10
48.02307981310001
 20
84.58528822640001
 30
0.0
 11
48.0229848254
 21
84.5970351931
 31
0.0
  0
LINE
  5
1887
330
218
100
AcDbEntity
  8
0
  6
Continuous
 62
     7
100
AcDbLine
 10
48.0229848254
 20
84.5970351931
 30
0.0
 11
48.0229595564
 21
84.60877596539999
 31
0.0
  0
LINE
  5
1888
330
218
100
AcDbEntity
  8
0
  6
CENTER
 62
     7
100
AcDbLine
 10
49.9963859455
 20
59.38806303658563
 30
0.0
 11
49.9963859455
 21
96.89509031012956
 31
0.0
  0
LWPOLYLINE
  5
188B
330
218
100
AcDbEntity
  8
0
  6
Continuous
 62
     7
100
AcDbPolyline
 90
       41
 70
     0
 43
0.0
 10
48.191043728
 20
84.6089280047
 10
48.19238991119999
 20
84.67985896829999
 10
48.1965223838
 20
84.7506764835
 10
48.2034345752
 20
84.8212736408
 10
48.2131133513
 20
84.891533921
 10
48.2255401527
 20
84.9613403957
 10
48.2406944081
 20
85.03059211970001
 10
48.2585523042
 20
85.0991886677
 10
48.2790823627
 20
85.1670173677
 10
48.302249147
 20
85.2339704331
 10
48.32801245279999
 20
85.2999422737
 10
48.3563275782
 20
85.3648287851
 10
48.38714562759999
 20
85.42852986319999
 10
48.4204180661
 20
85.49095496479999
 10
48.45607436779999
 20
85.5519857194
 10
48.4940425718
 20
85.6115165123
 10
48.5342415271
 20
85.6694442851
 10
48.5764748343
 20
85.7255298341
 10
48.6209822365
 20
85.78010775760001
 10
48.66821719489999
 20
85.83363378079999
 10
48.717566921
 20
85.88531944240001
 10
48.7683585114
 20
85.9345205085
 10
48.82087041810001
 20
85.98158013610001
 10
48.8752631417
 20
86.02664349219999
 10
48.93133871789999
 20
86.06954487629998
 10
48.9889337467
 20
86.1101735383
 10
49.04807290669999
 20
86.14855566860001
 10
49.1087702512
 20
86.1846921833
 10
49.1709243789
 20
86.21850468959999
 10
49.23442346159999
 20
86.2499205743
 10
49.29930131959999
 20
86.2789309114
 10
49.3656130416
 20
86.30552102819999
 10
49.4331963806
 20
86.32957228669999
 10
49.5020121056
 20
86.3510246324
 10
49.5717061342
 20
86.36972575860001
 10
49.64192621489999
 20
86.3855745652
 10
49.712553244
 20
86.3985513501
 10
49.7833480428
 20
86.40862529360001
 10
49.8542974741
 20
86.41581643
 10
49.9253586883
 20
86.4201243067
 10
49.9963859455
 20
86.42156129139999
  0
LWPOLYLINE
  5
188C
330
218
100
AcDbEntity
  8
0
  6
Continuous
 62
     7
100
AcDbPolyline
 90
       41
 70
     0
 43
0.0
 10
48.0229595564
 20
84.60877596539999
 10
48.0245516463
 20
84.6863150785
 10
48.02917159069999
 20
84.7637175272
 10
48.036834998
 20
84.8408675816
 10
48.0475180466
 20
84.9176388633
 10
48.0612052134
 20
84.99390493459999
 10
48.0778705609
 20
85.06955416130001
 10
48.0974931421
 20
85.1444763802
 10
48.1200342345
 20
85.2185472034
 10
48.1454618892
 20
85.29164846129999
 10
48.17372506399999
 20
85.3636632927
 10
48.2047852877
 20
85.434475398
 10
48.23857842729999
 20
85.50397456909999
 10
48.27506603949999
 20
85.57205641139999
 10
48.3141560293
 20
85.63859128209999
 10
48.3557903702
 20
85.7034545627
 10
48.399858071
 20
85.76653337059999
 10
48.4461807149
 20
85.8275484179
 10
48.4949679564
 20
85.88687156739998
 10
48.54675685060001
 20
85.94501343290001
 10
48.6009007621
 20
86.000963391
 10
48.65662070169999
 20
86.0542007007
 10
48.7142052039
 20
86.1051136767
 10
48.7738378139
 20
86.1537484752
 10
48.8352888467
 20
86.19994484840001
 10
48.89838389779999
 20
86.24359777040002
 10
48.96313819180001
 20
86.28471152770002
 10
49.0295583549
 20
86.32330900799999
 10
49.0975488003
 20
86.35928357430001
 10
49.1669407551
 20
86.39259114540001
 10
49.2378219733
 20
86.42320692700002
 10
49.3101625576
 20
86.45115893249998
 10
49.38390100149999
 20
86.4763246428
 10
49.45884125500001
 20
86.4986825325
 10
49.5347766835
 20
86.51810496580001
 10
49.6111477178
 20
86.53450626600001
 10
49.6879918283
 20
86.5479164709
 10
49.7649243684
 20
86.5582917893
 10
49.8420397327
 20
86.5657098257
 10
49.9194672658
 20
86.57011435600001
 10
49.9963859455
 20
86.57162282469998
  0
LWPOLYLINE
  5
188D
330
218
100
AcDbEntity
  8
0
  6
Continuous
 62
     7
100
AcDbPolyline
 90
       29
 70
     0
 43
0.0
 10
48.8088859455
 20
91.46574218290002
 10
48.80891371729999
 20
91.4663966642
 10
48.8105187413
 20
91.47077595389999
 10
48.81459834680001
 20
91.4751805615
 10
48.8211466746
 20
91.4795958894
 10
48.830142175
 20
91.4840082887
 10
48.84157653789999
 20
91.48841326649998
 10
48.8554501285
 20
91.4928073191
 10
48.8717216072
 20
91.4971735261
 10
48.8903329659
 20
91.5014964667
 10
48.9112595385
 20
91.505769875
 10
48.9344766876
 20
91.50998720930001
 10
48.95991788789999
 20
91.5141341628
 10
48.9875045674
 20
91.51819742929999
 10
49.0171960033
 20
91.5221697782
 10
49.0489447024
 20
91.52604323700002
 10
49.08268390659999
 20
91.5298072673
 10
49.11834720579999
 20
91.5334523839
 10
49.1558642268
 20
91.53696879159999
 10
49.19517685899999
 20
91.540348466
 10
49.23616085889999
 20
91.54357809969999
 10
49.27871081100001
 20
91.54664761440001
 10
49.3226631743
 20
91.54954410649999
 10
49.3678549551
 20
91.5522568823
 10
49.4141211971
 20
91.55477722049999
 10
49.46131084050001
 20
91.55709848749999
 10
49.5091816528
 20
91.55921214520001
 10
49.5574591727
 20
91.56111083579999
 10
49.6060501144
 20
91.56279726200001
  0
LWPOLYLINE
  5
188E
330
218
100
AcDbEntity
  8
0
  6
Continuous
 62
     7
100
AcDbPolyline
 90
       24
 70
     0
 43
0.0
 10
51.1838859455
 20
91.46574230899998
 10
51.18298897279999
 20
91.46203459849999
 10
51.17962592
 20
91.45769439570001
 10
51.17377463109999
 20
91.4533984612
 10
51.16545806939999
 20
91.44916024229999
 10
51.1546889726
 20
91.44498279209999
 10
51.1414759102
 20
91.44087000829999
 10
51.12585454520001
 20
91.4368327895
 10
51.10787207739999
 20
91.43288160659999
 10
51.0875567517
 20
91.42902036850001
 10
51.0649376702
 20
91.42525364159999
 10
51.0400714267
 20
91.42158952049999
 10
51.01301927409999
 20
91.41803531790001
 10
50.98383683319999
 20
91.41459625709998
 10
50.9525917749
 20
91.41127829879998
 10
50.9193361768
 20
91.40808505
 10
50.8841204432
 20
91.40501989389999
 10
50.8470283821
 20
91.4020887999
 10
50.8081424471
 20
91.39929660709999
 10
50.7675474328
 20
91.39664787540001
 10
50.7253072158
 20
91.3941451282
 10
50.68159292359999
 20
91.39179692270001
 10
50.6365782949
 20
91.38960917450001
 10
50.5903820296
 20
91.38758451059999
  0
LINE
  5
18A8
330
218
100
AcDbEntity
  8
0
  6
CENTER
 62
     7
100
AcDbLine
 10
84.40154791318178
 20
78.1089280047
 30
0.0
 11
15.61220579711386
 21
78.1089280047
 31
0.0
  0
LWPOLYLINE
  5
18B0
330
218
100
AcDbEntity
  8
0
  6
Continuous
 62
     7
100
AcDbPolyline
 90
       41
 70
     0
 43
0.0
 10
51.9698123347
 20
84.60877596539999
 10
51.9682196577
 20
84.68632899640001
 10
51.96359797310001
 20
84.7637465384
 10
51.9559314748
 20
84.84091310169999
 10
51.9452439369
 20
84.91770127470001
 10
51.9315509936
 20
84.9939835294
 10
51.9148785612
 20
85.0696486668
 10
51.8952475731
 20
85.1445865658
 10
51.8726966973
 20
85.2186729091
 10
51.8472576693
 20
85.29178993
 10
51.8189818446
 20
85.36381975380001
 10
51.7879081431
 20
85.43464514670001
 10
51.7541006442
 20
85.5041562825
 10
51.7175980427
 20
85.5722483795
 10
51.6784918247
 20
85.6387931525
 10
51.63683882489999
 20
85.7036675876
 10
51.5927508875
 20
85.76675708459999
 10
51.5464087732
 20
85.8277789257
 10
51.4975978292
 20
85.88711208040001
 10
51.4457697287
 20
85.94527859999999
 10
51.3915860922
 20
86.00124713019999
 10
51.33584848229999
 20
86.05447886540002
 10
51.2782508402
 20
86.1053816777
 10
51.218591678
 20
86.15401665829999
 10
51.1571120453
 20
86.2002124227
 10
51.0939955849
 20
86.24385786259999
 10
51.0292215399
 20
86.2849619051
 10
50.9627803397
 20
86.3235492887
 10
50.8947667035
 20
86.359513639
 10
50.82534615020001
 20
86.39281215990001
 10
50.75443421430001
 20
86.42341774809999
 10
50.6820628935
 20
86.45135758989999
 10
50.60829718069999
 20
86.4765079714
 10
50.53334154899999
 20
86.4988455359
 10
50.45739404969999
 20
86.51824625859999
 10
50.3810075791
 20
86.53462611090001
 10
50.3041436225
 20
86.54801478479999
 10
50.2271342471
 20
86.5583722603
 10
50.15003237430001
 20
86.56576339610001
 10
50.07285842109999
 20
86.5701349525
 10
49.9963859455
 20
86.57162282469998
  0
LWPOLYLINE
  5
18B1
330
218
100
AcDbEntity
  8
0
  6
Continuous
 62
     7
100
AcDbPolyline
 90
       41
 70
     0
 43
0.0
 10
51.801728163
 20
84.6089280047
 10
51.80038145899999
 20
84.6798722527
 10
51.7962473626
 20
84.7507038434
 10
51.7893323297
 20
84.8213159892
 10
51.77964946140001
 20
84.8915915157
 10
51.7672173829
 20
84.9614128133
 10
51.7520566431
 20
85.0306791502
 10
51.7341910627
 20
85.0992900456
 10
51.7136520605
 20
85.1671329438
 10
51.6904748842
 20
85.23410045060002
 10
51.6647000226
 20
85.30008604009999
 10
51.63637258449999
 20
85.36498475090001
 10
51.6055414155
 20
85.4286968261
 10
51.5722553217
 20
85.4911313648
 10
51.5365842001
 20
85.5521712562
 10
51.4985989294
 20
85.61171242350001
 10
51.4583814952
 20
85.6696501457
 10
51.4161307072
 20
85.7257420059
 10
51.3716017201
 20
85.78032921370001
 10
51.3243305795
 20
85.83387801550001
 10
51.27494482399999
 20
85.8855816434
 10
51.2241372903
 20
85.9347777928
 10
51.171613158
 20
85.98182848559998
 10
51.11719601979999
 20
86.02689242089999
 10
51.0610943832
 20
86.0697937668
 10
51.0034797096
 20
86.1104160894
 10
50.9443222808
 20
86.14878986749999
 10
50.8836055242
 20
86.18491767260001
 10
50.8214299316
 20
86.2187214062
 10
50.75790426859999
 20
86.25012960499999
 10
50.692998076
 20
86.27913114770001
 10
50.6266576387
 20
86.305710567
 10
50.5590490786
 20
86.32974789059998
 10
50.4902189725
 20
86.3511813504
 10
50.4205133549
 20
86.36986207129998
 10
50.3502787953
 20
86.38569047819999
 10
50.2796332185
 20
86.39864664139999
 10
50.2087670894
 20
86.4087049893
 10
50.13783027489999
 20
86.415868467
 10
50.0670030016
 20
86.42014115429999
 10
49.9963859455
 20
86.42156129139999
  0
LWPOLYLINE
  5
18B2
330
218
100
AcDbEntity
  8
0
  6
Continuous
 62
     7
100
AcDbPolyline
 90
        5
 70
     0
 43
0.0
 10
51.96952721439999
 20
84.57353537279999
 10
51.96965740020001
 20
84.58235044650001
 10
51.96974829590001
 20
84.5911623798
 10
51.9697999308
 20
84.5999709578
 10
51.9698123347
 20
84.60877596539999
  0
LWPOLYLINE
  5
18C1
330
218
100
AcDbEntity
  8
0
  6
Continuous
 62
     7
100
AcDbPolyline
 90
       41
 70
     0
 43
0.0
 10
49.9963859455
 20
82.6363521
 10
50.0731101252
 20
82.63784229630001
 10
50.14972774890001
 20
82.6423082346
 10
50.2261154336
 20
82.64974609200001
 10
50.3021565509
 20
82.66014292199999
 10
50.37773283029999
 20
82.6734836894
 10
50.4527298513
 20
82.68974682060001
 10
50.5270328825
 20
82.70890808549999
 10
50.6005311262
 20
82.73093747009999
 10
50.67311581680001
 20
82.7558031138
 10
50.7446746697
 20
82.78346571150001
 10
50.8150981777
 20
82.81388284180001
 10
50.8842809959
 20
82.84700826719999
 10
50.9521195842
 20
82.88279194100001
 10
51.01851227880001
 20
82.92117984109999
 10
51.0833693705
 20
82.96212039930001
 10
51.1465663277
 20
83.00553432900001
 10
51.2079966743
 20
83.051346882
 10
51.26754544949999
 20
83.0994552643
 10
51.32505664199999
 20
83.1497361275
 10
51.3805792729
 20
83.2021870115
 10
51.4341573121
 20
83.25689543279999
 10
51.4855825122
 20
83.3136863996
 10
51.53470341689999
 20
83.37235483090001
 10
51.58149997899999
 20
83.4328755299
 10
51.6259279135
 20
83.49519482899999
 10
51.6679050422
 20
83.5591989913
 10
51.7073613809
 20
83.6247831901
 10
51.7442404699
 20
83.6918507887
 10
51.7784858241
 20
83.76030165640001
 10
51.8100467632
 20
83.8300316275
 10
51.83887485149999
 20
83.9009375929
 10
51.8649261212
 20
83.97290818890001
 10
51.8881590818
 20
84.0458311523
 10
51.9085402949
 20
84.1195980196
 10
51.9260390051
 20
84.1940981761
 10
51.9406289099
 20
84.26921813899999
 10
51.95228831459999
 20
84.3448488389
 10
51.96099881390001
 20
84.42086142390001
 10
51.9667496268
 20
84.4971271868
 10
51.96952721439999
 20
84.57353537279999
  0
LWPOLYLINE
  5
18C2
330
218
100
AcDbEntity
  8
0
  6
Continuous
 62
     7
100
AcDbPolyline
 90
       41
 70
     0
 43
0.0
 10
49.9963859455
 20
82.8029814942
 10
50.066618809
 20
82.8043499339
 10
50.13674738689999
 20
82.8084532041
 10
50.20666650369999
 20
82.8152855723
 10
50.2762654567
 20
82.8248362028
 10
50.3454347064
 20
82.8370896442
 10
50.41406898299999
 20
82.85202643419999
 10
50.4820622528
 20
82.8696225935
 10
50.54931276479999
 20
82.88985069449999
 10
50.61572005470001
 20
82.91267962170001
 10
50.6811813742
 20
82.93807297630001
 10
50.7455957418
 20
82.96599021590001
 10
50.80886704920001
 20
82.9963881761
 10
50.87089998939999
 20
83.0292195948
 10
50.9316021068
 20
83.06443409229999
 10
50.9908909678
 20
83.10198313089999
 10
51.0486535183
 20
83.1417931484
 10
51.1047917119
 20
83.1837914938
 10
51.1592028625
 20
83.22789248319999
 10
51.21174714359999
 20
83.2739663713
 10
51.26247054010001
 20
83.3220377099
 10
51.3114210805
 20
83.37216223829999
 10
51.3584107783
 20
83.42416546549999
 10
51.40329410119999
 20
83.47788014249999
 10
51.44605546810001
 20
83.53327877439999
 10
51.4866559627
 20
83.5903123745
 10
51.5250204528
 20
83.64887867829999
 10
51.561086246
 20
83.7088822551
 10
51.594801586
 20
83.7702364523
 10
51.62611625930001
 20
83.83285001089999
 10
51.6549835168
 20
83.8966294663
 10
51.6813606408
 20
83.96148089409999
 10
51.70520689359999
 20
84.0273041142
 10
51.72648571619999
 20
84.0939971987
 10
51.74516635909999
 20
84.16146216399999
 10
51.76122139770001
 20
84.22959901449999
 10
51.7746269816
 20
84.2983053204
 10
51.7853638701
 20
84.36748246129999
 10
51.79341459319999
 20
84.4370140962
 10
51.7987677518
 20
84.5067831593
 10
51.8014179429
 20
84.5766895651
  0
LWPOLYLINE
  5
18C5
330
218
100
AcDbEntity
  8
0
  6
Continuous
 62
     7
100
AcDbPolyline
 90
       74
 70
     0
 43
0.0
 10
47.5034321729
 20
91.24637956049999
 10
47.5045819118
 20
91.2443553626
 10
47.50574806729999
 20
91.2423366842
 10
47.5069426698
 20
91.240324879
 10
47.5081741227
 20
91.23832937160001
 10
47.5094508159
 20
91.2363411729
 10
47.5107791122
 20
91.23436095370001
 10
47.5121734545
 20
91.23236915819999
 10
47.5136412772
 20
91.23035384479999
 10
47.5152098914
 20
91.2282928393
 10
47.51689403069999
 20
91.2261695998
 10
47.5187387109
 20
91.22395528190001
 10
47.5207772442
 20
91.22162390339999
 10
47.523059186
 20
91.2191503208
 10
47.5256304503
 20
91.21650334719999
 10
47.5285348355
 20
91.21367510579998
 10
47.5318301904
 20
91.2106384033
 10
47.53551973789999
 20
91.20741996219999
 10
47.5396530025
 20
91.20401288249999
 10
47.54414861899999
 20
91.20049080040001
 10
47.548957077
 20
91.1969157465
 10
47.5540329253
 20
91.19331564920001
 10
47.55930315119999
 20
91.18974735469999
 10
47.5648015815
 20
91.1861861676
 10
47.5705203735
 20
91.18263462659999
 10
47.5765114209
 20
91.17906785790001
 10
47.58279288919999
 20
91.17547471629999
 10
47.5894575874
 20
91.1718164974
 10
47.5965684171
 20
91.16806118440001
 10
47.60423212
 20
91.16417744500001
 10
47.61253290149999
 20
91.1601318091
 10
47.6215996407
 20
91.15589847009999
 10
47.63155704869999
 20
91.15143955569999
 10
47.6424995838
 20
91.1467574683
 10
47.6545352714
 20
91.14183909620001
 10
47.6677459106
 20
91.13669269559999
 10
47.6821897638
 20
91.13132633559999
 10
47.69804331369999
 20
91.125726957
 10
47.7154305656
 20
91.11989004479999
 10
47.7345635081
 20
91.113797154
 10
47.7556146708
 20
91.1074296165
 10
47.7788209862
 20
91.10078221100001
 10
47.8043600675
 20
91.0938484593
 10
47.8325755613
 20
91.0866114292
 10
47.8636812331
 20
91.07905463809998
 10
47.89823413649999
 20
91.0711669488
 10
47.9367323663
 20
91.0629174854
 10
47.9795504851
 20
91.05434293040001
 10
48.0274121691
 20
91.04540339709998
 10
48.07975394909999
 20
91.03628995299999
 10
48.1365733328
 20
91.02712547709998
 10
48.1969285035
 20
91.01807322499999
 10
48.2598626548
 20
91.00935032059998
 10
48.3254590318
 20
91.0009251479
 10
48.3935485254
 20
90.9928337662
 10
48.4639442112
 20
90.9850914491
 10
48.53645154399999
 20
90.97772293469999
 10
48.61093615479999
 20
90.97073782889999
 10
48.6871967111
 20
90.96415631780001
 10
48.7652494003
 20
90.95797330299999
 10
48.84504242470001
 20
90.95219017780001
 10
48.92658348760001
 20
90.94680775319998
 10
49.0098498154
 20
90.9418270976
 10
49.09488549199999
 20
90.937248401
 10
49.1818507349
 20
90.9330660764
 10
49.27037832199999
 20
90.92929737530001
 10
49.3603188605
 20
90.9259558197
 10
49.4511888791
 20
90.92305197059999
 10
49.54255651149999
 20
90.920605239
 10
49.63412724600001
 20
90.91861199600002
 10
49.7255418762
 20
90.91708022379998
 10
49.8165666529
 20
90.9160026061
 10
49.9067962268
 20
90.9153754503
 10
49.9963859455
 20
90.9152024687
  0
LINE
  5
18C6
330
218
100
AcDbEntity
  8
0
  6
Continuous
 62
     7
100
AcDbLine
 10
47.2677932702
 20
91.6652043028
 30
0.0
 11
47.5034321729
 21
91.24637956049999
 31
0.0
  0
LINE
  5
18D4
330
218
100
AcDbEntity
  8
0
  6
Continuous
 62
     7
100
AcDbLine
 10
51.8014179409
 20
84.5766895651
 30
0.0
 11
51.96952721439999
 21
84.57353537279999
 31
0.0
  0
LINE
  5
18D8
330
218
100
AcDbEntity
  8
0
  6
Continuous
 62
     7
100
AcDbLine
 10
48.1297782763
 20
91.44168108329999
 30
0.0
 11
48.1162794195
 21
91.45380604799999
 31
0.0
  0
LINE
  5
18D9
330
218
100
AcDbEntity
  8
0
  6
Continuous
 62
     7
100
AcDbLine
 10
48.1162794195
 20
91.45380604799999
 30
0.0
 11
48.0577915526
 21
91.5067796742
 31
0.0
  0
LINE
  5
18DA
330
218
100
AcDbEntity
  8
0
  6
Continuous
 62
     7
100
AcDbLine
 10
48.0577915526
 20
91.5067796742
 30
0.0
 11
48.0329556335
 21
91.52947875349999
 31
0.0
  0
LINE
  5
18DB
330
218
100
AcDbEntity
  8
0
  6
Continuous
 62
     7
100
AcDbLine
 10
48.0329556335
 20
91.52947875349999
 30
0.0
 11
48.0160246587
 21
91.54509141910001
 31
0.0
  0
LINE
  5
18DC
330
218
100
AcDbEntity
  8
0
  6
Continuous
 62
     7
100
AcDbLine
 10
48.0160246587
 20
91.54509141910001
 30
0.0
 11
48.0008909643
 21
91.55918420620002
 31
0.0
  0
LWPOLYLINE
  5
18DD
330
218
100
AcDbEntity
  8
0
  6
Continuous
 62
     7
100
AcDbPolyline
 90
       18
 70
     0
 43
0.0
 10
48.0008909643
 20
91.55918420620002
 10
47.9854769739
 20
91.5737257962
 10
47.97735337159999
 20
91.5814927191
 10
47.96941972029999
 20
91.58916840149998
 10
47.9620264324
 20
91.5964238033
 10
47.95491575839999
 20
91.60352053950001
 10
47.9484002702
 20
91.6101544037
 10
47.9422438395
 20
91.61657272440001
 10
47.93650677539999
 20
91.62272454040001
 10
47.9311820404
 20
91.62861904679999
 10
47.9259566405
 20
91.63461829259999
 10
47.92104089419999
 20
91.64050645309998
 10
47.91636438779999
 20
91.6463921501
 10
47.91196124179999
 20
91.65226236139998
 10
47.9078393663
 20
91.65812541820001
 10
47.90366112229999
 20
91.66451404629999
 10
47.89929308649999
 20
91.67174036620002
 10
47.89482640569999
 20
91.67958713979999
  0
LWPOLYLINE
  5
1902
330
218
100
AcDbEntity
  8
0
  6
Continuous
 62
     7
100
AcDbPolyline
 90
       22
 70
     0
 43
0.0
 10
42.5758125353
 20
88.69851399719999
 10
42.4590409513
 20
88.68496257149999
 10
42.33638491399999
 20
88.670474437
 10
42.2072505917
 20
88.65493931180001
 10
42.0710586665
 20
88.6382412654
 10
41.9272344471
 20
88.62025662319998
 10
41.77517505399999
 20
88.60084913860001
 10
41.6134392677
 20
88.5797616257
 10
41.443974091
 20
88.55717188559999
 10
41.26651784959999
 20
88.5329717081
 10
41.0862533799
 20
88.50781418790001
 10
40.907717029
 20
88.4823245141
 10
40.7325627218
 20
88.4567599038
 10
40.5639008711
 20
88.43161839009999
 10
40.4018811752
 20
88.40697971739999
 10
40.2475253354
 20
88.38306036559998
 10
40.1013203372
 20
88.3600005685
 10
39.9645023391
 20
88.33806409790001
 10
39.8358411327
 20
88.31711884190001
 10
39.7147331551
 20
88.29712143790001
 10
39.6005390706
 20
88.2780143605
 10
39.3903752777
 20
88.2422084589
  0
LINE
  5
1905
330
218
100
AcDbEntity
  8
0
  6
Continuous
 62
     7
100
AcDbLine
 10
42.7940668114
 20
88.7232124053
 30
0.0
 11
42.5758125353
 21
88.69851399719999
 31
0.0
  0
LINE
  5
1906
330
218
100
AcDbEntity
  8
0
  6
Continuous
 62
     7
100
AcDbLine
 10
42.99434818109999
 20
88.74515712999999
 30
0.0
 11
42.7940668114
 21
88.7232124053
 31
0.0
  0
LINE
  5
1907
330
218
100
AcDbEntity
  8
0
  6
Continuous
 62
     7
100
AcDbLine
 10
43.1773866374
 20
88.7646124924
 30
0.0
 11
42.99434818109999
 21
88.74515712999999
 31
0.0
  0
LINE
  5
1908
330
218
100
AcDbEntity
  8
0
  6
Continuous
 62
     7
100
AcDbLine
 10
43.4208709227
 20
88.78960826209999
 30
0.0
 11
43.1773866374
 21
88.7646124924
 31
0.0
  0
LINE
  5
190B
330
218
100
AcDbEntity
  8
0
  6
Continuous
 62
     7
100
AcDbLine
 10
43.69220449
 20
88.81628027860001
 30
0.0
 11
43.4208709227
 21
88.78960826209999
 31
0.0
  0
LINE
  5
190D
330
218
100
AcDbEntity
  8
0
  6
Continuous
 62
     7
100
AcDbLine
 10
44.0008001384
 20
88.8451268628
 30
0.0
 11
43.69220449
 21
88.81628027860001
 31
0.0
  0
LINE
  5
190F
330
218
100
AcDbEntity
  8
0
  6
Continuous
 62
     7
100
AcDbLine
 10
44.2945795486
 20
88.87115099540002
 30
0.0
 11
44.0008001384
 21
88.8451268628
 31
0.0
  0
LINE
  5
1911
330
218
100
AcDbEntity
  8
0
  6
Continuous
 62
     7
100
AcDbLine
 10
44.6052769895
 20
88.89718336959999
 30
0.0
 11
44.2945795486
 21
88.87115099540002
 31
0.0
  0
LINE
  5
1913
330
218
100
AcDbEntity
  8
0
  6
Continuous
 62
     7
100
AcDbLine
 10
44.9053688709
 20
88.92088247229999
 30
0.0
 11
44.6052769895
 21
88.89718336959999
 31
0.0
  0
LINE
  5
1917
330
218
100
AcDbEntity
  8
0
  6
Continuous
 62
     7
100
AcDbLine
 10
45.21460199329999
 20
88.94380133410001
 30
0.0
 11
44.9053688709
 21
88.92088247229999
 31
0.0
  0
LINE
  5
191A
330
218
100
AcDbEntity
  8
0
  6
Continuous
 62
     7
100
AcDbLine
 10
45.51992809109999
 20
88.9649391134
 30
0.0
 11
45.21460199329999
 21
88.94380133410001
 31
0.0
  0
LINE
  5
191B
330
218
100
AcDbEntity
  8
0
  6
Continuous
 62
     7
100
AcDbLine
 10
45.8133392878
 20
88.9838584585
 30
0.0
 11
45.51992809109999
 21
88.9649391134
 31
0.0
  0
LINE
  5
191C
330
218
100
AcDbEntity
  8
0
  6
Continuous
 62
     7
100
AcDbLine
 10
46.0541473888
 20
88.99836736700001
 30
0.0
 11
45.8133392878
 21
88.9838584585
 31
0.0
  0
LINE
  5
191F
330
218
100
AcDbEntity
  8
0
  6
Continuous
 62
     7
100
AcDbLine
 10
46.26935179279999
 20
89.01055811399999
 30
0.0
 11
46.0541473888
 21
88.99836736700001
 31
0.0
  0
LINE
  5
1920
330
218
100
AcDbEntity
  8
0
  6
Continuous
 62
     7
100
AcDbLine
 10
46.4317064406
 20
89.01927150389999
 30
0.0
 11
46.26935179279999
 21
89.01055811399999
 31
0.0
  0
LINE
  5
1921
330
218
100
AcDbEntity
  8
0
  6
Continuous
 62
     7
100
AcDbLine
 10
46.609488086
 20
89.0283366705
 30
0.0
 11
46.4317064406
 21
89.01927150389999
 31
0.0
  0
LINE
  5
1922
330
218
100
AcDbEntity
  8
0
  6
Continuous
 62
     7
100
AcDbLine
 10
46.80403878009999
 20
89.0376876058
 30
0.0
 11
46.609488086
 21
89.0283366705
 31
0.0
  0
LWPOLYLINE
  5
1926
330
218
100
AcDbEntity
  8
0
  6
Continuous
 62
     7
100
AcDbPolyline
 90
       18
 70
     0
 43
0.0
 10
49.9963859455
 20
89.10939051259999
 10
49.7230576668
 20
89.10892725020001
 10
49.4639236195
 20
89.10753827059998
 10
49.2187863859
 20
89.1054149594
 10
48.9882066314
 20
89.1026688672
 10
48.7738028109
 20
89.09943950510001
 10
48.5722318634
 20
89.095807795
 10
48.3816843964
 20
89.09182357110001
 10
48.199186935
 20
89.0875064683
 10
48.0194862429
 20
89.08276501040001
 10
47.8476123892
 20
89.07777299200001
 10
47.687516815
 20
89.07271661219999
 10
47.5371871343
 20
89.0676112875
 10
47.39626893879999
 20
89.0625081653
 10
47.2637386768
 20
89.0574285569
 10
47.13850997489999
 20
89.05237757809999
 10
47.0204153758
 20
89.04739064739999
 10
46.80403878009999
 20
89.0376876058
  0
LWPOLYLINE
  5
1929
330
218
100
AcDbEntity
  8
0
  6
Continuous
 62
     7
100
AcDbPolyline
 90
       16
 70
     0
 43
0.0
 10
52.8500153359
 20
89.0525528552
 10
52.72464902439999
 20
89.0576009643
 10
52.5919808025
 20
89.06267668959999
 10
52.4509206584
 20
89.06777493459999
 10
52.3004169502
 20
89.0728751622
 10
52.1401885558
 20
89.0779236993
 10
51.96829370819999
 20
89.08290330799999
 10
51.7886636884
 20
89.08762946780001
 10
51.60637946819999
 20
89.0919283985
 10
51.4160452036
 20
89.09589529280001
 10
51.214446591
 20
89.09951443370001
 10
51.0001199314
 20
89.10272886260001
 10
50.7699768699
 20
89.1054564028
 10
50.5256676631
 20
89.10756045899999
 10
50.26788442189999
 20
89.1089331022
 10
49.9963859455
 20
89.10939051259999
  0
LINE
  5
192A
330
218
100
AcDbEntity
  8
0
  6
Continuous
 62
     7
100
AcDbLine
 10
53.0796234655
 20
89.04267197120001
 30
0.0
 11
52.8500153359
 21
89.0525528552
 31
0.0
  0
LINE
  5
192B
330
218
100
AcDbEntity
  8
0
  6
Continuous
 62
     7
100
AcDbLine
 10
53.2847193269
 20
89.03314834059999
 30
0.0
 11
53.0796234655
 21
89.04267197120001
 31
0.0
  0
LINE
  5
192C
330
218
100
AcDbEntity
  8
0
  6
Continuous
 62
     7
100
AcDbLine
 10
53.4707655188
 20
89.02393807370001
 30
0.0
 11
53.2847193269
 21
89.03314834059999
 31
0.0
  0
LINE
  5
192D
330
218
100
AcDbEntity
  8
0
  6
Continuous
 62
     7
100
AcDbLine
 10
53.72048051050001
 20
89.01071957259999
 30
0.0
 11
53.4707655188
 21
89.02393807370001
 31
0.0
  0
LINE
  5
192E
330
218
100
AcDbEntity
  8
0
  6
Continuous
 62
     7
100
AcDbLine
 10
53.9362287868
 20
88.99850710429999
 30
0.0
 11
53.72048051050001
 21
89.01071957259999
 31
0.0
  0
LINE
  5
192F
330
218
100
AcDbEntity
  8
0
  6
Continuous
 62
     7
100
AcDbLine
 10
54.2335131867
 20
88.9804738561
 30
0.0
 11
53.9362287868
 21
88.99850710429999
 31
0.0
  0
LINE
  5
1930
330
218
100
AcDbEntity
  8
0
  6
Continuous
 62
     7
100
AcDbLine
 10
54.5211206839
 20
88.9616954034
 30
0.0
 11
54.2335131867
 21
88.9804738561
 31
0.0
  0
LINE
  5
1933
330
218
100
AcDbEntity
  8
0
  6
Continuous
 62
     7
100
AcDbLine
 10
54.8089561525
 20
88.94158781239999
 30
0.0
 11
54.5211206839
 21
88.9616954034
 31
0.0
  0
LINE
  5
1936
330
218
100
AcDbEntity
  8
0
  6
Continuous
 62
     7
100
AcDbLine
 10
55.11145558089999
 20
88.91903591649999
 30
0.0
 11
54.8089561525
 21
88.94158781239999
 31
0.0
  0
LINE
  5
1938
330
218
100
AcDbEntity
  8
0
  6
Continuous
 62
     7
100
AcDbLine
 10
55.4084192918
 20
88.89547780950001
 30
0.0
 11
55.11145558089999
 21
88.91903591649999
 31
0.0
  0
LINE
  5
193A
330
218
100
AcDbEntity
  8
0
  6
Continuous
 62
     7
100
AcDbLine
 10
55.6895590773
 20
88.87189492030001
 30
0.0
 11
55.4084192918
 21
88.89547780950001
 31
0.0
  0
LINE
  5
193C
330
218
100
AcDbEntity
  8
0
  6
Continuous
 62
     7
100
AcDbLine
 10
55.9894057356
 20
88.84536018870001
 30
0.0
 11
55.6895590773
 21
88.87189492030001
 31
0.0
  0
LINE
  5
193D
330
218
100
AcDbEntity
  8
0
  6
Continuous
 62
     7
100
AcDbLine
 10
56.24842619909999
 20
88.82126453259999
 30
0.0
 11
55.9894057356
 21
88.84536018870001
 31
0.0
  0
LINE
  5
193E
330
218
100
AcDbEntity
  8
0
  6
Continuous
 62
     7
100
AcDbLine
 10
56.44421428729999
 20
88.8023141698
 30
0.0
 11
56.24842619909999
 21
88.82126453259999
 31
0.0
  0
LINE
  5
193F
330
218
100
AcDbEntity
  8
0
  6
Continuous
 62
     7
100
AcDbLine
 10
56.67371113539999
 20
88.7792791518
 30
0.0
 11
56.44421428729999
 21
88.8023141698
 31
0.0
  0
LINE
  5
1940
330
218
100
AcDbEntity
  8
0
  6
Continuous
 62
     7
100
AcDbLine
 10
56.8472169467
 20
88.76127013299999
 30
0.0
 11
56.67371113539999
 21
88.7792791518
 31
0.0
  0
LINE
  5
1941
330
218
100
AcDbEntity
  8
0
  6
Continuous
 62
     7
100
AcDbLine
 10
57.0381568075
 20
88.7408582345
 30
0.0
 11
56.8472169467
 21
88.76127013299999
 31
0.0
  0
LWPOLYLINE
  5
196C
330
218
100
AcDbEntity
  8
0
  6
Continuous
 62
     7
100
AcDbPolyline
 90
       73
 70
     0
 43
0.0
 10
63.5671600362
 20
68.5845231876
 10
63.6142035577
 20
68.5996260033
 10
63.6639127488
 20
68.6158445624
 10
63.7162369659
 20
68.63320576640001
 10
63.7699641213
 20
68.6513427304
 10
63.82389108409999
 20
68.66986547189999
 10
63.87797553729999
 20
68.6887641748
 10
63.9316208664
 20
68.7078297864
 10
63.98530115839999
 20
68.7272293998
 10
64.0391784559
 20
68.7470258347
 10
64.0935822446
 20
68.7673493895
 10
64.14877436340001
 20
68.78831253060001
 10
64.2051044289
 20
68.8100692572
 10
64.2628949692
 20
68.832772222
 10
64.32246870970001
 20
68.8565845743
 10
64.3841438243
 20
68.88167773959999
 10
64.44823160119999
 20
68.90823250770001
 10
64.5150446696
 20
68.9364422167
 10
64.584866166
 20
68.96650207659999
 10
64.6579821584
 20
68.9986226395
 10
64.73465810430001
 20
69.0330216655
 10
64.81515450359999
 20
69.0699313788
 10
64.8997242648
 20
69.10959972669999
 10
64.988622503
 20
69.15229601740001
 10
65.08204191379999
 20
69.19828315130001
 10
65.18044225149999
 20
69.2479835985
 10
65.28320278249999
 20
69.3012927937
 10
65.3895988591
 20
69.35803248149999
 10
65.5003886319
 20
69.41882124979999
 10
65.6157266201
 20
69.48399690560001
 10
65.7365639029
 20
69.55440260279999
 10
65.8636305525
 20
69.6308442345
 10
65.99748376149999
 20
69.7141171522
 10
66.1388437632
 20
69.80522442039999
 10
66.28761386859999
 20
69.90474289810001
 10
66.4436944082
 20
70.0133182877
 10
66.60747659720001
 20
70.13203440969999
 10
66.7794939157
 20
70.26225180069999
 10
66.9586829852
 20
70.4042453995
 10
67.14549193359999
 20
70.5595962101
 10
67.3355709335
 20
70.7258410373
 10
67.52611281570001
 20
70.90138115100001
 10
67.71391107399999
 20
71.0837839127
 10
67.89485152810001
 20
71.26906868489999
 10
68.0703767454
 20
71.45854234009999
 10
68.2405915202
 20
71.6522830957
 10
68.40533445840001
 20
71.85008660779999
 10
68.5645056755
 20
72.05180707229999
 10
68.7180519022
 20
72.25734240850001
 10
68.86589562970001
 20
72.46653504060001
 10
69.00802811670001
 20
72.6793392292
 10
69.1443984831
 20
72.8956530828
 10
69.27502798909999
 20
73.11550296680001
 10
69.3999546574
 20
73.3389848746
 10
69.5189986421
 20
73.56582773869999
 10
69.63202758989999
 20
73.7957391491
 10
69.7390801014
 20
74.0287882991
 10
69.84016147520001
 20
74.2650163515
 10
69.9351692211
 20
74.50424590539999
 10
70.02401515949999
 20
74.74628606350001
 10
70.1066834134
 20
74.9911885808
 10
70.1831555227
 20
75.23899189399999
 10
70.2533506381
 20
75.4895506676
 10
70.3172170858
 20
75.7428283097
 10
70.3746272474
 20
75.99852882659999
 10
70.4254801774
 20
76.25636102060001
 10
70.4697220213
 20
76.5162709234
 10
70.5072917481
 20
76.77818916300001
 10
70.5381156511
 20
77.04186832419999
 10
70.56214002439999
 20
77.30716755749999
 10
70.5792908031
 20
77.57367734729999
 10
70.58950680649999
 20
77.8409687189
 10
70.59279662919999
 20
78.1089280047
  0
LINE
  5
196D
330
218
100
AcDbEntity
  8
0
  6
Continuous
 62
     7
100
AcDbLine
 10
63.4824397859
 20
68.5579258706
 30
0.0
 11
63.5671600362
 21
68.5845231876
 31
0.0
  0
LINE
  5
196E
330
218
100
AcDbEntity
  8
0
  6
Continuous
 62
     7
100
AcDbLine
 10
63.4073543773
 20
68.5349935742
 30
0.0
 11
63.4824397859
 21
68.5579258706
 31
0.0
  0
LINE
  5
196F
330
218
100
AcDbEntity
  8
0
  6
Continuous
 62
     7
100
AcDbLine
 10
63.3403702446
 20
68.51503616869999
 30
0.0
 11
63.4073543773
 21
68.5349935742
 31
0.0
  0
LWPOLYLINE
  5
1970
330
218
100
AcDbEntity
  8
0
  6
Continuous
 62
     7
100
AcDbPolyline
 90
        3
 70
     0
 43
0.0
 10
63.2529306931
 20
68.4896846026
 10
63.28050410140001
 20
68.49759406699999
 10
63.3403702446
 20
68.51503616869999
  0
LINE
  5
1971
330
218
100
AcDbEntity
  8
0
  6
Continuous
 62
     7
100
AcDbLine
 10
36.8128095269
 20
87.7149220209
 30
0.0
 11
36.7542610506
 21
87.69847564299999
 31
0.0
  0
LINE
  5
1972
330
218
100
AcDbEntity
  8
0
  6
Continuous
 62
     7
100
AcDbLine
 10
36.86586346929999
 20
87.72952369069999
 30
0.0
 11
36.8128095269
 21
87.7149220209
 31
0.0
  0
LINE
  5
1973
330
218
100
AcDbEntity
  8
0
  6
Continuous
 62
     7
100
AcDbLine
 10
36.9360570332
 20
87.7484148725
 30
0.0
 11
36.86586346929999
 21
87.72952369069999
 31
0.0
  0
LINE
  5
1974
330
218
100
AcDbEntity
  8
0
  6
Continuous
 62
     7
100
AcDbLine
 10
36.99659915
 20
87.7643181802
 30
0.0
 11
36.9360570332
 21
87.7484148725
 31
0.0
  0
LINE
  5
1975
330
218
100
AcDbEntity
  8
0
  6
Continuous
 62
     7
100
AcDbLine
 10
37.0490592146
 20
87.7778025671
 30
0.0
 11
36.99659915
 21
87.7643181802
 31
0.0
  0
LINE
  5
1976
330
218
100
AcDbEntity
  8
0
  6
Continuous
 62
     7
100
AcDbLine
 10
37.1086728005
 20
87.79278852690001
 30
0.0
 11
37.0490592146
 21
87.7778025671
 31
0.0
  0
LINE
  5
1977
330
218
100
AcDbEntity
  8
0
  6
Continuous
 62
     7
100
AcDbLine
 10
37.1581340909
 20
87.8049473092
 30
0.0
 11
37.1086728005
 21
87.79278852690001
 31
0.0
  0
LINE
  5
1978
330
218
100
AcDbEntity
  8
0
  6
Continuous
 62
     7
100
AcDbLine
 10
37.2069328774
 20
87.8166963812
 30
0.0
 11
37.1581340909
 21
87.8049473092
 31
0.0
  0
LINE
  5
1979
330
218
100
AcDbEntity
  8
0
  6
Continuous
 62
     7
100
AcDbLine
 10
37.2533326418
 20
87.82763851690001
 30
0.0
 11
37.2069328774
 21
87.8166963812
 31
0.0
  0
LINE
  5
197A
330
218
100
AcDbEntity
  8
0
  6
Continuous
 62
     7
100
AcDbLine
 10
37.28990679400001
 20
87.8360838929
 30
0.0
 11
37.2533326418
 21
87.82763851690001
 31
0.0
  0
LINE
  5
197B
330
218
100
AcDbEntity
  8
0
  6
Continuous
 62
     7
100
AcDbLine
 10
37.3264070478
 20
87.84433097450001
 30
0.0
 11
37.28990679400001
 21
87.8360838929
 31
0.0
  0
LINE
  5
197C
330
218
100
AcDbEntity
  8
0
  6
Continuous
 62
     7
100
AcDbLine
 10
37.37035834989999
 20
87.8540499838
 30
0.0
 11
37.3264070478
 21
87.84433097450001
 31
0.0
  0
LINE
  5
197D
330
218
100
AcDbEntity
  8
0
  6
Continuous
 62
     7
100
AcDbLine
 10
37.4282800121
 20
87.8665617276
 30
0.0
 11
37.37035834989999
 21
87.8540499838
 31
0.0
  0
LINE
  5
197E
330
218
100
AcDbEntity
  8
0
  6
Continuous
 62
     7
100
AcDbLine
 10
37.5658478339
 20
87.8954958331
 30
0.0
 11
37.4282800121
 21
87.8665617276
 31
0.0
  0
LINE
  5
197F
330
218
100
AcDbEntity
  8
0
  6
Continuous
 62
     7
100
AcDbLine
 10
37.80041861
 20
87.943741821
 30
0.0
 11
37.5658478339
 21
87.8954958331
 31
0.0
  0
LINE
  5
1980
330
218
100
AcDbEntity
  8
0
  6
Continuous
 62
     7
100
AcDbLine
 10
38.0316996438
 20
87.9902515877
 30
0.0
 11
37.80041861
 21
87.943741821
 31
0.0
  0
LINE
  5
1981
330
218
100
AcDbEntity
  8
0
  6
Continuous
 62
     7
100
AcDbLine
 10
38.246412805
 20
88.03247865320001
 30
0.0
 11
38.0316996438
 21
87.9902515877
 31
0.0
  0
LINE
  5
1982
330
218
100
AcDbEntity
  8
0
  6
Continuous
 62
     7
100
AcDbLine
 10
38.4606919218
 20
88.0737003461
 30
0.0
 11
38.246412805
 21
88.03247865320001
 31
0.0
  0
LINE
  5
1983
330
218
100
AcDbEntity
  8
0
  6
Continuous
 62
     7
100
AcDbLine
 10
38.6501959485
 20
88.1094030294
 30
0.0
 11
38.4606919218
 21
88.0737003461
 31
0.0
  0
LINE
  5
1984
330
218
100
AcDbEntity
  8
0
  6
Continuous
 62
     7
100
AcDbLine
 10
38.866832847
 20
88.1493625463
 30
0.0
 11
38.6501959485
 21
88.1094030294
 31
0.0
  0
LINE
  5
1985
330
218
100
AcDbEntity
  8
0
  6
Continuous
 62
     7
100
AcDbLine
 10
39.0271323452
 20
88.1783472951
 30
0.0
 11
38.866832847
 21
88.1493625463
 31
0.0
  0
LINE
  5
1987
330
218
100
AcDbEntity
  8
0
  6
Continuous
 62
     7
100
AcDbLine
 10
39.2007516061
 20
88.2091846818
 30
0.0
 11
39.0271323452
 21
88.1783472951
 31
0.0
  0
LINE
  5
1988
330
218
100
AcDbEntity
  8
0
  6
Continuous
 62
     7
100
AcDbLine
 10
39.3903752777
 20
88.2422084589
 30
0.0
 11
39.2007516061
 21
88.2091846818
 31
0.0
  0
LWPOLYLINE
  5
198D
330
218
100
AcDbEntity
  8
0
  6
Continuous
 62
     7
100
AcDbPolyline
 90
        9
 70
     0
 43
0.0
 10
50.5921880506
 20
91.5121879149
 10
50.6383138033
 20
91.5142180353
 10
50.6832269527
 20
91.51640954280001
 10
50.72681479609999
 20
91.51875970669999
 10
50.76891870589999
 20
91.5212630491
 10
50.8093725342
 20
91.52391112309999
 10
50.8481411288
 20
91.52670333309998
 10
50.8851666243
 20
91.52963777889999
 10
50.8995140241
 20
91.530890308
  0
LWPOLYLINE
  5
198E
330
218
100
AcDbEntity
  8
0
  6
Continuous
 62
     7
100
AcDbPolyline
 90
       29
 70
     0
 43
0.0
 10
50.83295819069999
 20
91.3320280149
 10
50.897714474
 20
91.33436771079999
 10
50.9613717081
 20
91.33689292040001
 10
51.0233870108
 20
91.33958438729999
 10
51.0838502167
 20
91.34244581879999
 10
51.14271552619999
 20
91.34547732079999
 10
51.1997888473
 20
91.3486708343
 10
51.2549892595
 20
91.35202376509999
 10
51.30822189829999
 20
91.3555326674
 10
51.3595784151
 20
91.3592060174
 10
51.40883759859999
 20
91.3630314659
 10
51.4558564436
 20
91.366999741
 10
51.50068347
 20
91.3711163818
 10
51.5430551162
 20
91.3753600649
 10
51.5831242767
 20
91.37974680700001
 10
51.6208076219
 20
91.3842705404
 10
51.656073036
 20
91.3889324986
 10
51.6887356566
 20
91.3937103906
 10
51.7190010456
 20
91.39863802449999
 10
51.7466512113
 20
91.40368877049999
 10
51.7715795696
 20
91.40884465479999
 10
51.7938317492
 20
91.4141160876
 10
51.8130873185
 20
91.4194223468
 10
51.8297376317
 20
91.4248568196
 10
51.8435562068
 20
91.4303551363
 10
51.854589593
 20
91.43591294690001
 10
51.86299361479999
 20
91.44168108329999
 10
51.8697001756
 20
91.4476810768
 10
51.9084713022
 20
91.48272139139999
  0
LINE
  5
198F
330
218
100
AcDbEntity
  8
0
  6
Continuous
 62
     7
100
AcDbLine
 10
50.4968184229
 20
91.5086206632
 30
0.0
 11
50.5921880506
 21
91.5121879149
 31
0.0
  0
LINE
  5
1990
330
218
100
AcDbEntity
  8
0
  6
Continuous
 62
     7
100
AcDbLine
 10
50.5903820296
 20
91.38758451059999
 30
0.0
 11
50.49499899029999
 21
91.38403273180001
 31
0.0
  0
LINE
  5
1991
330
218
100
AcDbEntity
  8
0
  6
Continuous
 62
     7
100
AcDbLine
 10
50.7023145593
 20
91.32795241389999
 30
0.0
 11
50.83295819069999
 21
91.3320280149
 31
0.0
  0
LINE
  5
1992
330
218
100
AcDbEntity
  8
0
  6
Continuous
 62
     7
100
AcDbLine
 10
50.39880093109999
 20
91.5057368447
 30
0.0
 11
50.4968184229
 21
91.5086206632
 31
0.0
  0
LINE
  5
1993
330
218
100
AcDbEntity
  8
0
  6
Continuous
 62
     7
100
AcDbLine
 10
50.49499899029999
 20
91.38403273180001
 30
0.0
 11
50.3971475254
 21
91.3811675045
 31
0.0
  0
LINE
  5
1994
330
218
100
AcDbEntity
  8
0
  6
Continuous
 62
     7
100
AcDbLine
 10
49.6060501144
 20
91.56279726200001
 30
0.0
 11
49.703640843
 21
91.5655384305
 31
0.0
  0
LINE
  5
1995
330
218
100
AcDbEntity
  8
0
  6
Continuous
 62
     7
100
AcDbLine
 10
47.2677932702
 20
91.6652043028
 30
0.0
 11
47.4798026929
 21
91.67048575379999
 31
0.0
  0
LINE
  5
1996
330
218
100
AcDbEntity
  8
0
  6
Continuous
 62
     7
100
AcDbLine
 10
50.575434913
 20
91.324752871
 30
0.0
 11
50.7023145593
 21
91.32795241389999
 31
0.0
  0
LINE
  5
1997
330
218
100
AcDbEntity
  8
0
  6
Continuous
 62
     7
100
AcDbLine
 10
47.4798026929
 20
91.67048575379999
 30
0.0
 11
47.6887931954
 21
91.6752727623
 31
0.0
  0
LINE
  5
1998
330
218
100
AcDbEntity
  8
0
  6
Continuous
 62
     7
100
AcDbLine
 10
50.2990350949
 20
91.50352381440001
 30
0.0
 11
50.39880093109999
 21
91.5057368447
 31
0.0
  0
LINE
  5
1999
330
218
100
AcDbEntity
  8
0
  6
Continuous
 62
     7
100
AcDbLine
 10
47.6887931954
 20
91.6752727623
 30
0.0
 11
47.89482640569999
 21
91.67958713979999
 31
0.0
  0
LINE
  5
199A
330
218
100
AcDbEntity
  8
0
  6
Continuous
 62
     7
100
AcDbLine
 10
50.3971475254
 20
91.3811675045
 30
0.0
 11
50.2977035875
 21
91.3789724105
 31
0.0
  0
LINE
  5
199B
330
218
100
AcDbEntity
  8
0
  6
Continuous
 62
     7
100
AcDbLine
 10
50.4531970688
 20
91.3223214927
 30
0.0
 11
50.575434913
 21
91.324752871
 31
0.0
  0
LWPOLYLINE
  5
199C
330
218
100
AcDbEntity
  8
0
  6
Continuous
 62
     7
100
AcDbPolyline
 90
        7
 70
     0
 43
0.0
 10
47.89482640569999
 20
91.67958713979999
 10
48.2448761371
 20
91.68598955680002
 10
48.5950230521
 20
91.69122849450001
 10
48.9452690883
 20
91.69530372329999
 10
49.29559003729999
 20
91.69821475339999
 10
49.645961683
 20
91.69996135629999
 10
49.9963859455
 20
91.7005435643
  0
LINE
  5
199D
330
218
100
AcDbEntity
  8
0
  6
Continuous
 62
     7
100
AcDbLine
 10
49.703640843
 20
91.5655384305
 30
0.0
 11
49.8012716689
 21
91.56746209399999
 31
0.0
  0
LINE
  5
199E
330
218
100
AcDbEntity
  8
0
  6
Continuous
 62
     7
100
AcDbLine
 10
50.33548801640001
 20
91.3205496716
 30
0.0
 11
50.4531970688
 21
91.3223214927
 31
0.0
  0
LINE
  5
199F
330
218
100
AcDbEntity
  8
0
  6
Continuous
 62
     7
100
AcDbLine
 10
50.2977035875
 20
91.3789724105
 30
0.0
 11
50.1975184906
 21
91.3774291023
 31
0.0
  0
LINE
  5
19A0
330
218
100
AcDbEntity
  8
0
  6
Continuous
 62
     7
100
AcDbLine
 10
50.1984233639
 20
91.50196633430001
 30
0.0
 11
50.2990350949
 21
91.50352381440001
 31
0.0
  0
LINE
  5
19A1
330
218
100
AcDbEntity
  8
0
  6
Continuous
 62
     7
100
AcDbLine
 10
49.8012716689
 20
91.56746209399999
 30
0.0
 11
49.8989358813
 21
91.5686028928
 31
0.0
  0
LINE
  5
19A2
330
218
100
AcDbEntity
  8
0
  6
Continuous
 62
     7
100
AcDbLine
 10
50.2214394051
 20
91.31934620770001
 30
0.0
 11
50.33548801640001
 21
91.3205496716
 31
0.0
  0
LINE
  5
19A3
330
218
100
AcDbEntity
  8
0
  6
Continuous
 62
     7
100
AcDbLine
 10
50.1975184906
 20
91.3774291023
 30
0.0
 11
50.09689585989999
 21
91.3765135655
 31
0.0
  0
LINE
  5
19A4
330
218
100
AcDbEntity
  8
0
  6
Continuous
 62
     7
100
AcDbLine
 10
50.0973348177
 20
91.5010421797
 30
0.0
 11
50.1984233639
 21
91.50196633430001
 31
0.0
  0
LINE
  5
19A5
330
218
100
AcDbEntity
  8
0
  6
Continuous
 62
     7
100
AcDbLine
 10
50.1096359791
 20
91.31864307309999
 30
0.0
 11
50.2214394051
 21
91.31934620770001
 31
0.0
  0
LINE
  5
19A6
330
218
100
AcDbEntity
  8
0
  6
Continuous
 62
     7
100
AcDbLine
 10
49.8989358813
 20
91.5686028928
 30
0.0
 11
49.9963859455
 21
91.5689799261
 31
0.0
  0
LINE
  5
19A7
330
218
100
AcDbEntity
  8
0
  6
Continuous
 62
     7
100
AcDbLine
 10
50.09689585989999
 20
91.3765135655
 30
0.0
 11
49.9963859455
 21
91.37621126170001
 31
0.0
  0
LINE
  5
19A8
330
218
100
AcDbEntity
  8
0
  6
Continuous
 62
     7
100
AcDbLine
 10
49.9963859455
 20
91.50073715879999
 30
0.0
 11
50.0973348177
 21
91.5010421797
 31
0.0
  0
LWPOLYLINE
  5
19A9
330
218
100
AcDbEntity
  8
0
  6
Continuous
 62
     7
100
AcDbPolyline
 90
        7
 70
     0
 43
0.0
 10
49.9963859455
 20
91.7005435643
 10
50.3468102081
 20
91.69996135629999
 10
50.69718185380001
 20
91.69821475339999
 10
51.0475028028
 20
91.69530372329999
 10
51.39774883899999
 20
91.69122849450001
 10
51.747895754
 20
91.68598955680002
 10
52.09794548529999
 20
91.67958713979999
  0
LINE
  5
19AA
330
218
100
AcDbEntity
  8
0
  6
Continuous
 62
     7
100
AcDbLine
 10
50.1096359791
 20
91.31864307309999
 30
0.0
 11
49.883135912
 21
91.31864307309999
 31
0.0
  0
LINE
  5
19AB
330
218
100
AcDbEntity
  8
0
  6
Continuous
 62
     7
100
AcDbLine
 10
49.9963859455
 20
91.37621126170001
 30
0.0
 11
49.8954185513
 21
91.37651632909999
 31
0.0
  0
LINE
  5
19AC
330
218
100
AcDbEntity
  8
0
  6
Continuous
 62
     7
100
AcDbLine
 10
49.8958927081
 20
91.50103942700001
 30
0.0
 11
49.9963859455
 21
91.50073715879999
 31
0.0
  0
LINE
  5
19AD
330
218
100
AcDbEntity
  8
0
  6
Continuous
 62
     7
100
AcDbLine
 10
49.9963859455
 20
91.5689799261
 30
0.0
 11
50.0933624114
 21
91.5686065536
 31
0.0
  0
LINE
  5
19AE
330
218
100
AcDbEntity
  8
0
  6
Continuous
 62
     7
100
AcDbLine
 10
49.883135912
 20
91.31864307309999
 30
0.0
 11
49.77133248600001
 21
91.31934620770001
 31
0.0
  0
LINE
  5
19AF
330
218
100
AcDbEntity
  8
0
  6
Continuous
 62
     7
100
AcDbLine
 10
49.79525694239999
 20
91.50195521689999
 30
0.0
 11
49.8958927081
 21
91.50103942700001
 31
0.0
  0
LINE
  5
19B0
330
218
100
AcDbEntity
  8
0
  6
Continuous
 62
     7
100
AcDbLine
 10
49.8954185513
 20
91.37651632909999
 30
0.0
 11
49.794275938
 21
91.3774410645
 31
0.0
  0
LINE
  5
19B1
330
218
100
AcDbEntity
  8
0
  6
Continuous
 62
     7
100
AcDbLine
 10
49.77133248600001
 20
91.31934620770001
 30
0.0
 11
49.6572838747
 21
91.3205496716
 31
0.0
  0
LINE
  5
19B2
330
218
100
AcDbEntity
  8
0
  6
Continuous
 62
     7
100
AcDbLine
 10
50.0933624114
 20
91.5686065536
 30
0.0
 11
50.19058634069999
 21
91.5674763588
 31
0.0
  0
LINE
  5
19B3
330
218
100
AcDbEntity
  8
0
  6
Continuous
 62
     7
100
AcDbLine
 10
49.6572838747
 20
91.3205496716
 30
0.0
 11
49.53957482229999
 21
91.3223214927
 31
0.0
  0
LINE
  5
19B4
330
218
100
AcDbEntity
  8
0
  6
Continuous
 62
     7
100
AcDbLine
 10
49.794275938
 20
91.3774410645
 30
0.0
 11
49.6936111543
 21
91.37899968339999
 31
0.0
  0
LINE
  5
19B5
330
218
100
AcDbEntity
  8
0
  6
Continuous
 62
     7
100
AcDbLine
 10
49.6950656466
 20
91.50349894299999
 30
0.0
 11
49.79525694239999
 21
91.50195521689999
 31
0.0
  0
LINE
  5
19B6
330
218
100
AcDbEntity
  8
0
  6
Continuous
 62
     7
100
AcDbLine
 10
49.53957482229999
 20
91.3223214927
 30
0.0
 11
49.417336978
 21
91.324752871
 31
0.0
  0
LINE
  5
19B7
330
218
100
AcDbEntity
  8
0
  6
Continuous
 62
     7
100
AcDbLine
 10
52.09794548529999
 20
91.67958713979999
 30
0.0
 11
52.30397869569999
 21
91.6752727623
 31
0.0
  0
LINE
  5
19B8
330
218
100
AcDbEntity
  8
0
  6
Continuous
 62
     7
100
AcDbLine
 10
50.19058634069999
 20
91.5674763588
 30
0.0
 11
50.2878044322
 21
91.5655699558
 31
0.0
  0
LINE
  5
19B9
330
218
100
AcDbEntity
  8
0
  6
Continuous
 62
     7
100
AcDbLine
 10
52.30397869569999
 20
91.6752727623
 30
0.0
 11
52.51296919819999
 21
91.67048575379999
 31
0.0
  0
LINE
  5
19BA
330
218
100
AcDbEntity
  8
0
  6
Continuous
 62
     7
100
AcDbLine
 10
49.6936111543
 20
91.37899968339999
 30
0.0
 11
49.5937946328
 21
91.3812144347
 31
0.0
  0
LINE
  5
19BB
330
218
100
AcDbEntity
  8
0
  6
Continuous
 62
     7
100
AcDbLine
 10
49.59562324930001
 20
91.5056944676
 30
0.0
 11
49.6950656466
 21
91.50349894299999
 31
0.0
  0
LINE
  5
19BC
330
218
100
AcDbEntity
  8
0
  6
Continuous
 62
     7
100
AcDbLine
 10
52.51296919819999
 20
91.67048575379999
 30
0.0
 11
52.7249786209
 21
91.6652043028
 31
0.0
  0
LINE
  5
19BD
330
218
100
AcDbEntity
  8
0
  6
Continuous
 62
     7
100
AcDbLine
 10
49.417336978
 20
91.324752871
 30
0.0
 11
49.2904573318
 21
91.32795241389999
 31
0.0
  0
LWPOLYLINE
  5
19BE
330
218
100
AcDbEntity
  8
0
  6
Continuous
 62
     7
100
AcDbPolyline
 90
       30
 70
     0
 43
0.0
 10
50.2878044322
 20
91.5655699558
 10
50.38503935439999
 20
91.562851728
 10
50.4334797559
 20
91.56117847879999
 10
50.4816427597
 20
91.55929318350001
 10
50.5294523131
 20
91.55719195659999
 10
50.5766282603
 20
91.55488175040002
 10
50.6229318287
 20
91.55237021359999
 10
50.6681973374
 20
91.5496641338
 10
50.71224828850001
 20
91.5467724053
 10
50.7549179668
 20
91.5437055549
 10
50.7960418911
 20
91.5404761093
 10
50.8354955824
 20
91.53709535469999
 10
50.87313489319999
 20
91.53357842450001
 10
50.9089150733
 20
91.52993231149999
 10
50.94277290439999
 20
91.5261660298
 10
50.9746355498
 20
91.52228969979999
 10
51.00443186859999
 20
91.5183144773
 10
51.0321188298
 20
91.5142478315
 10
51.05765972060001
 20
91.51009630530001
 10
51.08096934949999
 20
91.5058741778
 10
51.1019755168
 20
91.50159706610001
 10
51.120661935
 20
91.49727010479999
 10
51.1370067654
 20
91.49289869870001
 10
51.1509524342
 20
91.48849758329999
 10
51.16245726229999
 20
91.4840825741
 10
51.1715165626
 20
91.4796574558
 10
51.17811830369999
 20
91.47522630860001
 10
51.1822350043
 20
91.4708039341
 10
51.18385740479999
 20
91.46640567930001
 10
51.1838859455
 20
91.46574230899998
  0
LINE
  5
19BF
330
218
100
AcDbEntity
  8
0
  6
Continuous
 62
     7
100
AcDbLine
 10
49.4978038091
 20
91.50855921239999
 30
0.0
 11
49.59562324930001
 21
91.5056944676
 31
0.0
  0
LINE
  5
19C0
330
218
100
AcDbEntity
  8
0
  6
Continuous
 62
     7
100
AcDbLine
 10
49.5937946328
 20
91.3812144347
 30
0.0
 11
49.4957537603
 21
91.38409979459998
 31
0.0
  0
LWPOLYLINE
  5
19C1
330
218
100
AcDbEntity
  8
0
  6
Continuous
 62
     7
100
AcDbPolyline
 90
       28
 70
     0
 43
0.0
 10
49.2904573318
 20
91.32795241389999
 10
49.1598137004
 20
91.3320280149
 10
49.0950574171
 20
91.33436771079999
 10
49.031400183
 20
91.33689292040001
 10
48.96938488029999
 20
91.33958438729999
 10
48.9089216744
 20
91.34244581879999
 10
48.85005636489999
 20
91.34547732079999
 10
48.7929830438
 20
91.3486708343
 10
48.7377826316
 20
91.35202376509999
 10
48.68454999279999
 20
91.3555326674
 10
48.6331934759
 20
91.3592060174
 10
48.5839342925
 20
91.3630314659
 10
48.5369154475
 20
91.366999741
 10
48.4920884211
 20
91.3711163818
 10
48.4497167749
 20
91.3753600649
 10
48.40964761430001
 20
91.37974680700001
 10
48.3719642691
 20
91.3842705404
 10
48.3366988551
 20
91.3889324986
 10
48.30403623449999
 20
91.3937103906
 10
48.2737708454
 20
91.39863802449999
 10
48.24612067979999
 20
91.40368877049999
 10
48.2211923215
 20
91.40884465479999
 10
48.19894014189999
 20
91.4141160876
 10
48.17968457260001
 20
91.4194223468
 10
48.16303425939999
 20
91.4248568196
 10
48.1492156843
 20
91.4303551363
 10
48.1381822981
 20
91.43591294690001
 10
48.1297782763
 20
91.44168108329999
  0
LWPOLYLINE
  5
19C2
330
218
100
AcDbEntity
  8
0
  6
Continuous
 62
     7
100
AcDbPolyline
 90
       25
 70
     0
 43
0.0
 10
49.4957537603
 20
91.38409979459998
 10
49.40036136399999
 20
91.38766900620002
 10
49.35422334729999
 20
91.3897003509
 10
49.3093012287
 20
91.39189309409999
 10
49.2657121677
 20
91.39424422459999
 10
49.22361097439999
 20
91.39674839660001
 10
49.1831526705
 20
91.3993978731
 10
49.14439970270001
 20
91.40219018809998
 10
49.10743061479999
 20
91.40512128979999
 10
49.0723305977
 20
91.40818621319999
 10
49.03918224499999
 20
91.41137917989999
 10
49.00804153
 20
91.4146963149
 10
48.9789664238
 20
91.4181332275
 10
48.9520169661
 20
91.42168468299999
 10
48.9272438616
 20
91.4253461598
 10
48.90471172899999
 20
91.42910994290001
 10
48.8844775318
 20
91.43296788299998
 10
48.86657219079999
 20
91.43691496790001
 10
48.8510232974
 20
91.4409472224
 10
48.83788063689999
 20
91.4450528515
 10
48.8271803634
 20
91.4492191973
 10
48.8189227261
 20
91.45344343229998
 10
48.8131157517
 20
91.4577227624
 10
48.8097780159
 20
91.46204471190001
 10
48.8088859455
 20
91.46574218290002
  0
LWPOLYLINE
  5
19C3
330
218
100
AcDbEntity
  8
0
  6
Continuous
 62
     7
100
AcDbPolyline
 90
       10
 70
     0
 43
0.0
 10
49.09327414819999
 20
91.53088968719998
 10
49.108757285
 20
91.5295421231
 10
49.14588769619999
 20
91.52660853030001
 10
49.1847817899
 20
91.52381635350002
 10
49.2253644432
 20
91.52116892329999
 10
49.2675851259
 20
91.51866767680001
 10
49.31127566549999
 20
91.51632091939999
 10
49.35627346189999
 20
91.5141340371
 10
49.4024543028
 20
91.5121100134
 10
49.4978038091
 20
91.50855921239999
  0
LWPOLYLINE
  5
19C6
330
218
100
AcDbEntity
  8
0
  6
Continuous
 62
     7
100
AcDbPolyline
 90
       24
 70
     0
 43
0.0
 10
60.4488145914
 20
88.26845633020001
 10
60.3351737175
 20
88.28759211540001
 10
60.21594990689999
 20
88.3074077859
 10
60.0909363747
 20
88.32790076090001
 10
59.9599014929
 20
88.349069071
 10
59.8225234529
 20
88.37092108010001
 10
59.67886465399999
 20
88.393400535
 10
59.52885541819999
 20
88.4164701016
 10
59.37257005359999
 20
88.4400682393
 10
59.20973769829999
 20
88.46418328090001
 10
59.0413251728
 20
88.48862068829999
 10
58.8670977155
 20
88.51336536309998
 10
58.6903945375
 20
88.53790700129998
 10
58.5132480546
 20
88.5619528039
 10
58.33936082920001
 20
88.58501608639999
 10
58.17285329109999
 20
88.60660186249999
 10
58.0145230145
 20
88.62667707360001
 10
57.86725486149999
 20
88.64495693049999
 10
57.72891153749999
 20
88.66178521450001
 10
57.5986091102
 20
88.6773315838
 10
57.47546459729999
 20
88.69175386040001
 10
57.3585066911
 20
88.70520908889998
 10
57.2471108473
 20
88.71780535780001
 10
57.0381568075
 20
88.7408582345
  0
LINE
  5
19C7
330
218
100
AcDbEntity
  8
0
  6
Continuous
 62
     7
100
AcDbLine
 10
60.6601981259
 20
88.2322144083
 30
0.0
 11
60.4488145914
 21
88.26845633020001
 31
0.0
  0
LINE
  5
19C8
330
218
100
AcDbEntity
  8
0
  6
Continuous
 62
     7
100
AcDbLine
 10
60.8517854413
 20
88.19863451290002
 30
0.0
 11
60.6601981259
 21
88.2322144083
 31
0.0
  0
LINE
  5
19C9
330
218
100
AcDbEntity
  8
0
  6
Continuous
 62
     7
100
AcDbLine
 10
61.0252656477
 20
88.16762363709999
 30
0.0
 11
60.8517854413
 21
88.19863451290002
 31
0.0
  0
LINE
  5
19CA
330
218
100
AcDbEntity
  8
0
  6
Continuous
 62
     7
100
AcDbLine
 10
61.2553623996
 20
88.1255992145
 30
0.0
 11
61.0252656477
 21
88.16762363709999
 31
0.0
  0
LINE
  5
19CB
330
218
100
AcDbEntity
  8
0
  6
Continuous
 62
     7
100
AcDbLine
 10
61.45453032609999
 20
88.08839547099999
 30
0.0
 11
61.2553623996
 21
88.1255992145
 31
0.0
  0
LINE
  5
19CC
330
218
100
AcDbEntity
  8
0
  6
Continuous
 62
     7
100
AcDbLine
 10
61.6801258176
 20
88.0453176373
 30
0.0
 11
61.45453032609999
 21
88.08839547099999
 31
0.0
  0
LINE
  5
19CD
330
218
100
AcDbEntity
  8
0
  6
Continuous
 62
     7
100
AcDbLine
 10
61.95032886279999
 20
87.99238642639998
 30
0.0
 11
61.6801258176
 21
88.0453176373
 31
0.0
  0
LINE
  5
19CE
330
218
100
AcDbEntity
  8
0
  6
Continuous
 62
     7
100
AcDbLine
 10
62.2002538655
 20
87.94213467410001
 30
0.0
 11
61.95032886279999
 21
87.99238642639998
 31
0.0
  0
LINE
  5
19CF
330
218
100
AcDbEntity
  8
0
  6
Continuous
 62
     7
100
AcDbLine
 10
62.4285552621
 20
87.8951559937
 30
0.0
 11
62.2002538655
 21
87.94213467410001
 31
0.0
  0
LINE
  5
19D0
330
218
100
AcDbEntity
  8
0
  6
Continuous
 62
     7
100
AcDbLine
 10
62.55871701930001
 20
87.8677932104
 30
0.0
 11
62.4285552621
 21
87.8951559937
 31
0.0
  0
LINE
  5
19D1
330
218
100
AcDbEntity
  8
0
  6
Continuous
 62
     7
100
AcDbLine
 10
62.61502223399999
 20
87.8556640126
 30
0.0
 11
62.55871701930001
 21
87.8677932104
 31
0.0
  0
LINE
  5
19D2
330
218
100
AcDbEntity
  8
0
  6
Continuous
 62
     7
100
AcDbLine
 10
62.6583441584
 20
87.8461209846
 30
0.0
 11
62.61502223399999
 21
87.8556640126
 31
0.0
  0
LINE
  5
19D3
330
218
100
AcDbEntity
  8
0
  6
Continuous
 62
     7
100
AcDbLine
 10
62.7016227437
 20
87.83636745610001
 30
0.0
 11
62.6583441584
 21
87.8461209846
 31
0.0
  0
LINE
  5
19D4
330
218
100
AcDbEntity
  8
0
  6
Continuous
 62
     7
100
AcDbLine
 10
62.7381240727
 20
87.8279453792
 30
0.0
 11
62.7016227437
 21
87.83636745610001
 31
0.0
  0
LINE
  5
19D5
330
218
100
AcDbEntity
  8
0
  6
Continuous
 62
     7
100
AcDbLine
 10
62.7842887449
 20
87.81706559049998
 30
0.0
 11
62.7381240727
 21
87.8279453792
 31
0.0
  0
LINE
  5
19D6
330
218
100
AcDbEntity
  8
0
  6
Continuous
 62
     7
100
AcDbLine
 10
62.83218505789999
 20
87.805543716
 30
0.0
 11
62.7842887449
 21
87.81706559049998
 31
0.0
  0
LINE
  5
19D7
330
218
100
AcDbEntity
  8
0
  6
Continuous
 62
     7
100
AcDbLine
 10
62.8809364672
 20
87.79357347020001
 30
0.0
 11
62.83218505789999
 21
87.805543716
 31
0.0
  0
LINE
  5
19D8
330
218
100
AcDbEntity
  8
0
  6
Continuous
 62
     7
100
AcDbLine
 10
62.9407966271
 20
87.77854399049999
 30
0.0
 11
62.8809364672
 21
87.79357347020001
 31
0.0
  0
LINE
  5
19D9
330
218
100
AcDbEntity
  8
0
  6
Continuous
 62
     7
100
AcDbLine
 10
62.9946952566
 20
87.76470173059999
 30
0.0
 11
62.9407966271
 21
87.77854399049999
 31
0.0
  0
LINE
  5
19DA
330
218
100
AcDbEntity
  8
0
  6
Continuous
 62
     7
100
AcDbLine
 10
63.0583794552
 20
87.74797249129999
 30
0.0
 11
62.9946952566
 21
87.76470173059999
 31
0.0
  0
LINE
  5
19DB
330
218
100
AcDbEntity
  8
0
  6
Continuous
 62
     7
100
AcDbLine
 10
63.1067375262
 20
87.73500201790001
 30
0.0
 11
63.0583794552
 21
87.74797249129999
 31
0.0
  0
LINE
  5
19DC
330
218
100
AcDbEntity
  8
0
  6
Continuous
 62
     7
100
AcDbLine
 10
63.15988024060001
 20
87.72048230450002
 30
0.0
 11
63.1067375262
 21
87.73500201790001
 31
0.0
  0
LINE
  5
19DD
330
218
100
AcDbEntity
  8
0
  6
Continuous
 62
     7
100
AcDbLine
 10
63.21837209289999
 20
87.70417228049998
 30
0.0
 11
63.15988024060001
 21
87.72048230450002
 31
0.0
  0
LINE
  5
19DE
330
218
100
AcDbEntity
  8
0
  6
Continuous
 62
     7
100
AcDbLine
 10
63.2832144018
 20
87.68568113399998
 30
0.0
 11
63.21837209289999
 21
87.70417228049998
 31
0.0
  0
LINE
  5
19DF
330
218
100
AcDbEntity
  8
0
  6
Continuous
 62
     7
100
AcDbLine
 10
63.355395162
 20
87.6645844281
 30
0.0
 11
63.2832144018
 21
87.68568113399998
 31
0.0
  0
LWPOLYLINE
  5
19E0
330
218
100
AcDbEntity
  8
0
  6
Continuous
 62
     7
100
AcDbPolyline
 90
       17
 70
     0
 43
0.0
 10
64.2431691884
 20
87.35888656410001
 10
64.1977200698
 20
87.3766842628
 10
64.1496091509
 20
87.39526299599999
 10
64.09797804760001
 20
87.41490445489999
 10
64.043599192
 20
87.43526151340001
 10
63.9866988885
 20
87.45620259949999
 10
63.92807367949999
 20
87.4773971703
 10
63.86836859029999
 20
87.49858688899999
 10
63.80829810479999
 20
87.51950723390001
 10
63.7485394728
 20
87.53992399200001
 10
63.6898843178
 20
87.55958349990001
 10
63.6331687651
 20
87.57823640549998
 10
63.5789696603
 20
87.59573602799999
 10
63.5282837432
 20
87.61181450870001
 10
63.48070717479999
 20
87.6266548331
 10
63.4363093559
 20
87.6402842254
 10
63.355395162
 20
87.6645844281
  0
LINE
  5
19E1
330
218
100
AcDbEntity
  8
0
  6
Continuous
 62
     7
100
AcDbLine
 10
64.3278631572
 20
87.32507608879998
 30
0.0
 11
64.2431691884
 21
87.35888656410001
 31
0.0
  0
LINE
  5
19E3
330
218
100
AcDbEntity
  8
0
  6
Continuous
 62
     7
100
AcDbLine
 10
64.4084915144
 20
87.29210073329999
 30
0.0
 11
64.3278631572
 21
87.32507608879998
 31
0.0
  0
LINE
  5
19E5
330
218
100
AcDbEntity
  8
0
  6
Continuous
 62
     7
100
AcDbLine
 10
64.4892627697
 20
87.258286779
 30
0.0
 11
64.4084915144
 21
87.29210073329999
 31
0.0
  0
LINE
  5
19E7
330
218
100
AcDbEntity
  8
0
  6
Continuous
 62
     7
100
AcDbLine
 10
64.570648968
 20
87.2234156134
 30
0.0
 11
64.4892627697
 21
87.258286779
 31
0.0
  0
LWPOLYLINE
  5
19E9
330
218
100
AcDbEntity
  8
0
  6
Continuous
 62
     7
100
AcDbPolyline
 90
        3
 70
     0
 43
0.0
 10
64.691877329
 20
87.16996221589999
 10
64.65174169810001
 20
87.18786128149998
 10
64.570648968
 20
87.2234156134
  0
LINE
  5
19ED
330
218
100
AcDbEntity
  8
0
  6
Continuous
 62
     7
100
AcDbLine
 10
64.77142213899999
 20
87.13389123899998
 30
0.0
 11
64.691877329
 21
87.16996221589999
 31
0.0
  0
LWPOLYLINE
  5
19F0
330
218
100
AcDbEntity
  8
0
  6
Continuous
 62
     7
100
AcDbPolyline
 90
      113
 70
     0
 43
0.0
 10
49.9963859456
 20
96.1089280046
 10
49.4700817451
 20
96.1075551717
 10
48.9651103814
 20
96.10420030540002
 10
48.4817369937
 20
96.09873639740001
 10
48.01916616439999
 20
96.0915444725
 10
47.5768702699
 20
96.08289808510001
 10
47.1543110666
 20
96.07299263870002
 10
46.75095580119999
 20
96.06206067409999
 10
46.3662603786
 20
96.05026433469999
 10
45.9996813077
 20
96.03779897770001
 10
45.6506840235
 20
96.0247975024
 10
45.3187324949
 20
96.0114224179
 10
45.0032876297
 20
95.997780251
 10
44.7038126468
 20
95.98400406979999
 10
44.4197645813
 20
95.9701767598
 10
44.15079008270001
 20
95.95641593149998
 10
43.8957835265
 20
95.9427504778
 10
43.6543095656
 20
95.9292745569
 10
43.42400401739999
 20
95.9159099843
 10
43.2030595905
 20
95.9026445974
 10
42.98937026379999
 20
95.88937448870002
 10
42.78083884449999
 20
95.87603071870001
 10
42.5756315566
 20
95.86249622110001
 10
42.3713055528
 20
95.84864013399998
 10
42.16759085489999
 20
95.83443490469999
 10
41.9633225469
 20
95.81981765120001
 10
41.75874259519999
 20
95.80476349889998
 10
41.5532680553
 20
95.7892199515
 10
41.34820874499999
 20
95.77320699319999
 10
41.14478423349999
 20
95.7567241407
 10
40.9426823214
 20
95.73978030120001
 10
40.74316250639999
 20
95.7224946742
 10
40.54272926679999
 20
95.70453589889998
 10
40.33932337889999
 20
95.6857397109
 10
40.12989544729999
 20
95.6657240214
 10
39.9115866546
 20
95.644197061
 10
39.6817660436
 20
95.62072360850001
 10
39.4369229029
 20
95.59485890200001
 10
39.1768376781
 20
95.56633979530001
 10
38.8998111816
 20
95.53481073629999
 10
38.606771602
 20
95.50010418099999
 10
38.2982072083
 20
95.46205408190001
 10
37.9737385724
 20
95.4203003972
 10
37.6340779607
 20
95.37469995089999
 10
37.2764385584
 20
95.3244360979
 10
36.8990886586
 20
95.2689896773
 10
36.4995752038
 20
95.2073250607
 10
36.0755696565
 20
95.13867565780001
 10
35.6249667498
 20
95.0617151938
 10
35.1446275196
 20
94.97524296100001
 10
34.6353245203
 20
94.87811566739999
 10
34.0954245127
 20
94.7689957118
 10
33.5290059143
 20
94.6472653148
 10
32.9382662505
 20
94.51202245200001
 10
32.327214958
 20
94.3627822566
 10
31.6969875253
 20
94.1981033801
 10
31.0584033221
 20
94.01995324239999
 10
30.4189994627
 20
93.82855557419999
 10
29.7897582026
 20
93.62770009540001
 10
29.1840302203
 20
93.4207533478
 10
28.602247361
 20
93.20920859659999
 10
28.0508936732
 20
92.9959570857
 10
27.5251632258
 20
92.7801714211
 10
27.0231454962
 20
92.5621225461
 10
26.5426383072
 20
92.34140669270001
 10
26.0809841024
 20
92.1176557601
 10
25.6376384972
 20
91.89103368999999
 10
25.2112563647
 20
91.66146853909999
 10
24.8015823756
 20
91.42929986149999
 10
24.4081397817
 20
91.19481847000001
 10
24.0302477137
 20
90.95809864469998
 10
23.6673134702
 20
90.7193355354
 10
23.3185958001
 20
90.4784573451
 10
22.9832629219
 20
90.23540135530002
 10
22.6609937246
 20
89.9903354807
 10
22.3513422513
 20
89.74340143479999
 10
22.0538512587
 20
89.49461510309999
 10
21.7681024611
 20
89.2440950986
 10
21.4935330279
 20
88.99167495350001
 10
21.229589238
 20
88.73727700259999
 10
20.9758254765
 20
88.48075345099999
 10
20.7317044682
 20
88.2219684997
 10
20.4969474734
 20
87.9608084949
 10
20.2712075498
 20
87.69718470009999
 10
20.0541520296
 20
87.43088656540001
 10
19.8453883671
 20
87.16170506739999
 10
19.6447492544
 20
86.8895468904
 10
19.4520010238
 20
86.61434256019999
 10
19.2669502097
 20
86.3358115293
 10
19.0893388456
 20
86.0536523771
 10
18.9191267668
 20
85.76785824859999
 10
18.7562295108
 20
85.47840889319999
 10
18.6005220043
 20
85.1850430766
 10
18.4518317414
 20
84.8875124813
 10
18.3102165569
 20
84.58575810520001
 10
18.1757001259
 20
84.27971730320001
 10
18.0482124211
 20
83.9691526864
 10
17.9277006735
 20
83.6539362541
 10
17.8141367837
 20
83.3336771971
 10
17.7074450412
 20
83.00806027909999
 10
17.6077155098
 20
82.67673078100001
 10
17.5149903364
 20
82.3393885704
 10
17.4293375613
 20
81.99555465160001
 10
17.3507764998
 20
81.64476679640001
 10
17.2794954737
 20
81.2866745702
 10
17.2156095251
 20
80.9209679906
 10
17.1593578086
 20
80.54706347200001
 10
17.1109139382
 20
80.1643571524
 10
17.0705895783
 20
79.77259987859999
 10
17.0386396517
 20
79.37141486
 10
17.0154079975
 20
78.96058114759999
 10
17.0013770305
 20
78.5397088775
 10
16.9963859458
 20
78.1089280044
  0
LWPOLYLINE
  5
19F1
330
218
100
AcDbEntity
  8
0
  6
Continuous
 62
     7
100
AcDbPolyline
 90
      101
 70
     0
 43
0.0
 10
70.5685415667
 20
78.8076020893
 10
70.55983810259999
 20
78.9241769596
 10
70.54958987149999
 20
79.04289645529999
 10
70.5376793948
 20
79.16405508850001
 10
70.52412349579999
 20
79.2866699609
 10
70.50894279399999
 20
79.4100775311
 10
70.4921900992
 20
79.5336248288
 10
70.47394646069999
 20
79.65668520539999
 10
70.4543376756
 20
79.77853936229999
 10
70.4334725298
 20
79.8987819262
 10
70.4116930216
 20
80.01588017960001
 10
70.38943218060001
 20
80.12824147560001
 10
70.3668790564
 20
80.23571876300001
 10
70.3444501314
 20
80.3371775651
 10
70.3219996322
 20
80.4340312066
 10
70.29947385109998
 20
80.52704712609999
 10
70.27678547890001
 20
80.61699469030001
 10
70.25380540489999
 20
80.7046678929
 10
70.2304135998
 20
80.79072108330001
 10
70.20641107899999
 20
80.87598447180001
 10
70.18174691049999
 20
80.9606865143
 10
70.1562718783
 20
81.04534188589999
 10
70.1299963688
 20
81.12989861169999
 10
70.1028009365
 20
81.214708109
 10
70.07490386269999
 20
81.29906766159999
 10
70.0465580099
 20
81.3822608987
 10
70.0176379312
 20
81.46471290939999
 10
69.98829577779999
 20
81.54604278550001
 10
69.9579236859
 20
81.62794326130001
 10
69.92581305739999
 20
81.71217505359999
 10
69.89215391090001
 20
81.7980521996
 10
69.85679683989999
 20
81.8857833662
 10
69.8200561146
 20
81.9744396407
 10
69.78216281479999
 20
82.0633860909
 10
69.74336372109999
 20
82.15200500059999
 10
69.7039378605
 20
82.23968151260001
 10
69.6641720612
 20
82.32583969229999
 10
69.62446246759999
 20
82.40973835990001
 10
69.58489858670001
 20
82.491327385
 10
69.54593238939999
 20
82.56983889909999
 10
69.50691760319999
 20
82.6467145746
 10
69.467332545
 20
82.72302746359999
 10
69.42705548810001
 20
82.79901827569998
 10
69.38567147810001
 20
82.87544001630001
 10
69.34343997149999
 20
82.9517761582
 10
69.30045651100001
 20
83.02784142520001
 10
69.2568433625
 20
83.10341972899999
 10
69.2127600384
 20
83.17825027419999
 10
69.1682350101
 20
83.2523080348
 10
69.12356032799999
 20
83.3251442365
 10
69.0781220218
 20
83.39778109799999
 10
69.03159841149999
 20
83.47070464149998
 10
68.9832623066
 20
83.5449841029
 10
68.9324389623
 20
83.62151797299999
 10
68.87843543149999
 20
83.70115756750001
 10
68.82045995279999
 20
83.7848048771
 10
68.7578945145
 20
83.87302574999999
 10
68.6895731876
 20
83.96704565829999
 10
68.61610333749999
 20
84.06558044649999
 10
68.5380013239
 20
84.1675551604
 10
68.45447997029999
 20
84.27360153710001
 10
68.3652125452
 20
84.38369009629999
 10
68.26918381109999
 20
84.49856774289999
 10
68.1654658833
 20
84.61874024810001
 10
68.05315155560001
 20
84.74456071949999
 10
67.9310007608
 20
84.87660958899999
 10
67.79874491210001
 20
85.01428574260001
 10
67.6532945891
 20
85.1597339947
 10
67.5017701215
 20
85.30501374949999
 10
67.3502804064
 20
85.4442814267
 10
67.2012349907
 20
85.57580549879999
 10
67.0601174545
 20
85.69557663700001
 10
66.9250454755
 20
85.80610174410001
 10
66.7958679037
 20
85.9082054737
 10
66.6724522521
 20
86.0026054076
 10
66.5546079283
 20
86.08997805379999
 10
66.4420407344
 20
86.1710020779
 10
66.3343286796
 20
86.24637266689999
 10
66.2314117416
 20
86.3164727474
 10
66.1330472131
 20
86.38176914389999
 10
66.0392035712
 20
86.44255101799998
 10
65.94980629609999
 20
86.4991097378
 10
65.8646355619
 20
86.5518020544
 10
65.7834987265
 20
86.60093850009999
 10
65.7061447093
 20
86.6468387319
 10
65.6323197974
 20
86.68979961959999
 10
65.5617611375
 20
86.73010046600001
 10
65.49419475429999
 20
86.76800745059999
 10
65.42933869089999
 20
86.80377233120001
 10
65.3668957526
 20
86.83763917620002
 10
65.30658883619999
 20
86.8698255325
 10
65.2480060882
 20
86.9006065948
 10
65.1912165268
 20
86.92999416129998
 10
65.1360159691
 20
86.95813818469998
 10
65.0827990511
 20
86.98488178679999
 10
65.03186911479999
 20
87.01012172170001
 10
64.98330437369999
 20
87.03386969120002
 10
64.93749014949999
 20
87.05598893360001
 10
64.8938068083
 20
87.0768246683
 10
64.8519432389
 20
87.0965610989
 10
64.77142213899999
 20
87.13389123899998
  0
LWPOLYLINE
  5
19F2
330
218
100
AcDbEntity
  8
0
  6
Continuous
 62
     7
100
AcDbPolyline
 90
        7
 70
     0
 43
0.0
 10
70.59279662919999
 20
78.1089280047
 10
70.592042892
 20
78.226010243
 10
70.5899671984
 20
78.3428440609
 10
70.58657564729999
 20
78.45939909790001
 10
70.58187239760001
 20
78.57570203609999
 10
70.57585965140001
 20
78.6917796668
 10
70.5685415667
 20
78.8076020893
  0
LWPOLYLINE
  5
19F9
330
218
100
AcDbEntity
  8
0
  6
Continuous
 62
     7
100
AcDbPolyline
 90
       99
 70
     0
 43
0.0
 10
78.594808319
 20
78.1089280047
 10
78.59268637079999
 20
78.35376971329999
 10
78.5864452002
 20
78.59378891520001
 10
78.57619684319999
 20
78.8287723249
 10
78.56207679810001
 20
79.0589528533
 10
78.5442087981
 20
79.2844739824
 10
78.5227070058
 20
79.5054564742
 10
78.4976801802
 20
79.7220511783
 10
78.4692307196
 20
79.93436155569999
 10
78.4374569666
 20
80.1425097745
 10
78.40244499669999
 20
80.34662915289999
 10
78.3642829345
 20
80.54682989779999
 10
78.32303743119999
 20
80.7432909717
 10
78.2787686061
 20
80.93617383839999
 10
78.231523588
 20
81.1256436991
 10
78.18133255020001
 20
81.3118877407
 10
78.12823251810001
 20
81.49501542080001
 10
78.072256809
 20
81.67516839260001
 10
78.0134561986
 20
81.85240825460001
 10
77.95188469180001
 20
82.0267737013
 10
77.8875225789
 20
82.19847920460001
 10
77.8203608946
 20
82.3676625907
 10
77.7503284352
 20
82.53458044979998
 10
77.6773330916
 20
82.6995278935
 10
77.60140691050001
 20
82.86249911069999
 10
77.5225376596
 20
83.0235704602
 10
77.44072251430001
 20
83.18277552800001
 10
77.3559745831
 20
83.3401059018
 10
77.2681870398
 20
83.4957473102
 10
77.1773099855
 20
83.649789188
 10
77.0831744235
 20
83.8025217132
 10
76.9855782841
 20
83.95422959879999
 10
76.8844591281
 20
84.10494729239999
 10
76.77969452959999
 20
84.25477566880001
 10
76.6711942829
 20
84.4037408085
 10
76.55887426879999
 20
84.55187129349999
 10
76.44260621689999
 20
84.69925841869999
 10
76.3222908147
 20
84.8459383486
 10
76.19772799499999
 20
84.9920558017
 10
76.0687255425
 20
85.137711333
 10
75.9350947865
 20
85.2829792034
 10
75.7966213092
 20
85.42795477709999
 10
75.6531477071
 20
85.5726644992
 10
75.50449829029999
 20
85.7171399045
 10
75.3504945107
 20
85.86140135509999
 10
75.1909775693
 20
86.0054356784
 10
75.02569757589999
 20
86.1493027484
 10
74.8544130952
 20
86.29303803639999
 10
74.6768343571
 20
86.43670378770002
 10
74.4926876871
 20
86.58032942930001
 10
74.30166271479999
 20
86.72395940040001
 10
74.1034454692
 20
86.86762068829999
 10
73.897770173
 20
87.01129530999999
 10
73.68432403719999
 20
87.1549836035
 10
73.4629642566
 20
87.2985684324
 10
73.2335293463
 20
87.44194045379998
 10
72.99574331869999
 20
87.5850398603
 10
72.74938323810001
 20
87.72776396899999
 10
72.4940520465
 20
87.87009840809998
 10
72.2294275508
 20
88.01197875219999
 10
71.9550968615
 20
88.15337922819999
 10
71.6705882632
 20
88.2942932443
 10
71.3758144337
 20
88.43452184330001
 10
71.0706223688
 20
88.5738795051
 10
70.7546439152
 20
88.71224831940001
 10
70.4276601671
 20
88.84944200639999
 10
70.089080057
 20
88.98542846069998
 10
69.7384233874
 20
89.1201175293
 10
69.37520307189998
 20
89.2534165968
 10
68.998623392
 20
89.3853121987
 10
68.60908489509999
 20
89.51533637790001
 10
68.20743647589999
 20
89.64293139090001
 10
67.79160437129999
 20
89.76846025909999
 10
67.36084288100001
 20
89.891806119
 10
66.91197339590001
 20
90.01347782889999
 10
66.44188456870001
 20
90.1338084332
 10
65.9494907655
 20
90.25280031980001
 10
65.431169921
 20
90.37076179809998
 10
64.89127519350001
 20
90.48609760540001
 10
64.33266159189999
 20
90.59776601780001
 10
63.756395099
 20
90.70522785219999
 10
63.1647626507
 20
90.80780913379999
 10
62.557066116
 20
90.9054198906
 10
61.93257261189999
 20
90.9979441265
 10
61.2937094377
 20
91.08484967569999
 10
60.64473191800001
 20
91.16554392860001
 10
59.9794529401
 20
91.24070574399999
 10
59.29617269609999
 20
91.3102114073
 10
58.5855914977
 20
91.3745279753
 10
57.83835576479999
 20
91.43419641239999
 10
57.0528507924
 20
91.48996160979999
 10
56.2179912736
 20
91.54248090690002
 10
55.3529580518
 20
91.58986860330001
 10
54.4716040736
 20
91.63080838719999
 10
53.57864165399999
 20
91.664723685
 10
52.68327128060001
 20
91.6911265402
 10
51.7859843396
 20
91.70999612940001
 10
50.8907710733
 20
91.72127917629998
 10
49.9963859455
 20
91.7250367974
  0
LWPOLYLINE
  5
19FA
330
218
100
AcDbEntity
  8
0
  6
Continuous
 62
     7
100
AcDbPolyline
 90
       99
 70
     0
 43
0.0
 10
78.594808319
 20
78.1089280047
 10
78.59268637079999
 20
77.86408629600001
 10
78.5864452002
 20
77.6240670941
 10
78.57619684319999
 20
77.38908368439999
 10
78.56207679810001
 20
77.1589031561
 10
78.5442087981
 20
76.93338202689999
 10
78.5227070058
 20
76.7123995351
 10
78.4976801802
 20
76.495804831
 10
78.4692307196
 20
76.2834944536
 10
78.4374569666
 20
76.07534623479999
 10
78.40244499669999
 20
75.8712268564
 10
78.3642829345
 20
75.6710261115
 10
78.32303743119999
 20
75.4745650376
 10
78.2787686061
 20
75.281682171
 10
78.231523588
 20
75.09221231020001
 10
78.18133255020001
 20
74.9059682687
 10
78.12823251810001
 20
74.7228405885
 10
78.072256809
 20
74.5426876167
 10
78.0134561986
 20
74.3654477547
 10
77.95188469180001
 20
74.191082308
 10
77.8875225789
 20
74.0193768047
 10
77.8203608946
 20
73.8501934187
 10
77.7503284352
 20
73.6832755596
 10
77.6773330916
 20
73.5183281159
 10
77.60140691050001
 20
73.35535689869999
 10
77.5225376596
 20
73.1942855491
 10
77.44072251430001
 20
73.0350804813
 10
77.3559745831
 20
72.8777501075
 10
77.2681870398
 20
72.72210869920001
 10
77.1773099855
 20
72.56806682140001
 10
77.0831744235
 20
72.4153342961
 10
76.9855782841
 20
72.26362641049999
 10
76.8844591281
 20
72.1129087169
 10
76.77969452959999
 20
71.9630803405
 10
76.6711942829
 20
71.81411520090001
 10
76.55887426879999
 20
71.66598471579999
 10
76.44260621689999
 20
71.51859759060001
 10
76.3222908147
 20
71.37191766079999
 10
76.19772799499999
 20
71.2258002076
 10
76.0687255425
 20
71.08014467640001
 10
75.9350947865
 20
70.934876806
 10
75.7966213092
 20
70.78990123220001
 10
75.6531477071
 20
70.6451915101
 10
75.50449829029999
 20
70.50071610479999
 10
75.3504945107
 20
70.3564546542
 10
75.1909775693
 20
70.2124203309
 10
75.02569757589999
 20
70.06855326090001
 10
74.8544130952
 20
69.9248179729
 10
74.6768343571
 20
69.78115222159999
 10
74.4926876871
 20
69.63752658
 10
74.30166271479999
 20
69.4938966089
 10
74.1034454692
 20
69.350235321
 10
73.897770173
 20
69.2065606993
 10
73.68432403719999
 20
69.06287240579999
 10
73.4629642566
 20
68.91928757689999
 10
73.2335293463
 20
68.77591555550001
 10
72.99574331869999
 20
68.63281614909999
 10
72.74938323810001
 20
68.4900920403
 10
72.4940520465
 20
68.3477576012
 10
72.2294275508
 20
68.2058772571
 10
71.9550968615
 20
68.0644767811
 10
71.6705882632
 20
67.9235627651
 10
71.3758144337
 20
67.783334166
 10
71.0706223688
 20
67.6439765042
 10
70.7546439152
 20
67.5056076899
 10
70.4276601671
 20
67.3684140029
 10
70.089080057
 20
67.2324275486
 10
69.7384233874
 20
67.09773848000001
 10
69.37520307189998
 20
66.9644394125
 10
68.998623392
 20
66.8325438106
 10
68.60908489509999
 20
66.70251963140001
 10
68.20743647589999
 20
66.5749246184
 10
67.79160437129999
 20
66.44939575020001
 10
67.36084288100001
 20
66.3260498904
 10
66.91197339590001
 20
66.2043781804
 10
66.44188456870001
 20
66.08404757609999
 10
65.9494907655
 20
65.9650556895
 10
65.431169921
 20
65.8470942112
 10
64.89127519350001
 20
65.73175840399999
 10
64.33266159189999
 20
65.62008999149999
 10
63.756395099
 20
65.5126281571
 10
63.1647626507
 20
65.4100468756
 10
62.557066116
 20
65.31243611869999
 10
61.93257261189999
 20
65.21991188289999
 10
61.2937094377
 20
65.1330063336
 10
60.64473191800001
 20
65.05231208069999
 10
59.9794529401
 20
64.97715026529999
 10
59.29617269609999
 20
64.90764460210001
 10
58.5855914977
 20
64.843328034
 10
57.83835576479999
 20
64.78365959689999
 10
57.0528507924
 20
64.7278943995
 10
56.2179912736
 20
64.67537510239999
 10
55.3529580518
 20
64.627987406
 10
54.4716040736
 20
64.5870476221
 10
53.57864165399999
 20
64.5531323243
 10
52.68327128060001
 20
64.5267294691
 10
51.7859843396
 20
64.50785987989999
 10
50.8907710733
 20
64.496576833
 10
49.9963859455
 20
64.49281921189999
  0
LWPOLYLINE
  5
19FB
330
218
100
AcDbEntity
  8
0
  6
Continuous
 62
     7
100
AcDbPolyline
 90
      113
 70
     0
 43
0.0
 10
82.9963859453
 20
78.10892800489999
 10
82.99147011909999
 20
78.53651919749999
 10
82.97764445350001
 20
78.9543463583
 10
82.9547514609
 20
79.3622828806
 10
82.92326360449999
 20
79.76070858459999
 10
82.8835174679
 20
80.14983938109999
 10
82.83576320299999
 20
80.5300403925
 10
82.7803056011
 20
80.9015521569
 10
82.7173173269
 20
81.2649643385
 10
82.64703456939999
 20
81.62084319039999
 10
82.5695715472
 20
81.96949948350001
 10
82.4851138312
 20
82.3112850943
 10
82.3936835535
 20
82.64664295930002
 10
82.2953513242
 20
82.97603028180001
 10
82.1901572802
 20
83.2997561376
 10
82.07818621979999
 20
83.6181829907
 10
81.9593747691
 20
83.9316078795
 10
81.83370974489999
 20
84.24039722359999
 10
81.70112537420001
 20
84.5447053438
 10
81.56153964819999
 20
84.8447959239
 10
81.4149880911
 20
85.14070729450001
 10
81.2615344103
 20
85.43248015679999
 10
81.10101204729998
 20
85.72037108179999
 10
80.93330285310001
 20
86.00464612620001
 10
80.75832530699999
 20
86.28531753309999
 10
80.57603793689999
 20
86.5623904457
 10
80.38620244749999
 20
86.8361522202
 10
80.18864505859999
 20
87.10686122209999
 10
79.9831307515
 20
87.37460956659999
 10
79.7694868703
 20
87.63951656319999
 10
79.547352546
 20
87.90175899549998
 10
79.3164241667
 20
88.16151671470001
 10
79.0763573052
 20
88.41889982739999
 10
78.82686227649999
 20
88.67404693260001
 10
78.56747124119999
 20
88.92705240469998
 10
78.297821083
 20
89.17800911719998
 10
78.0173079472
 20
89.4270601726
 10
77.7253494357
 20
89.67441144860002
 10
77.4215180627
 20
89.91996749329999
 10
77.1053400704
 20
90.16374709999999
 10
76.7763718761
 20
90.4056134111
 10
76.43425869409999
 20
90.64542940549999
 10
76.07826037489999
 20
90.88321436760001
 10
75.70769578850001
 20
91.1190086583
 10
75.3220330901
 20
91.3526120282
 10
74.9206315564
 20
91.5839454716
 10
74.50313669329999
 20
91.81268561809998
 10
74.06931979799999
 20
92.03848714600001
 10
73.61816277329999
 20
92.26133690370001
 10
73.1496133333
 20
92.4808896386
 10
72.66054534209999
 20
92.6977963316
 10
72.14872104439999
 20
92.9125848051
 10
71.6114230128
 20
93.1252792823
 10
71.0440113846
 20
93.33681036139999
 10
70.45001571
 20
93.54498673989999
 10
69.82698095669999
 20
93.749229786
 10
69.1882210099
 20
93.94563208639999
 10
68.543147682
 20
94.13040845399999
 10
67.9010121585
 20
94.3026135789
 10
67.27331595559999
 20
94.45966325889999
 10
66.6627198935
 20
94.6026889834
 10
66.07468461319999
 20
94.73167780370001
 10
65.51231216819999
 20
94.8474788312
 10
64.98082924950001
 20
94.95048430809999
 10
64.4793225847
 20
95.0420518932
 10
64.0098998502
 20
95.12319608270001
 10
63.5687248897
 20
95.19533860580001
 10
63.1535499034
 20
95.25995358139999
 10
62.7617174987
 20
95.31789833679999
 10
62.3904574235
 20
95.3703341475
 10
62.0378604555
 20
95.417823288
 10
61.7006765847
 20
95.46128289729999
 10
61.3801579222
 20
95.5008096569
 10
61.0761390804
 20
95.53675889739999
 10
60.7896225465
 20
95.56927181030001
 10
60.5222292016
 20
95.5984688526
 10
60.271938477
 20
95.62476755909999
 10
60.03859692249999
 20
95.6484587109
 10
59.8182240635
 20
95.6700430251
 10
59.6078472746
 20
95.69001102200001
 10
59.404289558
 20
95.70868407290001
 10
59.20406454550001
 20
95.7264931817
 10
59.0051277234
 20
95.7435999708
 10
58.8038207629
 20
95.7603497626
 10
58.6014987411
 20
95.7766224603
 10
58.39798388520001
 20
95.7924050315
 10
58.19421641579999
 20
95.8077216056
 10
57.99126007569999
 20
95.82257929489999
 10
57.7885665259
 20
95.8370161176
 10
57.58635557319999
 20
95.85104924319999
 10
57.3833865225
 20
95.8647483292
 10
57.17929498170001
 20
95.87814656299999
 10
56.9716718493
 20
95.8913705253
 10
56.75866608359999
 20
95.9045365122
 10
56.5382391133
 20
95.9177085648
 10
56.3083089638
 20
95.93098716690001
 10
56.06715480350001
 20
95.9443792873
 10
55.812482603
 20
95.9579575785
 10
55.5439299813
 20
95.97162547339999
 10
55.2604928669
 20
95.98534884440001
 10
54.96180230229999
 20
95.99901302520001
 10
54.64732941859999
 20
96.01253569549999
 10
54.316549879
 20
96.02578568950001
 10
53.9689374857
 20
96.03865768129999
 10
53.6039689538
 20
96.0509918308
 10
53.221122528
 20
96.06265711849999
 10
52.819867423
 20
96.0734617565
 10
52.39967216149999
 20
96.08324625879999
 10
51.9600170648
 20
96.0917827003
 10
51.500376993
 20
96.0988792374
 10
51.0202368526
 20
96.10426813970001
 10
50.51882023600001
 20
96.10757626899999
 10
49.9963859456
 20
96.1089280046
  0
LWPOLYLINE
  5
19FC
330
218
100
AcDbEntity
  8
0
  6
Continuous
 62
     7
100
AcDbPolyline
 90
       95
 70
     0
 43
0.0
 10
82.96094667310001
 20
78.1089280047
 10
82.95788266069999
 20
78.45244853369999
 10
82.948812665
 20
78.78962934409999
 10
82.9339315176
 20
79.12021226330001
 10
82.91342181400001
 20
79.44439148229999
 10
82.88746952169999
 20
79.76217975770001
 10
82.85622152010001
 20
80.0739517987
 10
82.8198108948
 20
80.37998682639999
 10
82.7783409156
 20
80.68064398229999
 10
82.73188916210001
 20
80.97637461599999
 10
82.68059555429999
 20
81.2671596018
 10
82.62456473609999
 20
81.55314969539999
 10
82.5639269796
 20
81.8343209903
 10
82.4988450162
 20
82.11051948689998
 10
82.4292972171
 20
82.38232833149998
 10
82.3552510919
 20
82.65019950459999
 10
82.27671654499999
 20
82.914356721
 10
82.1936472223
 20
83.175218715
 10
82.10617770049999
 20
83.43258270449998
 10
82.01439927979999
 20
83.6863932732
 10
81.9183816289
 20
83.93664784290001
 10
81.81828154180001
 20
84.18312267819999
 10
81.7138984067
 20
84.42644133020001
 10
81.6050330542
 20
84.66709450419999
 10
81.491653659
 20
84.90519195860001
 10
81.373609413
 20
85.14108358819999
 10
81.2510322498
 20
85.3745137641
 10
81.12401624710001
 20
85.6053238534
 10
80.9925314838
 20
85.83357836819999
 10
80.85666385319999
 20
86.0591279217
 10
80.71611579929999
 20
86.2824312833
 10
80.57062013339999
 20
86.50385060599999
 10
80.4200790017
 20
86.7234821791
 10
80.26423602760001
 20
86.9416138765
 10
80.10322091109999
 20
87.15796450139999
 10
79.9371526987
 20
87.37229310629999
 10
79.7658364563
 20
87.58476122940001
 10
79.5892044966
 20
87.7953416383
 10
79.40694162719999
 20
88.00430223540001
 10
79.2187295352
 20
88.21189313739999
 10
79.0244412642
 20
88.4181169114
 10
78.8238403203
 20
88.6230705058
 10
78.6168913013
 20
88.82662594290001
 10
78.4036012596
 20
89.0286162049
 10
78.18361775079999
 20
89.22920686110002
 10
77.9566577065
 20
89.42848759569999
 10
77.7224451556
 20
89.6265224032
 10
77.4806721793
 20
89.82337645260001
 10
77.2311164901
 20
90.01902280450002
 10
76.97355279199999
 20
90.2134219578
 10
76.7076809417
 20
90.4065750372
 10
76.4332302242
 20
90.59845113549998
 10
76.149798554
 20
90.78909579719999
 10
75.85698808069999
 20
90.97852693370001
 10
75.55450756509999
 20
91.16667502879998
 10
75.24209881899999
 20
91.3534404425
 10
74.9192849941
 20
91.5388356559
 10
74.58563633979998
 20
91.722817778
 10
74.24064115909999
 20
91.9053696075
 10
73.8837800848
 20
92.08645652399999
 10
73.51468066399999
 20
92.26595433159999
 10
73.1330125788
 20
92.4437026042
 10
72.7380808945
 20
92.61968022079999
 10
72.32932428789999
 20
92.79378188149999
 10
71.90600814779999
 20
92.96595835399999
 10
71.46735594769999
 20
93.1361503213
 10
71.0129505204
 20
93.30411484649999
 10
70.54234987859999
 20
93.4696032459
 10
70.05480774999999
 20
93.63247080729999
 10
69.5498365059
 20
93.79247910229999
 10
69.02629499709999
 20
93.9495561018
 10
68.48305039270001
 20
94.10355796879999
 10
67.91948012989999
 20
94.25417686979999
 10
67.33419020159999
 20
94.40129768620002
 10
66.728453824
 20
94.5441133101
 10
66.10262751029999
 20
94.6821044108
 10
65.45814298329999
 20
94.8146069228
 10
64.7968913436
 20
94.94098461870001
 10
64.1180060257
 20
95.06115841879999
 10
63.42108944949999
 20
95.17495483530002
 10
62.706665698
 20
95.28208348979999
 10
61.97546672520001
 20
95.38224023059999
 10
61.2264222463
 20
95.4753753866
 10
60.46303815989999
 20
95.56093777870001
 10
59.6723652958
 20
95.64009213149999
 10
58.84434028600001
 20
95.71314696469999
 10
57.97677920539999
 20
95.7797051176
 10
57.0546568439
 20
95.84218859779999
 10
56.0909851605
 20
95.8991106781
 10
55.09499355039999
 20
95.9490306162
 10
54.0794760808
 20
95.9906780194
 10
53.0609047405
 20
96.02313172129999
 10
52.0384891924
 20
96.0463712592
 10
51.0173123156
 20
96.06027945640001
 10
49.9963859455
 20
96.06491312590001
  0
LWPOLYLINE
  5
19FD
330
218
100
AcDbEntity
  8
0
  6
Continuous
 62
     7
100
AcDbPolyline
 90
       95
 70
     0
 43
0.0
 10
82.96094667310001
 20
78.1089280047
 10
82.95788266069999
 20
77.7654074756
 10
82.948812665
 20
77.4282266652
 10
82.9339315176
 20
77.09764374609999
 10
82.91342181400001
 20
76.773464527
 10
82.88746952169999
 20
76.45567625169999
 10
82.85622152010001
 20
76.1439042106
 10
82.8198108948
 20
75.83786918289999
 10
82.7783409156
 20
75.537212027
 10
82.73188916210001
 20
75.24148139330001
 10
82.68059555429999
 20
74.9506964075
 10
82.62456473609999
 20
74.664706314
 10
82.5639269796
 20
74.38353501899999
 10
82.4988450162
 20
74.10733652240001
 10
82.4292972171
 20
73.8355276778
 10
82.3552510919
 20
73.56765650479999
 10
82.27671654499999
 20
73.3034992883
 10
82.1936472223
 20
73.04263729439999
 10
82.10617770049999
 20
72.7852733048
 10
82.01439927979999
 20
72.5314627362
 10
81.9183816289
 20
72.2812081664
 10
81.81828154180001
 20
72.0347333311
 10
81.7138984067
 20
71.7914146792
 10
81.6050330542
 20
71.5507615052
 10
81.491653659
 20
71.31266405069999
 10
81.373609413
 20
71.0767724211
 10
81.2510322498
 20
70.8433422452
 10
81.12401624710001
 20
70.61253215589999
 10
80.9925314838
 20
70.3842776411
 10
80.85666385319999
 20
70.1587280876
 10
80.71611579929999
 20
69.93542472600001
 10
80.57062013339999
 20
69.71400540329999
 10
80.4200790017
 20
69.49437383020001
 10
80.26423602760001
 20
69.27624213279999
 10
80.10322091109999
 20
69.0598915079
 10
79.9371526987
 20
68.845562903
 10
79.7658364563
 20
68.63309477999999
 10
79.5892044966
 20
68.422514371
 10
79.40694162719999
 20
68.2135537739
 10
79.2187295352
 20
68.005962872
 10
79.0244412642
 20
67.7997390979
 10
78.8238403203
 20
67.5947855035
 10
78.6168913013
 20
67.39123006639999
 10
78.4036012596
 20
67.18923980439999
 10
78.18361775079999
 20
66.98864914819999
 10
77.9566577065
 20
66.7893684136
 10
77.7224451556
 20
66.59133360609999
 10
77.4806721793
 20
66.3944795567
 10
77.2311164901
 20
66.19883320479999
 10
76.97355279199999
 20
66.0044340515
 10
76.7076809417
 20
65.81128097220001
 10
76.4332302242
 20
65.61940487390001
 10
76.149798554
 20
65.4287602122
 10
75.85698808069999
 20
65.23932907569999
 10
75.55450756509999
 20
65.05118098050001
 10
75.24209881899999
 20
64.86441556689999
 10
74.9192849941
 20
64.6790203534
 10
74.58563633979998
 20
64.4950382313
 10
74.24064115909999
 20
64.3124864019
 10
73.8837800848
 20
64.13139948539999
 10
73.51468066399999
 20
63.9519016777
 10
73.1330125788
 20
63.7741534052
 10
72.7380808945
 20
63.5981757885
 10
72.32932428789999
 20
63.4240741278
 10
71.90600814779999
 20
63.2518976553
 10
71.46735594769999
 20
63.0817056881
 10
71.0129505204
 20
62.9137411628
 10
70.54234987859999
 20
62.7482527635
 10
70.05480774999999
 20
62.585385202
 10
69.5498365059
 20
62.425376907
 10
69.02629499709999
 20
62.2682999075
 10
68.48305039270001
 20
62.1142980405
 10
67.91948012989999
 20
61.96367913949999
 10
67.33419020159999
 20
61.8165583231
 10
66.728453824
 20
61.67374269919999
 10
66.10262751029999
 20
61.5357515985
 10
65.45814298329999
 20
61.4032490866
 10
64.7968913436
 20
61.2768713906
 10
64.1180060257
 20
61.1566975905
 10
63.42108944949999
 20
61.04290117399999
 10
62.706665698
 20
60.9357725195
 10
61.97546672520001
 20
60.8356157787
 10
61.2264222463
 20
60.74248062270001
 10
60.46303815989999
 20
60.6569182306
 10
59.6723652958
 20
60.57776387789999
 10
58.84434028600001
 20
60.5047090446
 10
57.97677920539999
 20
60.4381508918
 10
57.0546568439
 20
60.3756674115
 10
56.0909851605
 20
60.3187453313
 10
55.09499355039999
 20
60.2688253931
 10
54.0794760808
 20
60.22717799
 10
53.0609047405
 20
60.19472428810001
 10
52.0384891924
 20
60.1714847502
 10
51.0173123156
 20
60.15757655289999
 10
49.9963859455
 20
60.1529428835
  0
ARC
  5
1DDF
330
218
100
AcDbEntity
  8
0
  6
Continuous
 62
     7
100
AcDbCircle
 10
49.9963859455
 20
84.6089280047
 30
0.0
 40
1.8053310412
100
AcDbArc
 50
180.0
 51
181.0232118661
  0
ARC
  5
1DE0
330
218
100
AcDbEntity
  8
0
  6
Continuous
 62
     7
100
AcDbCircle
 10
49.9963859455
 20
84.6089280047
 30
0.0
 40
1.8053310409
100
AcDbArc
 50
358.9767881337
 51
360.0
  0
CIRCLE
  5
1DE1
330
218
100
AcDbEntity
  8
0
  6
Continuous
 62
     7
100
AcDbCircle
 10
49.9963859455
 20
84.6089280047
 30
0.0
 40
1.448223304699999
  0
CIRCLE
  5
1DE2
330
218
100
AcDbEntity
  8
0
  6
Continuous
 62
     7
100
AcDbCircle
 10
49.9963859455
 20
84.6089280047
 30
0.0
 40
1.271446609399999
  0
LINE
  5
1E9A
330
218
100
AcDbEntity
  8
0
  6
CENTER
100
AcDbLine
 10
53.84804772290539
 20
84.61369137648487
 30
0.0
 11
46.20688832041122
 21
84.61369137648487
 31
0.0
  0
ENDSEC
  0
SECTION
  2
OBJECTS
  0
DICTIONARY
  5
C
330
0
100
AcDbDictionary
281
     1
  3
ACAD_COLOR
350
1E26
  3
ACAD_GROUP
350
D
  3
ACAD_LAYOUT
350
1A
  3
ACAD_MATERIAL
350
1DF9
  3
ACAD_MLEADERSTYLE
350
1E4B
  3
ACAD_MLINESTYLE
350
17
  3
ACAD_PLOTSETTINGS
350
19
  3
ACAD_PLOTSTYLENAME
350
E
  3
ACAD_SCALELIST
350
1E29
  3
ACAD_TABLESTYLE
350
1E27
  3
ACAD_VISUALSTYLE
350
1E12
  3
ACDB_RECOMPOSE_DATA
350
1E51
  3
AcDbVariableDictionary
350
1E83
  3
DWGPROPS
350
1EF2
  0
DICTIONARY
  5
1E52
330
8
100
AcDbDictionary
280
     1
281
     1
  0
DICTIONARY
  5
1EA3
330
10
100
AcDbDictionary
280
     1
281
     1
  3
ADSK_XREC_LAYER_RECONCILED
360
1EA4
  0
DICTIONARY
  5
1EA5
330
1FA
100
AcDbDictionary
280
     1
281
     1
  3
ADSK_XREC_LAYER_RECONCILED
360
1EA6
  0
DICTIONARY
  5
1EA7
330
1FB
100
AcDbDictionary
280
     1
281
     1
  3
ADSK_XREC_LAYER_RECONCILED
360
1EA8
  0
DICTIONARY
  5
1EA9
330
1FC
100
AcDbDictionary
280
     1
281
     1
  3
ADSK_XREC_LAYER_RECONCILED
360
1EAA
  0
DICTIONARY
  5
1EAB
330
1FD
100
AcDbDictionary
280
     1
281
     1
  3
ADSK_XREC_LAYER_RECONCILED
360
1EAC
  0
DICTIONARY
  5
1EAD
330
1FE
100
AcDbDictionary
280
     1
281
     1
  3
ADSK_XREC_LAYER_RECONCILED
360
1EAE
  0
DICTIONARY
  5
1EAF
330
1FF
100
AcDbDictionary
280
     1
281
     1
  3
ADSK_XREC_LAYER_RECONCILED
360
1EB0
  0
DICTIONARY
  5
1EB1
330
200
100
AcDbDictionary
280
     1
281
     1
  3
ADSK_XREC_LAYER_RECONCILED
360
1EB2
  0
DICTIONARY
  5
1EB3
330
201
100
AcDbDictionary
280
     1
281
     1
  3
ADSK_XREC_LAYER_RECONCILED
360
1EB4
  0
DICTIONARY
  5
1EB5
330
202
100
AcDbDictionary
280
     1
281
     1
  3
ADSK_XREC_LAYER_RECONCILED
360
1EB6
  0
DICTIONARY
  5
1EB7
330
203
100
AcDbDictionary
280
     1
281
     1
  3
ADSK_XREC_LAYER_RECONCILED
360
1EB8
  0
DICTIONARY
  5
1EB9
330
204
100
AcDbDictionary
280
     1
281
     1
  3
ADSK_XREC_LAYER_RECONCILED
360
1EBA
  0
DICTIONARY
  5
1EBB
330
205
100
AcDbDictionary
280
     1
281
     1
  3
ADSK_XREC_LAYER_RECONCILED
360
1EBC
  0
DICTIONARY
  5
1EBD
330
206
100
AcDbDictionary
280
     1
281
     1
  3
ADSK_XREC_LAYER_RECONCILED
360
1EBE
  0
DICTIONARY
  5
1EBF
330
207
100
AcDbDictionary
280
     1
281
     1
  3
ADSK_XREC_LAYER_RECONCILED
360
1EC0
  0
DICTIONARY
  5
1EC1
330
208
100
AcDbDictionary
280
     1
281
     1
  3
ADSK_XREC_LAYER_RECONCILED
360
1EC2
  0
DICTIONARY
  5
1EC3
330
209
100
AcDbDictionary
280
     1
281
     1
  3
ADSK_XREC_LAYER_RECONCILED
360
1EC4
  0
DICTIONARY
  5
1EC5
330
20A
100
AcDbDictionary
280
     1
281
     1
  3
ADSK_XREC_LAYER_RECONCILED
360
1EC6
  0
DICTIONARY
  5
1EC7
330
20B
100
AcDbDictionary
280
     1
281
     1
  3
ADSK_XREC_LAYER_RECONCILED
360
1EC8
  0
DICTIONARY
  5
1EC9
330
20C
100
AcDbDictionary
280
     1
281
     1
  3
ADSK_XREC_LAYER_RECONCILED
360
1ECA
  0
DICTIONARY
  5
1ECB
330
20D
100
AcDbDictionary
280
     1
281
     1
  3
ADSK_XREC_LAYER_RECONCILED
360
1ECC
  0
DICTIONARY
  5
1ECD
330
20E
100
AcDbDictionary
280
     1
281
     1
  3
ADSK_XREC_LAYER_RECONCILED
360
1ECE
  0
DICTIONARY
  5
1ECF
330
20F
100
AcDbDictionary
280
     1
281
     1
  3
ADSK_XREC_LAYER_RECONCILED
360
1ED0
  0
DICTIONARY
  5
1E26
102
{ACAD_REACTORS
330
C
102
}
330
C
100
AcDbDictionary
281
     1
  0
DICTIONARY
  5
D
102
{ACAD_REACTORS
330
C
102
}
330
C
100
AcDbDictionary
281
     1
  0
DICTIONARY
  5
1A
102
{ACAD_REACTORS
330
C
102
}
330
C
100
AcDbDictionary
281
     1
  3
Layout1
350
1DF5
  3
Model
350
1DF4
  0
DICTIONARY
  5
1DF9
102
{ACAD_REACTORS
330
C
102
}
330
C
100
AcDbDictionary
281
     1
  3
ByBlock
350
1E02
  3
ByLayer
350
1DFA
  3
Global
350
1E0A
  0
DICTIONARY
  5
1E4B
102
{ACAD_REACTORS
330
C
102
}
330
C
100
AcDbDictionary
281
     1
  3
Standard
350
1E4C
  0
DICTIONARY
  5
17
102
{ACAD_REACTORS
330
C
102
}
330
C
100
AcDbDictionary
281
     1
  3
Standard
350
18
  0
DICTIONARY
  5
19
102
{ACAD_REACTORS
330
C
102
}
330
C
100
AcDbDictionary
281
     1
  0
ACDBDICTIONARYWDFLT
  5
E
102
{ACAD_REACTORS
330
C
102
}
330
C
100
AcDbDictionary
281
     1
  3
Normal
350
F
100
AcDbDictionaryWithDefault
340
F
  0
DICTIONARY
  5
1E29
102
{ACAD_REACTORS
330
C
102
}
330
C
100
AcDbDictionary
281
     1
  3
A0
350
1E2A
  3
A1
350
1E2B
  3
A2
350
1E2C
  3
A3
350
1E2D
  3
A4
350
1E2E
  3
A5
350
1E2F
  3
A6
350
1E30
  3
A7
350
1E31
  3
A8
350
1E32
  3
A9
350
1E33
  3
B0
350
1E34
  3
B1
350
1E35
  3
B2
350
1E36
  3
B3
350
1E37
  3
B4
350
1E38
  3
B5
350
1E39
  3
B6
350
1E3A
  3
B7
350
1E3B
  3
B8
350
1E3C
  3
B9
350
1E3D
  3
C0
350
1E3E
  3
C1
350
1E3F
  3
C2
350
1E40
  3
C3
350
1E41
  3
C4
350
1E42
  3
C5
350
1E43
  3
C6
350
1E44
  3
C7
350
1E45
  3
C8
350
1E46
  3
C9
350
1E47
  3
D0
350
1E48
  3
D1
350
1E49
  3
D2
350
1E4A
  0
DICTIONARY
  5
1E27
102
{ACAD_REACTORS
330
C
102
}
330
C
100
AcDbDictionary
281
     1
  3
Standard
350
1E28
  0
DICTIONARY
  5
1E12
102
{ACAD_REACTORS
330
C
102
}
330
C
100
AcDbDictionary
281
     1
  3
2dWireframe
350
1E18
  3
3D Hidden
350
1E1A
  3
3dWireframe
350
1E19
  3
Basic
350
1E17
  3
Brighten
350
1E1E
  3
ColorChange
350
1E22
  3
Conceptual
350
1E1B
  3
Dim
350
1E1D
  3
EdgeColorOff
350
1E25
  3
Facepattern
350
1E21
  3
Flat
350
1E13
  3
FlatWithEdges
350
1E14
  3
Gouraud
350
1E15
  3
GouraudWithEdges
350
1E16
  3
JitterOff
350
1E23
  3
Linepattern
350
1E20
  3
OverhangOff
350
1E24
  3
Realistic
350
1E1C
  3
Thicken
350
1E1F
  0
XRECORD
  5
1E51
102
{ACAD_REACTORS
330
C
102
}
330
C
100
AcDbXrecord
280
     1
 90
        1
330
1E28
  0
DICTIONARY
  5
1E83
102
{ACAD_REACTORS
330
C
102
}
330
C
100
AcDbDictionary
281
     1
  3
CANNOSCALE
350
1E86
  3
CMLEADERSTYLE
350
1E85
  3
CTABLESTYLE
350
1E84
  3
DIMASSOC
350
1E89
  3
INDEXCTL
350
1E88
  3
SORTENTS
350
1E87
  3
XCLIPFRAME
350
1E8A
  0
XRECORD
  5
1EF2
102
{ACAD_REACTORS
330
C
102
}
330
C
100
AcDbXrecord
280
     1
  1
DWGPROPS COOKIE
  2

  3

  4

  6

  7

  8
francoisbu
  9

300
=
301
=
302
=
303
=
304
=
305
=
306
=
307
=
308
=
309
=
 40
0.0137774652777778
 41
2456086.647553878
 42
2456087.379059051
  1

 90
        0
  0
XRECORD
  5
1EA4
102
{ACAD_REACTORS
330
1EA3
102
}
330
1EA3
100
AcDbXrecord
280
     1
290
     1
  0
XRECORD
  5
1EA6
102
{ACAD_REACTORS
330
1EA5
102
}
330
1EA5
100
AcDbXrecord
280
     1
290
     1
  0
XRECORD
  5
1EA8
102
{ACAD_REACTORS
330
1EA7
102
}
330
1EA7
100
AcDbXrecord
280
     1
290
     1
  0
XRECORD
  5
1EAA
102
{ACAD_REACTORS
330
1EA9
102
}
330
1EA9
100
AcDbXrecord
280
     1
290
     1
  0
XRECORD
  5
1EAC
102
{ACAD_REACTORS
330
1EAB
102
}
330
1EAB
100
AcDbXrecord
280
     1
290
     1
  0
XRECORD
  5
1EAE
102
{ACAD_REACTORS
330
1EAD
102
}
330
1EAD
100
AcDbXrecord
280
     1
290
     1
  0
XRECORD
  5
1EB0
102
{ACAD_REACTORS
330
1EAF
102
}
330
1EAF
100
AcDbXrecord
280
     1
290
     1
  0
XRECORD
  5
1EB2
102
{ACAD_REACTORS
330
1EB1
102
}
330
1EB1
100
AcDbXrecord
280
     1
290
     1
  0
XRECORD
  5
1EB4
102
{ACAD_REACTORS
330
1EB3
102
}
330
1EB3
100
AcDbXrecord
280
     1
290
     1
  0
XRECORD
  5
1EB6
102
{ACAD_REACTORS
330
1EB5
102
}
330
1EB5
100
AcDbXrecord
280
     1
290
     1
  0
XRECORD
  5
1EB8
102
{ACAD_REACTORS
330
1EB7
102
}
330
1EB7
100
AcDbXrecord
280
     1
290
     1
  0
XRECORD
  5
1EBA
102
{ACAD_REACTORS
330
1EB9
102
}
330
1EB9
100
AcDbXrecord
280
     1
290
     1
  0
XRECORD
  5
1EBC
102
{ACAD_REACTORS
330
1EBB
102
}
330
1EBB
100
AcDbXrecord
280
     1
290
     1
  0
XRECORD
  5
1EBE
102
{ACAD_REACTORS
330
1EBD
102
}
330
1EBD
100
AcDbXrecord
280
     1
290
     1
  0
XRECORD
  5
1EC0
102
{ACAD_REACTORS
330
1EBF
102
}
330
1EBF
100
AcDbXrecord
280
     1
290
     1
  0
XRECORD
  5
1EC2
102
{ACAD_REACTORS
330
1EC1
102
}
330
1EC1
100
AcDbXrecord
280
     1
290
     1
  0
XRECORD
  5
1EC4
102
{ACAD_REACTORS
330
1EC3
102
}
330
1EC3
100
AcDbXrecord
280
     1
290
     1
  0
XRECORD
  5
1EC6
102
{ACAD_REACTORS
330
1EC5
102
}
330
1EC5
100
AcDbXrecord
280
     1
290
     1
  0
XRECORD
  5
1EC8
102
{ACAD_REACTORS
330
1EC7
102
}
330
1EC7
100
AcDbXrecord
280
     1
290
     1
  0
XRECORD
  5
1ECA
102
{ACAD_REACTORS
330
1EC9
102
}
330
1EC9
100
AcDbXrecord
280
     1
290
     1
  0
XRECORD
  5
1ECC
102
{ACAD_REACTORS
330
1ECB
102
}
330
1ECB
100
AcDbXrecord
280
     1
290
     1
  0
XRECORD
  5
1ECE
102
{ACAD_REACTORS
330
1ECD
102
}
330
1ECD
100
AcDbXrecord
280
     1
290
     1
  0
XRECORD
  5
1ED0
102
{ACAD_REACTORS
330
1ECF
102
}
330
1ECF
100
AcDbXrecord
280
     1
290
     1
  0
LAYOUT
  5
1DF5
102
{ACAD_XDICTIONARY
360
1EF5
102
}
102
{ACAD_REACTORS
330
1A
102
}
330
1A
100
AcDbPlotSettings
  1

  2
none_device
  4
ANSI_B_(17.00_x_11.00_Inches)
  6

 40
0.0
 41
0.0
 42
0.0
 43
0.0
 44
431.8
 45
279.4
 46
0.0
 47
0.0
 48
0.0
 49
0.0
140
0.0
141
0.0
142
1.0
143
1.0
 70
     0
 72
     0
 73
     0
 74
     0
  7

 75
     0
147
1.0
148
0.0
149
0.0
100
AcDbLayout
  1
Layout1
 70
     1
 71
     1
 10
0.0
 20
0.0
 11
12.0
 21
9.0
 12
0.0
 22
0.0
 32
0.0
 14
1.000000000000000E+20
 24
1.000000000000000E+20
 34
1.000000000000000E+20
 15
-1.000000000000000E+20
 25
-1.000000000000000E+20
 35
-1.000000000000000E+20
146
0.0
 13
0.0
 23
0.0
 33
0.0
 16
1.0
 26
0.0
 36
0.0
 17
0.0
 27
1.0
 37
0.0
 76
     0
330
219
  0
LAYOUT
  5
1DF4
102
{ACAD_XDICTIONARY
360
1EF3
102
}
102
{ACAD_REACTORS
330
1A
102
}
330
1A
100
AcDbPlotSettings
  1

  2
none_device
  4
ANSI_B_(17.00_x_11.00_Inches)
  6

 40
0.0
 41
0.0
 42
0.0
 43
0.0
 44
431.8
 45
279.4
 46
0.0
 47
0.0
 48
0.0
 49
0.0
140
0.0
141
0.0
142
1.0
143
1.0
 70
  1024
 72
     0
 73
     0
 74
     0
  7

 75
     0
147
1.0
148
0.0
149
0.0
100
AcDbLayout
  1
Model
 70
     0
 71
     0
 10
0.0
 20
0.0
 11
17.0
 21
11.0
 12
0.0
 22
0.0
 32
0.0
 14
0.0
 24
0.0
 34
0.0
 15
0.0
 25
0.0
 35
0.0
146
0.0
 13
0.0
 23
0.0
 33
0.0
 16
1.0
 26
0.0
 36
0.0
 17
0.0
 27
1.0
 37
0.0
 76
     0
330
218
331
1F4
  0
MATERIAL
  5
1E02
102
{ACAD_XDICTIONARY
360
1E03
102
}
102
{ACAD_REACTORS
330
1DF9
102
}
330
1DF9
100
AcDbMaterial
  1
ByBlock
 72
     0
 43
0.0208333333333333
 43
0.0
 43
0.0
 43
0.0
 43
0.0
 43
0.0208333333333333
 43
0.0
 43
0.0
 43
0.0
 43
0.0
 43
1.0
 43
0.0
 43
0.0
 43
0.0
 43
0.0
 43
1.0
 77
     0
 47
0.0208333333333333
 47
0.0
 47
0.0
 47
0.0
 47
0.0
 47
0.0208333333333333
 47
0.0
 47
0.0
 47
0.0
 47
0.0
 47
1.0
 47
0.0
 47
0.0
 47
0.0
 47
0.0
 47
1.0
171
     0
 49
0.0208333333333333
 49
0.0
 49
0.0
 49
0.0
 49
0.0
 49
0.0208333333333333
 49
0.0
 49
0.0
 49
0.0
 49
0.0
 49
1.0
 49
0.0
 49
0.0
 49
0.0
 49
0.0
 49
1.0
175
     0
142
0.0208333333333333
142
0.0
142
0.0
142
0.0
142
0.0
142
0.0208333333333333
142
0.0
142
0.0
142
0.0
142
0.0
142
1.0
142
0.0
142
0.0
142
0.0
142
0.0
142
1.0
179
     0
144
0.0208333333333333
144
0.0
144
0.0
144
0.0
144
0.0
144
0.0208333333333333
144
0.0
144
0.0
144
0.0
144
0.0
144
1.0
144
0.0
144
0.0
144
0.0
144
0.0
144
1.0
147
0.0208333333333333
147
0.0
147
0.0
147
0.0
147
0.0
147
0.0208333333333333
147
0.0
147
0.0
147
0.0
147
0.0
147
1.0
147
0.0
147
0.0
147
0.0
147
0.0
147
1.0
  0
MATERIAL
  5
1DFA
102
{ACAD_XDICTIONARY
360
1DFB
102
}
102
{ACAD_REACTORS
330
1DF9
102
}
330
1DF9
100
AcDbMaterial
  1
ByLayer
 72
     0
 43
0.0208333333333333
 43
0.0
 43
0.0
 43
0.0
 43
0.0
 43
0.0208333333333333
 43
0.0
 43
0.0
 43
0.0
 43
0.0
 43
1.0
 43
0.0
 43
0.0
 43
0.0
 43
0.0
 43
1.0
 77
     0
 47
0.0208333333333333
 47
0.0
 47
0.0
 47
0.0
 47
0.0
 47
0.0208333333333333
 47
0.0
 47
0.0
 47
0.0
 47
0.0
 47
1.0
 47
0.0
 47
0.0
 47
0.0
 47
0.0
 47
1.0
171
     0
 49
0.0208333333333333
 49
0.0
 49
0.0
 49
0.0
 49
0.0
 49
0.0208333333333333
 49
0.0
 49
0.0
 49
0.0
 49
0.0
 49
1.0
 49
0.0
 49
0.0
 49
0.0
 49
0.0
 49
1.0
175
     0
142
0.0208333333333333
142
0.0
142
0.0
142
0.0
142
0.0
142
0.0208333333333333
142
0.0
142
0.0
142
0.0
142
0.0
142
1.0
142
0.0
142
0.0
142
0.0
142
0.0
142
1.0
179
     0
144
0.0208333333333333
144
0.0
144
0.0
144
0.0
144
0.0
144
0.0208333333333333
144
0.0
144
0.0
144
0.0
144
0.0
144
1.0
144
0.0
144
0.0
144
0.0
144
0.0
144
1.0
147
0.0208333333333333
147
0.0
147
0.0
147
0.0
147
0.0
147
0.0208333333333333
147
0.0
147
0.0
147
0.0
147
0.0
147
1.0
147
0.0
147
0.0
147
0.0
147
0.0
147
1.0
  0
MATERIAL
  5
1E0A
102
{ACAD_XDICTIONARY
360
1E0B
102
}
102
{ACAD_REACTORS
330
1DF9
102
}
330
1DF9
100
AcDbMaterial
  1
Global
 72
     0
 43
0.0208333333333333
 43
0.0
 43
0.0
 43
0.0
 43
0.0
 43
0.0208333333333333
 43
0.0
 43
0.0
 43
0.0
 43
0.0
 43
1.0
 43
0.0
 43
0.0
 43
0.0
 43
0.0
 43
1.0
 77
     0
 47
0.0208333333333333
 47
0.0
 47
0.0
 47
0.0
 47
0.0
 47
0.0208333333333333
 47
0.0
 47
0.0
 47
0.0
 47
0.0
 47
1.0
 47
0.0
 47
0.0
 47
0.0
 47
0.0
 47
1.0
171
     0
 49
0.0208333333333333
 49
0.0
 49
0.0
 49
0.0
 49
0.0
 49
0.0208333333333333
 49
0.0
 49
0.0
 49
0.0
 49
0.0
 49
1.0
 49
0.0
 49
0.0
 49
0.0
 49
0.0
 49
1.0
175
     0
142
0.0208333333333333
142
0.0
142
0.0
142
0.0
142
0.0
142
0.0208333333333333
142
0.0
142
0.0
142
0.0
142
0.0
142
1.0
142
0.0
142
0.0
142
0.0
142
0.0
142
1.0
179
     0
144
0.0208333333333333
144
0.0
144
0.0
144
0.0
144
0.0
144
0.0208333333333333
144
0.0
144
0.0
144
0.0
144
0.0
144
1.0
144
0.0
144
0.0
144
0.0
144
0.0
144
1.0
147
0.0208333333333333
147
0.0
147
0.0
147
0.0
147
0.0
147
0.0208333333333333
147
0.0
147
0.0
147
0.0
147
0.0
147
1.0
147
0.0
147
0.0
147
0.0
147
0.0
147
1.0
  0
MLEADERSTYLE
  5
1E4C
102
{ACAD_REACTORS
330
1E4B
102
}
330
1E4B
100
AcDbMLeaderStyle
170
     2
171
     1
172
     0
 90
        2
 40
0.0
 41
0.0
173
     1
 91
-1056964608
340
14
 92
       -2
290
     1
 42
0.09
291
     1
 43
0.36
  3
Standard
 44
0.18
300

342
11
174
     1
178
     6
175
     1
176
     0
 93
-1056964608
 45
0.18
292
     0
297
     0
 46
0.18
 94
-1056964608
 47
1.0
 49
1.0
140
1.0
293
     1
141
0.0
294
     1
177
     0
142
1.0
295
     0
296
     0
143
0.125
1001
ACAD_MLEADERVER
1070
     2
  0
MLINESTYLE
  5
18
102
{ACAD_REACTORS
330
17
102
}
330
17
100
AcDbMlineStyle
  2
STANDARD
 70
     0
  3

 62
   256
 51
90.0
 52
90.0
 71
     2
 49
0.5
 62
   256
  6
BYLAYER
 49
-0.5
 62
   256
  6
BYLAYER
  0
ACDBPLACEHOLDER
  5
F
102
{ACAD_REACTORS
330
E
102
}
330
E
  0
SCALE
  5
1E2A
102
{ACAD_REACTORS
330
1E29
102
}
330
1E29
100
AcDbScale
 70
     0
300
1:1
140
1.0
141
1.0
290
     1
  0
SCALE
  5
1E2B
102
{ACAD_REACTORS
330
1E29
102
}
330
1E29
100
AcDbScale
 70
     0
300
1:2
140
1.0
141
2.0
290
     0
  0
SCALE
  5
1E2C
102
{ACAD_REACTORS
330
1E29
102
}
330
1E29
100
AcDbScale
 70
     0
300
1:4
140
1.0
141
4.0
290
     0
  0
SCALE
  5
1E2D
102
{ACAD_REACTORS
330
1E29
102
}
330
1E29
100
AcDbScale
 70
     0
300
1:5
140
1.0
141
5.0
290
     0
  0
SCALE
  5
1E2E
102
{ACAD_REACTORS
330
1E29
102
}
330
1E29
100
AcDbScale
 70
     0
300
1:8
140
1.0
141
8.0
290
     0
  0
SCALE
  5
1E2F
102
{ACAD_REACTORS
330
1E29
102
}
330
1E29
100
AcDbScale
 70
     0
300
1:10
140
1.0
141
10.0
290
     0
  0
SCALE
  5
1E30
102
{ACAD_REACTORS
330
1E29
102
}
330
1E29
100
AcDbScale
 70
     0
300
1:16
140
1.0
141
16.0
290
     0
  0
SCALE
  5
1E31
102
{ACAD_REACTORS
330
1E29
102
}
330
1E29
100
AcDbScale
 70
     0
300
1:20
140
1.0
141
20.0
290
     0
  0
SCALE
  5
1E32
102
{ACAD_REACTORS
330
1E29
102
}
330
1E29
100
AcDbScale
 70
     0
300
1:30
140
1.0
141
30.0
290
     0
  0
SCALE
  5
1E33
102
{ACAD_REACTORS
330
1E29
102
}
330
1E29
100
AcDbScale
 70
     0
300
1:40
140
1.0
141
40.0
290
     0
  0
SCALE
  5
1E34
102
{ACAD_REACTORS
330
1E29
102
}
330
1E29
100
AcDbScale
 70
     0
300
1:50
140
1.0
141
50.0
290
     0
  0
SCALE
  5
1E35
102
{ACAD_REACTORS
330
1E29
102
}
330
1E29
100
AcDbScale
 70
     0
300
1:100
140
1.0
141
100.0
290
     0
  0
SCALE
  5
1E36
102
{ACAD_REACTORS
330
1E29
102
}
330
1E29
100
AcDbScale
 70
     0
300
2:1
140
2.0
141
1.0
290
     0
  0
SCALE
  5
1E37
102
{ACAD_REACTORS
330
1E29
102
}
330
1E29
100
AcDbScale
 70
     0
300
4:1
140
4.0
141
1.0
290
     0
  0
SCALE
  5
1E38
102
{ACAD_REACTORS
330
1E29
102
}
330
1E29
100
AcDbScale
 70
     0
300
8:1
140
8.0
141
1.0
290
     0
  0
SCALE
  5
1E39
102
{ACAD_REACTORS
330
1E29
102
}
330
1E29
100
AcDbScale
 70
     0
300
10:1
140
10.0
141
1.0
290
     0
  0
SCALE
  5
1E3A
102
{ACAD_REACTORS
330
1E29
102
}
330
1E29
100
AcDbScale
 70
     0
300
100:1
140
100.0
141
1.0
290
     0
  0
SCALE
  5
1E3B
102
{ACAD_REACTORS
330
1E29
102
}
330
1E29
100
AcDbScale
 70
     0
300
1/128" = 1'-0"
140
0.0078125
141
12.0
290
     0
  0
SCALE
  5
1E3C
102
{ACAD_REACTORS
330
1E29
102
}
330
1E29
100
AcDbScale
 70
     0
300
1/64" = 1'-0"
140
0.015625
141
12.0
290
     0
  0
SCALE
  5
1E3D
102
{ACAD_REACTORS
330
1E29
102
}
330
1E29
100
AcDbScale
 70
     0
300
1/32" = 1'-0"
140
0.03125
141
12.0
290
     0
  0
SCALE
  5
1E3E
102
{ACAD_REACTORS
330
1E29
102
}
330
1E29
100
AcDbScale
 70
     0
300
1/16" = 1'-0"
140
0.0625
141
12.0
290
     0
  0
SCALE
  5
1E3F
102
{ACAD_REACTORS
330
1E29
102
}
330
1E29
100
AcDbScale
 70
     0
300
3/32" = 1'-0"
140
0.09375
141
12.0
290
     0
  0
SCALE
  5
1E40
102
{ACAD_REACTORS
330
1E29
102
}
330
1E29
100
AcDbScale
 70
     0
300
1/8" = 1'-0"
140
0.125
141
12.0
290
     0
  0
SCALE
  5
1E41
102
{ACAD_REACTORS
330
1E29
102
}
330
1E29
100
AcDbScale
 70
     0
300
3/16" = 1'-0"
140
0.1875
141
12.0
290
     0
  0
SCALE
  5
1E42
102
{ACAD_REACTORS
330
1E29
102
}
330
1E29
100
AcDbScale
 70
     0
300
1/4" = 1'-0"
140
0.25
141
12.0
290
     0
  0
SCALE
  5
1E43
102
{ACAD_REACTORS
330
1E29
102
}
330
1E29
100
AcDbScale
 70
     0
300
3/8" = 1'-0"
140
0.375
141
12.0
290
     0
  0
SCALE
  5
1E44
102
{ACAD_REACTORS
330
1E29
102
}
330
1E29
100
AcDbScale
 70
     0
300
1/2" = 1'-0"
140
0.5
141
12.0
290
     0
  0
SCALE
  5
1E45
102
{ACAD_REACTORS
330
1E29
102
}
330
1E29
100
AcDbScale
 70
     0
300
3/4" = 1'-0"
140
0.75
141
12.0
290
     0
  0
SCALE
  5
1E46
102
{ACAD_REACTORS
330
1E29
102
}
330
1E29
100
AcDbScale
 70
     0
300
1" = 1'-0"
140
1.0
141
12.0
290
     0
  0
SCALE
  5
1E47
102
{ACAD_REACTORS
330
1E29
102
}
330
1E29
100
AcDbScale
 70
     0
300
1-1/2" = 1'-0"
140
1.5
141
12.0
290
     0
  0
SCALE
  5
1E48
102
{ACAD_REACTORS
330
1E29
102
}
330
1E29
100
AcDbScale
 70
     0
300
3" = 1'-0"
140
3.0
141
12.0
290
     0
  0
SCALE
  5
1E49
102
{ACAD_REACTORS
330
1E29
102
}
330
1E29
100
AcDbScale
 70
     0
300
6" = 1'-0"
140
6.0
141
12.0
290
     0
  0
SCALE
  5
1E4A
102
{ACAD_REACTORS
330
1E29
102
}
330
1E29
100
AcDbScale
 70
     0
300
1'-0" = 1'-0"
140
12.0
141
12.0
290
     0
  0
TABLESTYLE
  5
1E28
102
{ACAD_XDICTIONARY
360
1E4F
102
}
102
{ACAD_REACTORS
330
1E27
102
}
330
1E27
100
AcDbTableStyle
  3
Standard
 70
     0
 71
     0
 40
0.06
 41
0.06
280
     0
281
     0
  7
STANDARD
140
0.18
170
     2
 62
     0
 63
     7
283
     0
274
    -2
284
     1
 64
     0
275
    -2
285
     1
 65
     0
276
    -2
286
     1
 66
     0
277
    -2
287
     1
 67
     0
278
    -2
288
     1
 68
     0
279
    -2
289
     1
 69
     0
  7
STANDARD
140
0.25
170
     5
 62
     0
 63
     7
283
     0
274
    -2
284
     1
 64
     0
275
    -2
285
     1
 65
     0
276
    -2
286
     1
 66
     0
277
    -2
287
     1
 67
     0
278
    -2
288
     1
 68
     0
279
    -2
289
     1
 69
     0
  7
STANDARD
140
0.18
170
     5
 62
     0
 63
     7
283
     0
274
    -2
284
     1
 64
     0
275
    -2
285
     1
 65
     0
276
    -2
286
     1
 66
     0
277
    -2
287
     1
 67
     0
278
    -2
288
     1
 68
     0
279
    -2
289
     1
 69
     0
  0
VISUALSTYLE
  5
1E18
102
{ACAD_XDICTIONARY
360
1E65
102
}
102
{ACAD_REACTORS
330
1E12
102
}
330
1E12
100
AcDbVisualStyle
  2
2dWireframe
 70
     4
 71
     0
 72
     2
 73
     0
 90
        0
 40
-0.6
 41
-30.0
 62
     5
 63
     7
 74
     1
 91
        4
 64
     7
 65
   257
 75
     1
175
     1
 42
1.0
 92
        0
 66
   257
 43
1.0
 76
     1
 77
     6
 78
     2
 67
     7
 79
     5
170
     0
171
     0
290
     0
174
     0
 93
        1
 44
0.0
173
     0
291
     0
 45
0.0
1001
ACAD
1000
AcDbSavedByObjectVersion
1070
     0
  0
VISUALSTYLE
  5
1E1A
102
{ACAD_XDICTIONARY
360
1E69
102
}
102
{ACAD_REACTORS
330
1E12
102
}
330
1E12
100
AcDbVisualStyle
  2
3D Hidden
 70
     6
 71
     1
 72
     2
 73
     2
 90
        0
 40
-0.6
 41
-30.0
 62
     5
 63
     7
 74
     2
 91
        2
 64
     7
 65
   257
 75
     2
175
     1
 42
179.0
 92
        0
 66
   257
 43
1.0
 76
     1
 77
     6
 78
     2
 67
     7
 79
     3
170
     0
171
     0
290
     0
174
     0
 93
        1
 44
0.0
173
     0
291
     0
 45
0.0
1001
ACAD
1000
AcDbSavedByObjectVersion
1070
     0
  0
VISUALSTYLE
  5
1E19
102
{ACAD_XDICTIONARY
360
1E67
102
}
102
{ACAD_REACTORS
330
1E12
102
}
330
1E12
100
AcDbVisualStyle
  2
3dWireframe
 70
     5
 71
     0
 72
     2
 73
     0
 90
        0
 40
-0.6
 41
-30.0
 62
     5
 63
     7
 74
     1
 91
        4
 64
     7
 65
   257
 75
     1
175
     1
 42
1.0
 92
        0
 66
   257
 43
1.0
 76
     1
 77
     6
 78
     2
 67
     7
 79
     5
170
     0
171
     0
290
     0
174
     0
 93
        1
 44
0.0
173
     0
291
     0
 45
0.0
1001
ACAD
1000
AcDbSavedByObjectVersion
1070
     0
  0
VISUALSTYLE
  5
1E17
102
{ACAD_XDICTIONARY
360
1E63
102
}
102
{ACAD_REACTORS
330
1E12
102
}
330
1E12
100
AcDbVisualStyle
  2
Basic
 70
     7
 71
     1
 72
     0
 73
     1
 90
        0
 40
-0.6
 41
-30.0
 62
     5
 63
     7
 74
     0
 91
        4
 64
     7
 65
   257
 75
     1
175
     1
 42
1.0
 92
        8
 66
     7
 43
1.0
 76
     1
 77
     6
 78
     2
 67
     7
 79
     5
170
     0
171
     0
290
     0
174
     0
 93
        1
 44
0.0
173
     0
291
     1
 45
0.0
1001
ACAD
1000
AcDbSavedByObjectVersion
1070
     0
  0
VISUALSTYLE
  5
1E1E
102
{ACAD_XDICTIONARY
360
1E71
102
}
102
{ACAD_REACTORS
330
1E12
102
}
330
1E12
100
AcDbVisualStyle
  2
Brighten
 70
    12
 71
     2
 72
     2
 73
     0
 90
        0
 40
-0.6
 41
-30.0
 62
     5
 63
     7
 74
     1
 91
        4
 64
     7
 65
   257
 75
     1
175
     1
 42
1.0
 92
        8
 66
     7
 43
1.0
 76
     1
 77
     6
 78
     2
 67
     7
 79
     5
170
     0
171
     0
290
     0
174
     0
 93
        1
 44
50.0
173
     0
291
     1
 45
0.0
1001
ACAD
1000
AcDbSavedByObjectVersion
1070
     0
  0
VISUALSTYLE
  5
1E22
102
{ACAD_XDICTIONARY
360
1E79
102
}
102
{ACAD_REACTORS
330
1E12
102
}
330
1E12
100
AcDbVisualStyle
  2
ColorChange
 70
    16
 71
     2
 72
     2
 73
     3
 90
        0
 40
-0.6
 41
-30.0
 62
     5
 63
     8
 74
     1
 91
        4
 64
     7
 65
   257
 75
     1
175
     1
 42
1.0
 92
        8
 66
     8
 43
1.0
 76
     1
 77
     6
 78
     2
 67
     7
 79
     5
170
     0
171
     0
290
     0
174
     0
 93
        1
 44
0.0
173
     0
291
     1
 45
0.0
1001
ACAD
1000
AcDbSavedByObjectVersion
1070
     0
  0
VISUALSTYLE
  5
1E1B
102
{ACAD_XDICTIONARY
360
1E6B
102
}
102
{ACAD_REACTORS
330
1E12
102
}
330
1E12
100
AcDbVisualStyle
  2
Conceptual
 70
     9
 71
     3
 72
     2
 73
     0
 90
        0
 40
-0.6
 41
-30.0
 62
     5
 63
     7
 74
     2
 91
        2
 64
     7
 65
   257
 75
     1
175
     1
 42
179.0
 92
        8
 66
     7
 43
1.0
 76
     1
 77
     6
 78
     2
 67
     7
 79
     3
170
     0
171
     0
290
     0
174
     0
 93
        1
 44
0.0
173
     0
291
     0
 45
0.0
1001
ACAD
1000
AcDbSavedByObjectVersion
1070
     0
  0
VISUALSTYLE
  5
1E1D
102
{ACAD_XDICTIONARY
360
1E6F
102
}
102
{ACAD_REACTORS
330
1E12
102
}
330
1E12
100
AcDbVisualStyle
  2
Dim
 70
    11
 71
     2
 72
     2
 73
     0
 90
        0
 40
-0.6
 41
-30.0
 62
     5
 63
     7
 74
     1
 91
        4
 64
     7
 65
   257
 75
     1
175
     1
 42
1.0
 92
        8
 66
     7
 43
1.0
 76
     1
 77
     6
 78
     2
 67
     7
 79
     5
170
     0
171
     0
290
     0
174
     0
 93
        1
 44
-50.0
173
     0
291
     1
 45
0.0
1001
ACAD
1000
AcDbSavedByObjectVersion
1070
     0
  0
VISUALSTYLE
  5
1E25
102
{ACAD_XDICTIONARY
360
1E7F
102
}
102
{ACAD_REACTORS
330
1E12
102
}
330
1E12
100
AcDbVisualStyle
  2
EdgeColorOff
 70
    22
 71
     2
 72
     2
 73
     0
 90
        0
 40
-0.6
 41
-30.0
 62
     5
 63
     7
 74
     1
 91
        4
 64
     7
 65
   257
 75
     1
175
     1
 42
1.0
 92
        8
 66
     7
 43
1.0
 76
     1
 77
     6
 78
     2
 67
     7
 79
     5
170
     0
171
     0
290
     0
174
     0
 93
        1
 44
0.0
173
     0
291
     1
 45
0.0
1001
ACAD
1000
AcDbSavedByObjectVersion
1070
     0
  0
VISUALSTYLE
  5
1E21
102
{ACAD_XDICTIONARY
360
1E77
102
}
102
{ACAD_REACTORS
330
1E12
102
}
330
1E12
100
AcDbVisualStyle
  2
Facepattern
 70
    15
 71
     2
 72
     2
 73
     0
 90
        0
 40
-0.6
 41
-30.0
 62
     5
 63
     7
 74
     1
 91
        4
 64
     7
 65
   257
 75
     1
175
     1
 42
1.0
 92
        8
 66
     7
 43
1.0
 76
     1
 77
     6
 78
     2
 67
     7
 79
     5
170
     0
171
     0
290
     0
174
     0
 93
        1
 44
0.0
173
     0
291
     1
 45
0.0
1001
ACAD
1000
AcDbSavedByObjectVersion
1070
     0
  0
VISUALSTYLE
  5
1E13
102
{ACAD_XDICTIONARY
360
1E5B
102
}
102
{ACAD_REACTORS
330
1E12
102
}
330
1E12
100
AcDbVisualStyle
  2
Flat
 70
     0
 71
     2
 72
     1
 73
     1
 90
        2
 40
-0.6
 41
30.0
 62
     5
 63
     7
 74
     0
 91
        4
 64
     7
 65
   257
 75
     1
175
     1
 42
1.0
 92
        8
 66
     7
 43
1.0
 76
     1
 77
     6
 78
     2
 67
     7
 79
     5
170
     0
171
     0
290
     0
174
     0
 93
       13
 44
0.0
173
     0
291
     1
 45
0.0
1001
ACAD
1000
AcDbSavedByObjectVersion
1070
     0
  0
VISUALSTYLE
  5
1E14
102
{ACAD_XDICTIONARY
360
1E5D
102
}
102
{ACAD_REACTORS
330
1E12
102
}
330
1E12
100
AcDbVisualStyle
  2
FlatWithEdges
 70
     1
 71
     2
 72
     1
 73
     1
 90
        2
 40
-0.6
 41
30.0
 62
     5
 63
     7
 74
     1
 91
        4
 64
     7
 65
   257
 75
     1
175
     1
 42
1.0
 92
        0
 66
   257
 43
1.0
 76
     1
 77
     6
 78
     2
 67
     7
 79
     5
170
     0
171
     0
290
     0
174
     0
 93
       13
 44
0.0
173
     0
291
     1
 45
0.0
1001
ACAD
1000
AcDbSavedByObjectVersion
1070
     0
  0
VISUALSTYLE
  5
1E15
102
{ACAD_XDICTIONARY
360
1E5F
102
}
102
{ACAD_REACTORS
330
1E12
102
}
330
1E12
100
AcDbVisualStyle
  2
Gouraud
 70
     2
 71
     2
 72
     2
 73
     1
 90
        2
 40
-0.6
 41
30.0
 62
     5
 63
     7
 74
     0
 91
        4
 64
     7
 65
   257
 75
     1
175
     1
 42
1.0
 92
        0
 66
     7
 43
1.0
 76
     1
 77
     6
 78
     2
 67
     7
 79
     5
170
     0
171
     0
290
     0
174
     0
 93
       13
 44
0.0
173
     0
291
     1
 45
0.0
1001
ACAD
1000
AcDbSavedByObjectVersion
1070
     0
  0
VISUALSTYLE
  5
1E16
102
{ACAD_XDICTIONARY
360
1E61
102
}
102
{ACAD_REACTORS
330
1E12
102
}
330
1E12
100
AcDbVisualStyle
  2
GouraudWithEdges
 70
     3
 71
     2
 72
     2
 73
     1
 90
        2
 40
-0.6
 41
30.0
 62
     5
 63
     7
 74
     1
 91
        4
 64
     7
 65
   257
 75
     1
175
     1
 42
1.0
 92
        0
 66
   257
 43
1.0
 76
     1
 77
     6
 78
     2
 67
     7
 79
     5
170
     0
171
     0
290
     0
174
     0
 93
       13
 44
0.0
173
     0
291
     1
 45
0.0
1001
ACAD
1000
AcDbSavedByObjectVersion
1070
     0
  0
VISUALSTYLE
  5
1E23
102
{ACAD_XDICTIONARY
360
1E7B
102
}
102
{ACAD_REACTORS
330
1E12
102
}
330
1E12
100
AcDbVisualStyle
  2
JitterOff
 70
    20
 71
     2
 72
     2
 73
     0
 90
        0
 40
-0.6
 41
-30.0
 62
     5
 63
     7
 74
     1
 91
        4
 64
     7
 65
   257
 75
     1
175
     1
 42
1.0
 92
       10
 66
     7
 43
1.0
 76
     1
 77
     6
 78
     2
 67
     7
 79
     5
170
     0
171
     0
290
     0
174
     0
 93
        1
 44
0.0
173
     0
291
     1
 45
0.0
1001
ACAD
1000
AcDbSavedByObjectVersion
1070
     0
  0
VISUALSTYLE
  5
1E20
102
{ACAD_XDICTIONARY
360
1E75
102
}
102
{ACAD_REACTORS
330
1E12
102
}
330
1E12
100
AcDbVisualStyle
  2
Linepattern
 70
    14
 71
     2
 72
     2
 73
     0
 90
        0
 40
-0.6
 41
-30.0
 62
     5
 63
     7
 74
     1
 91
        4
 64
     7
 65
   257
 75
     7
175
     7
 42
1.0
 92
        8
 66
     7
 43
1.0
 76
     1
 77
     6
 78
     2
 67
     7
 79
     5
170
     0
171
     0
290
     0
174
     0
 93
        1
 44
0.0
173
     0
291
     1
 45
0.0
1001
ACAD
1000
AcDbSavedByObjectVersion
1070
     0
  0
VISUALSTYLE
  5
1E24
102
{ACAD_XDICTIONARY
360
1E7D
102
}
102
{ACAD_REACTORS
330
1E12
102
}
330
1E12
100
AcDbVisualStyle
  2
OverhangOff
 70
    21
 71
     2
 72
     2
 73
     0
 90
        0
 40
-0.6
 41
-30.0
 62
     5
 63
     7
 74
     1
 91
        4
 64
     7
 65
   257
 75
     1
175
     1
 42
1.0
 92
        9
 66
     7
 43
1.0
 76
     1
 77
     6
 78
     2
 67
     7
 79
     5
170
     0
171
     0
290
     0
174
     0
 93
        1
 44
0.0
173
     0
291
     1
 45
0.0
1001
ACAD
1000
AcDbSavedByObjectVersion
1070
     0
  0
VISUALSTYLE
  5
1E1C
102
{ACAD_XDICTIONARY
360
1E6D
102
}
102
{ACAD_REACTORS
330
1E12
102
}
330
1E12
100
AcDbVisualStyle
  2
Realistic
 70
     8
 71
     2
 72
     2
 73
     0
 90
        0
 40
-0.6
 41
-30.0
 62
     5
 63
     7
 74
     1
 91
        0
 64
     7
 65
   257
 75
     1
175
     1
 42
1.0
 92
        8
 66
     8
 43
1.0
 76
     1
 77
     6
 78
     2
 67
     7
 79
     5
170
     0
171
     0
290
     0
174
     0
 93
       13
 44
0.0
173
     0
291
     0
 45
0.0
1001
ACAD
1000
AcDbSavedByObjectVersion
1070
     0
  0
VISUALSTYLE
  5
1E1F
102
{ACAD_XDICTIONARY
360
1E73
102
}
102
{ACAD_REACTORS
330
1E12
102
}
330
1E12
100
AcDbVisualStyle
  2
Thicken
 70
    13
 71
     2
 72
     2
 73
     0
 90
        0
 40
-0.6
 41
-30.0
 62
     5
 63
     7
 74
     1
 91
        4
 64
     7
 65
   257
 75
     1
175
     1
 42
1.0
 92
       12
 66
     7
 43
1.0
 76
     1
 77
     6
 78
     2
 67
     7
 79
     5
170
     0
171
     0
290
     0
174
     0
 93
        1
 44
0.0
173
     0
291
     1
 45
0.0
1001
ACAD
1000
AcDbSavedByObjectVersion
1070
     0
  0
DICTIONARYVAR
  5
1E86
102
{ACAD_REACTORS
330
1E83
102
}
330
1E83
100
DictionaryVariables
280
     0
  1
1:1
  0
DICTIONARYVAR
  5
1E85
102
{ACAD_REACTORS
330
1E83
102
}
330
1E83
100
DictionaryVariables
280
     0
  1
STANDARD
  0
DICTIONARYVAR
  5
1E84
102
{ACAD_REACTORS
330
1E83
102
}
330
1E83
100
DictionaryVariables
280
     0
  1
STANDARD
  0
DICTIONARYVAR
  5
1E89
102
{ACAD_REACTORS
330
1E83
102
}
330
1E83
100
DictionaryVariables
280
     0
  1
1
  0
DICTIONARYVAR
  5
1E88
102
{ACAD_REACTORS
330
1E83
102
}
330
1E83
100
DictionaryVariables
280
     0
  1
0
  0
DICTIONARYVAR
  5
1E87
102
{ACAD_REACTORS
330
1E83
102
}
330
1E83
100
DictionaryVariables
280
     0
  1
127
  0
DICTIONARYVAR
  5
1E8A
102
{ACAD_REACTORS
330
1E83
102
}
330
1E83
100
DictionaryVariables
280
     0
  1
0
  0
DICTIONARY
  5
1EF5
330
1DF5
100
AcDbDictionary
280
     1
281
     1
  3
ACAD_XREC_ROUNDTRIP
360
1EF6
  0
DICTIONARY
  5
1EF3
330
1DF4
100
AcDbDictionary
280
     1
281
     1
  3
ACAD_XREC_ROUNDTRIP
360
1EF4
  0
DICTIONARY
  5
1E03
330
1E02
100
AcDbDictionary
280
     1
281
     1
  3
ACAD_XREC_ROUNDTRIP
360
1EF8
  3
BUMPTILE
360
1E05
  3
DIFFUSETILE
360
1E04
  3
OPACITYTILE
360
1E08
  3
REFLECTIONTILE
360
1E07
  3
REFRACTIONTILE
360
1E09
  3
SPECULARTILE
360
1E06
  0
DICTIONARY
  5
1DFB
330
1DFA
100
AcDbDictionary
280
     1
281
     1
  3
ACAD_XREC_ROUNDTRIP
360
1EF7
  3
BUMPTILE
360
1DFD
  3
DIFFUSETILE
360
1DFC
  3
OPACITYTILE
360
1E00
  3
REFLECTIONTILE
360
1DFF
  3
REFRACTIONTILE
360
1E01
  3
SPECULARTILE
360
1DFE
  0
DICTIONARY
  5
1E0B
330
1E0A
100
AcDbDictionary
280
     1
281
     1
  3
ACAD_XREC_ROUNDTRIP
360
1EF9
  3
BUMPTILE
360
1E0D
  3
DIFFUSETILE
360
1E0C
  3
OPACITYTILE
360
1E10
  3
REFLECTIONTILE
360
1E0F
  3
REFRACTIONTILE
360
1E11
  3
SPECULARTILE
360
1E0E
  0
DICTIONARY
  5
1E4F
330
1E28
100
AcDbDictionary
280
     1
281
     1
  3
ACAD_ROUNDTRIP_2008_TABLESTYLE_CELLSTYLEMAP
360
1EF1
  3
ACAD_XREC_ROUNDTRIP
360
1EFA
  0
DICTIONARY
  5
1E65
330
1E18
100
AcDbDictionary
280
     1
281
     1
  3
ACAD_XREC_ROUNDTRIP
360
1E66
  0
DICTIONARY
  5
1E69
330
1E1A
100
AcDbDictionary
280
     1
281
     1
  3
ACAD_XREC_ROUNDTRIP
360
1E6A
  0
DICTIONARY
  5
1E67
330
1E19
100
AcDbDictionary
280
     1
281
     1
  3
ACAD_XREC_ROUNDTRIP
360
1E68
  0
DICTIONARY
  5
1E63
330
1E17
100
AcDbDictionary
280
     1
281
     1
  3
ACAD_XREC_ROUNDTRIP
360
1E64
  0
DICTIONARY
  5
1E71
330
1E1E
100
AcDbDictionary
280
     1
281
     1
  3
ACAD_XREC_ROUNDTRIP
360
1E72
  0
DICTIONARY
  5
1E79
330
1E22
100
AcDbDictionary
280
     1
281
     1
  3
ACAD_XREC_ROUNDTRIP
360
1E7A
  0
DICTIONARY
  5
1E6B
330
1E1B
100
AcDbDictionary
280
     1
281
     1
  3
ACAD_XREC_ROUNDTRIP
360
1E6C
  0
DICTIONARY
  5
1E6F
330
1E1D
100
AcDbDictionary
280
     1
281
     1
  3
ACAD_XREC_ROUNDTRIP
360
1E70
  0
DICTIONARY
  5
1E7F
330
1E25
100
AcDbDictionary
280
     1
281
     1
  3
ACAD_XREC_ROUNDTRIP
360
1E80
  0
DICTIONARY
  5
1E77
330
1E21
100
AcDbDictionary
280
     1
281
     1
  3
ACAD_XREC_ROUNDTRIP
360
1E78
  0
DICTIONARY
  5
1E5B
330
1E13
100
AcDbDictionary
280
     1
281
     1
  3
ACAD_XREC_ROUNDTRIP
360
1E5C
  0
DICTIONARY
  5
1E5D
330
1E14
100
AcDbDictionary
280
     1
281
     1
  3
ACAD_XREC_ROUNDTRIP
360
1E5E
  0
DICTIONARY
  5
1E5F
330
1E15
100
AcDbDictionary
280
     1
281
     1
  3
ACAD_XREC_ROUNDTRIP
360
1E60
  0
DICTIONARY
  5
1E61
330
1E16
100
AcDbDictionary
280
     1
281
     1
  3
ACAD_XREC_ROUNDTRIP
360
1E62
  0
DICTIONARY
  5
1E7B
330
1E23
100
AcDbDictionary
280
     1
281
     1
  3
ACAD_XREC_ROUNDTRIP
360
1E7C
  0
DICTIONARY
  5
1E75
330
1E20
100
AcDbDictionary
280
     1
281
     1
  3
ACAD_XREC_ROUNDTRIP
360
1E76
  0
DICTIONARY
  5
1E7D
330
1E24
100
AcDbDictionary
280
     1
281
     1
  3
ACAD_XREC_ROUNDTRIP
360
1E7E
  0
DICTIONARY
  5
1E6D
330
1E1C
100
AcDbDictionary
280
     1
281
     1
  3
ACAD_XREC_ROUNDTRIP
360
1E6E
  0
DICTIONARY
  5
1E73
330
1E1F
100
AcDbDictionary
280
     1
281
     1
  3
ACAD_XREC_ROUNDTRIP
360
1E74
  0
XRECORD
  5
1EF6
102
{ACAD_REACTORS
330
1EF5
102
}
330
1EF5
100
AcDbXrecord
280
     1
102
SHADEPLOT
 70
     0
102
SHADEPLOTRESLEVEL
 70
     2
102
SHADEPLOTCUSTOMDPI
 70
   300
  0
XRECORD
  5
1EF4
102
{ACAD_REACTORS
330
1EF3
102
}
330
1EF3
100
AcDbXrecord
280
     1
102
SHADEPLOT
 70
     0
102
SHADEPLOTRESLEVEL
 70
     2
102
SHADEPLOTCUSTOMDPI
 70
   300
  0
XRECORD
  5
1EF8
102
{ACAD_REACTORS
330
1E03
102
}
330
1E03
100
AcDbXrecord
280
     1
102
MATERIAL
148
0.0
149
0.0
149
0.0
 93
        0
 94
      127
282
     0
 72
     0
 77
     0
171
     0
175
     0
179
     0
273
     0
  0
XRECORD
  5
1E05
102
{ACAD_REACTORS
330
1E03
102
}
330
1E03
100
AcDbXrecord
280
     1
270
     1
271
     1
  0
XRECORD
  5
1E04
102
{ACAD_REACTORS
330
1E03
102
}
330
1E03
100
AcDbXrecord
280
     1
270
     1
271
     1
  0
XRECORD
  5
1E08
102
{ACAD_REACTORS
330
1E03
102
}
330
1E03
100
AcDbXrecord
280
     1
270
     1
271
     1
  0
XRECORD
  5
1E07
102
{ACAD_REACTORS
330
1E03
102
}
330
1E03
100
AcDbXrecord
280
     1
270
     1
271
     1
  0
XRECORD
  5
1E09
102
{ACAD_REACTORS
330
1E03
102
}
330
1E03
100
AcDbXrecord
280
     1
270
     1
271
     1
  0
XRECORD
  5
1E06
102
{ACAD_REACTORS
330
1E03
102
}
330
1E03
100
AcDbXrecord
280
     1
270
     1
271
     1
  0
XRECORD
  5
1EF7
102
{ACAD_REACTORS
330
1DFB
102
}
330
1DFB
100
AcDbXrecord
280
     1
102
MATERIAL
148
0.0
149
0.0
149
0.0
 93
        0
 94
      127
282
     0
 72
     0
 77
     0
171
     0
175
     0
179
     0
273
     0
  0
XRECORD
  5
1DFD
102
{ACAD_REACTORS
330
1DFB
102
}
330
1DFB
100
AcDbXrecord
280
     1
270
     1
271
     1
  0
XRECORD
  5
1DFC
102
{ACAD_REACTORS
330
1DFB
102
}
330
1DFB
100
AcDbXrecord
280
     1
270
     1
271
     1
  0
XRECORD
  5
1E00
102
{ACAD_REACTORS
330
1DFB
102
}
330
1DFB
100
AcDbXrecord
280
     1
270
     1
271
     1
  0
XRECORD
  5
1DFF
102
{ACAD_REACTORS
330
1DFB
102
}
330
1DFB
100
AcDbXrecord
280
     1
270
     1
271
     1
  0
XRECORD
  5
1E01
102
{ACAD_REACTORS
330
1DFB
102
}
330
1DFB
100
AcDbXrecord
280
     1
270
     1
271
     1
  0
XRECORD
  5
1DFE
102
{ACAD_REACTORS
330
1DFB
102
}
330
1DFB
100
AcDbXrecord
280
     1
270
     1
271
     1
  0
XRECORD
  5
1EF9
102
{ACAD_REACTORS
330
1E0B
102
}
330
1E0B
100
AcDbXrecord
280
     1
102
MATERIAL
148
0.0
149
0.0
149
0.0
 93
        0
 94
      127
282
     0
 72
     0
 77
     0
171
     0
175
     0
179
     0
273
     0
  0
XRECORD
  5
1E0D
102
{ACAD_REACTORS
330
1E0B
102
}
330
1E0B
100
AcDbXrecord
280
     1
270
     1
271
     1
  0
XRECORD
  5
1E0C
102
{ACAD_REACTORS
330
1E0B
102
}
330
1E0B
100
AcDbXrecord
280
     1
270
     1
271
     1
  0
XRECORD
  5
1E10
102
{ACAD_REACTORS
330
1E0B
102
}
330
1E0B
100
AcDbXrecord
280
     1
270
     1
271
     1
  0
XRECORD
  5
1E0F
102
{ACAD_REACTORS
330
1E0B
102
}
330
1E0B
100
AcDbXrecord
280
     1
270
     1
271
     1
  0
XRECORD
  5
1E11
102
{ACAD_REACTORS
330
1E0B
102
}
330
1E0B
100
AcDbXrecord
280
     1
270
     1
271
     1
  0
XRECORD
  5
1E0E
102
{ACAD_REACTORS
330
1E0B
102
}
330
1E0B
100
AcDbXrecord
280
     1
270
     1
271
     1
  0
CELLSTYLEMAP
  5
1EF1
102
{ACAD_REACTORS
330
1E4F
102
}
330
1E4F
100
AcDbCellStyleMap
 90
        3
300
CELLSTYLE
  1
TABLEFORMAT_BEGIN
 90
        5
170
     1
 91
        0
 92
    32768
 62
   257
 93
        1
300
CONTENTFORMAT
  1
CONTENTFORMAT_BEGIN
 90
        0
 91
        0
 92
      512
 93
        0
300

 40
0.0
140
1.0
 94
        5
 62
     0
340
11
144
0.25
309
CONTENTFORMAT_END
171
     0
 94
        0
309
TABLEFORMAT_END
  1
CELLSTYLE_BEGIN
 90
        1
 91
        1
300
_TITLE
309
CELLSTYLE_END
300
CELLSTYLE
  1
TABLEFORMAT_BEGIN
 90
        5
170
     1
 91
        0
 92
        0
 62
   257
 93
        1
300
CONTENTFORMAT
  1
CONTENTFORMAT_BEGIN
 90
        0
 91
        0
 92
      512
 93
        0
300

 40
0.0
140
1.0
 94
        5
 62
     0
340
11
144
0.18
309
CONTENTFORMAT_END
171
     0
 94
        0
309
TABLEFORMAT_END
  1
CELLSTYLE_BEGIN
 90
        2
 91
        1
300
_HEADER
309
CELLSTYLE_END
300
CELLSTYLE
  1
TABLEFORMAT_BEGIN
 90
        5
170
     1
 91
        0
 92
        0
 62
   257
 93
        1
300
CONTENTFORMAT
  1
CONTENTFORMAT_BEGIN
 90
        0
 91
        0
 92
      512
 93
        0
300

 40
0.0
140
1.0
 94
        2
 62
     0
340
11
144
0.18
309
CONTENTFORMAT_END
171
     0
 94
        0
309
TABLEFORMAT_END
  1
CELLSTYLE_BEGIN
 90
        3
 91
        2
300
_DATA
309
CELLSTYLE_END
  0
XRECORD
  5
1EFA
102
{ACAD_REACTORS
330
1E4F
102
}
330
1E4F
100
AcDbXrecord
280
     1
102
ACAD_ROUNDTRIP_PRE2007_TABLESTYLE
 90
      512
 91
        0
  1

 92
      512
 93
        0
  2

 94
      512
 95
        0
  3

  0
XRECORD
  5
1E66
102
{ACAD_REACTORS
330
1E65
102
}
330
1E65
100
AcDbXrecord
280
     1
102
RTVSPropertyOp0
 70
     1
102
RTVSPropertyOp1
 70
     1
102
RTVSPropertyOp2
 70
     1
102
RTVSPropertyOp3
 70
     1
102
RTVSPropertyOp4
 70
     1
102
RTVSPropertyOp5
 70
     1
102
RTVSPropertyOp6
 70
     1
102
RTVSPropertyOp7
 70
     1
102
RTVSPropertyOp8
 70
     1
102
RTVSPropertyOp9
 70
     1
102
RTVSPropertyOp10
 70
     1
102
RTVSPropertyOp11
 70
     1
102
RTVSPropertyOp12
 70
     1
102
RTVSPropertyOp13
 70
     1
102
RTVSPropertyOp14
 70
     1
102
RTVSPropertyOp15
 70
     1
102
RTVSPropertyOp16
 70
     1
102
RTVSPropertyOp17
 70
     1
102
RTVSPropertyOp18
 70
     1
102
RTVSPropertyOp19
 70
     1
102
RTVSPropertyOp20
 70
     1
102
RTVSPropertyOp21
 70
     1
102
RTVSPropertyOp22
 70
     1
102
RTVSPropertyOp23
 70
     1
102
RTVSPropertyOp24
 70
     1
102
RTVSPropertyOp25
 70
     1
102
RTVSPropertyOp26
 70
     1
102
RTVSPropertyOp27
 70
     1
  0
XRECORD
  5
1E6A
102
{ACAD_REACTORS
330
1E69
102
}
330
1E69
100
AcDbXrecord
280
     1
102
RTVSPropertyOp0
 70
     1
102
RTVSPropertyOp1
 70
     1
102
RTVSPropertyOp2
 70
     1
102
RTVSPropertyOp3
 70
     1
102
RTVSPropertyOp4
 70
     1
102
RTVSPropertyOp5
 70
     1
102
RTVSPropertyOp6
 70
     1
102
RTVSPropertyOp7
 70
     1
102
RTVSPropertyOp8
 70
     1
102
RTVSPropertyOp9
 70
     1
102
RTVSPropertyOp10
 70
     1
102
RTVSPropertyOp11
 70
     1
102
RTVSPropertyOp12
 70
     1
102
RTVSPropertyOp13
 70
     1
102
RTVSPropertyOp14
 70
     1
102
RTVSPropertyOp15
 70
     1
102
RTVSPropertyOp16
 70
     1
102
RTVSPropertyOp17
 70
     1
102
RTVSPropertyOp18
 70
     1
102
RTVSPropertyOp19
 70
     1
102
RTVSPropertyOp20
 70
     1
102
RTVSPropertyOp21
 70
     1
102
RTVSPropertyOp22
 70
     1
102
RTVSPropertyOp23
 70
     1
102
RTVSPropertyOp24
 70
     1
102
RTVSPropertyOp25
 70
     1
102
RTVSPropertyOp26
 70
     1
102
RTVSPropertyOp27
 70
     1
  0
XRECORD
  5
1E68
102
{ACAD_REACTORS
330
1E67
102
}
330
1E67
100
AcDbXrecord
280
     1
102
RTVSPropertyOp0
 70
     1
102
RTVSPropertyOp1
 70
     1
102
RTVSPropertyOp2
 70
     1
102
RTVSPropertyOp3
 70
     1
102
RTVSPropertyOp4
 70
     1
102
RTVSPropertyOp5
 70
     1
102
RTVSPropertyOp6
 70
     1
102
RTVSPropertyOp7
 70
     1
102
RTVSPropertyOp8
 70
     1
102
RTVSPropertyOp9
 70
     1
102
RTVSPropertyOp10
 70
     1
102
RTVSPropertyOp11
 70
     1
102
RTVSPropertyOp12
 70
     1
102
RTVSPropertyOp13
 70
     1
102
RTVSPropertyOp14
 70
     1
102
RTVSPropertyOp15
 70
     1
102
RTVSPropertyOp16
 70
     1
102
RTVSPropertyOp17
 70
     1
102
RTVSPropertyOp18
 70
     1
102
RTVSPropertyOp19
 70
     1
102
RTVSPropertyOp20
 70
     1
102
RTVSPropertyOp21
 70
     1
102
RTVSPropertyOp22
 70
     1
102
RTVSPropertyOp23
 70
     1
102
RTVSPropertyOp24
 70
     1
102
RTVSPropertyOp25
 70
     1
102
RTVSPropertyOp26
 70
     1
102
RTVSPropertyOp27
 70
     1
  0
XRECORD
  5
1E64
102
{ACAD_REACTORS
330
1E63
102
}
330
1E63
100
AcDbXrecord
280
     1
102
RTVSPropertyOp0
 70
     1
102
RTVSPropertyOp1
 70
     1
102
RTVSPropertyOp2
 70
     1
102
RTVSPropertyOp3
 70
     1
102
RTVSPropertyOp4
 70
     1
102
RTVSPropertyOp5
 70
     1
102
RTVSPropertyOp6
 70
     1
102
RTVSPropertyOp7
 70
     1
102
RTVSPropertyOp8
 70
     1
102
RTVSPropertyOp9
 70
     1
102
RTVSPropertyOp10
 70
     1
102
RTVSPropertyOp11
 70
     1
102
RTVSPropertyOp12
 70
     1
102
RTVSPropertyOp13
 70
     1
102
RTVSPropertyOp14
 70
     1
102
RTVSPropertyOp15
 70
     1
102
RTVSPropertyOp16
 70
     1
102
RTVSPropertyOp17
 70
     1
102
RTVSPropertyOp18
 70
     1
102
RTVSPropertyOp19
 70
     1
102
RTVSPropertyOp20
 70
     1
102
RTVSPropertyOp21
 70
     1
102
RTVSPropertyOp22
 70
     1
102
RTVSPropertyOp23
 70
     1
102
RTVSPropertyOp24
 70
     1
102
RTVSPropertyOp25
 70
     1
102
RTVSPropertyOp26
 70
     1
102
RTVSPropertyOp27
 70
     1
  0
XRECORD
  5
1E72
102
{ACAD_REACTORS
330
1E71
102
}
330
1E71
100
AcDbXrecord
280
     1
102
RTVSPropertyOp0
 70
     1
102
RTVSPropertyOp1
 70
     1
102
RTVSPropertyOp2
 70
     1
102
RTVSPropertyOp3
 70
     1
102
RTVSPropertyOp4
 70
     1
102
RTVSPropertyOp5
 70
     1
102
RTVSPropertyOp6
 70
     1
102
RTVSPropertyOp7
 70
     1
102
RTVSPropertyOp8
 70
     1
102
RTVSPropertyOp9
 70
     1
102
RTVSPropertyOp10
 70
     1
102
RTVSPropertyOp11
 70
     1
102
RTVSPropertyOp12
 70
     1
102
RTVSPropertyOp13
 70
     1
102
RTVSPropertyOp14
 70
     1
102
RTVSPropertyOp15
 70
     1
102
RTVSPropertyOp16
 70
     1
102
RTVSPropertyOp17
 70
     1
102
RTVSPropertyOp18
 70
     1
102
RTVSPropertyOp19
 70
     1
102
RTVSPropertyOp20
 70
     1
102
RTVSPropertyOp21
 70
     1
102
RTVSPropertyOp22
 70
     1
102
RTVSPropertyOp23
 70
     1
102
RTVSPropertyOp24
 70
     1
102
RTVSPropertyOp25
 70
     1
102
RTVSPropertyOp26
 70
     1
102
RTVSPropertyOp27
 70
     1
  0
XRECORD
  5
1E7A
102
{ACAD_REACTORS
330
1E79
102
}
330
1E79
100
AcDbXrecord
280
     1
102
RTVSPropertyOp0
 70
     1
102
RTVSPropertyOp1
 70
     1
102
RTVSPropertyOp2
 70
     1
102
RTVSPropertyOp3
 70
     1
102
RTVSPropertyOp4
 70
     1
102
RTVSPropertyOp5
 70
     1
102
RTVSPropertyOp6
 70
     1
102
RTVSPropertyOp7
 70
     1
102
RTVSPropertyOp8
 70
     1
102
RTVSPropertyOp9
 70
     1
102
RTVSPropertyOp10
 70
     1
102
RTVSPropertyOp11
 70
     1
102
RTVSPropertyOp12
 70
     1
102
RTVSPropertyOp13
 70
     1
102
RTVSPropertyOp14
 70
     1
102
RTVSPropertyOp15
 70
     1
102
RTVSPropertyOp16
 70
     1
102
RTVSPropertyOp17
 70
     1
102
RTVSPropertyOp18
 70
     1
102
RTVSPropertyOp19
 70
     1
102
RTVSPropertyOp20
 70
     1
102
RTVSPropertyOp21
 70
     1
102
RTVSPropertyOp22
 70
     1
102
RTVSPropertyOp23
 70
     1
102
RTVSPropertyOp24
 70
     1
102
RTVSPropertyOp25
 70
     1
102
RTVSPropertyOp26
 70
     1
102
RTVSPropertyOp27
 70
     1
  0
XRECORD
  5
1E6C
102
{ACAD_REACTORS
330
1E6B
102
}
330
1E6B
100
AcDbXrecord
280
     1
102
RTVSPropertyOp0
 70
     1
102
RTVSPropertyOp1
 70
     1
102
RTVSPropertyOp2
 70
     1
102
RTVSPropertyOp3
 70
     1
102
RTVSPropertyOp4
 70
     1
102
RTVSPropertyOp5
 70
     1
102
RTVSPropertyOp6
 70
     1
102
RTVSPropertyOp7
 70
     1
102
RTVSPropertyOp8
 70
     1
102
RTVSPropertyOp9
 70
     1
102
RTVSPropertyOp10
 70
     1
102
RTVSPropertyOp11
 70
     1
102
RTVSPropertyOp12
 70
     1
102
RTVSPropertyOp13
 70
     1
102
RTVSPropertyOp14
 70
     1
102
RTVSPropertyOp15
 70
     1
102
RTVSPropertyOp16
 70
     1
102
RTVSPropertyOp17
 70
     1
102
RTVSPropertyOp18
 70
     1
102
RTVSPropertyOp19
 70
     1
102
RTVSPropertyOp20
 70
     1
102
RTVSPropertyOp21
 70
     1
102
RTVSPropertyOp22
 70
     1
102
RTVSPropertyOp23
 70
     1
102
RTVSPropertyOp24
 70
     1
102
RTVSPropertyOp25
 70
     1
102
RTVSPropertyOp26
 70
     1
102
RTVSPropertyOp27
 70
     1
  0
XRECORD
  5
1E70
102
{ACAD_REACTORS
330
1E6F
102
}
330
1E6F
100
AcDbXrecord
280
     1
102
RTVSPropertyOp0
 70
     1
102
RTVSPropertyOp1
 70
     1
102
RTVSPropertyOp2
 70
     1
102
RTVSPropertyOp3
 70
     1
102
RTVSPropertyOp4
 70
     1
102
RTVSPropertyOp5
 70
     1
102
RTVSPropertyOp6
 70
     1
102
RTVSPropertyOp7
 70
     1
102
RTVSPropertyOp8
 70
     1
102
RTVSPropertyOp9
 70
     1
102
RTVSPropertyOp10
 70
     1
102
RTVSPropertyOp11
 70
     1
102
RTVSPropertyOp12
 70
     1
102
RTVSPropertyOp13
 70
     1
102
RTVSPropertyOp14
 70
     1
102
RTVSPropertyOp15
 70
     1
102
RTVSPropertyOp16
 70
     1
102
RTVSPropertyOp17
 70
     1
102
RTVSPropertyOp18
 70
     1
102
RTVSPropertyOp19
 70
     1
102
RTVSPropertyOp20
 70
     1
102
RTVSPropertyOp21
 70
     1
102
RTVSPropertyOp22
 70
     1
102
RTVSPropertyOp23
 70
     1
102
RTVSPropertyOp24
 70
     1
102
RTVSPropertyOp25
 70
     1
102
RTVSPropertyOp26
 70
     1
102
RTVSPropertyOp27
 70
     1
  0
XRECORD
  5
1E80
102
{ACAD_REACTORS
330
1E7F
102
}
330
1E7F
100
AcDbXrecord
280
     1
102
RTVSPropertyOp0
 70
     0
102
RTVSPropertyOp1
 70
     0
102
RTVSPropertyOp2
 70
     0
102
RTVSPropertyOp3
 70
     0
102
RTVSPropertyOp4
 70
     0
102
RTVSPropertyOp5
 70
     0
102
RTVSPropertyOp6
 70
     0
102
RTVSPropertyOp7
 70
     0
102
RTVSPropertyOp8
 70
     0
102
RTVSPropertyOp9
 70
     0
102
RTVSPropertyOp10
 70
     0
102
RTVSPropertyOp11
 70
     0
102
RTVSPropertyOp12
 70
     0
102
RTVSPropertyOp13
 70
     0
102
RTVSPropertyOp14
 70
     2
102
RTVSPropertyOp15
 70
     0
102
RTVSPropertyOp16
 70
     0
102
RTVSPropertyOp17
 70
     0
102
RTVSPropertyOp18
 70
     0
102
RTVSPropertyOp19
 70
     0
102
RTVSPropertyOp20
 70
     0
102
RTVSPropertyOp21
 70
     0
102
RTVSPropertyOp22
 70
     0
102
RTVSPropertyOp23
 70
     0
102
RTVSPropertyOp24
 70
     0
102
RTVSPropertyOp25
 70
     0
102
RTVSPropertyOp26
 70
     0
102
RTVSPropertyOp27
 70
     0
  0
XRECORD
  5
1E78
102
{ACAD_REACTORS
330
1E77
102
}
330
1E77
100
AcDbXrecord
280
     1
102
RTVSPropertyOp0
 70
     1
102
RTVSPropertyOp1
 70
     1
102
RTVSPropertyOp2
 70
     1
102
RTVSPropertyOp3
 70
     1
102
RTVSPropertyOp4
 70
     1
102
RTVSPropertyOp5
 70
     1
102
RTVSPropertyOp6
 70
     1
102
RTVSPropertyOp7
 70
     1
102
RTVSPropertyOp8
 70
     1
102
RTVSPropertyOp9
 70
     1
102
RTVSPropertyOp10
 70
     1
102
RTVSPropertyOp11
 70
     1
102
RTVSPropertyOp12
 70
     1
102
RTVSPropertyOp13
 70
     1
102
RTVSPropertyOp14
 70
     1
102
RTVSPropertyOp15
 70
     1
102
RTVSPropertyOp16
 70
     1
102
RTVSPropertyOp17
 70
     1
102
RTVSPropertyOp18
 70
     1
102
RTVSPropertyOp19
 70
     1
102
RTVSPropertyOp20
 70
     1
102
RTVSPropertyOp21
 70
     1
102
RTVSPropertyOp22
 70
     1
102
RTVSPropertyOp23
 70
     1
102
RTVSPropertyOp24
 70
     1
102
RTVSPropertyOp25
 70
     1
102
RTVSPropertyOp26
 70
     1
102
RTVSPropertyOp27
 70
     1
  0
XRECORD
  5
1E5C
102
{ACAD_REACTORS
330
1E5B
102
}
330
1E5B
100
AcDbXrecord
280
     1
102
RTVSPropertyOp0
 70
     1
102
RTVSPropertyOp1
 70
     1
102
RTVSPropertyOp2
 70
     1
102
RTVSPropertyOp3
 70
     1
102
RTVSPropertyOp4
 70
     1
102
RTVSPropertyOp5
 70
     1
102
RTVSPropertyOp6
 70
     1
102
RTVSPropertyOp7
 70
     1
102
RTVSPropertyOp8
 70
     1
102
RTVSPropertyOp9
 70
     1
102
RTVSPropertyOp10
 70
     1
102
RTVSPropertyOp11
 70
     1
102
RTVSPropertyOp12
 70
     1
102
RTVSPropertyOp13
 70
     1
102
RTVSPropertyOp14
 70
     1
102
RTVSPropertyOp15
 70
     1
102
RTVSPropertyOp16
 70
     1
102
RTVSPropertyOp17
 70
     1
102
RTVSPropertyOp18
 70
     1
102
RTVSPropertyOp19
 70
     1
102
RTVSPropertyOp20
 70
     1
102
RTVSPropertyOp21
 70
     1
102
RTVSPropertyOp22
 70
     1
102
RTVSPropertyOp23
 70
     1
102
RTVSPropertyOp24
 70
     1
102
RTVSPropertyOp25
 70
     1
102
RTVSPropertyOp26
 70
     1
102
RTVSPropertyOp27
 70
     1
  0
XRECORD
  5
1E5E
102
{ACAD_REACTORS
330
1E5D
102
}
330
1E5D
100
AcDbXrecord
280
     1
102
RTVSPropertyOp0
 70
     1
102
RTVSPropertyOp1
 70
     1
102
RTVSPropertyOp2
 70
     1
102
RTVSPropertyOp3
 70
     1
102
RTVSPropertyOp4
 70
     1
102
RTVSPropertyOp5
 70
     1
102
RTVSPropertyOp6
 70
     1
102
RTVSPropertyOp7
 70
     1
102
RTVSPropertyOp8
 70
     1
102
RTVSPropertyOp9
 70
     1
102
RTVSPropertyOp10
 70
     1
102
RTVSPropertyOp11
 70
     1
102
RTVSPropertyOp12
 70
     1
102
RTVSPropertyOp13
 70
     1
102
RTVSPropertyOp14
 70
     1
102
RTVSPropertyOp15
 70
     1
102
RTVSPropertyOp16
 70
     1
102
RTVSPropertyOp17
 70
     1
102
RTVSPropertyOp18
 70
     1
102
RTVSPropertyOp19
 70
     1
102
RTVSPropertyOp20
 70
     1
102
RTVSPropertyOp21
 70
     1
102
RTVSPropertyOp22
 70
     1
102
RTVSPropertyOp23
 70
     1
102
RTVSPropertyOp24
 70
     1
102
RTVSPropertyOp25
 70
     1
102
RTVSPropertyOp26
 70
     1
102
RTVSPropertyOp27
 70
     1
  0
XRECORD
  5
1E60
102
{ACAD_REACTORS
330
1E5F
102
}
330
1E5F
100
AcDbXrecord
280
     1
102
RTVSPropertyOp0
 70
     1
102
RTVSPropertyOp1
 70
     1
102
RTVSPropertyOp2
 70
     1
102
RTVSPropertyOp3
 70
     1
102
RTVSPropertyOp4
 70
     1
102
RTVSPropertyOp5
 70
     1
102
RTVSPropertyOp6
 70
     1
102
RTVSPropertyOp7
 70
     1
102
RTVSPropertyOp8
 70
     1
102
RTVSPropertyOp9
 70
     1
102
RTVSPropertyOp10
 70
     1
102
RTVSPropertyOp11
 70
     1
102
RTVSPropertyOp12
 70
     1
102
RTVSPropertyOp13
 70
     1
102
RTVSPropertyOp14
 70
     1
102
RTVSPropertyOp15
 70
     1
102
RTVSPropertyOp16
 70
     1
102
RTVSPropertyOp17
 70
     1
102
RTVSPropertyOp18
 70
     1
102
RTVSPropertyOp19
 70
     1
102
RTVSPropertyOp20
 70
     1
102
RTVSPropertyOp21
 70
     1
102
RTVSPropertyOp22
 70
     1
102
RTVSPropertyOp23
 70
     1
102
RTVSPropertyOp24
 70
     1
102
RTVSPropertyOp25
 70
     1
102
RTVSPropertyOp26
 70
     1
102
RTVSPropertyOp27
 70
     1
  0
XRECORD
  5
1E62
102
{ACAD_REACTORS
330
1E61
102
}
330
1E61
100
AcDbXrecord
280
     1
102
RTVSPropertyOp0
 70
     1
102
RTVSPropertyOp1
 70
     1
102
RTVSPropertyOp2
 70
     1
102
RTVSPropertyOp3
 70
     1
102
RTVSPropertyOp4
 70
     1
102
RTVSPropertyOp5
 70
     1
102
RTVSPropertyOp6
 70
     1
102
RTVSPropertyOp7
 70
     1
102
RTVSPropertyOp8
 70
     1
102
RTVSPropertyOp9
 70
     1
102
RTVSPropertyOp10
 70
     1
102
RTVSPropertyOp11
 70
     1
102
RTVSPropertyOp12
 70
     1
102
RTVSPropertyOp13
 70
     1
102
RTVSPropertyOp14
 70
     1
102
RTVSPropertyOp15
 70
     1
102
RTVSPropertyOp16
 70
     1
102
RTVSPropertyOp17
 70
     1
102
RTVSPropertyOp18
 70
     1
102
RTVSPropertyOp19
 70
     1
102
RTVSPropertyOp20
 70
     1
102
RTVSPropertyOp21
 70
     1
102
RTVSPropertyOp22
 70
     1
102
RTVSPropertyOp23
 70
     1
102
RTVSPropertyOp24
 70
     1
102
RTVSPropertyOp25
 70
     1
102
RTVSPropertyOp26
 70
     1
102
RTVSPropertyOp27
 70
     1
  0
XRECORD
  5
1E7C
102
{ACAD_REACTORS
330
1E7B
102
}
330
1E7B
100
AcDbXrecord
280
     1
102
RTVSPropertyOp0
 70
     0
102
RTVSPropertyOp1
 70
     0
102
RTVSPropertyOp2
 70
     0
102
RTVSPropertyOp3
 70
     0
102
RTVSPropertyOp4
 70
     0
102
RTVSPropertyOp5
 70
     0
102
RTVSPropertyOp6
 70
     0
102
RTVSPropertyOp7
 70
     0
102
RTVSPropertyOp8
 70
     0
102
RTVSPropertyOp9
 70
     0
102
RTVSPropertyOp10
 70
     0
102
RTVSPropertyOp11
 70
     0
102
RTVSPropertyOp12
 70
     0
102
RTVSPropertyOp13
 70
     0
102
RTVSPropertyOp14
 70
     2
102
RTVSPropertyOp15
 70
     0
102
RTVSPropertyOp16
 70
     0
102
RTVSPropertyOp17
 70
     0
102
RTVSPropertyOp18
 70
     0
102
RTVSPropertyOp19
 70
     0
102
RTVSPropertyOp20
 70
     0
102
RTVSPropertyOp21
 70
     0
102
RTVSPropertyOp22
 70
     0
102
RTVSPropertyOp23
 70
     0
102
RTVSPropertyOp24
 70
     0
102
RTVSPropertyOp25
 70
     0
102
RTVSPropertyOp26
 70
     0
102
RTVSPropertyOp27
 70
     0
  0
XRECORD
  5
1E76
102
{ACAD_REACTORS
330
1E75
102
}
330
1E75
100
AcDbXrecord
280
     1
102
RTVSPropertyOp0
 70
     1
102
RTVSPropertyOp1
 70
     1
102
RTVSPropertyOp2
 70
     1
102
RTVSPropertyOp3
 70
     1
102
RTVSPropertyOp4
 70
     1
102
RTVSPropertyOp5
 70
     1
102
RTVSPropertyOp6
 70
     1
102
RTVSPropertyOp7
 70
     1
102
RTVSPropertyOp8
 70
     1
102
RTVSPropertyOp9
 70
     1
102
RTVSPropertyOp10
 70
     1
102
RTVSPropertyOp11
 70
     1
102
RTVSPropertyOp12
 70
     1
102
RTVSPropertyOp13
 70
     1
102
RTVSPropertyOp14
 70
     1
102
RTVSPropertyOp15
 70
     1
102
RTVSPropertyOp16
 70
     1
102
RTVSPropertyOp17
 70
     1
102
RTVSPropertyOp18
 70
     1
102
RTVSPropertyOp19
 70
     1
102
RTVSPropertyOp20
 70
     1
102
RTVSPropertyOp21
 70
     1
102
RTVSPropertyOp22
 70
     1
102
RTVSPropertyOp23
 70
     1
102
RTVSPropertyOp24
 70
     1
102
RTVSPropertyOp25
 70
     1
102
RTVSPropertyOp26
 70
     1
102
RTVSPropertyOp27
 70
     1
  0
XRECORD
  5
1E7E
102
{ACAD_REACTORS
330
1E7D
102
}
330
1E7D
100
AcDbXrecord
280
     1
102
RTVSPropertyOp0
 70
     0
102
RTVSPropertyOp1
 70
     0
102
RTVSPropertyOp2
 70
     0
102
RTVSPropertyOp3
 70
     0
102
RTVSPropertyOp4
 70
     0
102
RTVSPropertyOp5
 70
     0
102
RTVSPropertyOp6
 70
     0
102
RTVSPropertyOp7
 70
     0
102
RTVSPropertyOp8
 70
     0
102
RTVSPropertyOp9
 70
     0
102
RTVSPropertyOp10
 70
     0
102
RTVSPropertyOp11
 70
     0
102
RTVSPropertyOp12
 70
     0
102
RTVSPropertyOp13
 70
     0
102
RTVSPropertyOp14
 70
     2
102
RTVSPropertyOp15
 70
     0
102
RTVSPropertyOp16
 70
     0
102
RTVSPropertyOp17
 70
     0
102
RTVSPropertyOp18
 70
     0
102
RTVSPropertyOp19
 70
     0
102
RTVSPropertyOp20
 70
     0
102
RTVSPropertyOp21
 70
     0
102
RTVSPropertyOp22
 70
     0
102
RTVSPropertyOp23
 70
     0
102
RTVSPropertyOp24
 70
     0
102
RTVSPropertyOp25
 70
     0
102
RTVSPropertyOp26
 70
     0
102
RTVSPropertyOp27
 70
     0
  0
XRECORD
  5
1E6E
102
{ACAD_REACTORS
330
1E6D
102
}
330
1E6D
100
AcDbXrecord
280
     1
102
RTVSPropertyOp0
 70
     1
102
RTVSPropertyOp1
 70
     1
102
RTVSPropertyOp2
 70
     1
102
RTVSPropertyOp3
 70
     1
102
RTVSPropertyOp4
 70
     1
102
RTVSPropertyOp5
 70
     1
102
RTVSPropertyOp6
 70
     1
102
RTVSPropertyOp7
 70
     1
102
RTVSPropertyOp8
 70
     1
102
RTVSPropertyOp9
 70
     1
102
RTVSPropertyOp10
 70
     1
102
RTVSPropertyOp11
 70
     1
102
RTVSPropertyOp12
 70
     1
102
RTVSPropertyOp13
 70
     1
102
RTVSPropertyOp14
 70
     1
102
RTVSPropertyOp15
 70
     1
102
RTVSPropertyOp16
 70
     1
102
RTVSPropertyOp17
 70
     1
102
RTVSPropertyOp18
 70
     1
102
RTVSPropertyOp19
 70
     1
102
RTVSPropertyOp20
 70
     1
102
RTVSPropertyOp21
 70
     1
102
RTVSPropertyOp22
 70
     1
102
RTVSPropertyOp23
 70
     1
102
RTVSPropertyOp24
 70
     1
102
RTVSPropertyOp25
 70
     1
102
RTVSPropertyOp26
 70
     1
102
RTVSPropertyOp27
 70
     1
  0
XRECORD
  5
1E74
102
{ACAD_REACTORS
330
1E73
102
}
330
1E73
100
AcDbXrecord
280
     1
102
RTVSPropertyOp0
 70
     1
102
RTVSPropertyOp1
 70
     1
102
RTVSPropertyOp2
 70
     1
102
RTVSPropertyOp3
 70
     1
102
RTVSPropertyOp4
 70
     1
102
RTVSPropertyOp5
 70
     1
102
RTVSPropertyOp6
 70
     1
102
RTVSPropertyOp7
 70
     1
102
RTVSPropertyOp8
 70
     1
102
RTVSPropertyOp9
 70
     1
102
RTVSPropertyOp10
 70
     1
102
RTVSPropertyOp11
 70
     1
102
RTVSPropertyOp12
 70
     1
102
RTVSPropertyOp13
 70
     1
102
RTVSPropertyOp14
 70
     1
102
RTVSPropertyOp15
 70
     1
102
RTVSPropertyOp16
 70
     1
102
RTVSPropertyOp17
 70
     1
102
RTVSPropertyOp18
 70
     1
102
RTVSPropertyOp19
 70
     1
102
RTVSPropertyOp20
 70
     1
102
RTVSPropertyOp21
 70
     1
102
RTVSPropertyOp22
 70
     1
102
RTVSPropertyOp23
 70
     1
102
RTVSPropertyOp24
 70
     1
102
RTVSPropertyOp25
 70
     1
102
RTVSPropertyOp26
 70
     1
102
RTVSPropertyOp27
 70
     1
  0
ENDSEC
  0
EOF
