  0
SECTION
  2
HEADER
  9
$ACADVER
  1
AC1021
  9
$ACADMAINTVER
 70
    50
  9
$DWGCODEPAGE
  3
ANSI_1252
  9
$LASTSAVEDBY
  1
francoisbu
  9
$INSBASE
 10
0.0
 20
0.0
 30
0.0
  9
$EXTMIN
 10
18.97558638178663
 20
68.71956415525187
 30
-0.0015258207003583
  9
$EXTMAX
 10
84.99446645586415
 20
102.7275393186554
 30
0.0000000349246037
  9
$LIMMIN
 10
0.0
 20
0.0
  9
$LIMMAX
 10
181.3333333333
 20
117.3333333333
  9
$ORTHOMODE
 70
     0
  9
$REGENMODE
 70
     1
  9
$FILLMODE
 70
     1
  9
$QTEXTMODE
 70
     0
  9
$MIRRTEXT
 70
     0
  9
$LTSCALE
 40
9.973333333300001
  9
$ATTMODE
 70
     1
  9
$TEXTSIZE
 40
0.2
  9
$TRACEWID
 40
0.05
  9
$TEXTSTYLE
  7
STANDARD
  9
$CLAYER
  8
0
  9
$CELTYPE
  6
BYLAYER
  9
$CECOLOR
 62
   256
  9
$CELTSCALE
 40
1.0
  9
$DISPSILH
 70
     0
  9
$DIMSCALE
 40
1.0
  9
$DIMASZ
 40
2.0
  9
$DIMEXO
 40
0.0625
  9
$DIMDLI
 40
6.890666666699999
  9
$DIMRND
 40
0.0
  9
$DIMDLE
 40
0.0
  9
$DIMEXE
 40
0.125
  9
$DIMTP
 40
0.00001
  9
$DIMTM
 40
0.00001
  9
$DIMTXT
 40
1.333333333299999
  9
$DIMCEN
 40
1.631999999999999
  9
$DIMTSZ
 40
0.0
  9
$DIMTOL
 70
     1
  9
$DIMLIM
 70
     0
  9
$DIMTIH
 70
     1
  9
$DIMTOH
 70
     1
  9
$DIMSE1
 70
     0
  9
$DIMSE2
 70
     0
  9
$DIMTAD
 70
     0
  9
$DIMZIN
 70
     0
  9
$DIMBLK
  1
_FILLED
  9
$DIMASO
 70
     1
  9
$DIMSHO
 70
     1
  9
$DIMPOST
  1

  9
$DIMAPOST
  1

  9
$DIMALT
 70
     0
  9
$DIMALTD
 70
     2
  9
$DIMALTF
 40
25.4
  9
$DIMLFAC
 40
1.0
  9
$DIMTOFL
 70
     0
  9
$DIMTVP
 40
0.0
  9
$DIMTIX
 70
     0
  9
$DIMSOXD
 70
     0
  9
$DIMSAH
 70
     0
  9
$DIMBLK1
  1

  9
$DIMBLK2
  1

  9
$DIMSTYLE
  2
STANDARD
  9
$DIMCLRD
 70
     0
  9
$DIMCLRE
 70
     0
  9
$DIMCLRT
 70
     0
  9
$DIMTFAC
 40
1.0
  9
$DIMGAP
 40
0.09
  9
$DIMJUST
 70
     0
  9
$DIMSD1
 70
     0
  9
$DIMSD2
 70
     0
  9
$DIMTOLJ
 70
     1
  9
$DIMTZIN
 70
     0
  9
$DIMALTZ
 70
     0
  9
$DIMALTTZ
 70
     0
  9
$DIMUPT
 70
     0
  9
$DIMDEC
 70
     4
  9
$DIMTDEC
 70
     4
  9
$DIMALTU
 70
     2
  9
$DIMALTTD
 70
     2
  9
$DIMTXSTY
  7
STANDARD
  9
$DIMAUNIT
 70
     0
  9
$DIMADEC
 70
     0
  9
$DIMALTRND
 40
0.0
  9
$DIMAZIN
 70
     0
  9
$DIMDSEP
 70
    46
  9
$DIMATFIT
 70
     3
  9
$DIMFRAC
 70
     0
  9
$DIMLDRBLK
  1

  9
$DIMLUNIT
 70
     2
  9
$DIMLWD
 70
    -2
  9
$DIMLWE
 70
    -2
  9
$DIMTMOVE
 70
     0
  9
$DIMFXL
 40
1.0
  9
$DIMFXLON
 70
     0
  9
$DIMJOGANG
 40
0.7853981633974483
  9
$DIMTFILL
 70
     0
  9
$DIMTFILLCLR
 70
     0
  9
$DIMARCSYM
 70
     0
  9
$DIMLTYPE
  6

  9
$DIMLTEX1
  6

  9
$DIMLTEX2
  6

  9
$LUNITS
 70
     2
  9
$LUPREC
 70
     4
  9
$SKETCHINC
 40
0.1
  9
$FILLETRAD
 40
0.0
  9
$AUNITS
 70
     0
  9
$AUPREC
 70
     0
  9
$MENU
  1
.
  9
$ELEVATION
 40
0.0
  9
$PELEVATION
 40
0.0
  9
$THICKNESS
 40
0.0
  9
$LIMCHECK
 70
     0
  9
$CHAMFERA
 40
0.0
  9
$CHAMFERB
 40
0.0
  9
$CHAMFERC
 40
0.0
  9
$CHAMFERD
 40
0.0
  9
$SKPOLY
 70
     0
  9
$TDCREATE
 40
2456630.448005892
  9
$TDUCREATE
 40
2456630.656339225
  9
$TDUPDATE
 40
2456630.475584398
  9
$TDUUPDATE
 40
2456630.683917731
  9
$TDINDWG
 40
0.0004822222
  9
$TDUSRTIMER
 40
0.0004822222
  9
$USRTIMER
 70
     1
  9
$ANGBASE
 50
0.0
  9
$ANGDIR
 70
     0
  9
$PDMODE
 70
     3
  9
$PDSIZE
 40
0.03125
  9
$PLINEWID
 40
0.0
  9
$SPLFRAME
 70
     0
  9
$SPLINETYPE
 70
     6
  9
$SPLINESEGS
 70
     8
  9
$HANDSEED
  5
1649
  9
$SURFTAB1
 70
     6
  9
$SURFTAB2
 70
     6
  9
$SURFTYPE
 70
     6
  9
$SURFU
 70
     6
  9
$SURFV
 70
     6
  9
$UCSBASE
  2

  9
$UCSNAME
  2

  9
$UCSORG
 10
0.0
 20
0.0
 30
0.0
  9
$UCSXDIR
 10
1.0
 20
0.0
 30
0.0
  9
$UCSYDIR
 10
0.0
 20
1.0
 30
0.0
  9
$UCSORTHOREF
  2

  9
$UCSORTHOVIEW
 70
     0
  9
$UCSORGTOP
 10
0.0
 20
0.0
 30
0.0
  9
$UCSORGBOTTOM
 10
0.0
 20
0.0
 30
0.0
  9
$UCSORGLEFT
 10
0.0
 20
0.0
 30
0.0
  9
$UCSORGRIGHT
 10
0.0
 20
0.0
 30
0.0
  9
$UCSORGFRONT
 10
0.0
 20
0.0
 30
0.0
  9
$UCSORGBACK
 10
0.0
 20
0.0
 30
0.0
  9
$PUCSBASE
  2

  9
$PUCSNAME
  2

  9
$PUCSORG
 10
0.0
 20
0.0
 30
0.0
  9
$PUCSXDIR
 10
1.0
 20
0.0
 30
0.0
  9
$PUCSYDIR
 10
0.0
 20
1.0
 30
0.0
  9
$PUCSORTHOREF
  2

  9
$PUCSORTHOVIEW
 70
     0
  9
$PUCSORGTOP
 10
0.0
 20
0.0
 30
0.0
  9
$PUCSORGBOTTOM
 10
0.0
 20
0.0
 30
0.0
  9
$PUCSORGLEFT
 10
0.0
 20
0.0
 30
0.0
  9
$PUCSORGRIGHT
 10
0.0
 20
0.0
 30
0.0
  9
$PUCSORGFRONT
 10
0.0
 20
0.0
 30
0.0
  9
$PUCSORGBACK
 10
0.0
 20
0.0
 30
0.0
  9
$USERI1
 70
     0
  9
$USERI2
 70
     0
  9
$USERI3
 70
     0
  9
$USERI4
 70
     0
  9
$USERI5
 70
     0
  9
$USERR1
 40
0.0
  9
$USERR2
 40
0.0
  9
$USERR3
 40
0.0
  9
$USERR4
 40
0.0
  9
$USERR5
 40
0.0
  9
$WORLDVIEW
 70
     1
  9
$SHADEDGE
 70
     3
  9
$SHADEDIF
 70
    70
  9
$TILEMODE
 70
     1
  9
$MAXACTVP
 70
    64
  9
$PINSBASE
 10
0.0
 20
0.0
 30
0.0
  9
$PLIMCHECK
 70
     0
  9
$PEXTMIN
 10
1.000000000000000E+20
 20
1.000000000000000E+20
 30
1.000000000000000E+20
  9
$PEXTMAX
 10
-1.000000000000000E+20
 20
-1.000000000000000E+20
 30
-1.000000000000000E+20
  9
$PLIMMIN
 10
0.0
 20
0.0
  9
$PLIMMAX
 10
12.0
 20
9.0
  9
$UNITMODE
 70
     0
  9
$VISRETAIN
 70
     1
  9
$PLINEGEN
 70
     0
  9
$PSLTSCALE
 70
     1
  9
$TREEDEPTH
 70
  3020
  9
$CMLSTYLE
  2
Standard
  9
$CMLJUST
 70
     0
  9
$CMLSCALE
 40
1.0
  9
$PROXYGRAPHICS
 70
     1
  9
$MEASUREMENT
 70
     0
  9
$CELWEIGHT
370
    -1
  9
$ENDCAPS
280
     0
  9
$JOINSTYLE
280
     0
  9
$LWDISPLAY
290
     0
  9
$INSUNITS
 70
     1
  9
$HYPERLINKBASE
  1

  9
$STYLESHEET
  1

  9
$XEDIT
290
     1
  9
$CEPSNTYPE
380
     0
  9
$PSTYLEMODE
290
     1
  9
$FINGERPRINTGUID
  2
{4D708F42-D196-4EE9-B7DC-0427FFAF2907}
  9
$VERSIONGUID
  2
{F41F03E7-369F-4818-9959-7351BF0F0613}
  9
$EXTNAMES
290
     1
  9
$PSVPSCALE
 40
0.0
  9
$OLESTARTUP
290
     0
  9
$SORTENTS
280
   127
  9
$INDEXCTL
280
     0
  9
$HIDETEXT
280
     0
  9
$XCLIPFRAME
290
     0
  9
$HALOGAP
280
     0
  9
$OBSCOLOR
 70
   257
  9
$OBSLTYPE
280
     0
  9
$INTERSECTIONDISPLAY
280
     0
  9
$INTERSECTIONCOLOR
 70
   257
  9
$DIMASSOC
280
     1
  9
$PROJECTNAME
  1

  9
$CAMERADISPLAY
290
     0
  9
$LENSLENGTH
 40
50.0
  9
$CAMERAHEIGHT
 40
0.0
  9
$STEPSPERSEC
 40
2.0
  9
$STEPSIZE
 40
6.0
  9
$3DDWFPREC
 40
2.0
  9
$PSOLWIDTH
 40
0.25
  9
$PSOLHEIGHT
 40
4.0
  9
$LOFTANG1
 40
1.570796326794896
  9
$LOFTANG2
 40
1.570796326794896
  9
$LOFTMAG1
 40
0.0
  9
$LOFTMAG2
 40
0.0
  9
$LOFTPARAM
 70
     7
  9
$LOFTNORMALS
280
     1
  9
$LATITUDE
 40
37.795
  9
$LONGITUDE
 40
-122.394
  9
$NORTHDIRECTION
 40
0.0
  9
$TIMEZONE
 70
 -8000
  9
$LIGHTGLYPHDISPLAY
280
     1
  9
$TILEMODELIGHTSYNCH
280
     1
  9
$CMATERIAL
347
156D
  9
$SOLIDHIST
280
     1
  9
$SHOWHIST
280
     1
  9
$DWFFRAME
280
     2
  9
$DGNFRAME
280
     0
  9
$REALWORLDSCALE
290
     1
  9
$INTERFERECOLOR
 62
     1
  9
$INTERFEREOBJVS
345
158F
  9
$INTERFEREVPVS
346
158C
  9
$CSHADOW
280
     0
  9
$SHADOWPLANELOCATION
 40
0.0
  0
ENDSEC
  0
SECTION
  2
CLASSES
  0
CLASS
  1
ACDBDICTIONARYWDFLT
  2
AcDbDictionaryWithDefault
  3
ObjectDBX Classes
 90
        0
 91
        1
280
     0
281
     0
  0
CLASS
  1
MATERIAL
  2
AcDbMaterial
  3
ObjectDBX Classes
 90
     1153
 91
        3
280
     0
281
     0
  0
CLASS
  1
VISUALSTYLE
  2
AcDbVisualStyle
  3
ObjectDBX Classes
 90
     4095
 91
       19
280
     0
281
     0
  0
CLASS
  1
TABLESTYLE
  2
AcDbTableStyle
  3
ObjectDBX Classes
 90
     4095
 91
        1
280
     0
281
     0
  0
CLASS
  1
SCALE
  2
AcDbScale
  3
ObjectDBX Classes
 90
     1153
 91
       33
280
     0
281
     0
  0
CLASS
  1
MLEADERSTYLE
  2
AcDbMLeaderStyle
  3
ACDB_MLEADERSTYLE_CLASS
 90
     4095
 91
        1
280
     0
281
     0
  0
CLASS
  1
CELLSTYLEMAP
  2
AcDbCellStyleMap
  3
ObjectDBX Classes
 90
     1152
 91
        3
280
     0
281
     0
  0
CLASS
  1
DICTIONARYVAR
  2
AcDbDictionaryVar
  3
ObjectDBX Classes
 90
        0
 91
       15
280
     0
281
     0
  0
ENDSEC
  0
SECTION
  2
TABLES
  0
TABLE
  2
VPORT
  5
8
102
{ACAD_XDICTIONARY
360
15C5
102
}
330
0
100
AcDbSymbolTable
 70
     1
  0
VPORT
  5
1F4
330
8
100
AcDbSymbolTableRecord
100
AcDbViewportTableRecord
  2
*ACTIVE
 70
     0
 10
0.0
 20
0.0
 11
1.0
 21
1.0
 12
51.98502641882538
 22
85.72355173695365
 13
0.0
 23
0.0
 14
1.0
 24
1.0
 15
0.0
 25
0.0
 16
0.0
 26
0.0
 36
1.0
 17
0.0
 27
0.0
 37
0.0
 40
34.29098189153175
 41
2.41111111111111
 42
50.0
 43
0.0
 44
0.0
 50
0.0
 51
0.0
 71
     0
 72
   100
 73
     1
 74
     1
 75
     0
 76
     0
 77
     0
 78
     0
281
     0
 65
     1
110
0.0
120
0.0
130
0.0
111
1.0
121
0.0
131
0.0
112
0.0
122
1.0
132
0.0
 79
     0
146
0.0
348
158B
 60
     3
 61
     5
292
     1
282
     1
141
0.0
142
0.0
 63
   250
421
  3355443
  0
ENDTAB
  0
TABLE
  2
LTYPE
  5
5
330
0
100
AcDbSymbolTable
 70
     6
  0
LTYPE
  5
14
330
5
100
AcDbSymbolTableRecord
100
AcDbLinetypeTableRecord
  2
BYBLOCK
 70
     0
  3

 72
    65
 73
     0
 40
0.0
  0
LTYPE
  5
15
330
5
100
AcDbSymbolTableRecord
100
AcDbLinetypeTableRecord
  2
BYLAYER
 70
     0
  3

 72
    65
 73
     0
 40
0.0
  0
LTYPE
  5
16
330
5
100
AcDbSymbolTableRecord
100
AcDbLinetypeTableRecord
  2
CONTINUOUS
 70
     0
  3
Solid line
 72
    65
 73
     0
 40
0.0
  0
LTYPE
  5
1F5
330
5
100
AcDbSymbolTableRecord
100
AcDbLinetypeTableRecord
  2
CENTER
 70
     0
  3
____ _ ____ _ ____ _ ____ _ ____ _ ____ _ ____
 72
    65
 73
     4
 40
0.6
 49
0.375
 74
     0
 49
-0.075
 74
     0
 49
0.075
 74
     0
 49
-0.075
 74
     0
  0
LTYPE
  5
1F6
330
5
100
AcDbSymbolTableRecord
100
AcDbLinetypeTableRecord
  2
HIDDEN
 70
     0
  3
- - - - - - - - - - - - - - - - - - - -
 72
    65
 73
     2
 40
0.2
 49
0.1
 74
     0
 49
-0.1
 74
     0
  0
LTYPE
  5
1F7
330
5
100
AcDbSymbolTableRecord
100
AcDbLinetypeTableRecord
  2
PHANTOM
 70
     0
  3
_____ _ _ _____ _ _ _____ _ _ _____
 72
    65
 73
     6
 40
0.8
 49
0.45
 74
     0
 49
-0.05
 74
     0
 49
0.1
 74
     0
 49
-0.05
 74
     0
 49
0.1
 74
     0
 49
-0.05
 74
     0
  0
LTYPE
  5
1F8
330
5
100
AcDbSymbolTableRecord
100
AcDbLinetypeTableRecord
  2
DOT
 70
     0
  3
. . . . . . . . . . . . . . . . . . . .
 72
    65
 73
     2
 40
0.2
 49
0.1
 74
     0
 49
-0.1
 74
     0
  0
LTYPE
  5
1F9
330
5
100
AcDbSymbolTableRecord
100
AcDbLinetypeTableRecord
  2
DASHED
 70
     0
  3
- - - - - - - - - - - - - - - - - - - -
 72
    65
 73
     2
 40
0.2
 49
0.1
 74
     0
 49
-0.1
 74
     0
  0
ENDTAB
  0
TABLE
  2
LAYER
  5
2
330
0
100
AcDbSymbolTable
 70
    29
  0
LAYER
  5
10
102
{ACAD_XDICTIONARY
360
1605
102
}
330
2
100
AcDbSymbolTableRecord
100
AcDbLayerTableRecord
  2
0
 70
     0
 62
     7
  6
CONTINUOUS
370
    -3
390
F
347
157D
  0
LAYER
  5
1FA
102
{ACAD_XDICTIONARY
360
1607
102
}
330
2
100
AcDbSymbolTableRecord
100
AcDbLayerTableRecord
  2
DEFAULT_1
 70
     0
 62
     7
  6
CENTER
370
    -3
390
F
347
157D
  0
LAYER
  5
1FB
102
{ACAD_XDICTIONARY
360
1609
102
}
330
2
100
AcDbSymbolTableRecord
100
AcDbLayerTableRecord
  2
DEFAULT_2
 70
     0
 62
     7
  6
HIDDEN
370
    -3
390
F
347
157D
  0
LAYER
  5
1FC
102
{ACAD_XDICTIONARY
360
160B
102
}
330
2
100
AcDbSymbolTableRecord
100
AcDbLayerTableRecord
  2
DEFAULT_3
 70
     0
 62
     7
  6
PHANTOM
370
    -3
390
F
347
157D
  0
LAYER
  5
1FD
102
{ACAD_XDICTIONARY
360
160D
102
}
330
2
100
AcDbSymbolTableRecord
100
AcDbLayerTableRecord
  2
1_CURVES
 70
     0
 62
     7
  6
CONTINUOUS
370
    -3
390
F
347
157D
  0
LAYER
  5
1FE
102
{ACAD_XDICTIONARY
360
160F
102
}
330
2
100
AcDbSymbolTableRecord
100
AcDbLayerTableRecord
  2
1_CURVES_CONDUIT
 70
     0
 62
     7
  6
CONTINUOUS
370
    -3
390
F
347
157D
  0
LAYER
  5
1FF
102
{ACAD_XDICTIONARY
360
1611
102
}
330
2
100
AcDbSymbolTableRecord
100
AcDbLayerTableRecord
  2
1_CURVES_JETS
 70
     0
 62
     7
  6
CONTINUOUS
370
    -3
390
F
347
157D
  0
LAYER
  5
200
102
{ACAD_XDICTIONARY
360
1613
102
}
330
2
100
AcDbSymbolTableRecord
100
AcDbLayerTableRecord
  2
1_CURVES_PATINS
 70
     0
 62
     7
  6
CONTINUOUS
370
    -3
390
F
347
157D
  0
LAYER
  5
201
102
{ACAD_XDICTIONARY
360
1615
102
}
330
2
100
AcDbSymbolTableRecord
100
AcDbLayerTableRecord
  2
1_CURVES_SPEC_FRONT
 70
     0
 62
     7
  6
CONTINUOUS
370
    -3
390
F
347
157D
  0
LAYER
  5
202
102
{ACAD_XDICTIONARY
360
1617
102
}
330
2
100
AcDbSymbolTableRecord
100
AcDbLayerTableRecord
  2
1_CURVES_SPEC_RIGHT
 70
     0
 62
     7
  6
CONTINUOUS
370
    -3
390
F
347
157D
  0
LAYER
  5
203
102
{ACAD_XDICTIONARY
360
1619
102
}
330
2
100
AcDbSymbolTableRecord
100
AcDbLayerTableRecord
  2
2_PLANES
 70
     0
 62
     7
  6
CONTINUOUS
370
    -3
390
F
347
157D
  0
LAYER
  5
204
102
{ACAD_XDICTIONARY
360
161B
102
}
330
2
100
AcDbSymbolTableRecord
100
AcDbLayerTableRecord
  2
2_PLANES_JETS
 70
     0
 62
     7
  6
CONTINUOUS
370
    -3
390
F
347
157D
  0
LAYER
  5
205
102
{ACAD_XDICTIONARY
360
161D
102
}
330
2
100
AcDbSymbolTableRecord
100
AcDbLayerTableRecord
  2
3_POINTS
 70
     0
 62
     7
  6
CONTINUOUS
370
    -3
390
F
347
157D
  0
LAYER
  5
206
102
{ACAD_XDICTIONARY
360
161F
102
}
330
2
100
AcDbSymbolTableRecord
100
AcDbLayerTableRecord
  2
3_POINTS_JETS
 70
     0
 62
     7
  6
CONTINUOUS
370
    -3
390
F
347
157D
  0
LAYER
  5
207
102
{ACAD_XDICTIONARY
360
1621
102
}
330
2
100
AcDbSymbolTableRecord
100
AcDbLayerTableRecord
  2
4_CSYS
 70
     0
 62
     7
  6
CONTINUOUS
370
    -3
390
F
347
157D
  0
LAYER
  5
208
102
{ACAD_XDICTIONARY
360
1623
102
}
330
2
100
AcDbSymbolTableRecord
100
AcDbLayerTableRecord
  2
5_AXIS
 70
     0
 62
     7
  6
CONTINUOUS
370
    -3
390
F
347
157D
  0
LAYER
  5
209
102
{ACAD_XDICTIONARY
360
1625
102
}
330
2
100
AcDbSymbolTableRecord
100
AcDbLayerTableRecord
  2
5_AXIS_JETS
 70
     0
 62
     7
  6
CONTINUOUS
370
    -3
390
F
347
157D
  0
LAYER
  5
20A
102
{ACAD_XDICTIONARY
360
1627
102
}
330
2
100
AcDbSymbolTableRecord
100
AcDbLayerTableRecord
  2
6_AIRE_CONDUIT
 70
     0
 62
     7
  6
CONTINUOUS
370
    -3
390
F
347
157D
  0
LAYER
  5
20B
102
{ACAD_XDICTIONARY
360
1629
102
}
330
2
100
AcDbSymbolTableRecord
100
AcDbLayerTableRecord
  2
6_SURFACES
 70
     0
 62
     7
  6
CONTINUOUS
370
    -3
390
F
347
157D
  0
LAYER
  5
20C
102
{ACAD_XDICTIONARY
360
162B
102
}
330
2
100
AcDbSymbolTableRecord
100
AcDbLayerTableRecord
  2
6_SURFACES_AIRE
 70
     0
 62
     7
  6
CONTINUOUS
370
    -3
390
F
347
157D
  0
LAYER
  5
20D
102
{ACAD_XDICTIONARY
360
162D
102
}
330
2
100
AcDbSymbolTableRecord
100
AcDbLayerTableRecord
  2
6_SURFACES_OFFSET_FIBRE_ACRYLIQ
 70
     0
 62
     7
  6
CONTINUOUS
370
    -3
390
F
347
157D
  0
LAYER
  5
20E
102
{ACAD_XDICTIONARY
360
162F
102
}
330
2
100
AcDbSymbolTableRecord
100
AcDbLayerTableRecord
  2
6_SURFACES_POUR_CONDUIT
 70
     0
 62
     7
  6
CONTINUOUS
370
    -3
390
F
347
157D
  0
LAYER
  5
20F
102
{ACAD_XDICTIONARY
360
1631
102
}
330
2
100
AcDbSymbolTableRecord
100
AcDbLayerTableRecord
  2
6_SURFACES_POUR_HFL
 70
     0
 62
     7
  6
CONTINUOUS
370
    -3
390
F
347
157D
  0
LAYER
  5
210
102
{ACAD_XDICTIONARY
360
1633
102
}
330
2
100
AcDbSymbolTableRecord
100
AcDbLayerTableRecord
  2
6_SURFACES_POUR_TROP_PLEIN
 70
     0
 62
     7
  6
CONTINUOUS
370
    -3
390
F
347
157D
  0
LAYER
  5
211
102
{ACAD_XDICTIONARY
360
1635
102
}
330
2
100
AcDbSymbolTableRecord
100
AcDbLayerTableRecord
  2
6_SURFACES_TOOLING
 70
     0
 62
     7
  6
CONTINUOUS
370
    -3
390
F
347
157D
  0
LAYER
  5
212
102
{ACAD_XDICTIONARY
360
1637
102
}
330
2
100
AcDbSymbolTableRecord
100
AcDbLayerTableRecord
  2
7_NOTES
 70
     0
 62
     7
  6
CONTINUOUS
370
    -3
390
F
347
157D
  0
LAYER
  5
213
102
{ACAD_XDICTIONARY
360
1639
102
}
330
2
100
AcDbSymbolTableRecord
100
AcDbLayerTableRecord
  2
8_TOL_GEOM
 70
     0
 62
     7
  6
CONTINUOUS
370
    -3
390
F
347
157D
  0
LAYER
  5
214
102
{ACAD_XDICTIONARY
360
163B
102
}
330
2
100
AcDbSymbolTableRecord
100
AcDbLayerTableRecord
  2
NONE
 70
     0
 62
     7
  6
CONTINUOUS
370
    -3
390
F
347
157D
  0
LAYER
  5
215
102
{ACAD_XDICTIONARY
360
163D
102
}
330
2
100
AcDbSymbolTableRecord
100
AcDbLayerTableRecord
  2
XSEC_DATUMS
 70
     0
 62
     7
  6
CONTINUOUS
370
    -3
390
F
347
157D
  0
ENDTAB
  0
TABLE
  2
STYLE
  5
3
330
0
100
AcDbSymbolTable
 70
     8
  0
STYLE
  5
11
330
3
100
AcDbSymbolTableRecord
100
AcDbTextStyleTableRecord
  2
STANDARD
 70
     0
 40
0.0
 41
0.8
 50
0.0
 71
     0
 42
0.2
  3
txt
  4

  0
STYLE
  5
216
330
3
100
AcDbSymbolTableRecord
100
AcDbTextStyleTableRecord
  2
TEXTSTYLE_1
 70
     0
 40
0.0
 41
0.8
 50
0.0
 71
     0
 42
0.2
  3
gdt
  4

  0
STYLE
  5
217
330
3
100
AcDbSymbolTableRecord
100
AcDbTextStyleTableRecord
  2
TEXTSTYLE_2
 70
     0
 40
0.0
 41
1.0
 50
0.0
 71
     0
 42
0.2
  3
trium.ttf
  4

  0
STYLE
  5
218
330
3
100
AcDbSymbolTableRecord
100
AcDbTextStyleTableRecord
  2
TEXTSTYLE_3
 70
     0
 40
0.0
 41
1.0
 50
0.0
 71
     0
 42
0.2
  3
trium.ttf
  4

  0
STYLE
  5
219
330
3
100
AcDbSymbolTableRecord
100
AcDbTextStyleTableRecord
  2
TEXTSTYLE_4
 70
     0
 40
0.0
 41
1.0
 50
0.0
 71
     0
 42
0.2
  3
txt_____.ttf
  4

1001
ACAD
1000
txt
1071
        2
  0
STYLE
  5
21A
330
3
100
AcDbSymbolTableRecord
100
AcDbTextStyleTableRecord
  2
TEXTSTYLE_5
 70
     0
 40
0.0
 41
1.0
 50
0.0
 71
     0
 42
0.2
  3
txt_____.ttf
  4

1001
ACAD
1000
txt
1071
        2
  0
STYLE
  5
21B
330
3
100
AcDbSymbolTableRecord
100
AcDbTextStyleTableRecord
  2
TEXTSTYLE_6
 70
     0
 40
0.0
 41
1.0
 50
0.0
 71
     0
 42
0.2
  3
trium.ttf
  4

  0
STYLE
  5
21C
330
3
100
AcDbSymbolTableRecord
100
AcDbTextStyleTableRecord
  2
TEXTSTYLE_7
 70
     0
 40
0.0
 41
0.8
 50
0.0
 71
     0
 42
0.2
  3
txt_____.ttf
  4

1001
ACAD
1000
txt
1071
        2
  0
ENDTAB
  0
TABLE
  2
VIEW
  5
6
330
0
100
AcDbSymbolTable
 70
     0
  0
ENDTAB
  0
TABLE
  2
UCS
  5
7
330
0
100
AcDbSymbolTable
 70
     0
  0
ENDTAB
  0
TABLE
  2
APPID
  5
9
330
0
100
AcDbSymbolTable
 70
     2
  0
APPID
  5
21D
330
9
100
AcDbSymbolTableRecord
100
AcDbRegAppTableRecord
  2
ACAD
 70
     0
  0
APPID
  5
15F5
330
9
100
AcDbSymbolTableRecord
100
AcDbRegAppTableRecord
  2
ACAD_MLEADERVER
 70
     0
  0
ENDTAB
  0
TABLE
  2
DIMSTYLE
  5
A
330
0
100
AcDbSymbolTable
 70
     5
100
AcDbDimStyleTable
 71
     0
  0
DIMSTYLE
105
236
330
A
100
AcDbSymbolTableRecord
100
AcDbDimStyleTableRecord
  2
STANDARD
 70
     0
 41
2.0
 44
0.125
 47
0.00001
 48
0.00001
 71
     1
 78
     4
140
1.333333333299999
271
     5
272
     5
284
     4
340
11
341
220
342
220
343
220
344
220
  0
DIMSTYLE
105
237
330
A
100
AcDbSymbolTableRecord
100
AcDbDimStyleTableRecord
  2
DIMSTYLE_1
 70
     0
 41
2.0
 44
0.125
 47
0.00001
 48
0.00001
 78
     4
140
1.333333333299999
147
0.0625
271
     3
272
     3
284
     4
340
11
341
220
342
220
343
220
344
220
  0
DIMSTYLE
105
238
330
A
100
AcDbSymbolTableRecord
100
AcDbDimStyleTableRecord
  2
DIMSTYLE_2
 70
     0
 41
2.0
 44
0.125
 47
1.0
 48
1.0
 78
     4
140
1.333333333299999
271
     0
272
     0
284
     4
340
11
341
220
342
220
343
220
344
220
  0
DIMSTYLE
105
239
330
A
100
AcDbSymbolTableRecord
100
AcDbDimStyleTableRecord
  2
DIMSTYLE_3
 70
     0
 41
2.0
 44
0.125
 47
0.00001
 48
0.00001
 78
     4
140
1.333333333299999
147
0.0625
284
     4
340
11
341
220
342
220
343
220
344
220
  0
DIMSTYLE
105
23A
330
A
100
AcDbSymbolTableRecord
100
AcDbDimStyleTableRecord
  2
DIMSTYLE_4
 70
     0
 41
2.0
 44
0.125
 47
0.5
 48
0.5
 78
     4
140
1.333333333299999
271
     0
272
     0
284
     4
340
11
341
220
342
220
343
220
344
220
  0
ENDTAB
  0
TABLE
  2
BLOCK_RECORD
  5
1
330
0
100
AcDbSymbolTable
 70
    22
  0
BLOCK_RECORD
  5
21E
330
1
100
AcDbSymbolTableRecord
100
AcDbBlockTableRecord
  2
*Model_Space
340
1567
 70
     0
280
     1
281
     0
  0
BLOCK_RECORD
  5
21F
330
1
100
AcDbSymbolTableRecord
100
AcDbBlockTableRecord
  2
*Paper_Space
340
1568
 70
     0
280
     1
281
     0
  0
BLOCK_RECORD
  5
220
330
1
100
AcDbSymbolTableRecord
100
AcDbBlockTableRecord
  2
_FILLED
340
0
102
{BLKREFS
331
31F
331
320
331
328
331
329
331
331
331
332
331
33A
331
33B
331
343
331
344
331
354
331
355
331
35D
331
35E
331
366
331
367
331
36F
331
370
331
378
331
379
331
382
331
383
331
38C
331
38D
331
396
331
397
331
39F
331
3A0
102
}
 70
     0
280
     1
281
     0
  0
BLOCK_RECORD
  5
221
330
1
100
AcDbSymbolTableRecord
100
AcDbBlockTableRecord
  2
*D1
340
0
 70
     0
280
     1
281
     0
  0
BLOCK_RECORD
  5
222
330
1
100
AcDbSymbolTableRecord
100
AcDbBlockTableRecord
  2
*D2
340
0
 70
     0
280
     1
281
     0
  0
BLOCK_RECORD
  5
223
330
1
100
AcDbSymbolTableRecord
100
AcDbBlockTableRecord
  2
*D3
340
0
 70
     0
280
     1
281
     0
  0
BLOCK_RECORD
  5
224
330
1
100
AcDbSymbolTableRecord
100
AcDbBlockTableRecord
  2
*D4
340
0
 70
     0
280
     1
281
     0
  0
BLOCK_RECORD
  5
225
330
1
100
AcDbSymbolTableRecord
100
AcDbBlockTableRecord
  2
*D5
340
0
 70
     0
280
     1
281
     0
  0
BLOCK_RECORD
  5
226
330
1
100
AcDbSymbolTableRecord
100
AcDbBlockTableRecord
  2
*D6
340
0
 70
     0
280
     1
281
     0
  0
BLOCK_RECORD
  5
227
330
1
100
AcDbSymbolTableRecord
100
AcDbBlockTableRecord
  2
*D7
340
0
 70
     0
280
     1
281
     0
  0
BLOCK_RECORD
  5
228
330
1
100
AcDbSymbolTableRecord
100
AcDbBlockTableRecord
  2
*D8
340
0
 70
     0
280
     1
281
     0
  0
BLOCK_RECORD
  5
229
330
1
100
AcDbSymbolTableRecord
100
AcDbBlockTableRecord
  2
*D9
340
0
 70
     0
280
     1
281
     0
  0
BLOCK_RECORD
  5
22A
330
1
100
AcDbSymbolTableRecord
100
AcDbBlockTableRecord
  2
*D10
340
0
 70
     0
280
     1
281
     0
  0
BLOCK_RECORD
  5
22B
330
1
100
AcDbSymbolTableRecord
100
AcDbBlockTableRecord
  2
*D11
340
0
 70
     0
280
     1
281
     0
  0
BLOCK_RECORD
  5
22C
330
1
100
AcDbSymbolTableRecord
100
AcDbBlockTableRecord
  2
*D12
340
0
 70
     0
280
     1
281
     0
  0
BLOCK_RECORD
  5
22D
330
1
100
AcDbSymbolTableRecord
100
AcDbBlockTableRecord
  2
*D13
340
0
 70
     0
280
     1
281
     0
  0
BLOCK_RECORD
  5
22E
330
1
100
AcDbSymbolTableRecord
100
AcDbBlockTableRecord
  2
*D14
340
0
 70
     0
280
     1
281
     0
  0
BLOCK_RECORD
  5
22F
330
1
100
AcDbSymbolTableRecord
100
AcDbBlockTableRecord
  2
*D15
340
0
 70
     0
280
     1
281
     0
  0
BLOCK_RECORD
  5
230
330
1
100
AcDbSymbolTableRecord
100
AcDbBlockTableRecord
  2
*D16
340
0
 70
     0
280
     1
281
     0
  0
BLOCK_RECORD
  5
231
330
1
100
AcDbSymbolTableRecord
100
AcDbBlockTableRecord
  2
SYMBOL_7_BL4
340
0
 70
     0
280
     1
281
     0
  0
BLOCK_RECORD
  5
232
330
1
100
AcDbSymbolTableRecord
100
AcDbBlockTableRecord
  2
SYMBOL_6_BL3
340
0
 70
     0
280
     1
281
     0
  0
BLOCK_RECORD
  5
233
330
1
100
AcDbSymbolTableRecord
100
AcDbBlockTableRecord
  2
SYMBOL_5_BL2
340
0
 70
     0
280
     1
281
     0
  0
BLOCK_RECORD
  5
234
330
1
100
AcDbSymbolTableRecord
100
AcDbBlockTableRecord
  2
SYMBOL_2_BL1
340
0
 70
     0
280
     1
281
     0
  0
BLOCK_RECORD
  5
235
330
1
100
AcDbSymbolTableRecord
100
AcDbBlockTableRecord
  2
SYMBOL_0_BL0
340
0
 70
     0
280
     1
281
     0
  0
ENDTAB
  0
ENDSEC
  0
SECTION
  2
BLOCKS
  0
BLOCK
  5
20
330
21E
100
AcDbEntity
  8
0
100
AcDbBlockBegin
  2
*Model_Space
 70
     0
 10
0.0
 20
0.0
 30
0.0
  3
*Model_Space
  1

  0
ENDBLK
  5
21
330
21E
100
AcDbEntity
  8
0
100
AcDbBlockEnd
  0
BLOCK
  5
1C
330
21F
100
AcDbEntity
 67
     1
  8
0
100
AcDbBlockBegin
  2
*Paper_Space
 70
     0
 10
0.0
 20
0.0
 30
0.0
  3
*Paper_Space
  1

  0
ENDBLK
  5
1D
330
21F
100
AcDbEntity
 67
     1
  8
0
100
AcDbBlockEnd
  0
BLOCK
  5
316
330
220
100
AcDbEntity
  8
0
100
AcDbBlockBegin
  2
_FILLED
 70
     0
 10
0.0
 20
0.0
 30
0.0
  3
_FILLED
  1

  0
SOLID
  5
317
330
220
100
AcDbEntity
  8
0
  6
ByBlock
 62
     0
100
AcDbTrace
 10
0.0
 20
0.0
 30
0.0
 11
-1.0
 21
0.1666666667
 31
0.0
 12
-1.0
 22
-0.1666666667
 32
0.0
 13
-1.0
 23
-0.1666666667
 33
0.0
  0
ENDBLK
  5
318
330
220
100
AcDbEntity
  8
0
  6
ByBlock
 62
     0
100
AcDbBlockEnd
  0
BLOCK
  5
319
330
221
100
AcDbEntity
  8
0
  6
Continuous
 62
     7
100
AcDbBlockBegin
  2
*D1
 70
     1
 10
0.0
 20
0.0
 30
0.0
  3
*D1
  1

  0
MTEXT
  5
31A
330
221
100
AcDbEntity
  8
0
  6
Continuous
 62
     7
100
AcDbMText
 10
50.3831395909
 20
17.50937819329999
 30
0.0
 40
1.333333333299999
 41
5.333333333299999
 46
0.0
 71
     2
 72
     1
  1
50\P[127]
 73
     1
 44
0.9
  0
LINE
  5
31B
330
221
100
AcDbEntity
  8
0
  6
Continuous
 62
     7
100
AcDbLine
 10
27.0120103921
 20
24.0460579164
 30
0.0
 11
27.0120103921
 21
15.5093781933
 31
0.0
  0
LINE
  5
31C
330
221
100
AcDbEntity
  8
0
  6
Continuous
 62
     7
100
AcDbLine
 10
76.95426878959999
 20
24.0460579164
 30
0.0
 11
76.95426878959999
 21
15.5093781933
 31
0.0
  0
LINE
  5
31D
330
221
100
AcDbEntity
  8
0
  6
Continuous
 62
     7
100
AcDbLine
 10
27.0120103921
 20
16.8427115266
 30
0.0
 11
48.6498062575
 21
16.8427115266
 31
0.0
  0
LINE
  5
31E
330
221
100
AcDbEntity
  8
0
  6
Continuous
 62
     7
100
AcDbLine
 10
76.95426878959999
 20
16.8427115266
 30
0.0
 11
55.3164729242
 21
16.8427115266
 31
0.0
  0
INSERT
  5
31F
330
221
100
AcDbEntity
  8
0
  6
Continuous
 62
     7
100
AcDbBlockReference
  2
_FILLED
 10
27.0120103921
 20
16.8427115266
 30
0.0
 41
2.0
 42
2.0
 43
2.0
 50
180.0
  0
INSERT
  5
320
330
221
100
AcDbEntity
  8
0
  6
Continuous
 62
     7
100
AcDbBlockReference
  2
_FILLED
 10
76.95426878959999
 20
16.8427115266
 30
0.0
 41
2.0
 42
2.0
 43
2.0
  0
ENDBLK
  5
321
330
221
100
AcDbEntity
  8
0
  6
ByBlock
 62
     0
100
AcDbBlockEnd
  0
BLOCK
  5
322
330
222
100
AcDbEntity
  8
0
  6
Continuous
 62
     7
100
AcDbBlockBegin
  2
*D2
 70
     1
 10
0.0
 20
0.0
 30
0.0
  3
*D2
  1

  0
MTEXT
  5
323
330
222
100
AcDbEntity
  8
0
  6
Continuous
 62
     7
100
AcDbMText
 10
115.3957840663
 20
18.030982113
 30
0.0
 40
1.333333333299999
 41
6.4
 46
0.0
 71
     2
 72
     1
  1
24-1/4\P[62]
 73
     1
 44
0.9
  0
LINE
  5
324
330
222
100
AcDbEntity
  8
0
  6
Continuous
 62
     7
100
AcDbLine
 10
103.2552917947
 20
24.0460579164
 30
0.0
 11
103.2552917947
 21
16.030982113
 31
0.0
  0
LINE
  5
325
330
222
100
AcDbEntity
  8
0
  6
Continuous
 62
     7
100
AcDbLine
 10
127.5362763378
 20
24.0460579164
 30
0.0
 11
127.5362763378
 21
16.030982113
 31
0.0
  0
LINE
  5
326
330
222
100
AcDbEntity
  8
0
  6
Continuous
 62
     7
100
AcDbLine
 10
103.2552917947
 20
17.3643154463
 30
0.0
 11
111.5291173996
 21
17.3643154463
 31
0.0
  0
LINE
  5
327
330
222
100
AcDbEntity
  8
0
  6
Continuous
 62
     7
100
AcDbLine
 10
127.5362763378
 20
17.3643154463
 30
0.0
 11
119.2624507329
 21
17.3643154463
 31
0.0
  0
INSERT
  5
328
330
222
100
AcDbEntity
  8
0
  6
Continuous
 62
     7
100
AcDbBlockReference
  2
_FILLED
 10
103.2552917947
 20
17.3643154463
 30
0.0
 41
2.0
 42
2.0
 43
2.0
 50
180.0
  0
INSERT
  5
329
330
222
100
AcDbEntity
  8
0
  6
Continuous
 62
     7
100
AcDbBlockReference
  2
_FILLED
 10
127.5362763378
 20
17.3643154463
 30
0.0
 41
2.0
 42
2.0
 43
2.0
  0
ENDBLK
  5
32A
330
222
100
AcDbEntity
  8
0
  6
ByBlock
 62
     0
100
AcDbBlockEnd
  0
BLOCK
  5
32B
330
223
100
AcDbEntity
  8
0
  6
Continuous
 62
     7
100
AcDbBlockBegin
  2
*D3
 70
     1
 10
0.0
 20
0.0
 30
0.0
  3
*D3
  1

  0
MTEXT
  5
32C
330
223
100
AcDbEntity
  8
0
  6
Continuous
 62
     7
100
AcDbMText
 10
137.1062438677
 20
38.8793912498
 30
0.0
 40
1.333333333299999
 41
4.266666666699999
 46
0.0
 71
     2
 72
     1
  1
16\P[41]
 73
     1
 44
0.9
  0
LINE
  5
32D
330
223
100
AcDbEntity
  8
0
  6
Continuous
 62
     7
100
AcDbLine
 10
129.5794156209
 20
30.2127245831
 30
0.0
 11
139.5062438677
 21
30.2127245831
 31
0.0
  0
LINE
  5
32E
330
223
100
AcDbEntity
  8
0
  6
Continuous
 62
     7
100
AcDbLine
 10
132.9567489542
 20
46.2127245831
 30
0.0
 11
139.5062438677
 21
46.2127245831
 31
0.0
  0
LINE
  5
32F
330
223
100
AcDbEntity
  8
0
  6
Continuous
 62
     7
100
AcDbLine
 10
138.1729105343
 20
30.2127245831
 30
0.0
 11
138.1729105343
 21
34.8793912498
 31
0.0
  0
LINE
  5
330
330
223
100
AcDbEntity
  8
0
  6
Continuous
 62
     7
100
AcDbLine
 10
138.1729105343
 20
46.2127245831
 30
0.0
 11
138.1729105343
 21
39.5460579164
 31
0.0
  0
INSERT
  5
331
330
223
100
AcDbEntity
  8
0
  6
Continuous
 62
     7
100
AcDbBlockReference
  2
_FILLED
 10
138.1729105343
 20
30.2127245831
 30
0.0
 41
2.0
 42
2.0
 43
2.0
 50
270.0
  0
INSERT
  5
332
330
223
100
AcDbEntity
  8
0
  6
Continuous
 62
     7
100
AcDbBlockReference
  2
_FILLED
 10
138.1729105343
 20
46.2127245831
 30
0.0
 41
2.0
 42
2.0
 43
2.0
 50
90.0
  0
ENDBLK
  5
333
330
223
100
AcDbEntity
  8
0
  6
ByBlock
 62
     0
100
AcDbBlockEnd
  0
BLOCK
  5
334
330
224
100
AcDbEntity
  8
0
  6
Continuous
 62
     7
100
AcDbBlockBegin
  2
*D4
 70
     1
 10
0.0
 20
0.0
 30
0.0
  3
*D4
  1

  0
MTEXT
  5
335
330
224
100
AcDbEntity
  8
0
  6
Continuous
 62
     7
100
AcDbMText
 10
7.920521542899999
 20
39.3793912498
 30
0.0
 40
1.333333333299999
 41
4.266666666699999
 46
0.0
 71
     2
 72
     1
  1
28\P[71]
 73
     1
 44
0.9
  0
LINE
  5
336
330
224
100
AcDbEntity
  8
0
  6
Continuous
 62
     7
100
AcDbLine
 10
18.1060103921
 20
52.71272458310001
 30
0.0
 11
7.653854876299999
 21
52.71272458310001
 31
0.0
  0
LINE
  5
337
330
224
100
AcDbEntity
  8
0
  6
Continuous
 62
     7
100
AcDbLine
 10
26.3453437254
 20
24.7127245831
 30
0.0
 11
7.653854876299999
 21
24.7127245831
 31
0.0
  0
LINE
  5
338
330
224
100
AcDbEntity
  8
0
  6
Continuous
 62
     7
100
AcDbLine
 10
8.987188209600001
 20
52.71272458310001
 30
0.0
 11
8.987188209600001
 21
40.04605791639999
 31
0.0
  0
LINE
  5
339
330
224
100
AcDbEntity
  8
0
  6
Continuous
 62
     7
100
AcDbLine
 10
8.987188209600001
 20
24.7127245831
 30
0.0
 11
8.987188209600001
 21
35.3793912498
 31
0.0
  0
INSERT
  5
33A
330
224
100
AcDbEntity
  8
0
  6
Continuous
 62
     7
100
AcDbBlockReference
  2
_FILLED
 10
8.987188209600001
 20
52.71272458310001
 30
0.0
 41
2.0
 42
2.0
 43
2.0
 50
90.0
  0
INSERT
  5
33B
330
224
100
AcDbEntity
  8
0
  6
Continuous
 62
     7
100
AcDbBlockReference
  2
_FILLED
 10
8.987188209600001
 20
24.7127245831
 30
0.0
 41
2.0
 42
2.0
 43
2.0
 50
270.0
  0
ENDBLK
  5
33C
330
224
100
AcDbEntity
  8
0
  6
ByBlock
 62
     0
100
AcDbBlockEnd
  0
BLOCK
  5
33D
330
225
100
AcDbEntity
  8
0
  6
Continuous
 62
     7
100
AcDbBlockBegin
  2
*D5
 70
     1
 10
0.0
 20
0.0
 30
0.0
  3
*D5
  1

  0
MTEXT
  5
33E
330
225
100
AcDbEntity
  8
0
  6
Continuous
 62
     7
100
AcDbMText
 10
15.3553333592
 20
37.8793912498
 30
0.0
 40
1.333333333299999
 41
4.266666666699999
 46
0.0
 71
     2
 72
     1
  1
25\P[64]
 73
     1
 44
0.9
  0
LINE
  5
33F
330
225
100
AcDbEntity
  8
0
  6
Continuous
 62
     7
100
AcDbLine
 10
18.6443437254
 20
49.7127245831
 30
0.0
 11
15.0886666925
 21
49.7127245831
 31
0.0
  0
LINE
  5
340
330
225
100
AcDbEntity
  8
0
  6
Continuous
 62
     7
100
AcDbLine
 10
26.3453437254
 20
24.7127245831
 30
0.0
 11
15.0886666925
 21
24.7127245831
 31
0.0
  0
LINE
  5
341
330
225
100
AcDbEntity
  8
0
  6
Continuous
 62
     7
100
AcDbLine
 10
16.4220000258
 20
49.7127245831
 30
0.0
 11
16.4220000258
 21
38.5460579164
 31
0.0
  0
LINE
  5
342
330
225
100
AcDbEntity
  8
0
  6
Continuous
 62
     7
100
AcDbLine
 10
16.4220000258
 20
24.7127245831
 30
0.0
 11
16.4220000258
 21
33.8793912498
 31
0.0
  0
INSERT
  5
343
330
225
100
AcDbEntity
  8
0
  6
Continuous
 62
     7
100
AcDbBlockReference
  2
_FILLED
 10
16.4220000258
 20
49.7127245831
 30
0.0
 41
2.0
 42
2.0
 43
2.0
 50
90.0
  0
INSERT
  5
344
330
225
100
AcDbEntity
  8
0
  6
Continuous
 62
     7
100
AcDbBlockReference
  2
_FILLED
 10
16.4220000258
 20
24.7127245831
 30
0.0
 41
2.0
 42
2.0
 43
2.0
 50
270.0
  0
ENDBLK
  5
345
330
225
100
AcDbEntity
  8
0
  6
ByBlock
 62
     0
100
AcDbBlockEnd
  0
BLOCK
  5
346
330
226
100
AcDbEntity
  8
0
  6
Continuous
 62
     7
100
AcDbBlockBegin
  2
*D6
 70
     1
 10
0.0
 20
0.0
 30
0.0
  3
*D6
  1

  0
MTEXT
  5
347
330
226
100
AcDbEntity
  8
0
  6
Continuous
 62
     7
100
AcDbMText
 10
62.96402017310001
 20
23.5845749061
 30
0.0
 40
1.333333333299999
 41
1.955555555599999
 46
0.0
 71
     2
 72
     1
  1
2\Fgdt;{\Fgdt;~}
 73
     1
 44
0.9
  0
LINE
  5
348
330
226
100
AcDbEntity
  8
0
  6
Continuous
 62
     7
100
AcDbLine
 10
54.5248062575
 20
30.2127245831
 30
0.0
 11
66.8590093679
 21
30.2127245831
 31
0.0
  0
ARC
  5
349
330
226
100
AcDbEntity
  8
0
  6
Continuous
 62
     7
100
AcDbCircle
 10
53.8581395909
 20
30.2127245831
 30
0.0
 40
11.6675364438
100
AcDbArc
 50
321.3014166044
 51
360.0
  0
ARC
  5
34A
330
226
100
AcDbEntity
  8
0
  6
Continuous
 62
     7
100
AcDbCircle
 10
53.8581395909
 20
30.2127245831
 30
0.0
 40
11.6675364438
100
AcDbArc
 50
2.102952189
 51
28.2933559824
  0
SOLID
  5
34B
330
226
100
AcDbEntity
  8
0
  6
Continuous
 62
     7
100
AcDbTrace
 10
65.68657980649999
 20
28.1915315969
 30
0.0
 11
65.5256760346
 21
30.2127245831
 31
0.0
 12
65.0223602558
 22
28.2486002648
 32
0.0
 13
65.0223602558
 23
28.2486002648
 33
0.0
  0
SOLID
  5
34C
330
226
100
AcDbEntity
  8
0
  6
Continuous
 62
     7
100
AcDbTrace
 10
64.9427672683
 20
32.5851993765
 30
0.0
 11
65.5178179998
 21
30.6408671602
 31
0.0
 12
65.6044453239
 22
32.6666032778
 32
0.0
 13
65.6044453239
 23
32.6666032778
 33
0.0
  0
ENDBLK
  5
34D
330
226
100
AcDbEntity
  8
0
  6
ByBlock
 62
     0
100
AcDbBlockEnd
  0
BLOCK
  5
34E
330
227
100
AcDbEntity
  8
0
  6
Continuous
 62
     7
100
AcDbBlockBegin
  2
*D7
 70
     1
 10
0.0
 20
0.0
 30
0.0
  3
*D7
  1

  0
MTEXT
  5
34F
330
227
100
AcDbEntity
  8
0
  6
Continuous
 62
     7
100
AcDbMText
 10
50.3831395909
 20
109.1919516465
 30
0.0
 40
1.333333333299999
 41
5.333333333299999
 46
0.0
 71
     2
 72
     1
  1
66\P[168]
 73
     1
 44
0.9
  0
LINE
  5
350
330
227
100
AcDbEntity
  8
0
  6
Continuous
 62
     7
100
AcDbLine
 10
84.9831401071
 20
86.393196282
 30
0.0
 11
84.9831401071
 21
109.8586183131
 31
0.0
  0
LINE
  5
351
330
227
100
AcDbEntity
  8
0
  6
Continuous
 62
     7
100
AcDbLine
 10
18.9831390746
 20
86.3931968726
 30
0.0
 11
18.9831390746
 21
109.8586183131
 31
0.0
  0
LINE
  5
352
330
227
100
AcDbEntity
  8
0
  6
Continuous
 62
     7
100
AcDbLine
 10
84.9831401071
 20
108.5252849798
 30
0.0
 11
55.3164729242
 21
108.5252849798
 31
0.0
  0
LINE
  5
353
330
227
100
AcDbEntity
  8
0
  6
Continuous
 62
     7
100
AcDbLine
 10
18.9831390746
 20
108.5252849798
 30
0.0
 11
48.6498062575
 21
108.5252849798
 31
0.0
  0
INSERT
  5
354
330
227
100
AcDbEntity
  8
0
  6
Continuous
 62
     7
100
AcDbBlockReference
  2
_FILLED
 10
84.9831401071
 20
108.5252849798
 30
0.0
 41
2.0
 42
2.0
 43
2.0
  0
INSERT
  5
355
330
227
100
AcDbEntity
  8
0
  6
Continuous
 62
     7
100
AcDbBlockReference
  2
_FILLED
 10
18.9831390746
 20
108.5252849798
 30
0.0
 41
2.0
 42
2.0
 43
2.0
 50
180.0
  0
ENDBLK
  5
356
330
227
100
AcDbEntity
  8
0
  6
ByBlock
 62
     0
100
AcDbBlockEnd
  0
BLOCK
  5
357
330
228
100
AcDbEntity
  8
0
  6
Continuous
 62
     7
100
AcDbBlockBegin
  2
*D8
 70
     1
 10
0.0
 20
0.0
 30
0.0
  3
*D8
  1

  0
MTEXT
  5
358
330
228
100
AcDbEntity
  8
0
  6
Continuous
 62
     7
100
AcDbMText
 10
108.8426345598
 20
86.393196282
 30
0.0
 40
1.333333333299999
 41
4.266666666699999
 46
0.0
 71
     2
 72
     1
  1
34\P[86]
 73
     1
 44
0.9
  0
LINE
  5
359
330
228
100
AcDbEntity
  8
0
  6
Continuous
 62
     7
100
AcDbLine
 10
72.91378948180001
 20
102.7265300138
 30
0.0
 11
111.2426345598
 21
102.7265300138
 31
0.0
  0
LINE
  5
35A
330
228
100
AcDbEntity
  8
0
  6
Continuous
 62
     7
100
AcDbLine
 10
73.9451228151
 20
68.72652921689999
 30
0.0
 11
111.2426345598
 21
68.72652921689999
 31
0.0
  0
LINE
  5
35B
330
228
100
AcDbEntity
  8
0
  6
Continuous
 62
     7
100
AcDbLine
 10
109.9093012265
 20
102.7265300138
 30
0.0
 11
109.9093012265
 21
87.05986294870001
 31
0.0
  0
LINE
  5
35C
330
228
100
AcDbEntity
  8
0
  6
Continuous
 62
     7
100
AcDbLine
 10
109.9093012265
 20
68.72652921689999
 30
0.0
 11
109.9093012265
 21
82.39319628199998
 31
0.0
  0
INSERT
  5
35D
330
228
100
AcDbEntity
  8
0
  6
Continuous
 62
     7
100
AcDbBlockReference
  2
_FILLED
 10
109.9093012265
 20
102.7265300138
 30
0.0
 41
2.0
 42
2.0
 43
2.0
 50
90.0
  0
INSERT
  5
35E
330
228
100
AcDbEntity
  8
0
  6
Continuous
 62
     7
100
AcDbBlockReference
  2
_FILLED
 10
109.9093012265
 20
68.72652921689999
 30
0.0
 41
2.0
 42
2.0
 43
2.0
 50
270.0
  0
ENDBLK
  5
35F
330
228
100
AcDbEntity
  8
0
  6
ByBlock
 62
     0
100
AcDbBlockEnd
  0
BLOCK
  5
360
330
229
100
AcDbEntity
  8
0
  6
Continuous
 62
     7
100
AcDbBlockBegin
  2
*D9
 70
     1
 10
0.0
 20
0.0
 30
0.0
  3
*D9
  1

  0
MTEXT
  5
361
330
229
100
AcDbEntity
  8
0
  6
Continuous
 62
     7
100
AcDbMText
 10
101.7558535798
 20
86.3162900822
 30
0.0
 40
1.333333333299999
 41
6.4
 46
0.0
 71
     2
 72
     1
  1
21-1/2\P[55]
 73
     1
 44
0.9
  0
LINE
  5
362
330
229
100
AcDbEntity
  8
0
  6
Continuous
 62
     7
100
AcDbLine
 10
84.81673297890001
 20
74.8899671919
 30
0.0
 11
103.0891869131
 21
74.8899671919
 31
0.0
  0
LINE
  5
363
330
229
100
AcDbEntity
  8
0
  6
Continuous
 62
     7
100
AcDbLine
 10
86.0929729242
 20
96.40927963919999
 30
0.0
 11
103.0891869131
 21
96.40927963919999
 31
0.0
  0
LINE
  5
364
330
229
100
AcDbEntity
  8
0
  6
Continuous
 62
     7
100
AcDbLine
 10
101.7558535798
 20
74.8899671919
 30
0.0
 11
101.7558535798
 21
82.3162900822
 31
0.0
  0
LINE
  5
365
330
229
100
AcDbEntity
  8
0
  6
Continuous
 62
     7
100
AcDbLine
 10
101.7558535798
 20
96.40927963919999
 30
0.0
 11
101.7558535798
 21
86.98295674879998
 31
0.0
  0
INSERT
  5
366
330
229
100
AcDbEntity
  8
0
  6
Continuous
 62
     7
100
AcDbBlockReference
  2
_FILLED
 10
101.7558535798
 20
74.8899671919
 30
0.0
 41
2.0
 42
2.0
 43
2.0
 50
270.0
  0
INSERT
  5
367
330
229
100
AcDbEntity
  8
0
  6
Continuous
 62
     7
100
AcDbBlockReference
  2
_FILLED
 10
101.7558535798
 20
96.40927963919999
 30
0.0
 41
2.0
 42
2.0
 43
2.0
 50
90.0
  0
ENDBLK
  5
368
330
229
100
AcDbEntity
  8
0
  6
ByBlock
 62
     0
100
AcDbBlockEnd
  0
BLOCK
  5
369
330
22A
100
AcDbEntity
  8
0
  6
Continuous
 62
     7
100
AcDbBlockBegin
  2
*D10
 70
     1
 10
0.0
 20
0.0
 30
0.0
  3
*D10
  1

  0
MTEXT
  5
36A
330
22A
100
AcDbEntity
  8
0
  6
Continuous
 62
     7
100
AcDbMText
 10
51.9831395955
 20
59.80391882300001
 30
0.0
 40
1.333333333299999
 41
6.4
 46
0.0
 71
     2
 72
     1
  1
41-7/8\P[106]
 73
     1
 44
0.9
  0
LINE
  5
36B
330
22A
100
AcDbEntity
  8
0
  6
Continuous
 62
     7
100
AcDbLine
 10
31.0726387098
 20
68.76921759449999
 30
0.0
 11
31.0726387098
 21
57.803918823
 31
0.0
  0
LINE
  5
36C
330
22A
100
AcDbEntity
  8
0
  6
Continuous
 62
     7
100
AcDbLine
 10
72.89364048119999
 20
67.8285509319
 30
0.0
 11
72.89364048119999
 21
57.803918823
 31
0.0
  0
LINE
  5
36D
330
22A
100
AcDbEntity
  8
0
  6
Continuous
 62
     7
100
AcDbLine
 10
31.0726387098
 20
59.1372521563
 30
0.0
 11
48.1164729289
 21
59.1372521563
 31
0.0
  0
LINE
  5
36E
330
22A
100
AcDbEntity
  8
0
  6
Continuous
 62
     7
100
AcDbLine
 10
72.89364048119999
 20
59.1372521563
 30
0.0
 11
55.84980626220001
 21
59.1372521563
 31
0.0
  0
INSERT
  5
36F
330
22A
100
AcDbEntity
  8
0
  6
Continuous
 62
     7
100
AcDbBlockReference
  2
_FILLED
 10
31.0726387098
 20
59.1372521563
 30
0.0
 41
2.0
 42
2.0
 43
2.0
 50
180.0
  0
INSERT
  5
370
330
22A
100
AcDbEntity
  8
0
  6
Continuous
 62
     7
100
AcDbBlockReference
  2
_FILLED
 10
72.89364048119999
 20
59.1372521563
 30
0.0
 41
2.0
 42
2.0
 43
2.0
  0
ENDBLK
  5
371
330
22A
100
AcDbEntity
  8
0
  6
ByBlock
 62
     0
100
AcDbBlockEnd
  0
BLOCK
  5
372
330
22B
100
AcDbEntity
  8
0
  6
Continuous
 62
     7
100
AcDbBlockBegin
  2
*D11
 70
     1
 10
0.0
 20
0.0
 30
0.0
  3
*D11
  1

  0
MTEXT
  5
373
330
22B
100
AcDbEntity
  8
0
  6
Continuous
 62
     7
100
AcDbMText
 10
12.051761578
 20
67.97632628619999
 30
0.0
 40
1.333333333299999
 41
5.333333333299999
 46
0.0
 71
     3
 72
     1
  1
1-1/4\P[3]
 73
     1
 44
0.9
  0
LINE
  5
374
330
22B
100
AcDbEntity
  8
0
  6
Continuous
 62
     7
100
AcDbLine
 10
18.9831390746
 20
76.9565296153
 30
0.0
 11
18.9831390746
 21
65.97632628619999
 31
0.0
  0
LINE
  5
375
330
22B
100
AcDbEntity
  8
0
  6
Continuous
 62
     7
100
AcDbLine
 10
20.1773710237
 20
72.360862947
 30
0.0
 11
20.1773710237
 21
65.97632628619999
 31
0.0
  0
LINE
  5
376
330
22B
100
AcDbEntity
  8
0
  6
Continuous
 62
     7
100
AcDbLine
 10
18.9831390746
 20
67.30965961949999
 30
0.0
 11
12.7184282447
 21
67.30965961949999
 31
0.0
  0
LINE
  5
377
330
22B
100
AcDbEntity
  8
0
  6
Continuous
 62
     7
100
AcDbLine
 10
20.1773710237
 20
67.30965961949999
 30
0.0
 11
25.510704357
 21
67.30965961949999
 31
0.0
  0
INSERT
  5
378
330
22B
100
AcDbEntity
  8
0
  6
Continuous
 62
     7
100
AcDbBlockReference
  2
_FILLED
 10
18.9831390746
 20
67.30965961949999
 30
0.0
 41
2.0
 42
2.0
 43
2.0
  0
INSERT
  5
379
330
22B
100
AcDbEntity
  8
0
  6
Continuous
 62
     7
100
AcDbBlockReference
  2
_FILLED
 10
20.1773710237
 20
67.30965961949999
 30
0.0
 41
2.0
 42
2.0
 43
2.0
 50
180.0
  0
ENDBLK
  5
37A
330
22B
100
AcDbEntity
  8
0
  6
ByBlock
 62
     0
100
AcDbBlockEnd
  0
BLOCK
  5
37B
330
22C
100
AcDbEntity
  8
0
  6
Continuous
 62
     7
100
AcDbBlockBegin
  2
*D12
 70
     1
 10
0.0
 20
0.0
 30
0.0
  3
*D12
  1

  0
MTEXT
  5
37C
330
22C
100
AcDbEntity
  8
0
  6
Continuous
 62
     7
100
AcDbMText
 10
107.8827277363
 20
65.01236240109999
 30
0.0
 40
1.333333333299999
 41
5.333333333299999
 46
0.0
 71
     1
 72
     1
  1
1-1/8\P[3]
 73
     1
 44
0.9
  0
LINE
  5
37D
330
22C
100
AcDbEntity
  8
0
  6
Continuous
 62
     7
100
AcDbLine
 10
73.1801228151
 20
68.72652921689999
 30
0.0
 11
106.549394403
 21
68.72652921689999
 31
0.0
  0
LINE
  5
37E
330
22C
100
AcDbEntity
  8
0
  6
Continuous
 62
     7
100
AcDbLine
 10
76.8294729242
 20
69.8399118024
 30
0.0
 11
106.549394403
 21
69.8399118024
 31
0.0
  0
LINE
  5
37F
330
22C
100
AcDbEntity
  8
0
  6
Continuous
 62
     7
100
AcDbLine
 10
105.2160610696
 20
68.72652921689999
 30
0.0
 11
105.2160610696
 21
64.3456957344
 31
0.0
  0
LINE
  5
380
330
22C
100
AcDbEntity
  8
0
  6
Continuous
 62
     7
100
AcDbLine
 10
105.2160610696
 20
64.3456957344
 30
0.0
 11
107.2160610696
 21
64.3456957344
 31
0.0
  0
LINE
  5
381
330
22C
100
AcDbEntity
  8
0
  6
Continuous
 62
     7
100
AcDbLine
 10
105.2160610696
 20
69.8399118024
 30
0.0
 11
105.2160610696
 21
75.1732451357
 31
0.0
  0
INSERT
  5
382
330
22C
100
AcDbEntity
  8
0
  6
Continuous
 62
     7
100
AcDbBlockReference
  2
_FILLED
 10
105.2160610696
 20
68.72652921689999
 30
0.0
 41
2.0
 42
2.0
 43
2.0
 50
90.0
  0
INSERT
  5
383
330
22C
100
AcDbEntity
  8
0
  6
Continuous
 62
     7
100
AcDbBlockReference
  2
_FILLED
 10
105.2160610696
 20
69.8399118024
 30
0.0
 41
2.0
 42
2.0
 43
2.0
 50
270.0
  0
ENDBLK
  5
384
330
22C
100
AcDbEntity
  8
0
  6
ByBlock
 62
     0
100
AcDbBlockEnd
  0
BLOCK
  5
385
330
22D
100
AcDbEntity
  8
0
  6
Continuous
 62
     7
100
AcDbBlockBegin
  2
*D13
 70
     1
 10
0.0
 20
0.0
 30
0.0
  3
*D13
  1

  0
MTEXT
  5
386
330
22D
100
AcDbEntity
  8
0
  6
Continuous
 62
     7
100
AcDbMText
 10
12.1142533406
 20
94.12071441530001
 30
0.0
 40
1.333333333299999
 41
5.333333333299999
 46
0.0
 71
     3
 72
     1
  1
4-1/4\P[11]
 73
     1
 44
0.9
  0
LINE
  5
387
330
22D
100
AcDbEntity
  8
0
  6
Continuous
 62
     7
100
AcDbLine
 10
18.174523693
 20
85.7265296153
 30
0.0
 11
13.4475866739
 21
85.7265296153
 31
0.0
  0
LINE
  5
388
330
22D
100
AcDbEntity
  8
0
  6
Continuous
 62
     7
100
AcDbLine
 10
18.1734729242
 20
89.9540296153
 30
0.0
 11
13.4475866739
 21
89.9540296153
 31
0.0
  0
LINE
  5
389
330
22D
100
AcDbEntity
  8
0
  6
Continuous
 62
     7
100
AcDbLine
 10
14.7809200073
 20
85.7265296153
 30
0.0
 11
14.7809200073
 21
80.39319628199999
 31
0.0
  0
LINE
  5
38A
330
22D
100
AcDbEntity
  8
0
  6
Continuous
 62
     7
100
AcDbLine
 10
14.7809200073
 20
89.9540296153
 30
0.0
 11
14.7809200073
 21
93.45404774870001
 31
0.0
  0
LINE
  5
38B
330
22D
100
AcDbEntity
  8
0
  6
Continuous
 62
     7
100
AcDbLine
 10
14.7809200073
 20
93.45404774870001
 30
0.0
 11
12.7809200073
 21
93.45404774870001
 31
0.0
  0
INSERT
  5
38C
330
22D
100
AcDbEntity
  8
0
  6
Continuous
 62
     7
100
AcDbBlockReference
  2
_FILLED
 10
14.7809200073
 20
85.7265296153
 30
0.0
 41
2.0
 42
2.0
 43
2.0
 50
90.0
  0
INSERT
  5
38D
330
22D
100
AcDbEntity
  8
0
  6
Continuous
 62
     7
100
AcDbBlockReference
  2
_FILLED
 10
14.7809200073
 20
89.9540296153
 30
0.0
 41
2.0
 42
2.0
 43
2.0
 50
270.0
  0
ENDBLK
  5
38E
330
22D
100
AcDbEntity
  8
0
  6
ByBlock
 62
     0
100
AcDbBlockEnd
  0
BLOCK
  5
38F
330
22E
100
AcDbEntity
  8
0
  6
Continuous
 62
     7
100
AcDbBlockBegin
  2
*D14
 70
     1
 10
0.0
 20
0.0
 30
0.0
  3
*D14
  1

  0
MTEXT
  5
390
330
22E
100
AcDbEntity
  8
0
  6
Continuous
 62
     7
100
AcDbMText
 10
91.7160534497
 20
92.3151538811
 30
0.0
 40
1.333333333299999
 41
5.333333333299999
 46
0.0
 71
     1
 72
     1
  1
4-1/4\P[11]
 73
     1
 44
0.9
  0
LINE
  5
391
330
22E
100
AcDbEntity
  8
0
  6
Continuous
 62
     7
100
AcDbLine
 10
85.93342215540001
 20
85.7265296153
 30
0.0
 11
90.38272011629999
 21
85.7265296153
 31
0.0
  0
LINE
  5
392
330
22E
100
AcDbEntity
  8
0
  6
Continuous
 62
     7
100
AcDbLine
 10
85.7748062575
 20
81.47652961529999
 30
0.0
 11
90.38272011629999
 21
81.47652961529999
 31
0.0
  0
LINE
  5
393
330
22E
100
AcDbEntity
  8
0
  6
Continuous
 62
     7
100
AcDbLine
 10
89.04938678299998
 20
85.7265296153
 30
0.0
 11
89.04938678299998
 21
91.6484872144
 31
0.0
  0
LINE
  5
394
330
22E
100
AcDbEntity
  8
0
  6
Continuous
 62
     7
100
AcDbLine
 10
89.04938678299998
 20
91.6484872144
 30
0.0
 11
91.04938678299999
 21
91.6484872144
 31
0.0
  0
LINE
  5
395
330
22E
100
AcDbEntity
  8
0
  6
Continuous
 62
     7
100
AcDbLine
 10
89.04938678299998
 20
81.47652961529999
 30
0.0
 11
89.04938678299998
 21
76.14319628199999
 31
0.0
  0
INSERT
  5
396
330
22E
100
AcDbEntity
  8
0
  6
Continuous
 62
     7
100
AcDbBlockReference
  2
_FILLED
 10
89.04938678299998
 20
85.7265296153
 30
0.0
 41
2.0
 42
2.0
 43
2.0
 50
270.0
  0
INSERT
  5
397
330
22E
100
AcDbEntity
  8
0
  6
Continuous
 62
     7
100
AcDbBlockReference
  2
_FILLED
 10
89.04938678299998
 20
81.47652961529999
 30
0.0
 41
2.0
 42
2.0
 43
2.0
 50
90.0
  0
ENDBLK
  5
398
330
22E
100
AcDbEntity
  8
0
  6
ByBlock
 62
     0
100
AcDbBlockEnd
  0
BLOCK
  5
399
330
22F
100
AcDbEntity
  8
0
  6
Continuous
 62
     7
100
AcDbBlockBegin
  2
*D15
 70
     1
 10
0.0
 20
0.0
 30
0.0
  3
*D15
  1

  0
MTEXT
  5
39A
330
22F
100
AcDbEntity
  8
0
  6
Continuous
 62
     7
100
AcDbMText
 10
62.94087515899999
 20
65.04313891619999
 30
0.0
 40
1.333333333299999
 41
5.333333333299999
 46
0.0
 71
     1
 72
     1
  1
3-7/8\P[10]
 73
     1
 44
0.9
  0
LINE
  5
39B
330
22F
100
AcDbEntity
  8
0
  6
Continuous
 62
     7
100
AcDbLine
 10
51.9831395909
 20
67.8129137174
 30
0.0
 11
51.9831395909
 21
63.0431389162
 31
0.0
  0
LINE
  5
39C
330
22F
100
AcDbEntity
  8
0
  6
Continuous
 62
     7
100
AcDbLine
 10
55.8581395909
 20
68.1008629487
 30
0.0
 11
55.8581395909
 21
63.0431389162
 31
0.0
  0
LINE
  5
39D
330
22F
100
AcDbEntity
  8
0
  6
Continuous
 62
     7
100
AcDbLine
 10
51.9831395909
 20
64.3764722496
 30
0.0
 11
46.6498062575
 21
64.3764722496
 31
0.0
  0
LINE
  5
39E
330
22F
100
AcDbEntity
  8
0
  6
Continuous
 62
     7
100
AcDbLine
 10
55.8581395909
 20
64.3764722496
 30
0.0
 11
62.2742084923
 21
64.3764722496
 31
0.0
  0
INSERT
  5
39F
330
22F
100
AcDbEntity
  8
0
  6
Continuous
 62
     7
100
AcDbBlockReference
  2
_FILLED
 10
51.9831395909
 20
64.3764722496
 30
0.0
 41
2.0
 42
2.0
 43
2.0
  0
INSERT
  5
3A0
330
22F
100
AcDbEntity
  8
0
  6
Continuous
 62
     7
100
AcDbBlockReference
  2
_FILLED
 10
55.8581395909
 20
64.3764722496
 30
0.0
 41
2.0
 42
2.0
 43
2.0
 50
180.0
  0
ENDBLK
  5
3A1
330
22F
100
AcDbEntity
  8
0
  6
ByBlock
 62
     0
100
AcDbBlockEnd
  0
BLOCK
  5
3A2
330
230
100
AcDbEntity
  8
0
  6
Continuous
 62
     7
100
AcDbBlockBegin
  2
*D16
 70
     1
 10
0.0
 20
0.0
 30
0.0
  3
*D16
  1

  0
MTEXT
  5
3A3
330
230
100
AcDbEntity
  8
0
  6
Continuous
 62
     7
100
AcDbMText
 10
90.040912711
 20
45.88969462949999
 30
0.0
 40
1.333333333299999
 41
3.0222222222
 46
0.0
 71
     2
 72
     1
  1
31\Fgdt;{\Fgdt;~}
 73
     1
 44
0.9
  0
LINE
  5
3A4
330
230
100
AcDbEntity
  8
0
  6
Continuous
 62
     7
100
AcDbLine
 10
79.6401552394
 20
45.4189533098
 30
0.0
 11
78.3099097163
 21
43.20505297919999
 31
0.0
  0
LINE
  5
3A5
330
230
100
AcDbEntity
  8
0
  6
Continuous
 62
     7
100
AcDbLine
 10
83.90604393450001
 20
51.8519176725
 30
0.0
 11
83.90604393450001
 21
41.6531076086
 31
0.0
  0
ARC
  5
3A6
330
230
100
AcDbEntity
  8
0
  6
Continuous
 62
     7
100
AcDbCircle
 10
83.90604393450001
 20
52.5185843391
 30
0.0
 40
9.5321433972
100
AcDbArc
 50
206.9424156767
 51
239.0
  0
ARC
  5
3A7
330
230
100
AcDbEntity
  8
0
  6
Continuous
 62
     7
100
AcDbCircle
 10
83.90604393450001
 20
52.5185843391
 30
0.0
 40
9.5321433972
100
AcDbArc
 50
270.0
 51
310.0606422876
  0
SOLID
  5
3A8
330
230
100
AcDbEntity
  8
0
  6
Continuous
 62
     7
100
AcDbTrace
 10
77.19892780470001
 20
45.2856997059
 30
0.0
 11
78.9966271495
 21
44.3479427135
 31
0.0
 12
77.60023814520001
 22
45.818047764
 32
0.0
 13
77.60023814520001
 23
45.818047764
 33
0.0
  0
SOLID
  5
3A9
330
230
100
AcDbEntity
  8
0
  6
Continuous
 62
     7
100
AcDbTrace
 10
85.86014300329999
 20
43.5273734153
 30
0.0
 11
83.90604393450001
 21
42.986440942
 31
0.0
 12
85.92995358549998
 22
42.864371962
 32
0.0
 13
85.92995358549998
 23
42.864371962
 33
0.0
  0
ENDBLK
  5
3AA
330
230
100
AcDbEntity
  8
0
  6
ByBlock
 62
     0
100
AcDbBlockEnd
  0
BLOCK
  5
23B
330
231
100
AcDbEntity
  8
0
  6
Continuous
 62
     7
100
AcDbBlockBegin
  2
SYMBOL_7_BL4
 70
     0
 10
51.9937163213
 20
73.24387226579999
 30
0.0
  3
SYMBOL_7_BL4
  1

  0
TEXT
  5
23C
330
231
100
AcDbEntity
  8
0
  6
Continuous
 62
     7
100
AcDbText
 10
51.46532105399999
 20
72.57720533979998
 30
0.0
 40
1.333333852099999
  1
L
  7
TEXTSTYLE_2
100
AcDbText
  0
ELLIPSE
  5
23D
330
231
100
AcDbEntity
  8
0
  6
Continuous
 62
     7
100
AcDbEllipse
 10
51.9937163213
 20
73.24387226579999
 30
0.0
 11
-1.942887567899999
 21
0.0
 31
0.0
210
0.0
220
0.0
230
1.0
 40
0.6606458385
 41
0.0
 42
6.283185307179586
  0
ENDBLK
  5
23E
330
231
100
AcDbEntity
  8
0
  6
ByBlock
 62
     0
100
AcDbBlockEnd
  0
BLOCK
  5
23F
330
232
100
AcDbEntity
  8
0
  6
Continuous
 62
     7
100
AcDbBlockBegin
  2
SYMBOL_6_BL3
 70
     0
 10
64.79542852059999
 20
97.96125963809998
 30
0.0
  3
SYMBOL_6_BL3
  1

  0
TEXT
  5
240
330
232
100
AcDbEntity
  8
0
  6
Continuous
 62
     7
100
AcDbText
 10
64.1779804491
 20
97.3433377413
 30
0.0
 40
1.333333852099999
  1
L
 50
354.0
  7
TEXTSTYLE_2
100
AcDbText
  0
TEXT
  5
241
330
232
100
AcDbEntity
  8
0
  6
Continuous
 62
     7
100
AcDbText
 10
60.51487600479999
 20
97.74082472290002
 30
0.0
 40
1.333333852099999
  1
4
 50
354.0
  7
TEXTSTYLE_2
100
AcDbText
  0
TEXT
  5
242
330
232
100
AcDbEntity
  8
0
  6
Continuous
 62
     7
100
AcDbText
 10
67.9199869204
 20
96.9625162031
 30
0.0
 40
1.333333852099999
  1
5
 50
354.0
  7
TEXTSTYLE_2
100
AcDbText
  0
ELLIPSE
  5
243
330
232
100
AcDbEntity
  8
0
  6
Continuous
 62
     7
100
AcDbEllipse
 10
64.7731667811
 20
97.95112025080001
 30
0.0
 11
-1.9322442265
 21
0.2030870518
 31
0.0
210
0.0
220
0.0
230
1.0
 40
0.6606458385
 41
0.0
 42
6.283185307179586
  0
ENDBLK
  5
244
330
232
100
AcDbEntity
  8
0
  6
ByBlock
 62
     0
100
AcDbBlockEnd
  0
BLOCK
  5
245
330
233
100
AcDbEntity
  8
0
  6
Continuous
 62
     7
100
AcDbBlockBegin
  2
SYMBOL_5_BL2
 70
     0
 10
39.4359073122
 20
98.09596412000001
 30
0.0
  3
SYMBOL_5_BL2
  1

  0
TEXT
  5
246
330
233
100
AcDbEntity
  8
0
  6
Continuous
 62
     7
100
AcDbText
 10
38.9604251489
 20
97.3631706267
 30
0.0
 40
1.333333852099999
  1
L
 50
6.0
  7
TEXTSTYLE_2
100
AcDbText
  0
TEXT
  5
247
330
233
100
AcDbEntity
  8
0
  6
Continuous
 62
     7
100
AcDbText
 10
35.294726135
 20
96.99036932550001
 30
0.0
 40
1.333333852099999
  1
5
 50
6.0
  7
TEXTSTYLE_2
100
AcDbText
  0
TEXT
  5
248
330
233
100
AcDbEntity
  8
0
  6
Continuous
 62
     7
100
AcDbText
 10
42.6998370506
 20
97.76867784530001
 30
0.0
 40
1.333333852099999
  1
4
 50
6.0
  7
TEXTSTYLE_2
100
AcDbText
  0
ELLIPSE
  5
249
330
233
100
AcDbEntity
  8
0
  6
Continuous
 62
     7
100
AcDbEllipse
 10
39.4162401423
 20
98.08141782680001
 30
0.0
 11
-1.9322442265
 21
-0.2030870518
 31
0.0
210
0.0
220
0.0
230
1.0
 40
0.6606458385
 41
0.0
 42
6.283185307179586
  0
ENDBLK
  5
24A
330
233
100
AcDbEntity
  8
0
  6
ByBlock
 62
     0
100
AcDbBlockEnd
  0
BLOCK
  5
24B
330
234
100
AcDbEntity
  8
0
  6
Continuous
 62
     7
100
AcDbBlockBegin
  2
SYMBOL_2_BL1
 70
     0
 10
160.6670767479
 20
55.3332764692
 30
0.0
  3
SYMBOL_2_BL1
  1

  0
TEXT
  5
24C
330
234
100
AcDbEntity
  8
0
  6
Continuous
 62
     7
100
AcDbText
 10
144.4192916718
 20
63.1067098603
 30
0.0
 40
0.5
  1
Infomations Techniques/Technical Infomations
  7
TEXTSTYLE_2
100
AcDbText
  0
TEXT
  5
24D
330
234
100
AcDbEntity
  8
0
  6
Continuous
 62
     7
100
AcDbText
 10
144.6670767479
 20
61.6666098026
 30
0.0
 40
0.6666666667
  1
NOMBRE DE JETS:     
  7
TEXTSTYLE_2
100
AcDbText
  0
TEXT
  5
24E
330
234
100
AcDbEntity
  8
0
  6
Continuous
 62
     7
100
AcDbText
 10
154.5115211924
 20
61.6666098026
 30
0.0
 40
0.6666666667
  1
38
  7
TEXTSTYLE_2
100
AcDbText
  0
TEXT
  5
24F
330
234
100
AcDbEntity
  8
0
  6
Continuous
 62
     7
100
AcDbText
 10
144.6670767479
 20
60.6666098026
 30
0.0
 40
0.6666666667
  1
 
  7
TEXTSTYLE_2
100
AcDbText
  0
TEXT
  5
250
330
234
100
AcDbEntity
  8
0
  6
Continuous
 62
     7
100
AcDbText
 10
144.6670767479
 20
59.6666098026
 30
0.0
 40
0.6666666667
  1
NIVEAU D'EAU              GALLONS(US)        LITRES        GALLONS(UK)
  7
TEXTSTYLE_2
100
AcDbText
  0
TEXT
  5
251
330
234
100
AcDbEntity
  8
0
  6
Continuous
 62
     7
100
AcDbText
 10
144.6670767479
 20
58.6666098026
 30
0.0
 40
0.6666666667
  1
PLEIN
  7
TEXTSTYLE_2
100
AcDbText
  0
TEXT
  5
252
330
234
100
AcDbEntity
  8
0
  6
Continuous
 62
     7
100
AcDbText
 10
144.6670767479
 20
57.6666098026
 30
0.0
 40
0.6666666667
  1
HAUT T.PLEIN
  7
TEXTSTYLE_2
100
AcDbText
  0
TEXT
  5
253
330
234
100
AcDbEntity
  8
0
  6
Continuous
 62
     7
100
AcDbText
 10
144.6670767479
 20
56.6666098026
 30
0.0
 40
0.6666666667
  1
MILIEU T.PLEIN
  7
TEXTSTYLE_2
100
AcDbText
  0
TEXT
  5
254
330
234
100
AcDbEntity
  8
0
  6
Continuous
 62
     7
100
AcDbText
 10
144.6670767479
 20
55.6666098026
 30
0.0
 40
0.6666666667
  1
BAS T.PLEIN
  7
TEXTSTYLE_2
100
AcDbText
  0
TEXT
  5
255
330
234
100
AcDbEntity
  8
0
  6
Continuous
 62
     7
100
AcDbText
 10
144.6670767479
 20
54.6666098026
 30
0.0
 40
0.6666666667
  1
3" EN BAS T.PLEIN
  7
TEXTSTYLE_2
100
AcDbText
  0
TEXT
  5
256
330
234
100
AcDbEntity
  8
0
  6
Continuous
 62
     7
100
AcDbText
 10
144.6670767479
 20
53.6666098026
 30
0.0
 40
0.6666666667
  1
 
  7
TEXTSTYLE_2
100
AcDbText
  0
TEXT
  5
257
330
234
100
AcDbEntity
  8
0
  6
Continuous
 62
     7
100
AcDbText
 10
144.4669152423
 20
53.1198228777
 30
0.0
 40
0.5
  1
Legende/Legend
  7
TEXTSTYLE_2
100
AcDbText
  0
TEXT
  5
258
330
234
100
AcDbEntity
  8
0
  6
Continuous
 62
     7
100
AcDbText
 10
150.9957501864
 20
51.6085579001
 30
0.0
 40
0.6666666667
  1
ZONE DE ROBINETTERIE
  7
TEXTSTYLE_2
100
AcDbText
  0
TEXT
  5
259
330
234
100
AcDbEntity
  8
0
  6
Continuous
 62
     7
100
AcDbText
 10
145.9160256194
 20
50.11331338569999
 30
0.0
 40
0.6666666667
  1
L   :  SYSTEME LED       DC   :  DOUBLE DOSSIER CHAUFFANT
  7
TEXTSTYLE_2
100
AcDbText
  0
TEXT
  5
25A
330
234
100
AcDbEntity
  8
0
  6
Continuous
 62
     7
100
AcDbText
 10
145.9160256194
 20
48.7799800523
 30
0.0
 40
0.6666666667
  1
C   :  CONTROLE
  7
TEXTSTYLE_2
100
AcDbText
  0
TEXT
  5
25B
330
234
100
AcDbEntity
  8
0
  6
Continuous
 62
     7
100
AcDbText
 10
145.9160256194
 20
47.44664671899999
 30
0.0
 40
0.6666666667
  1
T   :  MOTEUR
  7
TEXTSTYLE_2
100
AcDbText
  0
TEXT
  5
25C
330
234
100
AcDbEntity
  8
0
  6
Continuous
 62
     7
100
AcDbText
 10
157.4997734472
 20
58.6666098026
 30
0.0
 40
0.6666666667
  1
98
  7
TEXTSTYLE_2
100
AcDbText
  0
TEXT
  5
25D
330
234
100
AcDbEntity
  8
0
  6
Continuous
 62
     7
100
AcDbText
 10
157.4997734472
 20
57.6666098026
 30
0.0
 40
0.6666666667
  1
75
  7
TEXTSTYLE_2
100
AcDbText
  0
TEXT
  5
25E
330
234
100
AcDbEntity
  8
0
  6
Continuous
 62
     7
100
AcDbText
 10
157.4997734472
 20
56.6666098026
 30
0.0
 40
0.6666666667
  1
73
  7
TEXTSTYLE_2
100
AcDbText
  0
TEXT
  5
25F
330
234
100
AcDbEntity
  8
0
  6
Continuous
 62
     7
100
AcDbText
 10
157.4997734472
 20
55.6666098026
 30
0.0
 40
0.6666666667
  1
72
  7
TEXTSTYLE_2
100
AcDbText
  0
TEXT
  5
260
330
234
100
AcDbEntity
  8
0
  6
Continuous
 62
     7
100
AcDbText
 10
157.4997734472
 20
54.6666098026
 30
0.0
 40
0.6666666667
  1
55
  7
TEXTSTYLE_2
100
AcDbText
  0
TEXT
  5
261
330
234
100
AcDbEntity
  8
0
  6
Continuous
 62
     7
100
AcDbText
 10
164.4199793909
 20
58.6836892047
 30
0.0
 40
0.6666666667
  1
371
  7
TEXTSTYLE_2
100
AcDbText
  0
TEXT
  5
262
330
234
100
AcDbEntity
  8
0
  6
Continuous
 62
     7
100
AcDbText
 10
164.4199793909
 20
57.6836892047
 30
0.0
 40
0.6666666667
  1
282
  7
TEXTSTYLE_2
100
AcDbText
  0
TEXT
  5
263
330
234
100
AcDbEntity
  8
0
  6
Continuous
 62
     7
100
AcDbText
 10
164.4199793909
 20
56.6836892047
 30
0.0
 40
0.6666666667
  1
278
  7
TEXTSTYLE_2
100
AcDbText
  0
TEXT
  5
264
330
234
100
AcDbEntity
  8
0
  6
Continuous
 62
     7
100
AcDbText
 10
164.4199793909
 20
55.6836892047
 30
0.0
 40
0.6666666667
  1
273
  7
TEXTSTYLE_2
100
AcDbText
  0
TEXT
  5
265
330
234
100
AcDbEntity
  8
0
  6
Continuous
 62
     7
100
AcDbText
 10
164.4199793909
 20
54.6836892047
 30
0.0
 40
0.6666666667
  1
208
  7
TEXTSTYLE_2
100
AcDbText
  0
TEXT
  5
266
330
234
100
AcDbEntity
  8
0
  6
Continuous
 62
     7
100
AcDbText
 10
171.3646183284
 20
58.6666098026
 30
0.0
 40
0.6666666667
  1
82
  7
TEXTSTYLE_2
100
AcDbText
  0
TEXT
  5
267
330
234
100
AcDbEntity
  8
0
  6
Continuous
 62
     7
100
AcDbText
 10
171.3646183284
 20
57.6666098026
 30
0.0
 40
0.6666666667
  1
62
  7
TEXTSTYLE_2
100
AcDbText
  0
TEXT
  5
268
330
234
100
AcDbEntity
  8
0
  6
Continuous
 62
     7
100
AcDbText
 10
171.3646183284
 20
56.6666098026
 30
0.0
 40
0.6666666667
  1
61
  7
TEXTSTYLE_2
100
AcDbText
  0
TEXT
  5
269
330
234
100
AcDbEntity
  8
0
  6
Continuous
 62
     7
100
AcDbText
 10
171.3646183284
 20
55.6666098026
 30
0.0
 40
0.6666666667
  1
60
  7
TEXTSTYLE_2
100
AcDbText
  0
TEXT
  5
26A
330
234
100
AcDbEntity
  8
0
  6
Continuous
 62
     7
100
AcDbText
 10
171.3646183284
 20
54.6666098026
 30
0.0
 40
0.6666666667
  1
46
  7
TEXTSTYLE_2
100
AcDbText
  0
LINE
  5
26B
330
234
100
AcDbEntity
  8
0
  6
Continuous
 62
     7
100
AcDbLine
 10
144.0004100812
 20
63.9999431359
 30
0.0
 11
144.0004100812
 21
46.6666098026
 31
0.0
  0
LINE
  5
26C
330
234
100
AcDbEntity
  8
0
  6
Continuous
 62
     7
100
AcDbLine
 10
144.0004100812
 20
63.9999431359
 30
0.0
 11
177.3337434145999
 21
63.9999431359
 31
0.0
  0
LINE
  5
26D
330
234
100
AcDbEntity
  8
0
  6
Continuous
 62
     7
100
AcDbLine
 10
177.3337434145999
 20
63.9999431359
 30
0.0
 11
177.3337434145999
 21
46.6666098026
 31
0.0
  0
LINE
  5
26E
330
234
100
AcDbEntity
  8
0
  6
Continuous
 62
     7
100
AcDbLine
 10
144.0004100812
 20
46.6666098026
 30
0.0
 11
177.3337434145999
 21
46.6666098026
 31
0.0
  0
LINE
  5
26F
330
234
100
AcDbEntity
  8
0
  6
Continuous
 62
     7
100
AcDbLine
 10
145.3337434146
 20
53.9999431359
 30
0.0
 11
176.0004100812
 21
53.9999431359
 31
0.0
  0
LINE
  5
270
330
234
100
AcDbEntity
  8
0
  6
Continuous
 62
     7
100
AcDbLine
 10
145.3337434146
 20
60.9999431359
 30
0.0
 11
176.0004100812
 21
60.9999431359
 31
0.0
  0
LINE
  5
271
330
234
100
AcDbEntity
  8
0
  6
Continuous
 62
     7
100
AcDbLine
 10
144.8093166405
 20
52.37810764029999
 30
0.0
 11
144.4402958982
 21
52.0090868979
 31
0.0
  0
LINE
  5
272
330
234
100
AcDbEntity
  8
0
  6
Continuous
 62
     7
100
AcDbLine
 10
145.4759833071999
 20
52.37810764029999
 30
0.0
 11
144.6779675167
 21
51.5800918498
 31
0.0
  0
LINE
  5
273
330
234
100
AcDbEntity
  8
0
  6
Continuous
 62
     7
100
AcDbLine
 10
146.1426499738
 20
52.37810764029999
 30
0.0
 11
145.3446341834
 21
51.5800918498
 31
0.0
  0
LINE
  5
274
330
234
100
AcDbEntity
  8
0
  6
Continuous
 62
     7
100
AcDbLine
 10
146.8093166405
 20
52.37810764029999
 30
0.0
 11
146.0113008501
 21
51.5800918498
 31
0.0
  0
LINE
  5
275
330
234
100
AcDbEntity
  8
0
  6
Continuous
 62
     7
100
AcDbLine
 10
147.4759833071999
 20
52.37810764029999
 30
0.0
 11
146.6779675167
 21
51.5800918498
 31
0.0
  0
LINE
  5
276
330
234
100
AcDbEntity
  8
0
  6
Continuous
 62
     7
100
AcDbLine
 10
148.1426499738
 20
52.37810764029999
 30
0.0
 11
147.3446341834
 21
51.5800918498
 31
0.0
  0
LINE
  5
277
330
234
100
AcDbEntity
  8
0
  6
Continuous
 62
     7
100
AcDbLine
 10
148.8093166405
 20
52.37810764029999
 30
0.0
 11
148.0113008501
 21
51.5800918498
 31
0.0
  0
LINE
  5
278
330
234
100
AcDbEntity
  8
0
  6
Continuous
 62
     7
100
AcDbLine
 10
149.4759833071999
 20
52.37810764029999
 30
0.0
 11
148.6779675167
 21
51.5800918498
 31
0.0
  0
LINE
  5
279
330
234
100
AcDbEntity
  8
0
  6
Continuous
 62
     7
100
AcDbLine
 10
150.1426499738
 20
52.37810764029999
 30
0.0
 11
149.3446341834
 21
51.5800918498
 31
0.0
  0
LINE
  5
27A
330
234
100
AcDbEntity
  8
0
  6
Continuous
 62
     7
100
AcDbLine
 10
150.586137408
 20
52.1549284077
 30
0.0
 11
150.0113008501
 21
51.5800918498
 31
0.0
  0
ELLIPSE
  5
27B
330
234
100
AcDbEntity
  8
0
  6
Continuous
 62
     7
100
AcDbEllipse
 10
146.1458125634
 20
50.4308908428
 30
0.0
 11
1.0473539356
 21
0.0
 31
0.0
210
0.0
220
0.0
230
1.0
 40
0.4938647983
 41
0.0
 42
6.283185307179586
  0
ELLIPSE
  5
27C
330
234
100
AcDbEntity
  8
0
  6
Continuous
 62
     7
100
AcDbEllipse
 10
146.1458125634
 20
49.0975575095
 30
0.0
 11
1.0473539356
 21
0.0
 31
0.0
210
0.0
220
0.0
230
1.0
 40
0.4938647983
 41
0.0
 42
6.283185307179586
  0
ELLIPSE
  5
27D
330
234
100
AcDbEntity
  8
0
  6
Continuous
 62
     7
100
AcDbEllipse
 10
146.1458125634
 20
47.7642241762
 30
0.0
 11
1.0473539356
 21
0.0
 31
0.0
210
0.0
220
0.0
230
1.0
 40
0.4938647983
 41
0.0
 42
6.283185307179586
  0
ELLIPSE
  5
27E
330
234
100
AcDbEntity
  8
0
  6
Continuous
 62
     7
100
AcDbEllipse
 10
157.1644481445
 20
50.4504121999
 30
0.0
 11
1.0473539356
 21
0.0
 31
0.0
210
0.0
220
0.0
230
1.0
 40
0.4938647983
 41
0.0
 42
6.283185307179586
  0
ENDBLK
  5
27F
330
234
100
AcDbEntity
  8
0
  6
ByBlock
 62
     0
100
AcDbBlockEnd
  0
BLOCK
  5
280
330
235
100
AcDbEntity
  8
0
  6
Continuous
 62
     7
100
AcDbBlockBegin
  2
SYMBOL_0_BL0
 70
     0
 10
126.788118813
 20
57.432846125
 30
0.0
  3
SYMBOL_0_BL0
  1

  0
TEXT
  5
281
330
235
100
AcDbEntity
  8
0
  6
Continuous
 62
     7
100
AcDbText
 10
120.4740585112
 20
59.67788011079999
 30
0.0
 40
1.1626666667
  1
INTERNAL USE 
 50
10.0
  7
TEXTSTYLE_3
100
AcDbText
  0
TEXT
  5
282
330
235
100
AcDbEntity
  8
0
  6
Continuous
 62
     7
100
AcDbText
 10
119.7303743072
 20
57.6763589331
 30
0.0
 40
1.1626666667
  1
DOCUMENT ONLY
 50
10.0
  7
TEXTSTYLE_3
100
AcDbText
  0
TEXT
  5
283
330
235
100
AcDbEntity
  8
0
  6
Continuous
 62
     7
100
AcDbText
 10
125.5151018705
 20
57.4279308826
 30
0.0
 40
1.1626666667
  1
 
 50
10.0
  7
TEXTSTYLE_5
100
AcDbText
  0
TEXT
  5
284
330
235
100
AcDbEntity
  8
0
  6
Continuous
 62
     7
100
AcDbText
 10
117.0704539875
 20
53.2508364763
 30
0.0
 40
1.1626666667
  1
DOCUMENT POUR USAGE
 50
10.0
  7
TEXTSTYLE_3
100
AcDbText
  0
TEXT
  5
285
330
235
100
AcDbEntity
  8
0
  6
Continuous
 62
     7
100
AcDbText
 10
117.4995534335
 20
51.2340880159
 30
0.0
 40
1.1626666667
  1
A L'INTERNE SEULEMENT
 50
10.0
  7
TEXTSTYLE_3
100
AcDbText
  0
LINE
  5
286
330
235
100
AcDbEntity
  8
0
  6
Continuous
 62
     7
100
AcDbLine
 10
140.6446705363
 20
53.08931250699999
 30
0.0
 11
140.651429469
 21
53.0960714397
 31
0.0
  0
LINE
  5
287
330
235
100
AcDbEntity
  8
0
  6
Continuous
 62
     7
100
AcDbLine
 10
139.9121009699
 20
52.96014072720001
 30
0.0
 11
140.560982415
 21
53.60902217229999
 31
0.0
  0
LINE
  5
288
330
235
100
AcDbEntity
  8
0
  6
Continuous
 62
     7
100
AcDbLine
 10
139.1795314035
 20
52.83096894739999
 30
0.0
 11
140.4705353611
 21
54.12197290499999
 31
0.0
  0
LINE
  5
289
330
235
100
AcDbEntity
  8
0
  6
Continuous
 62
     7
100
AcDbLine
 10
138.4469618371
 20
52.7017971676
 30
0.0
 11
140.3800883070999
 21
54.63492363770001
 31
0.0
  0
LINE
  5
28A
330
235
100
AcDbEntity
  8
0
  6
Continuous
 62
     7
100
AcDbLine
 10
137.7143922706
 20
52.5726253878
 30
0.0
 11
140.2896412531999
 21
55.14787437029999
 31
0.0
  0
LINE
  5
28B
330
235
100
AcDbEntity
  8
0
  6
Continuous
 62
     7
100
AcDbLine
 10
136.9818227042
 20
52.443453608
 30
0.0
 11
138.522826519
 21
53.98445742279999
 31
0.0
  0
LINE
  5
28C
330
235
100
AcDbEntity
  8
0
  6
Continuous
 62
     7
100
AcDbLine
 10
139.1201717117
 20
54.5818026155
 30
0.0
 11
140.1991941992
 21
55.660825103
 31
0.0
  0
LINE
  5
28D
330
235
100
AcDbEntity
  8
0
  6
Continuous
 62
     7
100
AcDbLine
 10
136.2492531378
 20
52.3142818282
 30
0.0
 11
137.7902569526
 21
53.855285643
 31
0.0
  0
LINE
  5
28E
330
235
100
AcDbEntity
  8
0
  6
Continuous
 62
     7
100
AcDbLine
 10
139.0297246578
 20
55.09475334810001
 30
0.0
 11
140.1087471453
 21
56.1737758357
 31
0.0
  0
LINE
  5
28F
330
235
100
AcDbEntity
  8
0
  6
Continuous
 62
     7
100
AcDbLine
 10
135.5166835714
 20
52.18511004839999
 30
0.0
 11
137.0576873862
 21
53.7261138631
 31
0.0
  0
LINE
  5
290
330
235
100
AcDbEntity
  8
0
  6
Continuous
 62
     7
100
AcDbLine
 10
138.9392776038
 20
55.60770408079999
 30
0.0
 11
140.0183000914
 21
56.6867265683
 31
0.0
  0
LINE
  5
291
330
235
100
AcDbEntity
  8
0
  6
Continuous
 62
     7
100
AcDbLine
 10
134.784114005
 20
52.05593826859999
 30
0.0
 11
136.3251178198
 21
53.5969420833
 31
0.0
  0
LINE
  5
292
330
235
100
AcDbEntity
  8
0
  6
Continuous
 62
     7
100
AcDbLine
 10
138.8488305499
 20
56.12065481350001
 30
0.0
 11
139.9278530374
 21
57.199677301
 31
0.0
  0
LINE
  5
293
330
235
100
AcDbEntity
  8
0
  6
Continuous
 62
     7
100
AcDbLine
 10
134.0515444386
 20
51.9267664888
 30
0.0
 11
135.5925482533
 21
53.46777030350001
 31
0.0
  0
LINE
  5
294
330
235
100
AcDbEntity
  8
0
  6
Continuous
 62
     7
100
AcDbLine
 10
138.758383496
 20
56.6336055462
 30
0.0
 11
139.8374059835
 21
57.71262803369999
 31
0.0
  0
LINE
  5
295
330
235
100
AcDbEntity
  8
0
  6
Continuous
 62
     7
100
AcDbLine
 10
133.3189748721
 20
51.79759470899999
 30
0.0
 11
134.8599786869
 21
53.3385985237
 31
0.0
  0
LINE
  5
296
330
235
100
AcDbEntity
  8
0
  6
Continuous
 62
     7
100
AcDbLine
 10
138.667936442
 20
57.1465562788
 30
0.0
 11
139.7469589295
 21
58.2255787663
 31
0.0
  0
LINE
  5
297
330
235
100
AcDbEntity
  8
0
  6
Continuous
 62
     7
100
AcDbLine
 10
132.5864053057
 20
51.6684229291
 30
0.0
 11
134.1274091205
 21
53.2094267439
 31
0.0
  0
LINE
  5
298
330
235
100
AcDbEntity
  8
0
  6
Continuous
 62
     7
100
AcDbLine
 10
138.5774893881
 20
57.6595070115
 30
0.0
 11
139.6565118756
 21
58.73852949899999
 31
0.0
  0
LINE
  5
299
330
235
100
AcDbEntity
  8
0
  6
Continuous
 62
     7
100
AcDbLine
 10
131.8538357393
 20
51.5392511493
 30
0.0
 11
133.3948395541
 21
53.08025496409999
 31
0.0
  0
LINE
  5
29A
330
235
100
AcDbEntity
  8
0
  6
Continuous
 62
     7
100
AcDbLine
 10
138.4870423341
 20
58.1724577442
 30
0.0
 11
139.5660648216
 21
59.2514802317
 31
0.0
  0
LINE
  5
29B
330
235
100
AcDbEntity
  8
0
  6
Continuous
 62
     7
100
AcDbLine
 10
131.1212661729
 20
51.4100793695
 30
0.0
 11
132.6622699877
 21
52.9510831843
 31
0.0
  0
LINE
  5
29C
330
235
100
AcDbEntity
  8
0
  6
Continuous
 62
     7
100
AcDbLine
 10
138.3965952802
 20
58.68540847680001
 30
0.0
 11
139.4756177677
 21
59.7644309643
 31
0.0
  0
LINE
  5
29D
330
235
100
AcDbEntity
  8
0
  6
Continuous
 62
     7
100
AcDbLine
 10
130.3886966065
 20
51.28090758969999
 30
0.0
 11
131.9297004212
 21
52.8219114045
 31
0.0
  0
LINE
  5
29E
330
235
100
AcDbEntity
  8
0
  6
Continuous
 62
     7
100
AcDbLine
 10
138.0937156804
 20
58.98592666359999
 30
0.0
 11
139.3851707138
 21
60.277381697
 31
0.0
  0
LINE
  5
29F
330
235
100
AcDbEntity
  8
0
  6
Continuous
 62
     7
100
AcDbLine
 10
129.6561270401
 20
51.15173580989999
 30
0.0
 11
131.1971308548
 21
52.6927396247
 31
0.0
  0
LINE
  5
2A0
330
235
100
AcDbEntity
  8
0
  6
Continuous
 62
     7
100
AcDbLine
 10
137.3611461139
 20
58.8567548838
 30
0.0
 11
139.2947236598
 21
60.7903324297
 31
0.0
  0
LINE
  5
2A1
330
235
100
AcDbEntity
  8
0
  6
Continuous
 62
     7
100
AcDbLine
 10
128.9235574736
 20
51.0225640301
 30
0.0
 11
130.4645612884
 21
52.5635678449
 31
0.0
  0
LINE
  5
2A2
330
235
100
AcDbEntity
  8
0
  6
Continuous
 62
     7
100
AcDbLine
 10
136.6285765475
 20
58.727583104
 30
0.0
 11
137.6559188458
 21
59.7549254023
 31
0.0
  0
LINE
  5
2A3
330
235
100
AcDbEntity
  8
0
  6
Continuous
 62
     7
100
AcDbLine
 10
138.1252541184
 20
60.22426067479999
 30
0.0
 11
139.2042766059
 21
61.30328316239999
 31
0.0
  0
LINE
  5
2A4
330
235
100
AcDbEntity
  8
0
  6
Continuous
 62
     7
100
AcDbLine
 10
128.1909879072
 20
50.89339225029999
 30
0.0
 11
129.731991722
 21
52.4343960651
 31
0.0
  0
LINE
  5
2A5
330
235
100
AcDbEntity
  8
0
  6
Continuous
 62
     7
100
AcDbLine
 10
135.8960069811
 20
58.5984113242
 30
0.0
 11
136.9233490698
 21
59.62575341279999
 31
0.0
  0
LINE
  5
2A6
330
235
100
AcDbEntity
  8
0
  6
Continuous
 62
     7
100
AcDbLine
 10
138.0348070644
 20
60.7372114075
 30
0.0
 11
139.1138295519
 21
61.816233895
 31
0.0
  0
LINE
  5
2A7
330
235
100
AcDbEntity
  8
0
  6
Continuous
 62
     7
100
AcDbLine
 10
127.4584183408
 20
50.7642204705
 30
0.0
 11
128.9994221556
 21
52.3052242853
 31
0.0
  0
LINE
  5
2A8
330
235
100
AcDbEntity
  8
0
  6
Continuous
 62
     7
100
AcDbLine
 10
135.1634374147
 20
58.4692395444
 30
0.0
 11
136.1907792937
 21
59.4965814234
 31
0.0
  0
LINE
  5
2A9
330
235
100
AcDbEntity
  8
0
  6
Continuous
 62
     7
100
AcDbLine
 10
137.9443600105
 20
61.2501621402
 30
0.0
 11
139.023382498
 21
62.3291846277
 31
0.0
  0
LINE
  5
2AA
330
235
100
AcDbEntity
  8
0
  6
Continuous
 62
     7
100
AcDbLine
 10
126.7258487744
 20
50.63504869069999
 30
0.0
 11
128.2668525892
 21
52.17605250550001
 31
0.0
  0
LINE
  5
2AB
330
235
100
AcDbEntity
  8
0
  6
Continuous
 62
     7
100
AcDbLine
 10
134.4308678483
 20
58.3400677646
 30
0.0
 11
135.4582095177
 21
59.367409434
 31
0.0
  0
LINE
  5
2AC
330
235
100
AcDbEntity
  8
0
  6
Continuous
 62
     7
100
AcDbLine
 10
137.8539129565
 20
61.7631128728
 30
0.0
 11
138.932935444
 21
62.8421353604
 31
0.0
  0
LINE
  5
2AD
330
235
100
AcDbEntity
  8
0
  6
Continuous
 62
     7
100
AcDbLine
 10
125.993279208
 20
50.5058769109
 30
0.0
 11
127.5342830227
 21
52.0468807257
 31
0.0
  0
LINE
  5
2AE
330
235
100
AcDbEntity
  8
0
  6
Continuous
 62
     7
100
AcDbLine
 10
133.6982982818
 20
58.2108959848
 30
0.0
 11
134.7256397417
 21
59.2382374446
 31
0.0
  0
LINE
  5
2AF
330
235
100
AcDbEntity
  8
0
  6
Continuous
 62
     7
100
AcDbLine
 10
137.7634659026
 20
62.2760636055
 30
0.0
 11
138.8424883901
 21
63.355086093
 31
0.0
  0
LINE
  5
2B0
330
235
100
AcDbEntity
  8
0
  6
Continuous
 62
     7
100
AcDbLine
 10
125.2607096415
 20
50.3767051311
 30
0.0
 11
126.8017134563
 21
51.9177089459
 31
0.0
  0
LINE
  5
2B1
330
235
100
AcDbEntity
  8
0
  6
Continuous
 62
     7
100
AcDbLine
 10
132.9657287154
 20
58.081724205
 30
0.0
 11
133.9930699656
 21
59.1090654552
 31
0.0
  0
LINE
  5
2B2
330
235
100
AcDbEntity
  8
0
  6
Continuous
 62
     7
100
AcDbLine
 10
137.6730188486
 20
62.78901433819999
 30
0.0
 11
138.7520413362
 21
63.8680368257
 31
0.0
  0
LINE
  5
2B3
330
235
100
AcDbEntity
  8
0
  6
Continuous
 62
     7
100
AcDbLine
 10
124.5281400751
 20
50.2475333513
 30
0.0
 11
126.0691438899
 21
51.78853716609999
 31
0.0
  0
LINE
  5
2B4
330
235
100
AcDbEntity
  8
0
  6
Continuous
 62
     7
100
AcDbLine
 10
132.233159149
 20
57.9525524252
 30
0.0
 11
133.2605001896
 21
58.9798934658
 31
0.0
  0
LINE
  5
2B5
330
235
100
AcDbEntity
  8
0
  6
Continuous
 62
     7
100
AcDbLine
 10
137.5825717947
 20
63.3019650708
 30
0.0
 11
138.6615942822
 21
64.38098755840001
 31
0.0
  0
LINE
  5
2B6
330
235
100
AcDbEntity
  8
0
  6
Continuous
 62
     7
100
AcDbLine
 10
123.7955705087
 20
50.1183615715
 30
0.0
 11
125.3365743235
 21
51.6593653863
 31
0.0
  0
LINE
  5
2B7
330
235
100
AcDbEntity
  8
0
  6
Continuous
 62
     7
100
AcDbLine
 10
131.5005895826
 20
57.8233806454
 30
0.0
 11
132.5279304136
 21
58.8507214764
 31
0.0
  0
LINE
  5
2B8
330
235
100
AcDbEntity
  8
0
  6
Continuous
 62
     7
100
AcDbLine
 10
137.4921247407
 20
63.81491580350001
 30
0.0
 11
138.5711472283
 21
64.89393829099999
 31
0.0
  0
LINE
  5
2B9
330
235
100
AcDbEntity
  8
0
  6
Continuous
 62
     7
100
AcDbLine
 10
123.0630009423
 20
49.98918979169999
 30
0.0
 11
124.6040047571
 21
51.5301936065
 31
0.0
  0
LINE
  5
2BA
330
235
100
AcDbEntity
  8
0
  6
Continuous
 62
     7
100
AcDbLine
 10
130.7680200162
 20
57.6942088656
 30
0.0
 11
131.7953606376
 21
58.72154948689999
 31
0.0
  0
LINE
  5
2BB
330
235
100
AcDbEntity
  8
0
  6
Continuous
 62
     7
100
AcDbLine
 10
137.4016776868
 20
64.3278665362
 30
0.0
 11
138.4807001743
 21
65.4068890237
 31
0.0
  0
LINE
  5
2BC
330
235
100
AcDbEntity
  8
0
  6
Continuous
 62
     7
100
AcDbLine
 10
122.3304313759
 20
49.86001801189999
 30
0.0
 11
123.8714351907
 21
51.4010218266
 31
0.0
  0
LINE
  5
2BD
330
235
100
AcDbEntity
  8
0
  6
Continuous
 62
     7
100
AcDbLine
 10
130.0354504498
 20
57.5650370858
 30
0.0
 11
131.0627908615
 21
58.59237749750001
 31
0.0
  0
LINE
  5
2BE
330
235
100
AcDbEntity
  8
0
  6
Continuous
 62
     7
100
AcDbLine
 10
137.2268015854
 20
64.7563882214
 30
0.0
 11
138.3902531204
 21
65.91983975640001
 31
0.0
  0
LINE
  5
2BF
330
235
100
AcDbEntity
  8
0
  6
Continuous
 62
     7
100
AcDbLine
 10
121.5978618095
 20
49.7308462321
 30
0.0
 11
123.1388656242
 21
51.27185004680001
 31
0.0
  0
LINE
  5
2C0
330
235
100
AcDbEntity
  8
0
  6
Continuous
 62
     7
100
AcDbLine
 10
129.3028808833
 20
57.435865306
 30
0.0
 11
130.3302210855
 21
58.4632055081
 31
0.0
  0
LINE
  5
2C1
330
235
100
AcDbEntity
  8
0
  6
Continuous
 62
     7
100
AcDbLine
 10
136.494232019
 20
64.6272164416
 30
0.0
 11
138.0352358337
 21
66.16822025640001
 31
0.0
  0
LINE
  5
2C2
330
235
100
AcDbEntity
  8
0
  6
Continuous
 62
     7
100
AcDbLine
 10
120.865292243
 20
49.60167445229999
 30
0.0
 11
122.4062960578
 21
51.142678267
 31
0.0
  0
LINE
  5
2C3
330
235
100
AcDbEntity
  8
0
  6
Continuous
 62
     7
100
AcDbLine
 10
128.5703113169
 20
57.3066935261
 30
0.0
 11
129.5976513095
 21
58.3340335187
 31
0.0
  0
LINE
  5
2C4
330
235
100
AcDbEntity
  8
0
  6
Continuous
 62
     7
100
AcDbLine
 10
135.7616624525
 20
64.49804466180001
 30
0.0
 11
137.3026662673
 21
66.03904847649999
 31
0.0
  0
LINE
  5
2C5
330
235
100
AcDbEntity
  8
0
  6
Continuous
 62
     7
100
AcDbLine
 10
120.1327226766
 20
49.4725026725
 30
0.0
 11
121.6737264914
 21
51.0135064872
 31
0.0
  0
LINE
  5
2C6
330
235
100
AcDbEntity
  8
0
  6
Continuous
 62
     7
100
AcDbLine
 10
127.8377417505
 20
57.1775217463
 30
0.0
 11
128.8650815334
 21
58.2048615293
 31
0.0
  0
LINE
  5
2C7
330
235
100
AcDbEntity
  8
0
  6
Continuous
 62
     7
100
AcDbLine
 10
135.0290928861
 20
64.36887288200001
 30
0.0
 11
136.5700967009
 21
65.90987669669999
 31
0.0
  0
LINE
  5
2C8
330
235
100
AcDbEntity
  8
0
  6
Continuous
 62
     7
100
AcDbLine
 10
119.4001531102
 20
49.3433308926
 30
0.0
 11
120.941156925
 21
50.8843347074
 31
0.0
  0
LINE
  5
2C9
330
235
100
AcDbEntity
  8
0
  6
Continuous
 62
     7
100
AcDbLine
 10
127.1051721841
 20
57.04834996649999
 30
0.0
 11
128.1325117574
 21
58.07568953989999
 31
0.0
  0
LINE
  5
2CA
330
235
100
AcDbEntity
  8
0
  6
Continuous
 62
     7
100
AcDbLine
 10
134.2965233197
 20
64.2397011022
 30
0.0
 11
135.8375271345
 21
65.78070491689999
 31
0.0
  0
LINE
  5
2CB
330
235
100
AcDbEntity
  8
0
  6
Continuous
 62
     7
100
AcDbLine
 10
118.6675835438
 20
49.2141591128
 30
0.0
 11
120.2085873586
 21
50.7551629276
 31
0.0
  0
LINE
  5
2CC
330
235
100
AcDbEntity
  8
0
  6
Continuous
 62
     7
100
AcDbLine
 10
126.3726026177
 20
56.9191781867
 30
0.0
 11
127.3999419814
 21
57.9465175504
 31
0.0
  0
LINE
  5
2CD
330
235
100
AcDbEntity
  8
0
  6
Continuous
 62
     7
100
AcDbLine
 10
133.5639537533
 20
64.1105293224
 30
0.0
 11
135.1049575681
 21
65.6515331371
 31
0.0
  0
LINE
  5
2CE
330
235
100
AcDbEntity
  8
0
  6
Continuous
 62
     7
100
AcDbLine
 10
117.9350139774
 20
49.084987333
 30
0.0
 11
119.4760177921
 21
50.6259911478
 31
0.0
  0
LINE
  5
2CF
330
235
100
AcDbEntity
  8
0
  6
Continuous
 62
     7
100
AcDbLine
 10
125.6400330513
 20
56.79000640689999
 30
0.0
 11
126.6673722054
 21
57.817345561
 31
0.0
  0
LINE
  5
2D0
330
235
100
AcDbEntity
  8
0
  6
Continuous
 62
     7
100
AcDbLine
 10
132.8313841869
 20
63.9813575426
 30
0.0
 11
134.3723880017
 21
65.5223613573
 31
0.0
  0
LINE
  5
2D1
330
235
100
AcDbEntity
  8
0
  6
Continuous
 62
     7
100
AcDbLine
 10
117.2024444109
 20
48.95581555319999
 30
0.0
 11
118.7434482257
 21
50.496819368
 31
0.0
  0
LINE
  5
2D2
330
235
100
AcDbEntity
  8
0
  6
Continuous
 62
     7
100
AcDbLine
 10
124.9074634848
 20
56.6608346271
 30
0.0
 11
125.9348024293
 21
57.68817357159999
 31
0.0
  0
LINE
  5
2D3
330
235
100
AcDbEntity
  8
0
  6
Continuous
 62
     7
100
AcDbLine
 10
132.0988146204999
 20
63.8521857627
 30
0.0
 11
133.6398184352
 21
65.39318957749999
 31
0.0
  0
LINE
  5
2D4
330
235
100
AcDbEntity
  8
0
  6
Continuous
 62
     7
100
AcDbLine
 10
116.4698748445
 20
48.8266437734
 30
0.0
 11
118.0108786593
 21
50.36764758819999
 31
0.0
  0
LINE
  5
2D5
330
235
100
AcDbEntity
  8
0
  6
Continuous
 62
     7
100
AcDbLine
 10
124.1748939184
 20
56.5316628473
 30
0.0
 11
125.2022326533
 21
57.55900158220001
 31
0.0
  0
LINE
  5
2D6
330
235
100
AcDbEntity
  8
0
  6
Continuous
 62
     7
100
AcDbLine
 10
131.366245054
 20
63.7230139829
 30
0.0
 11
132.9072488688
 21
65.26401779770001
 31
0.0
  0
LINE
  5
2D7
330
235
100
AcDbEntity
  8
0
  6
Continuous
 62
     7
100
AcDbLine
 10
115.7373052781
 20
48.69747199359999
 30
0.0
 11
117.2783090929
 21
50.2384758084
 31
0.0
  0
LINE
  5
2D8
330
235
100
AcDbEntity
  8
0
  6
Continuous
 62
     7
100
AcDbLine
 10
123.442324352
 20
56.4024910675
 30
0.0
 11
124.4696628773
 21
57.42982959279999
 31
0.0
  0
LINE
  5
2D9
330
235
100
AcDbEntity
  8
0
  6
Continuous
 62
     7
100
AcDbLine
 10
130.6336754876
 20
63.5938422031
 30
0.0
 11
132.1746793024
 21
65.1348460179
 31
0.0
  0
LINE
  5
2DA
330
235
100
AcDbEntity
  8
0
  6
Continuous
 62
     7
100
AcDbLine
 10
115.1859845056
 20
48.7495490077
 30
0.0
 11
116.5457395265
 21
50.10930402859999
 31
0.0
  0
LINE
  5
2DB
330
235
100
AcDbEntity
  8
0
  6
Continuous
 62
     7
100
AcDbLine
 10
122.7097547856
 20
56.27331928770001
 30
0.0
 11
123.7370931012
 21
57.3006576034
 31
0.0
  0
LINE
  5
2DC
330
235
100
AcDbEntity
  8
0
  6
Continuous
 62
     7
100
AcDbLine
 10
129.9011059212
 20
63.4646704233
 30
0.0
 11
131.442109736
 21
65.0056742381
 31
0.0
  0
LINE
  5
2DD
330
235
100
AcDbEntity
  8
0
  6
Continuous
 62
     7
100
AcDbLine
 10
115.0955374516
 20
49.2624997404
 30
0.0
 11
116.1745599392
 21
50.3415222279
 31
0.0
  0
LINE
  5
2DE
330
235
100
AcDbEntity
  8
0
  6
Continuous
 62
     7
100
AcDbLine
 10
121.9771852192
 20
56.1441475079
 30
0.0
 11
123.0045233252
 21
57.17148561390001
 31
0.0
  0
LINE
  5
2DF
330
235
100
AcDbEntity
  8
0
  6
Continuous
 62
     7
100
AcDbLine
 10
129.1685363548
 20
63.33549864350001
 30
0.0
 11
130.7095401696
 21
64.8765024583
 31
0.0
  0
LINE
  5
2E0
330
235
100
AcDbEntity
  8
0
  6
Continuous
 62
     7
100
AcDbLine
 10
115.0050903977
 20
49.7754504731
 30
0.0
 11
116.0841128852
 21
50.8544729606
 31
0.0
  0
LINE
  5
2E1
330
235
100
AcDbEntity
  8
0
  6
Continuous
 62
     7
100
AcDbLine
 10
121.2446156527
 20
56.0149757281
 30
0.0
 11
122.2719535492
 21
57.04231362449999
 31
0.0
  0
LINE
  5
2E2
330
235
100
AcDbEntity
  8
0
  6
Continuous
 62
     7
100
AcDbLine
 10
128.4359667884
 20
63.2063268637
 30
0.0
 11
129.9769706031
 21
64.7473306785
 31
0.0
  0
LINE
  5
2E3
330
235
100
AcDbEntity
  8
0
  6
Continuous
 62
     7
100
AcDbLine
 10
114.9146433438
 20
50.28840120569999
 30
0.0
 11
115.9936658313
 21
51.3674236932
 31
0.0
  0
LINE
  5
2E4
330
235
100
AcDbEntity
  8
0
  6
Continuous
 62
     7
100
AcDbLine
 10
120.5120460863
 20
55.8858039483
 30
0.0
 11
121.5393837732
 21
56.9131416351
 31
0.0
  0
LINE
  5
2E5
330
235
100
AcDbEntity
  8
0
  6
Continuous
 62
     7
100
AcDbLine
 10
127.703397222
 20
63.0771550839
 30
0.0
 11
129.2444010367
 21
64.6181588987
 31
0.0
  0
LINE
  5
2E6
330
235
100
AcDbEntity
  8
0
  6
Continuous
 62
     7
100
AcDbLine
 10
114.8241962898
 20
50.8013519384
 30
0.0
 11
115.9032187773
 21
51.8803744259
 31
0.0
  0
LINE
  5
2E7
330
235
100
AcDbEntity
  8
0
  6
Continuous
 62
     7
100
AcDbLine
 10
119.7794765199
 20
55.7566321685
 30
0.0
 11
120.8068139971
 21
56.7839696457
 31
0.0
  0
LINE
  5
2E8
330
235
100
AcDbEntity
  8
0
  6
Continuous
 62
     7
100
AcDbLine
 10
126.9708276555
 20
62.94798330409999
 30
0.0
 11
128.5118314703
 21
64.4889871189
 31
0.0
  0
LINE
  5
2E9
330
235
100
AcDbEntity
  8
0
  6
Continuous
 62
     7
100
AcDbLine
 10
114.7337492359
 20
51.31430267109999
 30
0.0
 11
115.8127717234
 21
52.3933251586
 31
0.0
  0
LINE
  5
2EA
330
235
100
AcDbEntity
  8
0
  6
Continuous
 62
     7
100
AcDbLine
 10
119.0469069535
 20
55.6274603887
 30
0.0
 11
120.0742442211
 21
56.65479765629999
 31
0.0
  0
LINE
  5
2EB
330
235
100
AcDbEntity
  8
0
  6
Continuous
 62
     7
100
AcDbLine
 10
126.2382580891
 20
62.8188115243
 30
0.0
 11
127.7792619039
 21
64.35981533909999
 31
0.0
  0
LINE
  5
2EC
330
235
100
AcDbEntity
  8
0
  6
Continuous
 62
     7
100
AcDbLine
 10
114.6433021819
 20
51.8272534037
 30
0.0
 11
115.7223246694
 21
52.90627589119999
 31
0.0
  0
LINE
  5
2ED
330
235
100
AcDbEntity
  8
0
  6
Continuous
 62
     7
100
AcDbLine
 10
118.3143373871
 20
55.4982886089
 30
0.0
 11
119.3416744451
 21
56.5256256669
 31
0.0
  0
LINE
  5
2EE
330
235
100
AcDbEntity
  8
0
  6
Continuous
 62
     7
100
AcDbLine
 10
125.5056885227
 20
62.6896397445
 30
0.0
 11
127.0466923375
 21
64.23064355930001
 31
0.0
  0
LINE
  5
2EF
330
235
100
AcDbEntity
  8
0
  6
Continuous
 62
     7
100
AcDbLine
 10
114.552855128
 20
52.3402041364
 30
0.0
 11
115.6318776155
 21
53.4192266239
 31
0.0
  0
LINE
  5
2F0
330
235
100
AcDbEntity
  8
0
  6
Continuous
 62
     7
100
AcDbLine
 10
117.5817678207
 20
55.3691168291
 30
0.0
 11
118.609104669
 21
56.3964536775
 31
0.0
  0
LINE
  5
2F1
330
235
100
AcDbEntity
  8
0
  6
Continuous
 62
     7
100
AcDbLine
 10
124.7731189563
 20
62.5604679647
 30
0.0
 11
126.3141227711
 21
64.1014717795
 31
0.0
  0
LINE
  5
2F2
330
235
100
AcDbEntity
  8
0
  6
Continuous
 62
     7
100
AcDbLine
 10
114.462408074
 20
52.8531548691
 30
0.0
 11
115.5414305616
 21
53.9321773566
 31
0.0
  0
LINE
  5
2F3
330
235
100
AcDbEntity
  8
0
  6
Continuous
 62
     7
100
AcDbLine
 10
116.8491982542
 20
55.2399450493
 30
0.0
 11
117.876534893
 21
56.267281688
 31
0.0
  0
LINE
  5
2F4
330
235
100
AcDbEntity
  8
0
  6
Continuous
 62
     7
100
AcDbLine
 10
124.0405493899
 20
62.4312961849
 30
0.0
 11
125.5815532046
 21
63.97229999970001
 31
0.0
  0
LINE
  5
2F5
330
235
100
AcDbEntity
  8
0
  6
Continuous
 62
     7
100
AcDbLine
 10
114.3719610201
 20
53.3661056017
 30
0.0
 11
115.4509835076
 21
54.4451280893
 31
0.0
  0
LINE
  5
2F6
330
235
100
AcDbEntity
  8
0
  6
Continuous
 62
     7
100
AcDbLine
 10
116.1166286878
 20
55.1107732695
 30
0.0
 11
117.143965117
 21
56.1381096986
 31
0.0
  0
LINE
  5
2F7
330
235
100
AcDbEntity
  8
0
  6
Continuous
 62
     7
100
AcDbLine
 10
123.3079798234
 20
62.3021244051
 30
0.0
 11
124.8489836382
 21
63.8431282199
 31
0.0
  0
LINE
  5
2F8
330
235
100
AcDbEntity
  8
0
  6
Continuous
 62
     7
100
AcDbLine
 10
114.2815139662
 20
53.87905633439999
 30
0.0
 11
115.3605364537
 21
54.9580788219
 31
0.0
  0
LINE
  5
2F9
330
235
100
AcDbEntity
  8
0
  6
Continuous
 62
     7
100
AcDbLine
 10
115.3840591214
 20
54.9816014896
 30
0.0
 11
116.411395341
 21
56.00893770919999
 31
0.0
  0
LINE
  5
2FA
330
235
100
AcDbEntity
  8
0
  6
Continuous
 62
     7
100
AcDbLine
 10
122.575410257
 20
62.1729526253
 30
0.0
 11
124.1164140718
 21
63.7139564401
 31
0.0
  0
LINE
  5
2FB
330
235
100
AcDbEntity
  8
0
  6
Continuous
 62
     7
100
AcDbLine
 10
114.1910669122
 20
54.3920070671
 30
0.0
 11
115.6788255649
 21
55.8797657198
 31
0.0
  0
LINE
  5
2FC
330
235
100
AcDbEntity
  8
0
  6
Continuous
 62
     7
100
AcDbLine
 10
121.8428406906
 20
62.0437808455
 30
0.0
 11
123.3838445054
 21
63.58478466020001
 31
0.0
  0
LINE
  5
2FD
330
235
100
AcDbEntity
  8
0
  6
Continuous
 62
     7
100
AcDbLine
 10
114.1006198583
 20
54.9049577997
 30
0.0
 11
115.1796423458
 21
55.98398028729999
 31
0.0
  0
LINE
  5
2FE
330
235
100
AcDbEntity
  8
0
  6
Continuous
 62
     7
100
AcDbLine
 10
121.1102711242
 20
61.9146090657
 30
0.0
 11
122.651274939
 21
63.45561288039999
 31
0.0
  0
LINE
  5
2FF
330
235
100
AcDbEntity
  8
0
  6
Continuous
 62
     7
100
AcDbLine
 10
114.0101728043
 20
55.4179085324
 30
0.0
 11
115.0891952918
 21
56.49693101989999
 31
0.0
  0
LINE
  5
300
330
235
100
AcDbEntity
  8
0
  6
Continuous
 62
     7
100
AcDbLine
 10
120.3777015578
 20
61.7854372859
 30
0.0
 11
121.9187053725
 21
63.32644110060001
 31
0.0
  0
LINE
  5
301
330
235
100
AcDbEntity
  8
0
  6
Continuous
 62
     7
100
AcDbLine
 10
113.9197257504
 20
55.9308592651
 30
0.0
 11
114.9987482379
 21
57.0098817526
 31
0.0
  0
LINE
  5
302
330
235
100
AcDbEntity
  8
0
  6
Continuous
 62
     7
100
AcDbLine
 10
119.6451319914
 20
61.65626550609999
 30
0.0
 11
121.1861358061
 21
63.1972693208
 31
0.0
  0
LINE
  5
303
330
235
100
AcDbEntity
  8
0
  6
Continuous
 62
     7
100
AcDbLine
 10
113.8292786964
 20
56.4438099977
 30
0.0
 11
114.908301184
 21
57.5228324853
 31
0.0
  0
LINE
  5
304
330
235
100
AcDbEntity
  8
0
  6
Continuous
 62
     7
100
AcDbLine
 10
118.9125624249
 20
61.5270937262
 30
0.0
 11
120.4535662397
 21
63.06809754100001
 31
0.0
  0
LINE
  5
305
330
235
100
AcDbEntity
  8
0
  6
Continuous
 62
     7
100
AcDbLine
 10
113.7388316425
 20
56.9567607304
 30
0.0
 11
114.81785413
 21
58.03578321789999
 31
0.0
  0
LINE
  5
306
330
235
100
AcDbEntity
  8
0
  6
Continuous
 62
     7
100
AcDbLine
 10
118.1799928585
 20
61.3979219464
 30
0.0
 11
119.7209966733
 21
62.9389257612
 31
0.0
  0
LINE
  5
307
330
235
100
AcDbEntity
  8
0
  6
Continuous
 62
     7
100
AcDbLine
 10
113.6483845885
 20
57.4697114631
 30
0.0
 11
114.7274070761
 21
58.5487339506
 31
0.0
  0
LINE
  5
308
330
235
100
AcDbEntity
  8
0
  6
Continuous
 62
     7
100
AcDbLine
 10
117.4474232921
 20
61.2687501666
 30
0.0
 11
118.9884271069
 21
62.8097539814
 31
0.0
  0
LINE
  5
309
330
235
100
AcDbEntity
  8
0
  6
Continuous
 62
     7
100
AcDbLine
 10
113.5579375346
 20
57.9826621958
 30
0.0
 11
114.6369600220999
 21
59.0616846833
 31
0.0
  0
LINE
  5
30A
330
235
100
AcDbEntity
  8
0
  6
Continuous
 62
     7
100
AcDbLine
 10
116.7148537257
 20
61.13957838680001
 30
0.0
 11
118.2558575405
 21
62.6805822016
 31
0.0
  0
LINE
  5
30B
330
235
100
AcDbEntity
  8
0
  6
Continuous
 62
     7
100
AcDbLine
 10
113.4674904807
 20
58.4956129284
 30
0.0
 11
114.5465129682
 21
59.57463541590001
 31
0.0
  0
LINE
  5
30C
330
235
100
AcDbEntity
  8
0
  6
Continuous
 62
     7
100
AcDbLine
 10
115.9822841593
 20
61.010406607
 30
0.0
 11
117.523287974
 21
62.55141042179999
 31
0.0
  0
LINE
  5
30D
330
235
100
AcDbEntity
  8
0
  6
Continuous
 62
     7
100
AcDbLine
 10
113.3770434267
 20
59.0085636611
 30
0.0
 11
114.4560659142
 21
60.08758614859999
 31
0.0
  0
LINE
  5
30E
330
235
100
AcDbEntity
  8
0
  6
Continuous
 62
     7
100
AcDbLine
 10
115.2497145928
 20
60.8812348272
 30
0.0
 11
116.7907184076
 21
62.42223864199999
 31
0.0
  0
LINE
  5
30F
330
235
100
AcDbEntity
  8
0
  6
Continuous
 62
     7
100
AcDbLine
 10
113.2865963728
 20
59.5215143938
 30
0.0
 11
114.3656188603
 21
60.6005368813
 31
0.0
  0
LINE
  5
310
330
235
100
AcDbEntity
  8
0
  6
Continuous
 62
     7
100
AcDbLine
 10
114.5171450264
 20
60.7520630474
 30
0.0
 11
116.0581488412
 21
62.2930668622
 31
0.0
  0
LINE
  5
311
330
235
100
AcDbEntity
  8
0
  6
Continuous
 62
     7
100
AcDbLine
 10
113.1961493188
 20
60.0344651264
 30
0.0
 11
115.3255792748
 21
62.16389508239999
 31
0.0
  0
LINE
  5
312
330
235
100
AcDbEntity
  8
0
  6
Continuous
 62
     7
100
AcDbLine
 10
113.1057022649
 20
60.5474158591
 30
0.0
 11
114.5930097084
 21
62.0347233026
 31
0.0
  0
LINE
  5
313
330
235
100
AcDbEntity
  8
0
  6
Continuous
 62
     7
100
AcDbLine
 10
113.0152552109
 20
61.0603665918
 30
0.0
 11
113.860440142
 21
61.90555152279999
 31
0.0
  0
LINE
  5
314
330
235
100
AcDbEntity
  8
0
  6
Continuous
 62
     7
100
AcDbLine
 10
112.924808157
 20
61.57331732439999
 30
0.0
 11
113.1278705755
 21
61.776379743
 31
0.0
  0
ENDBLK
  5
315
330
235
100
AcDbEntity
  8
0
  6
ByBlock
 62
     0
100
AcDbBlockEnd
  0
ENDSEC
  0
SECTION
  2
ENTITIES
  0
LWPOLYLINE
  5
14CB
330
21E
100
AcDbEntity
  8
0
  6
Continuous
 62
     7
100
AcDbPolyline
 90
        9
 70
     0
 43
0.0
 10
19.8366210841
 20
85.7265296153
 10
19.8647696943
 20
84.09104451620001
 10
19.9457942378
 20
82.50784102529999
 10
20.0797684169
 20
80.92747199760001
 10
20.2667783457
 20
79.351031206
 10
20.5062480062
 20
77.783829727
 10
20.807932596
 20
76.1781151326
 10
21.1760689598
 20
74.5385591693
 10
21.6081531212
 20
72.8932240924
  0
LWPOLYLINE
  5
14CC
330
21E
100
AcDbEntity
  8
0
  6
Continuous
 62
     7
100
AcDbPolyline
 90
       10
 70
     0
 43
0.0
 10
18.9831395909
 20
85.7265296153
 10
19.0053645771
 20
84.2659129945
 10
19.0720593321
 20
82.80613158660001
 10
19.1831550324
 20
81.3491521313
 10
19.338581335
 20
79.89591083010001
 10
19.538295727
 20
78.4473096195
 10
19.7820802468
 20
77.00530286580001
 10
20.0698054242
 20
75.5707867301
 10
20.401366853
 20
74.1446956961
 10
20.7763964609
 20
72.7289494554
  0
LWPOLYLINE
  5
14CD
330
21E
100
AcDbEntity
  8
0
  6
Continuous
 62
     7
100
AcDbPolyline
 90
        9
 70
     0
 43
0.0
 10
21.6081531489
 20
98.5598351488
 10
21.1914481669
 20
96.97750615690001
 10
20.8402219397
 20
95.43045916089999
 10
20.5411212211
 20
93.87167752159999
 10
20.2945350011
 20
92.30335723549998
 10
20.101076265
 20
90.73075343559999
 10
19.9569095687
 20
89.10482499229999
 10
19.8670866668
 20
87.4279531952
 10
19.8366210841
 20
85.7265296153
  0
LWPOLYLINE
  5
14CE
330
21E
100
AcDbEntity
  8
0
  6
Continuous
 62
     7
100
AcDbPolyline
 90
       10
 70
     0
 43
0.0
 10
20.7763963495
 20
98.7241093507
 10
20.4013668682
 20
97.30836359560001
 10
20.0698054359
 20
95.8822725543
 10
19.7820802554
 20
94.44775641120001
 10
19.538295733
 20
93.0057496499
 10
19.3385813388
 20
91.55714843170001
 10
19.1831550345
 20
90.10390712280001
 10
19.0720593331
 20
88.6469276597
 10
19.0053645773
 20
87.18714624399998
 10
18.9831395909
 20
85.7265296153
  0
LWPOLYLINE
  5
14CF
330
21E
100
AcDbEntity
  8
0
  6
Continuous
 62
     7
100
AcDbPolyline
 90
       16
 70
     0
 43
0.0
 10
20.7763964609
 20
72.7289494554
 10
20.8129120808
 20
72.6155615234
 10
20.8580440632
 20
72.50465110260001
 10
20.9115767444
 20
72.3970294111
 10
20.9731825596
 20
72.29345764439999
 10
21.0427277028
 20
72.1942439389
 10
21.1204207846
 20
72.09935187310001
 10
21.2059686416
 20
72.0094791451
 10
21.2989103624
 20
71.92535854270001
 10
21.3989498086
 20
71.8474628956
 10
21.5062559089
 20
71.77595608949999
 10
21.62034761780001
 20
71.71150923039999
 10
21.7404005163
 20
71.6548547398
 10
21.8657929303
 20
71.60648295189999
 10
21.9964440166
 20
71.566668613
 10
22.1317977435
 20
71.5358861201
  0
LWPOLYLINE
  5
14D0
330
21E
100
AcDbEntity
  8
0
  6
Continuous
 62
     7
100
AcDbPolyline
 90
       16
 70
     0
 43
0.0
 10
21.6081531212
 20
72.8932240924
 10
21.6279025667
 20
72.83120197789999
 10
21.651314304
 20
72.7716019234
 10
21.6786012384
 20
72.71354539729999
 10
21.7092848923
 20
72.65783634299999
 10
21.7430434969
 20
72.6046899413
 10
21.7807663281
 20
72.552670357
 10
21.8249090691
 20
72.4992328388
 10
21.8785332326
 20
72.44257297549999
 10
21.9443112382
 20
72.3826048474
 10
22.0239009275
 20
72.32093470000001
 10
22.117145449
 20
72.260574085
 10
22.2230074711
 20
72.2044554157
 10
22.3400679775
 20
72.15495792739999
 10
22.4674615922
 20
72.1136770153
 10
22.6045408894
 20
72.08191449800001
  0
LWPOLYLINE
  5
14D1
330
21E
100
AcDbEntity
  8
0
  6
Continuous
 62
     7
100
AcDbPolyline
 90
        9
 70
     0
 43
0.0
 10
32.1284382269
 20
85.72652964040001
 10
32.1360819104
 20
84.93987045409999
 10
32.1630241358
 20
84.05722115479999
 10
32.2169656442
 20
83.06416777779999
 10
32.3088640465
 20
81.9404562861
 10
32.4522356059
 20
80.67824043579999
 10
32.6416353953
 20
79.402152798
 10
32.87341288469999
 20
78.14409080129999
 10
33.1467900091
 20
76.9051599063
  0
LWPOLYLINE
  5
14D2
330
21E
100
AcDbEntity
  8
0
  6
Continuous
 62
     7
100
AcDbPolyline
 90
        8
 70
     0
 43
0.0
 10
33.1467900127
 20
94.5478993568
 10
32.8660767777
 20
93.27262451500001
 10
32.6294429712
 20
91.9771166834
 10
32.4377225686
 20
90.66249081
 10
32.2914854352
 20
89.3280227892
 10
32.1921249281
 20
87.9876272291
 10
32.1422611184
 20
86.7836945456
 10
32.128438227
 20
85.72652964040001
  0
LWPOLYLINE
  5
14D3
330
21E
100
AcDbEntity
  8
0
  6
Continuous
 62
     7
100
AcDbPolyline
 90
       17
 70
     0
 43
0.0
 10
81.36173837310002
 20
72.08191440899999
 10
81.49067787699999
 20
72.11144084909999
 10
81.6082133005
 20
72.1483764017
 10
81.7169645579
 20
72.1922665461
 10
81.8153351071
 20
72.2413497788
 10
81.90246125699999
 20
72.2936878329
 10
81.97800350539999
 20
72.3472395281
 10
82.04207732399998
 20
72.3999703302
 10
82.09585957999999
 20
72.4506489022
 10
82.1414838699
 20
72.499361918
 10
82.18135950439998
 20
72.54733214009999
 10
82.21752180180001
 20
72.59636398979999
 10
82.25104398960001
 20
72.6479259891
 10
82.28161514379999
 20
72.7018513613
 10
82.3089822835
 20
72.7580029154
 10
82.3343696701
 20
72.82014346699999
 10
82.3581260313
 20
72.8932240795
  0
LWPOLYLINE
  5
14D4
330
21E
100
AcDbEntity
  8
0
  6
Continuous
 62
     7
100
AcDbPolyline
 90
       16
 70
     0
 43
0.0
 10
81.83448110950001
 20
71.53588605819999
 10
81.9698351883
 20
71.56666863879999
 10
82.10048625810001
 20
71.60648297919999
 10
82.22587865760001
 20
71.6548547668
 10
82.34593154310001
 20
71.7115092554
 10
82.4600232404
 20
71.7759561108
 10
82.56732933069999
 20
71.84746291180001
 10
82.66736876880001
 20
71.92535855279999
 10
82.76031048330001
 20
72.00947914789999
 10
82.84585833539999
 20
72.0993518673
 10
82.92355141399999
 20
72.1942439236
 10
82.99309655569999
 20
72.29345761880001
 10
83.05470237100001
 20
72.39702937439999
 10
83.10823505390001
 20
72.5046510538
 10
83.15336703959999
 20
72.61556146140001
 10
83.18988286019999
 20
72.72894998649999
  0
LWPOLYLINE
  5
14D5
330
21E
100
AcDbEntity
  8
0
  6
Continuous
 62
     7
100
AcDbPolyline
 90
       15
 70
     0
 43
0.0
 10
33.146789977
 20
76.90515989800001
 10
33.1648566187
 20
76.83949658189999
 10
33.188018015
 20
76.7738469018
 10
33.215911439
 20
76.71078186479999
 10
33.248553056
 20
76.65116969180001
 10
33.2858537169
 20
76.5953662292
 10
33.326922126
 20
76.5447112943
 10
33.3707536407
 20
76.50025849949999
 10
33.4174569619
 20
76.46148207359999
 10
33.4655506375
 20
76.42900668979999
 10
33.5136914888
 20
76.40296162289999
 10
33.5610852283
 20
76.3829145129
 10
33.6072111317
 20
76.36809026539999
 10
33.6514667648
 20
76.357765618
 10
33.6935770324
 20
76.35120624319999
  0
LWPOLYLINE
  5
14D6
330
21E
100
AcDbEntity
  8
0
  6
Continuous
 62
     7
100
AcDbPolyline
 90
       12
 70
     0
 43
0.0
 10
22.6045408894
 20
72.08191449800001
 10
25.25399028260001
 20
71.60883572979999
 10
27.8399893682
 20
71.1930864716
 10
30.4406210154
 20
70.82010863579999
 10
33.0541126646
 20
70.4901874825
 10
35.6782108331
 20
70.2035455771
 10
38.3110963973
 20
69.96023587919999
 10
40.9529765411
 20
69.76011558419999
 10
43.5983407979
 20
69.60341415800001
 10
46.3253610346
 20
69.48714306699999
 10
49.1335519759
 20
69.41494927509999
 10
51.9831395909
 20
69.3905151538
  0
LWPOLYLINE
  5
14D7
330
21E
100
AcDbEntity
  8
0
  6
Continuous
 62
     7
100
AcDbPolyline
 90
       13
 70
     0
 43
0.0
 10
22.1317977435
 20
71.5358861201
 10
24.6101481669
 20
71.0853955611
 10
27.0894935516
 20
70.6748895688
 10
29.5702885071
 20
70.30405442039999
 10
32.05303382469999
 20
69.9726208674
 10
34.5389880682
 20
69.6802889305
 10
37.028198646
 20
69.4269719345
 10
39.5193191989
 20
69.21273020939999
 10
42.01100746309999
 20
69.0375926503
 10
44.5028008079
 20
68.9014875311
 10
46.99519466909999
 20
68.804302576
 10
49.4887013082
 20
68.7459788492
 10
51.9831270088
 20
68.7265296153
  0
LWPOLYLINE
  5
14D8
330
21E
100
AcDbEntity
  8
0
  6
Continuous
 62
     7
100
AcDbPolyline
 90
       12
 70
     0
 43
0.0
 10
51.9831395909
 20
69.3905151538
 10
54.73137910689999
 20
69.4132395723
 10
57.39212888469999
 20
69.4788067419
 10
60.0471341081
 20
69.58736018589999
 10
62.695986362
 20
69.73902123649999
 10
65.338059167
 20
69.9338953698
 10
67.9723922822
 20
70.1720447979
 10
70.59850629340001
 20
70.4535851837
 10
73.20906798819999
 20
70.77776041319999
 10
75.8803687912
 20
71.1558904924
 10
78.6111567378
 20
71.5917276353
 10
81.36173837310002
 20
72.08191440899999
  0
LWPOLYLINE
  5
14D9
330
21E
100
AcDbEntity
  8
0
  6
Continuous
 62
     7
100
AcDbPolyline
 90
       13
 70
     0
 43
0.0
 10
51.9831270088
 20
68.7265296153
 10
54.4775543227
 20
68.745978482
 10
56.9710630483
 20
68.8043019065
 10
59.4634593069
 20
68.90148663879999
 10
61.9552551917
 20
69.0375916182
 10
64.44694559199999
 20
69.2127290849
 10
66.93806794549999
 20
69.42697075259999
 10
69.42728013289999
 20
69.68028772619999
 10
71.9132359504
 20
69.9726196866
 10
74.3959837505
 20
70.3040534409
 10
76.87678151770001
 20
70.674888921
 10
79.35612934979999
 20
71.0853952719
 10
81.83448110950001
 20
71.53588605819999
  0
LWPOLYLINE
  5
14DA
330
21E
100
AcDbEntity
  8
0
  6
Continuous
 62
     7
100
AcDbPolyline
 90
        8
 70
     0
 43
0.0
 10
70.27270228659999
 20
76.3512063705
 10
67.76730438459999
 20
76.07502701529999
 10
65.2214835164
 20
75.8412672604
 10
62.6335686952
 20
75.6504394573
 10
60.0017167828
 20
75.5030419771
 10
57.32510601859999
 20
75.399478485
 10
54.6179721934
 20
75.3398359105
 10
51.9831395909
 20
75.32184530720001
  0
LWPOLYLINE
  5
14DB
330
21E
100
AcDbEntity
  8
0
  6
Continuous
 62
     7
100
AcDbPolyline
 90
        9
 70
     0
 43
0.0
 10
33.6935770454
 20
76.35120634499999
 10
36.09980102
 20
76.0850791839
 10
38.54324000750001
 20
75.8580888699
 10
41.02540928049999
 20
75.6706847537
 10
43.5483345704
 20
75.52329344170001
 10
46.0365560484
 20
75.4188984834
 10
48.2582833135
 20
75.3585883413
 10
50.2278974924
 20
75.3296688459
 10
51.9831395909
 20
75.32184530720001
  0
LINE
  5
14DC
330
21E
100
AcDbEntity
  8
DEFAULT_1
  6
CENTER
 62
     7
100
AcDbLine
 10
55.8581395909
 20
81.47652961529999
 30
0.0
 11
53.6664729242
 21
81.47652961529999
 31
0.0
  0
LINE
  5
14DD
330
21E
100
AcDbEntity
  8
DEFAULT_1
  6
CENTER
 62
     7
100
AcDbLine
 10
55.8581395909
 20
81.47652961529999
 30
0.0
 11
58.0498062575
 21
81.47652961529999
 31
0.0
  0
LINE
  5
14DE
330
21E
100
AcDbEntity
  8
0
  6
Continuous
 62
     7
100
AcDbLine
 10
49.9831395909
 20
100.1679658464
 30
0.0
 11
49.9831395909
 21
100.1898278366
 31
0.0
  0
LINE
  5
14DF
330
21E
100
AcDbEntity
  8
0
  6
Continuous
 62
     7
100
AcDbLine
 10
50.4206395909
 20
99.95437215670001
 30
0.0
 11
50.4206395909
 21
99.95993681690002
 31
0.0
  0
LINE
  5
14E0
330
21E
100
AcDbEntity
  8
0
  6
Continuous
 62
     7
100
AcDbLine
 10
50.6706395909
 20
100.1885145271
 30
0.0
 11
50.6706395909
 21
100.1861296727
 31
0.0
  0
LWPOLYLINE
  5
14E1
330
21E
100
AcDbEntity
  8
0
  6
Continuous
 62
     7
100
AcDbPolyline
 90
       22
 70
     0
 43
0.0
 10
50.00998748789999
 20
85.7265296153
 10
50.0155952871
 20
85.8749293842
 10
50.0320928755
 20
86.02054852930001
 10
50.0593953727
 20
86.16456603779999
 10
50.09734097039999
 20
86.3061286978
 10
50.14573263319999
 20
86.44449745809998
 10
50.20429342989999
 20
86.57887628600001
 10
50.27270601529999
 20
86.70853506929999
 10
50.350609932
 20
86.83277806019999
 10
50.43757206729999
 20
86.9509054547
 10
50.5331516769
 20
87.06229942049999
 10
50.6368160503
 20
87.16632028059999
 10
50.7479826641
 20
87.26237449280001
 10
50.8660719188
 20
87.3499472882
 10
50.9903999476
 20
87.42852296089999
 10
51.1202939708
 20
87.49766752299999
 10
51.2549981231
 20
87.55697186909999
 10
51.3937293943
 20
87.60609393799999
 10
51.5356175815
 20
87.64473758600001
 10
51.6822954964
 20
87.67308539389999
 10
51.8323839748
 20
87.69039700469999
 10
51.9831395909
 20
87.69617114589999
  0
LWPOLYLINE
  5
14E2
330
21E
100
AcDbEntity
  8
0
  6
Continuous
 62
     7
100
AcDbPolyline
 90
       31
 70
     0
 43
0.0
 10
49.9831395909
 20
100.1898278366
 10
49.9837391694
 20
100.1987743998
 10
49.98553626159999
 20
100.2076964411
 10
49.98852594189999
 20
100.2165695057
 10
49.9927000155
 20
100.2253692733
 10
49.99804704189999
 20
100.2340716243
 10
50.004552365
 20
100.2426527062
 10
50.0121981543
 20
100.2510889987
 10
50.0209634531
 20
100.2593573787
 10
50.03082423649999
 20
100.267435183
 10
50.0417534767
 20
100.275300271
 10
50.05372121739999
 20
100.282931085
 10
50.06669465579999
 20
100.2903067094
 10
50.0806382327
 20
100.2974069283
 10
50.0955137297
 20
100.3042122803
 10
50.11128037409999
 20
100.3107041125
 10
50.1278949506
 20
100.3168646313
 10
50.14531191979999
 20
100.322676951
 10
50.163483543
 20
100.3281251405
 10
50.182360013
 20
100.3331942668
 10
50.2018895909
 20
100.3378704356
 10
50.2220187472
 20
100.3421408299
 10
50.2426923095
 20
100.345993745
 10
50.2638536129
 20
100.3494186201
 10
50.2854446558
 20
100.352406068
 10
50.3074062586
 20
100.3549479002
 10
50.32967822609999
 20
100.3570371498
 10
50.3521995124
 20
100.3586680904
 10
50.3749083882
 20
100.3598362515
 10
50.39774261
 20
100.3605384314
 10
50.4206395909
 20
100.3607727054
  0
LWPOLYLINE
  5
14E3
330
21E
100
AcDbEntity
  8
0
  6
Continuous
 62
     7
100
AcDbPolyline
 90
       34
 70
     0
 43
0.0
 10
54.7868252762
 20
100.3229784587
 10
54.7739082243
 20
100.2650716546
 10
54.76199862659999
 20
100.2122904069
 10
54.75098263279999
 20
100.1640804199
 10
54.74085056619999
 20
100.1199687814
 10
54.73146987979999
 20
100.0795600667
 10
54.7212780177
 20
100.0436322736
 10
54.7048891918
 20
100.0101940798
 10
54.68039813899999
 20
99.97620184879998
 10
54.647432391
 20
99.9423595582
 10
54.6075109558
 20
99.91045431059999
 10
54.5607339484
 20
99.88031082270001
 10
54.5068850111
 20
99.85169161700001
 10
54.44721113149999
 20
99.82520112620001
 10
54.38122517850001
 20
99.80056055049999
 10
54.31015279810001
 20
99.77819307410001
 10
54.2336182861
 20
99.7579629029
 10
54.15191153510001
 20
99.7399607988
 10
54.0656108242
 20
99.72434674809999
 10
53.9753379386
 20
99.7112593315
 10
53.8815222307
 20
99.70079768600001
 10
53.7846726784
 20
99.6930488201
 10
53.68629985649999
 20
99.6881560833
 10
53.5871932852
 20
99.6861584952
 10
53.47825219989999
 20
99.68645084889999
 10
53.3580682446
 20
99.68708636069999
 10
53.22831156020001
 20
99.68769520350001
 10
53.0883377393
 20
99.68828865350001
 10
52.9373612888
 20
99.68884162030001
 10
52.77448882159999
 20
99.6893470624
 10
52.5987429475
 20
99.68978311569999
 10
52.4090600573
 20
99.69012741549999
 10
52.20428059359999
 20
99.69035639319999
 10
51.9831395909
 20
99.69044315520001
  0
LWPOLYLINE
  5
14E4
330
21E
100
AcDbEntity
  8
0
  6
Continuous
 62
     7
100
AcDbPolyline
 90
       13
 70
     0
 43
0.0
 10
54.1258709492
 20
100.2594452967
 10
54.11254486609999
 20
100.199789263
 10
54.1067479685
 20
100.1734787343
 10
54.09858741669999
 20
100.1497464909
 10
54.0853696455
 20
100.1279129488
 10
54.06627042850001
 20
100.1066236138
 10
54.0412686972
 20
100.0858939888
 10
54.0109888167
 20
100.0663562555
 10
53.9756300283
 20
100.0481312897
 10
53.9356396184
 20
100.031443
 10
53.8914257939
 20
100.0164675295
 10
53.843449299
 20
100.0033753314
 10
53.8271476271
 20
99.9998519807
  0
LINE
  5
14E5
330
21E
100
AcDbEntity
  8
0
  6
Continuous
 62
     7
100
AcDbLine
 10
54.1414327
 20
100.3289256387
 30
0.0
 11
54.1258709492
 21
100.2594452967
 31
0.0
  0
LINE
  5
14E6
330
21E
100
AcDbEntity
  8
0
  6
Continuous
 62
     7
100
AcDbLine
 10
54.15950079449999
 20
100.4096140964
 30
0.0
 11
54.1414327
 21
100.3289256387
 31
0.0
  0
LWPOLYLINE
  5
14E7
330
21E
100
AcDbEntity
  8
0
  6
Continuous
 62
     7
100
AcDbPolyline
 90
        6
 70
     0
 43
0.0
 10
54.15950079449999
 20
100.4096140964
 10
54.1867364281
 20
100.5241701213
 10
54.2168630989
 20
100.6434969959
 10
54.25048527640001
 20
100.7807658005
 10
54.2886957459
 20
100.9516322471
 10
54.33137084609999
 20
101.1598177347
  0
LWPOLYLINE
  5
14E8
330
21E
100
AcDbEntity
  8
0
  6
Continuous
 62
     7
100
AcDbPolyline
 90
       22
 70
     0
 43
0.0
 10
51.9831395909
 20
83.7568880847
 10
51.8344423753
 20
83.76250543340001
 10
51.6883612579
 20
83.7790474592
 10
51.5438018377
 20
83.80643482069999
 10
51.4016565901
 20
83.84450447090001
 10
51.26270639939999
 20
83.89304945220001
 10
51.1277844921
 20
83.95177488729999
 10
50.9976593735
 20
84.0203385
 10
50.8730435168
 20
84.0983555875
 10
50.7546582815
 20
84.18536127359999
 10
50.6431198944
 20
84.28089360680001
 10
50.5390549662
 20
84.3844054208
 10
50.44304450529999
 20
84.4953040234
 10
50.3555788373
 20
84.61301129849999
 10
50.27714419
 20
84.73686239119999
 10
50.2081549228
 20
84.8661991133
 10
50.1489892529
 20
85.00031169240001
 10
50.0999749014
 20
85.13845823310001
 10
50.0614032365
 20
85.2797962224
 10
50.0331042433
 20
85.42589865020001
 10
50.0157865693
 20
85.5756237734
 10
50.00998748789999
 20
85.7265296153
  0
LINE
  5
14E9
330
21E
100
AcDbEntity
  8
DEFAULT_1
  6
CENTER
 62
     7
100
AcDbLine
 10
51.9831395909
 20
89.9540296153
 30
0.0
 11
51.9831395909
 21
87.76236294870001
 31
0.0
  0
LINE
  5
14EA
330
21E
100
AcDbEntity
  8
0
  6
Continuous
 62
     7
100
AcDbLine
 10
51.9831395909
 20
87.69617114589999
 30
0.0
 11
51.9831395909
 21
87.53448568420001
 31
0.0
  0
LINE
  5
14EB
330
21E
100
AcDbEntity
  8
DEFAULT_1
  6
CENTER
 62
     7
100
AcDbLine
 10
51.9831395909
 20
85.7265296153
 30
0.0
 11
51.9831395909
 21
83.9185735464
 31
0.0
  0
LINE
  5
14EC
330
21E
100
AcDbEntity
  8
DEFAULT_1
  6
CENTER
 62
     7
100
AcDbLine
 10
51.9831395909
 20
83.7568880847
 30
0.0
 11
51.9831395909
 21
80.54958038409999
 31
0.0
  0
LINE
  5
14ED
330
21E
100
AcDbEntity
  8
0
  6
Continuous
 62
     7
100
AcDbLine
 10
51.9831395909
 20
83.7568880847
 30
0.0
 11
51.9831395909
 21
83.9185735464
 31
0.0
  0
LINE
  5
14EE
330
21E
100
AcDbEntity
  8
DEFAULT_1
  6
CENTER
 62
     7
100
AcDbLine
 10
51.9831395909
 20
85.7265296153
 30
0.0
 11
51.9831395909
 21
87.53448568420001
 31
0.0
  0
LINE
  5
14EF
330
21E
100
AcDbEntity
  8
DEFAULT_1
  6
CENTER
 62
     7
100
AcDbLine
 10
51.9831395909
 20
89.9540296153
 30
0.0
 11
51.9831395909
 21
90.90347884659999
 31
0.0
  0
LINE
  5
14F0
330
21E
100
AcDbEntity
  8
DEFAULT_1
  6
CENTER
 62
     7
100
AcDbLine
 10
51.9831395909
 20
87.69617114589999
 30
0.0
 11
51.9831395909
 21
87.76236294870001
 31
0.0
  0
LINE
  5
14F1
330
21E
100
AcDbEntity
  8
DEFAULT_1
  6
CENTER
 62
     7
100
AcDbLine
 10
51.9831395909
 20
90.90347884659999
 30
0.0
 11
51.9831395909
 21
92.14569628200001
 31
0.0
  0
LINE
  5
14F2
330
21E
100
AcDbEntity
  8
0
  6
Continuous
 62
     7
100
AcDbLine
 10
53.2956395909
 20
100.1885145271
 30
0.0
 11
53.2956395909
 21
100.1861296727
 31
0.0
  0
LINE
  5
14F3
330
21E
100
AcDbEntity
  8
0
  6
Continuous
 62
     7
100
AcDbLine
 10
53.5456395909
 20
99.95437215670001
 30
0.0
 11
53.5456395909
 21
99.95993681690002
 31
0.0
  0
LWPOLYLINE
  5
14F4
330
21E
100
AcDbEntity
  8
0
  6
Continuous
 62
     7
100
AcDbPolyline
 90
       22
 70
     0
 43
0.0
 10
53.95629169390001
 20
85.7265296153
 10
53.9506838946
 20
85.57812984649999
 10
53.9341863062
 20
85.4325107014
 10
53.90688380899999
 20
85.2884931928
 10
53.86893821140001
 20
85.1469305328
 10
53.82054654850001
 20
85.00856177260001
 10
53.7619857518
 20
84.8741829447
 10
53.6935731664
 20
84.7445241613
 10
53.6156692497
 20
84.62028117050001
 10
53.52870711439999
 20
84.5021537759
 10
53.43312750479999
 20
84.39075981010001
 10
53.3294631314
 20
84.2867389501
 10
53.2182965176
 20
84.19068473779999
 10
53.1002072629
 20
84.10311194250001
 10
52.9758792341
 20
84.0245362697
 10
52.8459852109
 20
83.95539170760001
 10
52.71128105859999
 20
83.89608736159999
 10
52.5725497874
 20
83.84696529260001
 10
52.4306616002
 20
83.8083216447
 10
52.2839836853
 20
83.7799738368
 10
52.13389520689999
 20
83.7626622259
 10
51.9831395909
 20
83.7568880847
  0
LWPOLYLINE
  5
14F5
330
21E
100
AcDbEntity
  8
0
  6
Continuous
 62
     7
100
AcDbPolyline
 90
       25
 70
     0
 43
0.0
 10
53.4831395909
 20
100.1311456522
 10
53.482738139
 20
100.1263540825
 10
53.4815355024
 20
100.1215830311
 10
53.479536831
 20
100.1168529282
 10
53.4767506834
 20
100.112184029
 10
53.4731889903
 20
100.1075963264
 10
53.4688670034
 20
100.1031094656
 10
53.4638032301
 20
100.0987426601
 10
53.4580193543
 20
100.0945146091
 10
53.45154014350001
 20
100.0904434179
 10
53.4443933426
 20
100.0865465199
 10
53.43660955529999
 20
100.0828406022
 10
53.4282221129
 20
100.0793415342
 10
53.4192669318
 20
100.0760642994
 10
53.4097823595
 20
100.0730229313
 10
53.3998090104
 20
100.0702304537
 10
53.3893895918
 20
100.0676988243
 10
53.37856872119999
 20
100.065438884
 10
53.3673927354
 20
100.0634603101
 10
53.355909492
 20
100.0617715753
 10
53.3441681635
 20
100.0603799109
 10
53.3322190275
 20
100.0592912762
 10
53.32011325279999
 20
100.058510333
 10
53.30790267800001
 20
100.0580404254
 10
53.2956395909
 20
100.0578835656
  0
LWPOLYLINE
  5
14F6
330
21E
100
AcDbEntity
  8
0
  6
Continuous
 62
     7
100
AcDbPolyline
 90
        4
 70
     0
 43
0.0
 10
54.95887715520001
 20
101.1507051944
 10
54.9005154966
 20
100.8607592051
 10
54.8448119915
 20
100.5905760902
 10
54.7868168668
 20
100.3229785733
  0
LINE
  5
14F7
330
21E
100
AcDbEntity
  8
0
  6
Continuous
 62
     7
100
AcDbLine
 10
53.95629169390001
 20
85.7265296153
 30
0.0
 11
53.7886887984
 21
85.7265296153
 31
0.0
  0
LINE
  5
14F8
330
21E
100
AcDbEntity
  8
DEFAULT_1
  6
CENTER
 62
     7
100
AcDbLine
 10
51.9831395909
 20
85.7265296153
 30
0.0
 11
50.1775903833
 21
85.7265296153
 31
0.0
  0
LINE
  5
14F9
330
21E
100
AcDbEntity
  8
DEFAULT_1
  6
CENTER
 62
     7
100
AcDbLine
 10
50.00998748789999
 20
85.7265296153
 30
0.0
 11
46.8061903596
 21
85.7265296153
 31
0.0
  0
LINE
  5
14FA
330
21E
100
AcDbEntity
  8
0
  6
Continuous
 62
     7
100
AcDbLine
 10
50.00998748789999
 20
85.7265296153
 30
0.0
 11
50.1775903833
 21
85.7265296153
 31
0.0
  0
LINE
  5
14FB
330
21E
100
AcDbEntity
  8
DEFAULT_1
  6
CENTER
 62
     7
100
AcDbLine
 10
51.9831395909
 20
85.7265296153
 30
0.0
 11
53.7886887984
 21
85.7265296153
 31
0.0
  0
LINE
  5
14FC
330
21E
100
AcDbEntity
  8
DEFAULT_1
  6
CENTER
 62
     7
100
AcDbLine
 10
53.95629169390001
 20
85.7265296153
 30
0.0
 11
57.1600888221
 21
85.7265296153
 31
0.0
  0
LWPOLYLINE
  5
14FD
330
21E
100
AcDbEntity
  8
0
  6
Continuous
 62
     7
100
AcDbPolyline
 90
        6
 70
     0
 43
0.0
 10
49.80677838720001
 20
100.4096140964
 10
49.77954266560001
 20
100.5241706708
 10
49.7494159506
 20
100.6434980922
 10
49.7157937951
 20
100.7807670599
 10
49.677583441
 20
100.9516327933
 10
49.6349085602
 20
101.1598166225
  0
LINE
  5
14FE
330
21E
100
AcDbEntity
  8
0
  6
Continuous
 62
     7
100
AcDbLine
 10
49.8161498469
 20
100.3677583565
 30
0.0
 11
49.80677838720001
 21
100.4096140964
 31
0.0
  0
LINE
  5
14FF
330
21E
100
AcDbEntity
  8
0
  6
Continuous
 62
     7
100
AcDbLine
 10
49.8404178316
 20
100.2594034875
 30
0.0
 11
49.8161498469
 21
100.3677583565
 31
0.0
  0
LINE
  5
1500
330
21E
100
AcDbEntity
  8
0
  6
Continuous
 62
     7
100
AcDbLine
 10
49.8537390161
 20
100.1997479608
 30
0.0
 11
49.8404178316
 21
100.2594034875
 31
0.0
  0
LWPOLYLINE
  5
1501
330
21E
100
AcDbEntity
  8
0
  6
Continuous
 62
     7
100
AcDbPolyline
 90
        4
 70
     0
 43
0.0
 10
49.17944511289999
 20
100.3229783388
 10
49.12057658470001
 20
100.5948006458
 10
49.064991434
 20
100.8645847987
 10
49.0074039082
 20
101.1507008825
  0
LWPOLYLINE
  5
1502
330
21E
100
AcDbEntity
  8
0
  6
Continuous
 62
     7
100
AcDbPolyline
 90
       31
 70
     0
 43
0.0
 10
53.9831395909
 20
100.1898278366
 10
53.98254001229999
 20
100.1987743998
 10
53.9807429201
 20
100.2076964411
 10
53.9777532399
 20
100.2165695057
 10
53.97357916619999
 20
100.2253692733
 10
53.9682321399
 20
100.2340716243
 10
53.9617268167
 20
100.2426527062
 10
53.9540810275
 20
100.2510889987
 10
53.9453157286
 20
100.2593573787
 10
53.93545494520001
 20
100.267435183
 10
53.924525705
 20
100.275300271
 10
53.91255796430001
 20
100.282931085
 10
53.89958452590001
 20
100.2903067094
 10
53.885640949
 20
100.2974069283
 10
53.870765452
 20
100.3042122803
 10
53.85499880760001
 20
100.3107041125
 10
53.83838423109999
 20
100.3168646313
 10
53.82096726189999
 20
100.322676951
 10
53.8027956387
 20
100.3281251405
 10
53.7839191687
 20
100.3331942668
 10
53.7643895909
 20
100.3378704356
 10
53.7442604345
 20
100.3421408299
 10
53.7235868722
 20
100.345993745
 10
53.7024255688
 20
100.3494186201
 10
53.6808345259
 20
100.352406068
 10
53.6588729231
 20
100.3549479002
 10
53.6366009556
 20
100.3570371498
 10
53.6140796693
 20
100.3586680904
 10
53.5913707935
 20
100.3598362515
 10
53.5685365717
 20
100.3605384314
 10
53.5456395909
 20
100.3607727054
  0
LINE
  5
1503
330
21E
100
AcDbEntity
  8
0
  6
Continuous
 62
     7
100
AcDbLine
 10
53.9831395909
 20
100.1898278366
 30
0.0
 11
53.9831395909
 21
100.1679658464
 31
0.0
  0
LINE
  5
1504
330
21E
100
AcDbEntity
  8
DEFAULT_1
  6
CENTER
 62
     7
100
AcDbLine
 10
55.8581395909
 20
81.47652961529999
 30
0.0
 11
55.8581395909
 21
79.28486294869999
 31
0.0
  0
LINE
  5
1505
330
21E
100
AcDbEntity
  8
DEFAULT_1
  6
CENTER
 62
     7
100
AcDbLine
 10
55.8581395909
 20
81.47652961529999
 30
0.0
 11
55.8581395909
 21
83.668196282
 31
0.0
  0
LWPOLYLINE
  5
1506
330
21E
100
AcDbEntity
  8
0
  6
Continuous
 62
     7
100
AcDbPolyline
 90
       22
 70
     0
 43
0.0
 10
51.9831395909
 20
87.69617114589999
 10
52.1318368064
 20
87.6905537973
 10
52.2779179238
 20
87.67401177149999
 10
52.4224773441
 20
87.64662441
 10
52.5646225917
 20
87.6085547597
 10
52.70357278239999
 20
87.56000977840001
 10
52.8384946897
 20
87.50128434329999
 10
52.9686198083
 20
87.43272073059999
 10
53.093235665
 20
87.3547036431
 10
53.2116209003
 20
87.267697957
 10
53.32315928749999
 20
87.17216562370001
 10
53.42722421560001
 20
87.0686538098
 10
53.5232346764
 20
86.9577552073
 10
53.61070034439999
 20
86.84004793219999
 10
53.6891349917
 20
86.71619683950002
 10
53.7581242589
 20
86.5868601174
 10
53.8172899288
 20
86.45274753829999
 10
53.8663042803
 20
86.31460099759999
 10
53.9048759452
 20
86.1732630082
 10
53.9331749385
 20
86.02716058049999
 10
53.9504926124
 20
85.87743545729999
 10
53.95629169390001
 20
85.7265296153
  0
LINE
  5
1507
330
21E
100
AcDbEntity
  8
DEFAULT_1
  6
CENTER
 62
     7
100
AcDbLine
 10
51.9831395909
 20
89.9540296153
 30
0.0
 11
49.7914729242
 21
89.9540296153
 31
0.0
  0
LINE
  5
1508
330
21E
100
AcDbEntity
  8
DEFAULT_1
  6
CENTER
 62
     7
100
AcDbLine
 10
51.9831395909
 20
89.9540296153
 30
0.0
 11
54.1748062575
 21
89.9540296153
 31
0.0
  0
LWPOLYLINE
  5
1509
330
21E
100
AcDbEntity
  8
0
  6
Continuous
 62
     7
100
AcDbPolyline
 90
        8
 70
     0
 43
0.0
 10
51.9831395909
 20
96.1312139237
 10
49.3482718889
 20
96.11322284979999
 10
46.641247395
 20
96.0535829265
 10
43.9646690368
 20
95.950022323
 10
41.33280599259999
 20
95.80262597749999
 10
38.74486691139999
 20
95.61179785440002
 10
36.1990143978
 20
95.37803626290001
 10
33.6935769307
 20
95.101852847
  0
LWPOLYLINE
  5
150A
330
21E
100
AcDbEntity
  8
0
  6
Continuous
 62
     7
100
AcDbPolyline
 90
        8
 70
     0
 43
0.0
 10
51.9831395909
 20
96.1312139237
 10
54.6180072802
 20
96.11322284999999
 10
57.3250317614
 20
96.0535829273
 10
60.0016101074
 20
95.95002232479998
 10
62.63347314
 20
95.8026259807
 10
65.2214122099
 20
95.6117978594
 10
67.76726471249999
 20
95.37803627009999
 10
70.2727020844
 20
95.1018528668
  0
LWPOLYLINE
  5
150B
330
21E
100
AcDbEntity
  8
0
  6
Continuous
 62
     7
100
AcDbPolyline
 90
       15
 70
     0
 43
0.0
 10
33.6935769051
 20
95.10185304910001
 10
33.6514186922
 20
95.095299432
 10
33.6071027581
 20
95.08496598509999
 10
33.5609454402
 20
95.0701040536
 10
33.5134930605
 20
95.0500010082
 10
33.4653193221
 20
95.02396581379999
 10
33.4171529638
 20
94.99142793690001
 10
33.3705815852
 20
94.95266427999998
 10
33.3266716005
 20
94.90809258430001
 10
33.2856018659
 20
94.85747069010001
 10
33.2483589301
 20
94.8016574761
 10
33.2158139669
 20
94.74207997459998
 10
33.1878736328
 20
94.67896467620001
 10
33.1647345349
 20
94.61331102469999
 10
33.1467899386
 20
94.54789935029999
  0
LWPOLYLINE
  5
150C
330
21E
100
AcDbEntity
  8
0
  6
Continuous
 62
     7
100
AcDbPolyline
 90
       34
 70
     0
 43
0.0
 10
51.9831395909
 20
99.69044315520001
 10
51.76565088979999
 20
99.69035973970001
 10
51.56415856569999
 20
99.69013825260001
 10
51.37743356649999
 20
99.68980476290001
 10
51.2043488002
 20
99.68938193879999
 10
51.0438697716
 20
99.68889143370001
 10
50.8950435703
 20
99.68835338459999
 10
50.75703079979999
 20
99.68778459299999
 10
50.6290774671
 20
99.68718396820001
 10
50.51056768
 20
99.68657888270001
 10
50.4017096046
 20
99.68605947230001
 10
50.3022310892
 20
99.68742739399999
 10
50.20397578509999
 20
99.69168060700001
 10
50.10669408790001
 20
99.69878259179999
 10
50.0124075733
 20
99.70859548059999
 10
49.921883457
 20
99.72097598000001
 10
49.8354144027
 20
99.73584238329999
 10
49.752914326
 20
99.75318812370002
 10
49.6751652212
 20
99.7728322865
 10
49.60292239600001
 20
99.7945596417
 10
49.5364385976
 20
99.81829523969999
 10
49.47483288439999
 20
99.8443829191
 10
49.41994640469999
 20
99.87208576469999
 10
49.37150428329999
 20
99.90162693270001
 10
49.3295884383
 20
99.9330293939
 10
49.294936803
 20
99.96588620879998
 10
49.268130163
 20
99.99964530860001
 10
49.24928151239999
 20
100.0335432166
 10
49.2368986754
 20
100.0702092821
 10
49.22729519479999
 20
100.1118929624
 10
49.2167532125
 20
100.1577531189
 10
49.2052976855
 20
100.2078641258
 10
49.1929028462
 20
100.2627406623
 10
49.1794467991
 20
100.3229783618
  0
LWPOLYLINE
  5
150D
330
21E
100
AcDbEntity
  8
0
  6
Continuous
 62
     7
100
AcDbPolyline
 90
       15
 70
     0
 43
0.0
 10
70.2727021236
 20
95.1018531399
 10
70.31486050499999
 20
95.09529949290001
 10
70.3591764443
 20
95.08496603919999
 10
70.4053337674
 20
95.07010410099999
 10
70.45278615179999
 20
95.0500010492
 10
70.500959912
 20
95.0239658375
 10
70.5491262487
 20
94.99142797299999
 10
70.5956976371
 20
94.9526643074
 10
70.6396076366
 20
94.9080925954
 10
70.680677375
 20
94.8574706924
 10
70.7179202867
 20
94.80165751159999
 10
70.7504652671
 20
94.742079985
 10
70.778405608
 20
94.6789646719
 10
70.80154469109999
 20
94.61331105440001
 10
70.81948928899999
 20
94.54789937860001
  0
LWPOLYLINE
  5
150E
330
21E
100
AcDbEntity
  8
0
  6
Continuous
 62
     7
100
AcDbPolyline
 90
       12
 70
     0
 43
0.0
 10
50.1391429259
 20
99.99984758430001
 10
50.1228190163
 20
100.0033773668
 10
50.0748569028
 20
100.0164720525
 10
50.03064865489999
 20
100.0314450599
 10
49.9906571558
 20
100.0481284393
 10
49.95530033699999
 20
100.0663502119
 10
49.92502255319999
 20
100.0858851476
 10
49.9000262762
 20
100.1066063988
 10
49.8809286503
 20
100.127886381
 10
49.8677034051
 20
100.1497145397
 10
49.85954095109999
 20
100.173441246
 10
49.8537390161
 20
100.1997479608
  0
LWPOLYLINE
  5
150F
330
21E
100
AcDbEntity
  8
0
  6
Continuous
 62
     7
100
AcDbPolyline
 90
       27
 70
     0
 43
0.0
 10
50.6706395909
 20
100.1861296727
 10
50.657954876
 20
100.18597676
 10
50.645329446
 20
100.1855190529
 10
50.6328248254
 20
100.184759832
 10
50.6205020759
 20
100.1837047187
 10
50.60842020609999
 20
100.1823615642
 10
50.5966362992
 20
100.1807404097
 10
50.5852105654
 20
100.1788544045
 10
50.5741998227
 20
100.1767192648
 10
50.56365895949999
 20
100.1743536312
 10
50.5536332597
 20
100.1717772973
 10
50.5441766697
 20
100.1690159759
 10
50.5353356614
 20
100.1660982048
 10
50.52715119270001
 20
100.1630559841
 10
50.5196504155
 20
100.1599215161
 10
50.5128661383
 20
100.1567353018
 10
50.5068201939
 20
100.1535407632
 10
50.50152058720001
 20
100.1503822983
 10
50.4969590512
 20
100.1473022621
 10
50.4931305666
 20
100.1443539708
 10
50.4900054583
 20
100.1415826035
 10
50.4875430138
 20
100.139031456
 10
50.4856995529
 20
100.1367505449
 10
50.4844037014
 20
100.1347629073
 10
50.4835994579
 20
100.1331189494
 10
50.48322642329999
 20
100.1319238754
 10
50.4831395909
 20
100.1311456522
  0
LWPOLYLINE
  5
1510
330
21E
100
AcDbEntity
  8
0
  6
Continuous
 62
     7
100
AcDbPolyline
 90
       31
 70
     0
 43
0.0
 10
53.5456395909
 20
99.95437215670001
 10
53.5680877358
 20
99.9546216771
 10
53.5904824278
 20
99.95537014280001
 10
53.6127772197
 20
99.956617743
 10
53.6349224951
 20
99.9583648555
 10
53.65686597729999
 20
99.9606117949
 10
53.6785681538
 20
99.9633607075
 10
53.69998695899999
 20
99.9666147701
 10
53.7210683244
 20
99.9703762995
 10
53.7417745893
 20
99.9746516343
 10
53.7620744762
 20
99.9794513556
 10
53.7819327489
 20
99.98478907639999
 10
53.8012882191
 20
99.990674739
 10
53.8201161914
 20
99.99713345209999
 10
53.838377877
 20
100.0041938756
 10
53.85601642000001
 20
100.0118859451
 10
53.8729215409
 20
100.020220529
 10
53.88897716609999
 20
100.0292022787
 10
53.9040299604
 20
100.0388037591
 10
53.91788667250001
 20
100.0489395825
 10
53.93032713170001
 20
100.0594370226
 10
53.9412491962
 20
100.0701314457
 10
53.9507146691
 20
100.0809618099
 10
53.9587234593
 20
100.0917635362
 10
53.96545192489999
 20
100.1025911557
 10
53.970982612
 20
100.1134077715
 10
53.9754191585
 20
100.1242542458
 10
53.9788135388
 20
100.1351094782
 10
53.9812240376
 20
100.1460375232
 10
53.9826590379
 20
100.1569632097
 10
53.9831395909
 20
100.1679658464
  0
LWPOLYLINE
  5
1511
330
21E
100
AcDbEntity
  8
0
  6
Continuous
 62
     7
100
AcDbPolyline
 90
       12
 70
     0
 43
0.0
 10
51.9831395909
 20
102.0625440768
 10
49.2349003914
 20
102.0398196636
 10
46.5741510922
 20
101.9742525148
 10
43.919146078
 20
101.865699094
 10
41.27029423239999
 20
101.7140380867
 10
38.6282218677
 20
101.5191640129
 10
35.99388906050001
 20
101.2810146462
 10
33.36777484570001
 20
100.9994742734
 10
30.7572120189
 20
100.675298927
 10
28.0859104438
 20
100.2971687462
 10
25.3551223367
 20
99.86133157719999
 10
22.6045408043
 20
99.37114482129999
  0
LINE
  5
1512
330
21E
100
AcDbEntity
  8
0
  6
Continuous
 62
     7
100
AcDbLine
 10
53.5456395909
 20
99.95437215670001
 30
0.0
 11
50.4206395909
 21
99.95437215670001
 31
0.0
  0
LINE
  5
1513
330
21E
100
AcDbEntity
  8
0
  6
Continuous
 62
     7
100
AcDbLine
 10
53.5456395909
 20
99.95993681690002
 30
0.0
 11
50.4206395909
 21
99.95993681690002
 31
0.0
  0
LINE
  5
1514
330
21E
100
AcDbEntity
  8
0
  6
Continuous
 62
     7
100
AcDbLine
 10
53.2956395909
 20
100.0578835656
 30
0.0
 11
50.6706395909
 21
100.0578835656
 31
0.0
  0
LINE
  5
1515
330
21E
100
AcDbEntity
  8
0
  6
Continuous
 62
     7
100
AcDbLine
 10
50.6706395909
 20
100.1861296727
 30
0.0
 11
53.2956395909
 21
100.1861296727
 31
0.0
  0
LINE
  5
1516
330
21E
100
AcDbEntity
  8
0
  6
Continuous
 62
     7
100
AcDbLine
 10
50.6706395909
 20
100.1885145271
 30
0.0
 11
53.2956395909
 21
100.1885145271
 31
0.0
  0
LINE
  5
1517
330
21E
100
AcDbEntity
  8
0
  6
Continuous
 62
     7
100
AcDbLine
 10
50.4206395909
 20
100.2471241963
 30
0.0
 11
53.5456395909
 21
100.2471241963
 31
0.0
  0
LINE
  5
1518
330
21E
100
AcDbEntity
  8
0
  6
Continuous
 62
     7
100
AcDbLine
 10
50.4206395909
 20
100.3607727054
 30
0.0
 11
53.5456395909
 21
100.3607727054
 31
0.0
  0
LWPOLYLINE
  5
1519
330
21E
100
AcDbEntity
  8
0
  6
Continuous
 62
     7
100
AcDbPolyline
 90
       57
 70
     0
 43
0.0
 10
50.4206395909
 20
99.95993681690002
 10
50.40004462199999
 20
99.96016247680001
 10
50.37950216239999
 20
99.960839285
 10
50.3590908933
 20
99.9619649963
 10
50.3388722251
 20
99.96353620100002
 10
50.3189112043
 20
99.9655478676
 10
50.299270147
 20
99.96799370760001
 10
50.280011017
 20
99.97086600770002
 10
50.2611943612
 20
99.9741557371
 10
50.2428794017
 20
99.9778525421
 10
50.22512376169999
 20
99.98194479170001
 10
50.2079833104
 20
99.9864196094
 10
50.1915119797
 20
99.99126291530002
 10
50.17576159659999
 20
99.99645947000001
 10
50.1607817195
 20
100.0019929225
 10
50.1466194824
 20
100.0078458619
 10
50.13331944659999
 20
100.0139998721
 10
50.12092346060001
 20
100.0204355894
 10
50.1094705282
 20
100.027132764
 10
50.0989966858
 20
100.0340703232
 10
50.08953488939999
 20
100.0412264382
 10
50.0811149104
 20
100.0485785922
 10
50.0737632421
 20
100.0561036519
 10
50.0675030166
 20
100.0637779397
 10
50.0623539314
 20
100.0715773084
 10
50.0583321883
 20
100.0794772176
 10
50.0554504414
 20
100.0874528102
 10
50.0537177584
 20
100.0954789911
 10
50.0531395909
 20
100.103530506
 10
50.05371775819999
 20
100.1115820209
 10
50.0554504411
 20
100.1196082018
 10
50.0583321877
 20
100.1275837944
 10
50.06235393069999
 20
100.1354837036
 10
50.0675030157
 20
100.1432830724
 10
50.07376324109999
 20
100.1509573602
 10
50.08111490920001
 20
100.1584824199
 10
50.089534888
 20
100.1658345739
 10
50.09899668430001
 20
100.1729906889
 10
50.10947052649999
 20
100.1799282482
 10
50.1209234588
 20
100.1866254228
 10
50.13331944459999
 20
100.1930611402
 10
50.14661948029999
 20
100.1992151504
 10
50.1607817172
 20
100.2050680899
 10
50.17576159419999
 20
100.2106015424
 10
50.1915119772
 20
100.2157980972
 10
50.2079833077
 20
100.2206414031
 10
50.2251237589
 20
100.2251162209
 10
50.2428793989
 20
100.2292084705
 10
50.2611943584
 20
100.2329052757
 10
50.2800110141
 20
100.2361950051
 10
50.29927014390001
 20
100.2390673052
 10
50.3189112013
 20
100.2415131453
 10
50.3388722218
 20
100.243524812
 10
50.3590908905
 20
100.2450960167
 10
50.3795021591
 20
100.2462217281
 10
50.4000446176
 20
100.2468985364
 10
50.4206395909
 20
100.2471241963
  0
LWPOLYLINE
  5
151A
330
21E
100
AcDbEntity
  8
0
  6
Continuous
 62
     7
100
AcDbPolyline
 90
       57
 70
     0
 43
0.0
 10
53.5456395909
 20
100.2471241963
 10
53.5662345641
 20
100.2468985364
 10
53.5867770226
 20
100.2462217281
 10
53.60718829119999
 20
100.2450960167
 10
53.6274069599
 20
100.243524812
 10
53.6473679804
 20
100.2415131453
 10
53.66700903779999
 20
100.2390673052
 10
53.6862681676
 20
100.2361950051
 10
53.7050848234
 20
100.2329052757
 10
53.7233997829
 20
100.2292084705
 10
53.7411554228
 20
100.2251162209
 10
53.758295874
 20
100.2206414031
 10
53.7747672045
 20
100.2157980972
 10
53.7905175875
 20
100.2106015424
 10
53.8054974645
 20
100.2050680899
 10
53.81965970140001
 20
100.1992151504
 10
53.8329597371
 20
100.1930611402
 10
53.845355723
 20
100.1866254228
 10
53.8568086553
 20
100.1799282482
 10
53.86728249739999
 20
100.1729906889
 10
53.8767442937
 20
100.1658345739
 10
53.88516427249999
 20
100.1584824199
 10
53.8925159406
 20
100.1509573602
 10
53.898776166
 20
100.1432830724
 10
53.90392525100001
 20
100.1354837036
 10
53.907946994
 20
100.1275837944
 10
53.9108287406
 20
100.1196082018
 10
53.91256142359999
 20
100.1115820209
 10
53.9131395909
 20
100.103530506
 10
53.9125614234
 20
100.0954789911
 10
53.9108287403
 20
100.0874528102
 10
53.9079469935
 20
100.0794772176
 10
53.9039252503
 20
100.0715773084
 10
53.8987761652
 20
100.0637779397
 10
53.8925159396
 20
100.0561036519
 10
53.88516427129999
 20
100.0485785922
 10
53.87674429229999
 20
100.0412264382
 10
53.86728249589999
 20
100.0340703232
 10
53.8568086536
 20
100.027132764
 10
53.84535572109999
 20
100.0204355894
 10
53.8329597351
 20
100.0139998721
 10
53.8196596993
 20
100.0078458619
 10
53.8054974622
 20
100.0019929225
 10
53.79051758510001
 20
99.99645947000001
 10
53.774767202
 20
99.99126291530002
 10
53.7582958714
 20
99.9864196094
 10
53.7411554201
 20
99.98194479170001
 10
53.7233997801
 20
99.9778525421
 10
53.7050848205
 20
99.9741557371
 10
53.6862681647
 20
99.97086600770002
 10
53.6670090347
 20
99.96799370760001
 10
53.6473679774
 20
99.9655478676
 10
53.6274069566
 20
99.96353620100002
 10
53.6071882884
 20
99.9619649963
 10
53.5867770193
 20
99.960839285
 10
53.56623455979999
 20
99.96016247680001
 10
53.5456395909
 20
99.95993681690002
  0
LWPOLYLINE
  5
151B
330
21E
100
AcDbEntity
  8
0
  6
Continuous
 62
     7
100
AcDbPolyline
 90
       31
 70
     0
 43
0.0
 10
50.4206395909
 20
99.95437215670001
 10
50.3981914459
 20
99.9546216771
 10
50.37579675399999
 20
99.95537014280001
 10
50.3535019621
 20
99.956617743
 10
50.33135668659999
 20
99.9583648555
 10
50.3094132044
 20
99.9606117949
 10
50.287711028
 20
99.9633607075
 10
50.2662922227
 20
99.9666147701
 10
50.2452108573
 20
99.9703762995
 10
50.22450459249999
 20
99.9746516343
 10
50.20420470560001
 20
99.9794513556
 10
50.18434643279999
 20
99.98478907639999
 10
50.1649909626
 20
99.990674739
 10
50.1461629903
 20
99.99713345209999
 10
50.1279013047
 20
100.0041938756
 10
50.11026276169999
 20
100.0118859451
 10
50.0933576409
 20
100.020220529
 10
50.07730201560001
 20
100.0292022787
 10
50.0622492214
 20
100.0388037591
 10
50.04839250919999
 20
100.0489395825
 10
50.03595204999999
 20
100.0594370226
 10
50.0250299855
 20
100.0701314457
 10
50.0155645127
 20
100.0809618099
 10
50.0075557224
 20
100.0917635362
 10
50.0008272568
 20
100.1025911557
 10
49.9952965697
 20
100.1134077715
 10
49.9908600233
 20
100.1242542458
 10
49.9874656429
 20
100.1351094782
 10
49.98505514409999
 20
100.1460375232
 10
49.9836201438
 20
100.1569632097
 10
49.9831395909
 20
100.1679658464
  0
LWPOLYLINE
  5
151C
330
21E
100
AcDbEntity
  8
0
  6
Continuous
 62
     7
100
AcDbPolyline
 90
       27
 70
     0
 43
0.0
 10
53.2956395909
 20
100.1861296727
 10
53.3083243058
 20
100.18597676
 10
53.3209497357
 20
100.1855190529
 10
53.3334543563
 20
100.184759832
 10
53.34577710579999
 20
100.1837047187
 10
53.3578589756
 20
100.1823615642
 10
53.3696428825
 20
100.1807404097
 10
53.3810686163
 20
100.1788544045
 10
53.3920793591
 20
100.1767192648
 10
53.4026202223
 20
100.1743536312
 10
53.41264592209999
 20
100.1717772973
 10
53.4221025121
 20
100.1690159759
 10
53.4309435203
 20
100.1660982048
 10
53.43912798899999
 20
100.1630559841
 10
53.4466287663
 20
100.1599215161
 10
53.4534130435
 20
100.1567353018
 10
53.4594589878
 20
100.1535407632
 10
53.46475859449999
 20
100.1503822983
 10
53.4693201305
 20
100.1473022621
 10
53.47314861520001
 20
100.1443539708
 10
53.47627372339999
 20
100.1415826035
 10
53.47873616800001
 20
100.139031456
 10
53.4805796289
 20
100.1367505449
 10
53.4818754803
 20
100.1347629073
 10
53.48267972390001
 20
100.1331189494
 10
53.4830527584
 20
100.1319238754
 10
53.4831395909
 20
100.1311456522
  0
LWPOLYLINE
  5
151D
330
21E
100
AcDbEntity
  8
0
  6
Continuous
 62
     7
100
AcDbPolyline
 90
       25
 70
     0
 43
0.0
 10
50.6706395909
 20
100.0578835656
 10
50.65837650369999
 20
100.0580404254
 10
50.646165929
 20
100.058510333
 10
50.6340601542
 20
100.0592912762
 10
50.6221110182
 20
100.0603799109
 10
50.6103696897
 20
100.0617715753
 10
50.59888644629999
 20
100.0634603101
 10
50.5877104605
 20
100.065438884
 10
50.5768895899
 20
100.0676988243
 10
50.5664701713
 20
100.0702304537
 10
50.5564968222
 20
100.0730229313
 10
50.5470122499
 20
100.0760642994
 10
50.5380570688
 20
100.0793415342
 10
50.5296696265
 20
100.0828406022
 10
50.5218858392
 20
100.0865465199
 10
50.51473903819999
 20
100.0904434179
 10
50.5082598274
 20
100.0945146091
 10
50.5024759516
 20
100.0987426601
 10
50.49741217840001
 20
100.1031094656
 10
50.49309019149999
 20
100.1075963264
 10
50.4895284984
 20
100.112184029
 10
50.4867423507
 20
100.1168529282
 10
50.4847436793
 20
100.1215830311
 10
50.4835410428
 20
100.1263540825
 10
50.4831395909
 20
100.1311456522
  0
LWPOLYLINE
  5
151E
330
21E
100
AcDbEntity
  8
0
  6
Continuous
 62
     7
100
AcDbPolyline
 90
        8
 70
     0
 43
0.0
 10
71.8378409546
 20
85.7265296153
 10
71.8179320973
 20
84.4585540921
 10
71.7551659881
 20
83.15292233159999
 10
71.6501564686
 20
81.8660827525
 10
71.5036457777
 20
80.59936565820001
 10
71.31597026
 20
79.3502186986
 10
71.087674201
 20
78.1184839376
 10
70.8194891645
 20
76.9051599018
  0
LWPOLYLINE
  5
151F
330
21E
100
AcDbEntity
  8
0
  6
Continuous
 62
     7
100
AcDbPolyline
 90
       15
 70
     0
 43
0.0
 10
70.81948923529999
 20
76.9051598835
 10
70.80152713629999
 20
76.83969202250001
 10
70.77836874049999
 20
76.77400164560001
 10
70.75053304569999
 20
76.71111706899999
 10
70.71809732689999
 20
76.65169511270001
 10
70.6808356494
 20
76.5958037431
 10
70.6398471798
 20
76.54523471720001
 10
70.595891853
 20
76.50057372270001
 10
70.5492166221
 20
76.46169916409999
 10
70.5010560395
 20
76.42915158
 10
70.452848428
 20
76.4030880743
 10
70.4053696557
 20
76.3829684637
 10
70.35920704199999
 20
76.3681016575
 10
70.3148760896
 20
76.3577627761
 10
70.27270232620001
 20
76.35120616319999
  0
LWPOLYLINE
  5
1520
330
21E
100
AcDbEntity
  8
0
  6
Continuous
 62
     7
100
AcDbPolyline
 90
       13
 70
     0
 43
0.0
 10
51.9831270088
 20
102.7265296153
 10
49.4887013052
 20
102.7070803814
 10
46.99519466319999
 20
102.6487566545
 10
44.5028007991
 20
102.5515716991
 10
42.01100745139999
 20
102.4154665796
 10
39.5193191842
 20
102.2403290201
 10
37.0281986284
 20
102.0260872945
 10
34.5389880477
 20
101.7727702979
 10
32.05303380130001
 20
101.4804383603
 10
29.5702884807
 20
101.1490048065
 10
27.0894935223
 20
100.7781696573
 10
24.6101481347
 20
100.367663664
 10
22.131797974
 20
99.9171731522
  0
LWPOLYLINE
  5
1521
330
21E
100
AcDbEntity
  8
0
  6
Continuous
 62
     7
100
AcDbPolyline
 90
       12
 70
     0
 43
0.0
 10
81.3617383018
 20
99.37114473000001
 10
78.7122884397
 20
99.84422357870002
 10
76.12628955609999
 20
100.2599727982
 10
73.5256591041
 20
100.6329504684
 10
70.91216779199999
 20
100.9628715981
 10
68.2880693829
 20
101.2495135493
 10
65.6551834256
 20
101.4928232975
 10
63.0133028996
 20
101.6929436289
 10
60.3679384556
 20
101.849645069
 10
57.6409180625
 20
101.9659161665
 10
54.8327270482
 20
102.0381099583
 10
51.9831395909
 20
102.0625440768
  0
LWPOLYLINE
  5
1522
330
21E
100
AcDbEntity
  8
0
  6
Continuous
 62
     7
100
AcDbPolyline
 90
       17
 70
     0
 43
0.0
 10
22.6045408043
 20
99.37114482129999
 10
22.4756012936
 20
99.34161837899999
 10
22.3580658639
 20
99.3046828231
 10
22.2493146028
 20
99.26079267540002
 10
22.1509440507
 20
99.21170943920001
 10
22.0638178996
 20
99.15937138190001
 10
21.9882756511
 20
99.10581968409999
 10
21.9242018331
 20
99.0530888798
 10
21.8704195785
 20
99.0024103064
 10
21.8247952907
 20
98.95369729020002
 10
21.7849196589
 20
98.9057270688
 10
21.7487573645
 20
98.85669522069999
 10
21.7152351797
 20
98.80513322330001
 10
21.6846640279
 20
98.7512078532
 10
21.6572968907
 20
98.69505630200002
 10
21.6319095067
 20
98.63291575499999
 10
21.6081531489
 20
98.5598351488
  0
LWPOLYLINE
  5
1523
330
21E
100
AcDbEntity
  8
0
  6
Continuous
 62
     7
100
AcDbPolyline
 90
       16
 70
     0
 43
0.0
 10
22.131797974
 20
99.9171731522
 10
21.996443998
 20
99.88639059669999
 10
21.8657929252
 20
99.8465762568
 10
21.7404005228
 20
99.7982044693
 10
21.6203476348
 20
99.7415499805
 10
21.5062559353
 20
99.67710312440001
 10
21.3989498431
 20
99.60559632250001
 10
21.2989104033
 20
99.52770068040001
 10
21.2059686875
 20
99.4435800838
 10
21.1204208343
 20
99.35370736260001
 10
21.0427277551
 20
99.2588153045
 10
20.973182613
 20
99.1596016071
 10
20.9115767976
 20
99.0560298491
 10
20.858044115
 20
98.9484081672
 10
20.8129121299
 20
98.83749775690001
 10
20.7763963495
 20
98.7241093507
  0
LWPOLYLINE
  5
1524
330
21E
100
AcDbEntity
  8
0
  6
Continuous
 62
     7
100
AcDbPolyline
 90
       13
 70
     0
 43
0.0
 10
81.8344814611
 20
99.91717310889999
 10
79.35612930100001
 20
100.3676639672
 10
76.8767814733
 20
100.7781703166
 10
74.3959837105
 20
101.1490057955
 10
71.91323591479999
 20
101.4804395485
 10
69.42728010180001
 20
101.7727715079
 10
66.9380679188
 20
102.0260884805
 10
64.4469455697
 20
102.2403301475
 10
61.95525517390001
 20
102.4154676136
 10
59.4634592935
 20
102.5515725925
 10
56.9710630394
 20
102.6487573244
 10
54.4775543183
 20
102.7070807488
 10
51.9831270088
 20
102.7265296153
  0
LWPOLYLINE
  5
1525
330
21E
100
AcDbEntity
  8
0
  6
Continuous
 62
     7
100
AcDbPolyline
 90
        8
 70
     0
 43
0.0
 10
70.8194891675
 20
94.54789934709998
 10
71.0865272299
 20
93.34021956959999
 10
71.3140454343
 20
92.1143043546
 10
71.50132497209999
 20
90.8711235894
 10
71.6478204114
 20
89.61059615889999
 10
71.7532116842
 20
88.33012027629999
 10
71.81676354709999
 20
87.0310553208
 10
71.8378409541
 20
85.7265296153
  0
LWPOLYLINE
  5
1526
330
21E
100
AcDbEntity
  8
0
  6
Continuous
 62
     7
100
AcDbPolyline
 90
        9
 70
     0
 43
0.0
 10
84.12965809760001
 20
85.7265296153
 10
84.10150948749999
 20
87.36201471299999
 10
84.0204849442
 20
88.9452182023
 10
83.88651076530001
 20
90.5255872286
 10
83.6995008368
 20
92.10202801870002
 10
83.4600311768
 20
93.6692294961
 10
83.1583465874
 20
95.27494408959999
 10
82.7902102236
 20
96.91450005430001
 10
82.35812606160001
 20
98.5598351361
  0
LWPOLYLINE
  5
1527
330
21E
100
AcDbEntity
  8
0
  6
Continuous
 62
     7
100
AcDbPolyline
 90
       10
 70
     0
 43
0.0
 10
84.98313959089999
 20
85.7265296153
 10
84.96091460470001
 20
87.18714623530001
 10
84.8942198497
 20
88.64692764229999
 10
84.78312414959999
 20
90.1039070967
 10
84.62769784709999
 20
91.55714839700001
 10
84.42798345539999
 20
93.00574960670001
 10
84.1841989359
 20
94.44775635959999
 10
83.8964737588
 20
95.8822724944
 10
83.56491233040001
 20
97.3083635276
 10
83.18988271010001
 20
98.72410981620001
  0
LWPOLYLINE
  5
1528
330
21E
100
AcDbEntity
  8
0
  6
Continuous
 62
     7
100
AcDbPolyline
 90
        9
 70
     0
 43
0.0
 10
82.3581260313
 20
72.8932240795
 10
82.7748310101
 20
74.47555305439999
 10
83.1260572386
 20
76.02260005329999
 10
83.4251579582
 20
77.58138169510001
 10
83.6717441791
 20
79.1497019841
 10
83.8652029158
 20
80.72230578660001
 10
84.00936961259999
 20
82.3482342325
 10
84.0991925149
 20
84.0251060325
 10
84.12965809760001
 20
85.7265296153
  0
LWPOLYLINE
  5
1529
330
21E
100
AcDbEntity
  8
0
  6
Continuous
 62
     7
100
AcDbPolyline
 90
       10
 70
     0
 43
0.0
 10
83.18988286019999
 20
72.72894998649999
 10
83.5649123099
 20
74.1446956206
 10
83.89647374309999
 20
75.5707866636
 10
84.1841989243
 20
77.0053028085
 10
84.42798344729999
 20
78.4473095715
 10
84.627697842
 20
79.8959107916
 10
84.7831241467
 20
81.34915210229999
 10
84.89421984839999
 20
82.80613156719999
 10
84.96091460429999
 20
84.26591298479999
 10
84.98313959089999
 20
85.7265296153
  0
LWPOLYLINE
  5
152A
330
21E
100
AcDbEntity
  8
0
  6
Continuous
 62
     7
100
AcDbPolyline
 90
       16
 70
     0
 43
0.0
 10
83.18988271010001
 20
98.72410981620001
 10
83.1533671056
 20
98.83749770260001
 10
83.10823512330001
 20
98.9484081248
 10
83.054702442
 20
99.05602981770002
 10
82.99309662649999
 20
99.15960158570001
 10
82.92355148289999
 20
99.2588152925
 10
82.8458584004
 20
99.35370735940001
 10
82.7603105426
 20
99.4435800884
 10
82.6673688208
 20
99.52770069180001
 10
82.56732937349999
 20
99.60559633969999
 10
82.46002327200001
 20
99.67710314640001
 10
82.34593156169999
 20
99.74155000599999
 10
82.2258786617
 20
99.7982044968
 10
82.10048624609999
 20
99.84657628469999
 10
81.96983515819999
 20
99.88639062350001
 10
81.8344814611
 20
99.91717310889999
  0
LWPOLYLINE
  5
152B
330
21E
100
AcDbEntity
  8
0
  6
Continuous
 62
     7
100
AcDbPolyline
 90
       16
 70
     0
 43
0.0
 10
82.35812606160001
 20
98.5598351361
 10
82.33837661869999
 20
98.6218572447
 10
82.3149648839
 20
98.68145729450001
 10
82.28767795279999
 20
98.7395138159
 10
82.2569943028
 20
98.795222866
 10
82.22323570250001
 20
98.848369264
 10
82.18551287569999
 20
98.9003888457
 10
82.14137013890001
 20
98.9538263626
 10
82.08774597939999
 20
99.0104862257
 10
82.021967978
 20
99.07045435429999
 10
81.9423782924
 20
99.13212450350002
 10
81.84913377239999
 20
99.19248512200001
 10
81.74327175010001
 20
99.24860379540001
 10
81.6262112403
 20
99.29810128870002
 10
81.4988176161
 20
99.33938220649999
 10
81.3617383018
 20
99.37114473000001
  0
CIRCLE
  5
154D
330
21E
100
AcDbEntity
  8
DEFAULT_2
  6
HIDDEN
 62
     7
100
AcDbCircle
 10
51.9831395909
 20
89.9540296153
 30
0.0
 40
1.125
  0
CIRCLE
  5
154E
330
21E
100
AcDbEntity
  8
DEFAULT_2
  6
HIDDEN
 62
     7
100
AcDbCircle
 10
55.8581395909
 20
81.47652961529999
 30
0.0
 40
1.125
  0
CIRCLE
  5
1550
330
21E
100
AcDbEntity
  8
DEFAULT_2
  6
HIDDEN
 62
     7
100
AcDbCircle
 10
51.9831395909
 20
89.9540296153
 30
0.0
 40
0.9849999999999999
  0
CIRCLE
  5
1551
330
21E
100
AcDbEntity
  8
DEFAULT_2
  6
HIDDEN
 62
     7
100
AcDbCircle
 10
55.8581395909
 20
81.47652961529999
 30
0.0
 40
0.9375
  0
CIRCLE
  5
1564
330
21E
100
AcDbEntity
  8
0
  6
Continuous
 62
     7
100
AcDbCircle
 10
51.9831395909
 20
85.7265296153
 30
0.0
 40
1.448223304699999
  0
ENDSEC
  0
SECTION
  2
OBJECTS
  0
DICTIONARY
  5
C
330
0
100
AcDbDictionary
281
     1
  3
ACAD_COLOR
350
1599
  3
ACAD_GROUP
350
D
  3
ACAD_LAYOUT
350
1A
  3
ACAD_MATERIAL
350
156C
  3
ACAD_MLEADERSTYLE
350
15BE
  3
ACAD_MLINESTYLE
350
17
  3
ACAD_PLOTSETTINGS
350
19
  3
ACAD_PLOTSTYLENAME
350
E
  3
ACAD_SCALELIST
350
159C
  3
ACAD_TABLESTYLE
350
159A
  3
ACAD_VISUALSTYLE
350
1585
  3
ACDB_RECOMPOSE_DATA
350
15C4
  3
AcDbVariableDictionary
350
15F6
  0
DICTIONARY
  5
15C5
330
8
100
AcDbDictionary
280
     1
281
     1
  0
DICTIONARY
  5
1605
330
10
100
AcDbDictionary
280
     1
281
     1
  3
ADSK_XREC_LAYER_RECONCILED
360
1606
  0
DICTIONARY
  5
1607
330
1FA
100
AcDbDictionary
280
     1
281
     1
  3
ADSK_XREC_LAYER_RECONCILED
360
1608
  0
DICTIONARY
  5
1609
330
1FB
100
AcDbDictionary
280
     1
281
     1
  3
ADSK_XREC_LAYER_RECONCILED
360
160A
  0
DICTIONARY
  5
160B
330
1FC
100
AcDbDictionary
280
     1
281
     1
  3
ADSK_XREC_LAYER_RECONCILED
360
160C
  0
DICTIONARY
  5
160D
330
1FD
100
AcDbDictionary
280
     1
281
     1
  3
ADSK_XREC_LAYER_RECONCILED
360
160E
  0
DICTIONARY
  5
160F
330
1FE
100
AcDbDictionary
280
     1
281
     1
  3
ADSK_XREC_LAYER_RECONCILED
360
1610
  0
DICTIONARY
  5
1611
330
1FF
100
AcDbDictionary
280
     1
281
     1
  3
ADSK_XREC_LAYER_RECONCILED
360
1612
  0
DICTIONARY
  5
1613
330
200
100
AcDbDictionary
280
     1
281
     1
  3
ADSK_XREC_LAYER_RECONCILED
360
1614
  0
DICTIONARY
  5
1615
330
201
100
AcDbDictionary
280
     1
281
     1
  3
ADSK_XREC_LAYER_RECONCILED
360
1616
  0
DICTIONARY
  5
1617
330
202
100
AcDbDictionary
280
     1
281
     1
  3
ADSK_XREC_LAYER_RECONCILED
360
1618
  0
DICTIONARY
  5
1619
330
203
100
AcDbDictionary
280
     1
281
     1
  3
ADSK_XREC_LAYER_RECONCILED
360
161A
  0
DICTIONARY
  5
161B
330
204
100
AcDbDictionary
280
     1
281
     1
  3
ADSK_XREC_LAYER_RECONCILED
360
161C
  0
DICTIONARY
  5
161D
330
205
100
AcDbDictionary
280
     1
281
     1
  3
ADSK_XREC_LAYER_RECONCILED
360
161E
  0
DICTIONARY
  5
161F
330
206
100
AcDbDictionary
280
     1
281
     1
  3
ADSK_XREC_LAYER_RECONCILED
360
1620
  0
DICTIONARY
  5
1621
330
207
100
AcDbDictionary
280
     1
281
     1
  3
ADSK_XREC_LAYER_RECONCILED
360
1622
  0
DICTIONARY
  5
1623
330
208
100
AcDbDictionary
280
     1
281
     1
  3
ADSK_XREC_LAYER_RECONCILED
360
1624
  0
DICTIONARY
  5
1625
330
209
100
AcDbDictionary
280
     1
281
     1
  3
ADSK_XREC_LAYER_RECONCILED
360
1626
  0
DICTIONARY
  5
1627
330
20A
100
AcDbDictionary
280
     1
281
     1
  3
ADSK_XREC_LAYER_RECONCILED
360
1628
  0
DICTIONARY
  5
1629
330
20B
100
AcDbDictionary
280
     1
281
     1
  3
ADSK_XREC_LAYER_RECONCILED
360
162A
  0
DICTIONARY
  5
162B
330
20C
100
AcDbDictionary
280
     1
281
     1
  3
ADSK_XREC_LAYER_RECONCILED
360
162C
  0
DICTIONARY
  5
162D
330
20D
100
AcDbDictionary
280
     1
281
     1
  3
ADSK_XREC_LAYER_RECONCILED
360
162E
  0
DICTIONARY
  5
162F
330
20E
100
AcDbDictionary
280
     1
281
     1
  3
ADSK_XREC_LAYER_RECONCILED
360
1630
  0
DICTIONARY
  5
1631
330
20F
100
AcDbDictionary
280
     1
281
     1
  3
ADSK_XREC_LAYER_RECONCILED
360
1632
  0
DICTIONARY
  5
1633
330
210
100
AcDbDictionary
280
     1
281
     1
  3
ADSK_XREC_LAYER_RECONCILED
360
1634
  0
DICTIONARY
  5
1635
330
211
100
AcDbDictionary
280
     1
281
     1
  3
ADSK_XREC_LAYER_RECONCILED
360
1636
  0
DICTIONARY
  5
1637
330
212
100
AcDbDictionary
280
     1
281
     1
  3
ADSK_XREC_LAYER_RECONCILED
360
1638
  0
DICTIONARY
  5
1639
330
213
100
AcDbDictionary
280
     1
281
     1
  3
ADSK_XREC_LAYER_RECONCILED
360
163A
  0
DICTIONARY
  5
163B
330
214
100
AcDbDictionary
280
     1
281
     1
  3
ADSK_XREC_LAYER_RECONCILED
360
163C
  0
DICTIONARY
  5
163D
330
215
100
AcDbDictionary
280
     1
281
     1
  3
ADSK_XREC_LAYER_RECONCILED
360
163E
  0
DICTIONARY
  5
1599
102
{ACAD_REACTORS
330
C
102
}
330
C
100
AcDbDictionary
281
     1
  0
DICTIONARY
  5
D
102
{ACAD_REACTORS
330
C
102
}
330
C
100
AcDbDictionary
281
     1
  0
DICTIONARY
  5
1A
102
{ACAD_REACTORS
330
C
102
}
330
C
100
AcDbDictionary
281
     1
  3
Layout1
350
1568
  3
Model
350
1567
  0
DICTIONARY
  5
156C
102
{ACAD_REACTORS
330
C
102
}
330
C
100
AcDbDictionary
281
     1
  3
ByBlock
350
1575
  3
ByLayer
350
156D
  3
Global
350
157D
  0
DICTIONARY
  5
15BE
102
{ACAD_REACTORS
330
C
102
}
330
C
100
AcDbDictionary
281
     1
  3
Standard
350
15BF
  0
DICTIONARY
  5
17
102
{ACAD_REACTORS
330
C
102
}
330
C
100
AcDbDictionary
281
     1
  3
Standard
350
18
  0
DICTIONARY
  5
19
102
{ACAD_REACTORS
330
C
102
}
330
C
100
AcDbDictionary
281
     1
  0
ACDBDICTIONARYWDFLT
  5
E
102
{ACAD_REACTORS
330
C
102
}
330
C
100
AcDbDictionary
281
     1
  3
Normal
350
F
100
AcDbDictionaryWithDefault
340
F
  0
DICTIONARY
  5
159C
102
{ACAD_REACTORS
330
C
102
}
330
C
100
AcDbDictionary
281
     1
  3
A0
350
159D
  3
A1
350
159E
  3
A2
350
159F
  3
A3
350
15A0
  3
A4
350
15A1
  3
A5
350
15A2
  3
A6
350
15A3
  3
A7
350
15A4
  3
A8
350
15A5
  3
A9
350
15A6
  3
B0
350
15A7
  3
B1
350
15A8
  3
B2
350
15A9
  3
B3
350
15AA
  3
B4
350
15AB
  3
B5
350
15AC
  3
B6
350
15AD
  3
B7
350
15AE
  3
B8
350
15AF
  3
B9
350
15B0
  3
C0
350
15B1
  3
C1
350
15B2
  3
C2
350
15B3
  3
C3
350
15B4
  3
C4
350
15B5
  3
C5
350
15B6
  3
C6
350
15B7
  3
C7
350
15B8
  3
C8
350
15B9
  3
C9
350
15BA
  3
D0
350
15BB
  3
D1
350
15BC
  3
D2
350
15BD
  0
DICTIONARY
  5
159A
102
{ACAD_REACTORS
330
C
102
}
330
C
100
AcDbDictionary
281
     1
  3
Standard
350
159B
  0
DICTIONARY
  5
1585
102
{ACAD_REACTORS
330
C
102
}
330
C
100
AcDbDictionary
281
     1
  3
2dWireframe
350
158B
  3
3D Hidden
350
158D
  3
3dWireframe
350
158C
  3
Basic
350
158A
  3
Brighten
350
1591
  3
ColorChange
350
1595
  3
Conceptual
350
158E
  3
Dim
350
1590
  3
EdgeColorOff
350
1598
  3
Facepattern
350
1594
  3
Flat
350
1586
  3
FlatWithEdges
350
1587
  3
Gouraud
350
1588
  3
GouraudWithEdges
350
1589
  3
JitterOff
350
1596
  3
Linepattern
350
1593
  3
OverhangOff
350
1597
  3
Realistic
350
158F
  3
Thicken
350
1592
  0
XRECORD
  5
15C4
102
{ACAD_REACTORS
330
C
102
}
330
C
100
AcDbXrecord
280
     1
 90
        1
330
159B
  0
DICTIONARY
  5
15F6
102
{ACAD_REACTORS
330
C
102
}
330
C
100
AcDbDictionary
281
     1
  3
CANNOSCALE
350
15F9
  3
CMLEADERSTYLE
350
15F8
  3
CTABLESTYLE
350
15F7
  3
DIMASSOC
350
15FC
  3
INDEXCTL
350
15FB
  3
LAYEREVAL
350
1646
  3
LAYERNOTIFY
350
1647
  3
LIGHTINGUNITS
350
1645
  3
MSLTSCALE
350
1644
  3
SORTENTS
350
15FA
  3
XCLIPFRAME
350
15FD
  0
XRECORD
  5
1606
102
{ACAD_REACTORS
330
1605
102
}
330
1605
100
AcDbXrecord
280
     1
290
     1
  0
XRECORD
  5
1608
102
{ACAD_REACTORS
330
1607
102
}
330
1607
100
AcDbXrecord
280
     1
290
     1
  0
XRECORD
  5
160A
102
{ACAD_REACTORS
330
1609
102
}
330
1609
100
AcDbXrecord
280
     1
290
     1
  0
XRECORD
  5
160C
102
{ACAD_REACTORS
330
160B
102
}
330
160B
100
AcDbXrecord
280
     1
290
     1
  0
XRECORD
  5
160E
102
{ACAD_REACTORS
330
160D
102
}
330
160D
100
AcDbXrecord
280
     1
290
     1
  0
XRECORD
  5
1610
102
{ACAD_REACTORS
330
160F
102
}
330
160F
100
AcDbXrecord
280
     1
290
     1
  0
XRECORD
  5
1612
102
{ACAD_REACTORS
330
1611
102
}
330
1611
100
AcDbXrecord
280
     1
290
     1
  0
XRECORD
  5
1614
102
{ACAD_REACTORS
330
1613
102
}
330
1613
100
AcDbXrecord
280
     1
290
     1
  0
XRECORD
  5
1616
102
{ACAD_REACTORS
330
1615
102
}
330
1615
100
AcDbXrecord
280
     1
290
     1
  0
XRECORD
  5
1618
102
{ACAD_REACTORS
330
1617
102
}
330
1617
100
AcDbXrecord
280
     1
290
     1
  0
XRECORD
  5
161A
102
{ACAD_REACTORS
330
1619
102
}
330
1619
100
AcDbXrecord
280
     1
290
     1
  0
XRECORD
  5
161C
102
{ACAD_REACTORS
330
161B
102
}
330
161B
100
AcDbXrecord
280
     1
290
     1
  0
XRECORD
  5
161E
102
{ACAD_REACTORS
330
161D
102
}
330
161D
100
AcDbXrecord
280
     1
290
     1
  0
XRECORD
  5
1620
102
{ACAD_REACTORS
330
161F
102
}
330
161F
100
AcDbXrecord
280
     1
290
     1
  0
XRECORD
  5
1622
102
{ACAD_REACTORS
330
1621
102
}
330
1621
100
AcDbXrecord
280
     1
290
     1
  0
XRECORD
  5
1624
102
{ACAD_REACTORS
330
1623
102
}
330
1623
100
AcDbXrecord
280
     1
290
     1
  0
XRECORD
  5
1626
102
{ACAD_REACTORS
330
1625
102
}
330
1625
100
AcDbXrecord
280
     1
290
     1
  0
XRECORD
  5
1628
102
{ACAD_REACTORS
330
1627
102
}
330
1627
100
AcDbXrecord
280
     1
290
     1
  0
XRECORD
  5
162A
102
{ACAD_REACTORS
330
1629
102
}
330
1629
100
AcDbXrecord
280
     1
290
     1
  0
XRECORD
  5
162C
102
{ACAD_REACTORS
330
162B
102
}
330
162B
100
AcDbXrecord
280
     1
290
     1
  0
XRECORD
  5
162E
102
{ACAD_REACTORS
330
162D
102
}
330
162D
100
AcDbXrecord
280
     1
290
     1
  0
XRECORD
  5
1630
102
{ACAD_REACTORS
330
162F
102
}
330
162F
100
AcDbXrecord
280
     1
290
     1
  0
XRECORD
  5
1632
102
{ACAD_REACTORS
330
1631
102
}
330
1631
100
AcDbXrecord
280
     1
290
     1
  0
XRECORD
  5
1634
102
{ACAD_REACTORS
330
1633
102
}
330
1633
100
AcDbXrecord
280
     1
290
     1
  0
XRECORD
  5
1636
102
{ACAD_REACTORS
330
1635
102
}
330
1635
100
AcDbXrecord
280
     1
290
     1
  0
XRECORD
  5
1638
102
{ACAD_REACTORS
330
1637
102
}
330
1637
100
AcDbXrecord
280
     1
290
     1
  0
XRECORD
  5
163A
102
{ACAD_REACTORS
330
1639
102
}
330
1639
100
AcDbXrecord
280
     1
290
     1
  0
XRECORD
  5
163C
102
{ACAD_REACTORS
330
163B
102
}
330
163B
100
AcDbXrecord
280
     1
290
     1
  0
XRECORD
  5
163E
102
{ACAD_REACTORS
330
163D
102
}
330
163D
100
AcDbXrecord
280
     1
290
     1
  0
LAYOUT
  5
1568
102
{ACAD_REACTORS
330
1A
102
}
330
1A
100
AcDbPlotSettings
  1

  2
none_device
  4
ANSI_B_(17.00_x_11.00_Inches)
  6

 40
0.0
 41
0.0
 42
0.0
 43
0.0
 44
431.8
 45
279.4
 46
0.0
 47
0.0
 48
0.0
 49
0.0
140
0.0
141
0.0
142
1.0
143
1.0
 70
     0
 72
     0
 73
     0
 74
     0
  7

 75
     0
147
1.0
 76
     0
 77
     2
 78
   300
148
0.0
149
0.0
100
AcDbLayout
  1
Layout1
 70
     1
 71
     1
 10
0.0
 20
0.0
 11
12.0
 21
9.0
 12
0.0
 22
0.0
 32
0.0
 14
1.000000000000000E+20
 24
1.000000000000000E+20
 34
1.000000000000000E+20
 15
-1.000000000000000E+20
 25
-1.000000000000000E+20
 35
-1.000000000000000E+20
146
0.0
 13
0.0
 23
0.0
 33
0.0
 16
1.0
 26
0.0
 36
0.0
 17
0.0
 27
1.0
 37
0.0
 76
     0
330
21F
  0
LAYOUT
  5
1567
102
{ACAD_REACTORS
330
1A
102
}
330
1A
100
AcDbPlotSettings
  1

  2
none_device
  4
ANSI_B_(17.00_x_11.00_Inches)
  6

 40
0.0
 41
0.0
 42
0.0
 43
0.0
 44
431.8
 45
279.4
 46
0.0
 47
0.0
 48
0.0
 49
0.0
140
0.0
141
0.0
142
1.0
143
1.0
 70
  1024
 72
     0
 73
     0
 74
     0
  7

 75
     0
147
1.0
 76
     0
 77
     2
 78
   300
148
0.0
149
0.0
100
AcDbLayout
  1
Model
 70
     0
 71
     0
 10
0.0
 20
0.0
 11
17.0
 21
11.0
 12
0.0
 22
0.0
 32
0.0
 14
0.0
 24
0.0
 34
0.0
 15
0.0
 25
0.0
 35
0.0
146
0.0
 13
0.0
 23
0.0
 33
0.0
 16
1.0
 26
0.0
 36
0.0
 17
0.0
 27
1.0
 37
0.0
 76
     0
330
21E
331
1F4
  0
MATERIAL
  5
1575
102
{ACAD_XDICTIONARY
360
1576
102
}
102
{ACAD_REACTORS
330
156C
102
}
330
156C
100
AcDbMaterial
  1
ByBlock
 72
     0
 43
0.0208333333333333
 43
0.0
 43
0.0
 43
0.0
 43
0.0
 43
0.0208333333333333
 43
0.0
 43
0.0
 43
0.0
 43
0.0
 43
1.0
 43
0.0
 43
0.0
 43
0.0
 43
0.0
 43
1.0
 77
     0
 47
0.0208333333333333
 47
0.0
 47
0.0
 47
0.0
 47
0.0
 47
0.0208333333333333
 47
0.0
 47
0.0
 47
0.0
 47
0.0
 47
1.0
 47
0.0
 47
0.0
 47
0.0
 47
0.0
 47
1.0
171
     0
 49
0.0208333333333333
 49
0.0
 49
0.0
 49
0.0
 49
0.0
 49
0.0208333333333333
 49
0.0
 49
0.0
 49
0.0
 49
0.0
 49
1.0
 49
0.0
 49
0.0
 49
0.0
 49
0.0
 49
1.0
175
     0
142
0.0208333333333333
142
0.0
142
0.0
142
0.0
142
0.0
142
0.0208333333333333
142
0.0
142
0.0
142
0.0
142
0.0
142
1.0
142
0.0
142
0.0
142
0.0
142
0.0
142
1.0
179
     0
144
0.0208333333333333
144
0.0
144
0.0
144
0.0
144
0.0
144
0.0208333333333333
144
0.0
144
0.0
144
0.0
144
0.0
144
1.0
144
0.0
144
0.0
144
0.0
144
0.0
144
1.0
147
0.0208333333333333
147
0.0
147
0.0
147
0.0
147
0.0
147
0.0208333333333333
147
0.0
147
0.0
147
0.0
147
0.0
147
1.0
147
0.0
147
0.0
147
0.0
147
0.0
147
1.0
  0
MATERIAL
  5
156D
102
{ACAD_XDICTIONARY
360
156E
102
}
102
{ACAD_REACTORS
330
156C
102
}
330
156C
100
AcDbMaterial
  1
ByLayer
 72
     0
 43
0.0208333333333333
 43
0.0
 43
0.0
 43
0.0
 43
0.0
 43
0.0208333333333333
 43
0.0
 43
0.0
 43
0.0
 43
0.0
 43
1.0
 43
0.0
 43
0.0
 43
0.0
 43
0.0
 43
1.0
 77
     0
 47
0.0208333333333333
 47
0.0
 47
0.0
 47
0.0
 47
0.0
 47
0.0208333333333333
 47
0.0
 47
0.0
 47
0.0
 47
0.0
 47
1.0
 47
0.0
 47
0.0
 47
0.0
 47
0.0
 47
1.0
171
     0
 49
0.0208333333333333
 49
0.0
 49
0.0
 49
0.0
 49
0.0
 49
0.0208333333333333
 49
0.0
 49
0.0
 49
0.0
 49
0.0
 49
1.0
 49
0.0
 49
0.0
 49
0.0
 49
0.0
 49
1.0
175
     0
142
0.0208333333333333
142
0.0
142
0.0
142
0.0
142
0.0
142
0.0208333333333333
142
0.0
142
0.0
142
0.0
142
0.0
142
1.0
142
0.0
142
0.0
142
0.0
142
0.0
142
1.0
179
     0
144
0.0208333333333333
144
0.0
144
0.0
144
0.0
144
0.0
144
0.0208333333333333
144
0.0
144
0.0
144
0.0
144
0.0
144
1.0
144
0.0
144
0.0
144
0.0
144
0.0
144
1.0
147
0.0208333333333333
147
0.0
147
0.0
147
0.0
147
0.0
147
0.0208333333333333
147
0.0
147
0.0
147
0.0
147
0.0
147
1.0
147
0.0
147
0.0
147
0.0
147
0.0
147
1.0
  0
MATERIAL
  5
157D
102
{ACAD_XDICTIONARY
360
157E
102
}
102
{ACAD_REACTORS
330
156C
102
}
330
156C
100
AcDbMaterial
  1
Global
 72
     0
 43
0.0208333333333333
 43
0.0
 43
0.0
 43
0.0
 43
0.0
 43
0.0208333333333333
 43
0.0
 43
0.0
 43
0.0
 43
0.0
 43
1.0
 43
0.0
 43
0.0
 43
0.0
 43
0.0
 43
1.0
 77
     0
 47
0.0208333333333333
 47
0.0
 47
0.0
 47
0.0
 47
0.0
 47
0.0208333333333333
 47
0.0
 47
0.0
 47
0.0
 47
0.0
 47
1.0
 47
0.0
 47
0.0
 47
0.0
 47
0.0
 47
1.0
171
     0
 49
0.0208333333333333
 49
0.0
 49
0.0
 49
0.0
 49
0.0
 49
0.0208333333333333
 49
0.0
 49
0.0
 49
0.0
 49
0.0
 49
1.0
 49
0.0
 49
0.0
 49
0.0
 49
0.0
 49
1.0
175
     0
142
0.0208333333333333
142
0.0
142
0.0
142
0.0
142
0.0
142
0.0208333333333333
142
0.0
142
0.0
142
0.0
142
0.0
142
1.0
142
0.0
142
0.0
142
0.0
142
0.0
142
1.0
179
     0
144
0.0208333333333333
144
0.0
144
0.0
144
0.0
144
0.0
144
0.0208333333333333
144
0.0
144
0.0
144
0.0
144
0.0
144
1.0
144
0.0
144
0.0
144
0.0
144
0.0
144
1.0
147
0.0208333333333333
147
0.0
147
0.0
147
0.0
147
0.0
147
0.0208333333333333
147
0.0
147
0.0
147
0.0
147
0.0
147
1.0
147
0.0
147
0.0
147
0.0
147
0.0
147
1.0
  0
MLEADERSTYLE
  5
15BF
102
{ACAD_REACTORS
330
15BE
102
}
330
15BE
100
AcDbMLeaderStyle
170
     2
171
     1
172
     0
 90
        2
 40
0.0
 41
0.0
173
     1
 91
-1056964608
340
14
 92
       -2
290
     1
 42
0.09
291
     1
 43
0.36
  3
Standard
 44
0.18
300

342
11
174
     1
178
     6
175
     1
176
     0
 93
-1056964608
 45
0.18
292
     0
297
     0
 46
0.18
 94
-1056964608
 47
1.0
 49
1.0
140
1.0
293
     1
141
0.0
294
     1
177
     0
142
1.0
295
     0
296
     0
143
0.125
1001
ACAD_MLEADERVER
1070
     2
  0
MLINESTYLE
  5
18
102
{ACAD_REACTORS
330
17
102
}
330
17
100
AcDbMlineStyle
  2
STANDARD
 70
     0
  3

 62
   256
 51
90.0
 52
90.0
 71
     2
 49
0.5
 62
   256
  6
BYLAYER
 49
-0.5
 62
   256
  6
BYLAYER
  0
ACDBPLACEHOLDER
  5
F
102
{ACAD_REACTORS
330
E
102
}
330
E
  0
SCALE
  5
159D
102
{ACAD_REACTORS
330
159C
102
}
330
159C
100
AcDbScale
 70
     0
300
1:1
140
1.0
141
1.0
290
     1
  0
SCALE
  5
159E
102
{ACAD_REACTORS
330
159C
102
}
330
159C
100
AcDbScale
 70
     0
300
1:2
140
1.0
141
2.0
290
     0
  0
SCALE
  5
159F
102
{ACAD_REACTORS
330
159C
102
}
330
159C
100
AcDbScale
 70
     0
300
1:4
140
1.0
141
4.0
290
     0
  0
SCALE
  5
15A0
102
{ACAD_REACTORS
330
159C
102
}
330
159C
100
AcDbScale
 70
     0
300
1:5
140
1.0
141
5.0
290
     0
  0
SCALE
  5
15A1
102
{ACAD_REACTORS
330
159C
102
}
330
159C
100
AcDbScale
 70
     0
300
1:8
140
1.0
141
8.0
290
     0
  0
SCALE
  5
15A2
102
{ACAD_REACTORS
330
159C
102
}
330
159C
100
AcDbScale
 70
     0
300
1:10
140
1.0
141
10.0
290
     0
  0
SCALE
  5
15A3
102
{ACAD_REACTORS
330
159C
102
}
330
159C
100
AcDbScale
 70
     0
300
1:16
140
1.0
141
16.0
290
     0
  0
SCALE
  5
15A4
102
{ACAD_REACTORS
330
159C
102
}
330
159C
100
AcDbScale
 70
     0
300
1:20
140
1.0
141
20.0
290
     0
  0
SCALE
  5
15A5
102
{ACAD_REACTORS
330
159C
102
}
330
159C
100
AcDbScale
 70
     0
300
1:30
140
1.0
141
30.0
290
     0
  0
SCALE
  5
15A6
102
{ACAD_REACTORS
330
159C
102
}
330
159C
100
AcDbScale
 70
     0
300
1:40
140
1.0
141
40.0
290
     0
  0
SCALE
  5
15A7
102
{ACAD_REACTORS
330
159C
102
}
330
159C
100
AcDbScale
 70
     0
300
1:50
140
1.0
141
50.0
290
     0
  0
SCALE
  5
15A8
102
{ACAD_REACTORS
330
159C
102
}
330
159C
100
AcDbScale
 70
     0
300
1:100
140
1.0
141
100.0
290
     0
  0
SCALE
  5
15A9
102
{ACAD_REACTORS
330
159C
102
}
330
159C
100
AcDbScale
 70
     0
300
2:1
140
2.0
141
1.0
290
     0
  0
SCALE
  5
15AA
102
{ACAD_REACTORS
330
159C
102
}
330
159C
100
AcDbScale
 70
     0
300
4:1
140
4.0
141
1.0
290
     0
  0
SCALE
  5
15AB
102
{ACAD_REACTORS
330
159C
102
}
330
159C
100
AcDbScale
 70
     0
300
8:1
140
8.0
141
1.0
290
     0
  0
SCALE
  5
15AC
102
{ACAD_REACTORS
330
159C
102
}
330
159C
100
AcDbScale
 70
     0
300
10:1
140
10.0
141
1.0
290
     0
  0
SCALE
  5
15AD
102
{ACAD_REACTORS
330
159C
102
}
330
159C
100
AcDbScale
 70
     0
300
100:1
140
100.0
141
1.0
290
     0
  0
SCALE
  5
15AE
102
{ACAD_REACTORS
330
159C
102
}
330
159C
100
AcDbScale
 70
     0
300
1/128" = 1'-0"
140
0.0078125
141
12.0
290
     0
  0
SCALE
  5
15AF
102
{ACAD_REACTORS
330
159C
102
}
330
159C
100
AcDbScale
 70
     0
300
1/64" = 1'-0"
140
0.015625
141
12.0
290
     0
  0
SCALE
  5
15B0
102
{ACAD_REACTORS
330
159C
102
}
330
159C
100
AcDbScale
 70
     0
300
1/32" = 1'-0"
140
0.03125
141
12.0
290
     0
  0
SCALE
  5
15B1
102
{ACAD_REACTORS
330
159C
102
}
330
159C
100
AcDbScale
 70
     0
300
1/16" = 1'-0"
140
0.0625
141
12.0
290
     0
  0
SCALE
  5
15B2
102
{ACAD_REACTORS
330
159C
102
}
330
159C
100
AcDbScale
 70
     0
300
3/32" = 1'-0"
140
0.09375
141
12.0
290
     0
  0
SCALE
  5
15B3
102
{ACAD_REACTORS
330
159C
102
}
330
159C
100
AcDbScale
 70
     0
300
1/8" = 1'-0"
140
0.125
141
12.0
290
     0
  0
SCALE
  5
15B4
102
{ACAD_REACTORS
330
159C
102
}
330
159C
100
AcDbScale
 70
     0
300
3/16" = 1'-0"
140
0.1875
141
12.0
290
     0
  0
SCALE
  5
15B5
102
{ACAD_REACTORS
330
159C
102
}
330
159C
100
AcDbScale
 70
     0
300
1/4" = 1'-0"
140
0.25
141
12.0
290
     0
  0
SCALE
  5
15B6
102
{ACAD_REACTORS
330
159C
102
}
330
159C
100
AcDbScale
 70
     0
300
3/8" = 1'-0"
140
0.375
141
12.0
290
     0
  0
SCALE
  5
15B7
102
{ACAD_REACTORS
330
159C
102
}
330
159C
100
AcDbScale
 70
     0
300
1/2" = 1'-0"
140
0.5
141
12.0
290
     0
  0
SCALE
  5
15B8
102
{ACAD_REACTORS
330
159C
102
}
330
159C
100
AcDbScale
 70
     0
300
3/4" = 1'-0"
140
0.75
141
12.0
290
     0
  0
SCALE
  5
15B9
102
{ACAD_REACTORS
330
159C
102
}
330
159C
100
AcDbScale
 70
     0
300
1" = 1'-0"
140
1.0
141
12.0
290
     0
  0
SCALE
  5
15BA
102
{ACAD_REACTORS
330
159C
102
}
330
159C
100
AcDbScale
 70
     0
300
1-1/2" = 1'-0"
140
1.5
141
12.0
290
     0
  0
SCALE
  5
15BB
102
{ACAD_REACTORS
330
159C
102
}
330
159C
100
AcDbScale
 70
     0
300
3" = 1'-0"
140
3.0
141
12.0
290
     0
  0
SCALE
  5
15BC
102
{ACAD_REACTORS
330
159C
102
}
330
159C
100
AcDbScale
 70
     0
300
6" = 1'-0"
140
6.0
141
12.0
290
     0
  0
SCALE
  5
15BD
102
{ACAD_REACTORS
330
159C
102
}
330
159C
100
AcDbScale
 70
     0
300
1'-0" = 1'-0"
140
12.0
141
12.0
290
     0
  0
TABLESTYLE
  5
159B
102
{ACAD_XDICTIONARY
360
15C2
102
}
102
{ACAD_REACTORS
330
159A
102
}
330
159A
100
AcDbTableStyle
  3
Standard
 70
     0
 71
     0
 40
0.06
 41
0.06
280
     0
281
     0
  7
STANDARD
140
0.18
170
     2
 62
     0
 63
     7
283
     0
 90
      512
 91
        0
  1

274
    -2
284
     1
 64
     0
275
    -2
285
     1
 65
     0
276
    -2
286
     1
 66
     0
277
    -2
287
     1
 67
     0
278
    -2
288
     1
 68
     0
279
    -2
289
     1
 69
     0
  7
STANDARD
140
0.25
170
     5
 62
     0
 63
     7
283
     0
 90
      512
 91
        0
  1

274
    -2
284
     1
 64
     0
275
    -2
285
     1
 65
     0
276
    -2
286
     1
 66
     0
277
    -2
287
     1
 67
     0
278
    -2
288
     1
 68
     0
279
    -2
289
     1
 69
     0
  7
STANDARD
140
0.18
170
     5
 62
     0
 63
     7
283
     0
 90
      512
 91
        0
  1

274
    -2
284
     1
 64
     0
275
    -2
285
     1
 65
     0
276
    -2
286
     1
 66
     0
277
    -2
287
     1
 67
     0
278
    -2
288
     1
 68
     0
279
    -2
289
     1
 69
     0
  0
VISUALSTYLE
  5
158B
102
{ACAD_XDICTIONARY
360
15D8
102
}
102
{ACAD_REACTORS
330
1585
102
}
330
1585
100
AcDbVisualStyle
  2
2dWireframe
 70
     4
 71
     0
 72
     2
 73
     0
 90
        0
 40
-0.6
 41
-30.0
 62
     5
 63
     7
 74
     1
 91
        4
 64
     7
 65
   257
 75
     1
175
     1
 42
1.0
 92
        0
 66
   257
 43
1.0
 76
     1
 77
     6
 78
     2
 67
     7
 79
     5
170
     0
171
     0
290
     0
174
     0
 93
        1
 44
0.0
173
     0
291
     0
 45
0.0
  0
VISUALSTYLE
  5
158D
102
{ACAD_XDICTIONARY
360
15DC
102
}
102
{ACAD_REACTORS
330
1585
102
}
330
1585
100
AcDbVisualStyle
  2
3D Hidden
 70
     6
 71
     1
 72
     2
 73
     2
 90
        0
 40
-0.6
 41
-30.0
 62
     5
 63
     7
 74
     2
 91
        2
 64
     7
 65
   257
 75
     2
175
     1
 42
179.0
 92
        0
 66
   257
 43
1.0
 76
     1
 77
     6
 78
     2
 67
     7
 79
     3
170
     0
171
     0
290
     0
174
     0
 93
        1
 44
0.0
173
     0
291
     0
 45
0.0
  0
VISUALSTYLE
  5
158C
102
{ACAD_XDICTIONARY
360
15DA
102
}
102
{ACAD_REACTORS
330
1585
102
}
330
1585
100
AcDbVisualStyle
  2
3dWireframe
 70
     5
 71
     0
 72
     2
 73
     0
 90
        0
 40
-0.6
 41
-30.0
 62
     5
 63
     7
 74
     1
 91
        4
 64
     7
 65
   257
 75
     1
175
     1
 42
1.0
 92
        0
 66
   257
 43
1.0
 76
     1
 77
     6
 78
     2
 67
     7
 79
     5
170
     0
171
     0
290
     0
174
     0
 93
        1
 44
0.0
173
     0
291
     0
 45
0.0
  0
VISUALSTYLE
  5
158A
102
{ACAD_XDICTIONARY
360
15D6
102
}
102
{ACAD_REACTORS
330
1585
102
}
330
1585
100
AcDbVisualStyle
  2
Basic
 70
     7
 71
     1
 72
     0
 73
     1
 90
        0
 40
-0.6
 41
-30.0
 62
     5
 63
     7
 74
     0
 91
        4
 64
     7
 65
   257
 75
     1
175
     1
 42
1.0
 92
        8
 66
     7
 43
1.0
 76
     1
 77
     6
 78
     2
 67
     7
 79
     5
170
     0
171
     0
290
     0
174
     0
 93
        1
 44
0.0
173
     0
291
     1
 45
0.0
  0
VISUALSTYLE
  5
1591
102
{ACAD_XDICTIONARY
360
15E4
102
}
102
{ACAD_REACTORS
330
1585
102
}
330
1585
100
AcDbVisualStyle
  2
Brighten
 70
    12
 71
     2
 72
     2
 73
     0
 90
        0
 40
-0.6
 41
-30.0
 62
     5
 63
     7
 74
     1
 91
        4
 64
     7
 65
   257
 75
     1
175
     1
 42
1.0
 92
        8
 66
     7
 43
1.0
 76
     1
 77
     6
 78
     2
 67
     7
 79
     5
170
     0
171
     0
290
     0
174
     0
 93
        1
 44
50.0
173
     0
291
     1
 45
0.0
  0
VISUALSTYLE
  5
1595
102
{ACAD_XDICTIONARY
360
15EC
102
}
102
{ACAD_REACTORS
330
1585
102
}
330
1585
100
AcDbVisualStyle
  2
ColorChange
 70
    16
 71
     2
 72
     2
 73
     3
 90
        0
 40
-0.6
 41
-30.0
 62
     5
 63
     8
 74
     1
 91
        4
 64
     7
 65
   257
 75
     1
175
     1
 42
1.0
 92
        8
 66
     8
 43
1.0
 76
     1
 77
     6
 78
     2
 67
     7
 79
     5
170
     0
171
     0
290
     0
174
     0
 93
        1
 44
0.0
173
     0
291
     1
 45
0.0
  0
VISUALSTYLE
  5
158E
102
{ACAD_XDICTIONARY
360
15DE
102
}
102
{ACAD_REACTORS
330
1585
102
}
330
1585
100
AcDbVisualStyle
  2
Conceptual
 70
     9
 71
     3
 72
     2
 73
     0
 90
        0
 40
-0.6
 41
-30.0
 62
     5
 63
     7
 74
     2
 91
        2
 64
     7
 65
   257
 75
     1
175
     1
 42
179.0
 92
        8
 66
     7
 43
1.0
 76
     1
 77
     6
 78
     2
 67
     7
 79
     3
170
     0
171
     0
290
     0
174
     0
 93
        1
 44
0.0
173
     0
291
     0
 45
0.0
  0
VISUALSTYLE
  5
1590
102
{ACAD_XDICTIONARY
360
15E2
102
}
102
{ACAD_REACTORS
330
1585
102
}
330
1585
100
AcDbVisualStyle
  2
Dim
 70
    11
 71
     2
 72
     2
 73
     0
 90
        0
 40
-0.6
 41
-30.0
 62
     5
 63
     7
 74
     1
 91
        4
 64
     7
 65
   257
 75
     1
175
     1
 42
1.0
 92
        8
 66
     7
 43
1.0
 76
     1
 77
     6
 78
     2
 67
     7
 79
     5
170
     0
171
     0
290
     0
174
     0
 93
        1
 44
-50.0
173
     0
291
     1
 45
0.0
  0
VISUALSTYLE
  5
1598
102
{ACAD_XDICTIONARY
360
15F2
102
}
102
{ACAD_REACTORS
330
1585
102
}
330
1585
100
AcDbVisualStyle
  2
EdgeColorOff
 70
    22
 71
     2
 72
     2
 73
     0
 90
        0
 40
-0.6
 41
-30.0
 62
     5
 63
     7
 74
     1
 91
        4
 64
     7
 65
   257
 75
     1
175
     1
 42
1.0
 92
        8
 66
     7
 43
1.0
 76
     1
 77
     6
 78
     2
 67
     7
 79
     5
170
     0
171
     0
290
     0
174
     0
 93
        1
 44
0.0
173
     0
291
     1
 45
0.0
  0
VISUALSTYLE
  5
1594
102
{ACAD_XDICTIONARY
360
15EA
102
}
102
{ACAD_REACTORS
330
1585
102
}
330
1585
100
AcDbVisualStyle
  2
Facepattern
 70
    15
 71
     2
 72
     2
 73
     0
 90
        0
 40
-0.6
 41
-30.0
 62
     5
 63
     7
 74
     1
 91
        4
 64
     7
 65
   257
 75
     1
175
     1
 42
1.0
 92
        8
 66
     7
 43
1.0
 76
     1
 77
     6
 78
     2
 67
     7
 79
     5
170
     0
171
     0
290
     0
174
     0
 93
        1
 44
0.0
173
     0
291
     1
 45
0.0
  0
VISUALSTYLE
  5
1586
102
{ACAD_XDICTIONARY
360
15CE
102
}
102
{ACAD_REACTORS
330
1585
102
}
330
1585
100
AcDbVisualStyle
  2
Flat
 70
     0
 71
     2
 72
     1
 73
     1
 90
        2
 40
-0.6
 41
30.0
 62
     5
 63
     7
 74
     0
 91
        4
 64
     7
 65
   257
 75
     1
175
     1
 42
1.0
 92
        8
 66
     7
 43
1.0
 76
     1
 77
     6
 78
     2
 67
     7
 79
     5
170
     0
171
     0
290
     0
174
     0
 93
       13
 44
0.0
173
     0
291
     1
 45
0.0
  0
VISUALSTYLE
  5
1587
102
{ACAD_XDICTIONARY
360
15D0
102
}
102
{ACAD_REACTORS
330
1585
102
}
330
1585
100
AcDbVisualStyle
  2
FlatWithEdges
 70
     1
 71
     2
 72
     1
 73
     1
 90
        2
 40
-0.6
 41
30.0
 62
     5
 63
     7
 74
     1
 91
        4
 64
     7
 65
   257
 75
     1
175
     1
 42
1.0
 92
        0
 66
   257
 43
1.0
 76
     1
 77
     6
 78
     2
 67
     7
 79
     5
170
     0
171
     0
290
     0
174
     0
 93
       13
 44
0.0
173
     0
291
     1
 45
0.0
  0
VISUALSTYLE
  5
1588
102
{ACAD_XDICTIONARY
360
15D2
102
}
102
{ACAD_REACTORS
330
1585
102
}
330
1585
100
AcDbVisualStyle
  2
Gouraud
 70
     2
 71
     2
 72
     2
 73
     1
 90
        2
 40
-0.6
 41
30.0
 62
     5
 63
     7
 74
     0
 91
        4
 64
     7
 65
   257
 75
     1
175
     1
 42
1.0
 92
        0
 66
     7
 43
1.0
 76
     1
 77
     6
 78
     2
 67
     7
 79
     5
170
     0
171
     0
290
     0
174
     0
 93
       13
 44
0.0
173
     0
291
     1
 45
0.0
  0
VISUALSTYLE
  5
1589
102
{ACAD_XDICTIONARY
360
15D4
102
}
102
{ACAD_REACTORS
330
1585
102
}
330
1585
100
AcDbVisualStyle
  2
GouraudWithEdges
 70
     3
 71
     2
 72
     2
 73
     1
 90
        2
 40
-0.6
 41
30.0
 62
     5
 63
     7
 74
     1
 91
        4
 64
     7
 65
   257
 75
     1
175
     1
 42
1.0
 92
        0
 66
   257
 43
1.0
 76
     1
 77
     6
 78
     2
 67
     7
 79
     5
170
     0
171
     0
290
     0
174
     0
 93
       13
 44
0.0
173
     0
291
     1
 45
0.0
  0
VISUALSTYLE
  5
1596
102
{ACAD_XDICTIONARY
360
15EE
102
}
102
{ACAD_REACTORS
330
1585
102
}
330
1585
100
AcDbVisualStyle
  2
JitterOff
 70
    20
 71
     2
 72
     2
 73
     0
 90
        0
 40
-0.6
 41
-30.0
 62
     5
 63
     7
 74
     1
 91
        4
 64
     7
 65
   257
 75
     1
175
     1
 42
1.0
 92
       10
 66
     7
 43
1.0
 76
     1
 77
     6
 78
     2
 67
     7
 79
     5
170
     0
171
     0
290
     0
174
     0
 93
        1
 44
0.0
173
     0
291
     1
 45
0.0
  0
VISUALSTYLE
  5
1593
102
{ACAD_XDICTIONARY
360
15E8
102
}
102
{ACAD_REACTORS
330
1585
102
}
330
1585
100
AcDbVisualStyle
  2
Linepattern
 70
    14
 71
     2
 72
     2
 73
     0
 90
        0
 40
-0.6
 41
-30.0
 62
     5
 63
     7
 74
     1
 91
        4
 64
     7
 65
   257
 75
     7
175
     7
 42
1.0
 92
        8
 66
     7
 43
1.0
 76
     1
 77
     6
 78
     2
 67
     7
 79
     5
170
     0
171
     0
290
     0
174
     0
 93
        1
 44
0.0
173
     0
291
     1
 45
0.0
  0
VISUALSTYLE
  5
1597
102
{ACAD_XDICTIONARY
360
15F0
102
}
102
{ACAD_REACTORS
330
1585
102
}
330
1585
100
AcDbVisualStyle
  2
OverhangOff
 70
    21
 71
     2
 72
     2
 73
     0
 90
        0
 40
-0.6
 41
-30.0
 62
     5
 63
     7
 74
     1
 91
        4
 64
     7
 65
   257
 75
     1
175
     1
 42
1.0
 92
        9
 66
     7
 43
1.0
 76
     1
 77
     6
 78
     2
 67
     7
 79
     5
170
     0
171
     0
290
     0
174
     0
 93
        1
 44
0.0
173
     0
291
     1
 45
0.0
  0
VISUALSTYLE
  5
158F
102
{ACAD_XDICTIONARY
360
15E0
102
}
102
{ACAD_REACTORS
330
1585
102
}
330
1585
100
AcDbVisualStyle
  2
Realistic
 70
     8
 71
     2
 72
     2
 73
     0
 90
        0
 40
-0.6
 41
-30.0
 62
     5
 63
     7
 74
     1
 91
        0
 64
     7
 65
   257
 75
     1
175
     1
 42
1.0
 92
        8
 66
     8
 43
1.0
 76
     1
 77
     6
 78
     2
 67
     7
 79
     5
170
     0
171
     0
290
     0
174
     0
 93
       13
 44
0.0
173
     0
291
     0
 45
0.0
  0
VISUALSTYLE
  5
1592
102
{ACAD_XDICTIONARY
360
15E6
102
}
102
{ACAD_REACTORS
330
1585
102
}
330
1585
100
AcDbVisualStyle
  2
Thicken
 70
    13
 71
     2
 72
     2
 73
     0
 90
        0
 40
-0.6
 41
-30.0
 62
     5
 63
     7
 74
     1
 91
        4
 64
     7
 65
   257
 75
     1
175
     1
 42
1.0
 92
       12
 66
     7
 43
1.0
 76
     1
 77
     6
 78
     2
 67
     7
 79
     5
170
     0
171
     0
290
     0
174
     0
 93
        1
 44
0.0
173
     0
291
     1
 45
0.0
  0
DICTIONARYVAR
  5
15F9
102
{ACAD_REACTORS
330
15F6
102
}
330
15F6
100
DictionaryVariables
280
     0
  1
1:1
  0
DICTIONARYVAR
  5
15F8
102
{ACAD_REACTORS
330
15F6
102
}
330
15F6
100
DictionaryVariables
280
     0
  1
STANDARD
  0
DICTIONARYVAR
  5
15F7
102
{ACAD_REACTORS
330
15F6
102
}
330
15F6
100
DictionaryVariables
280
     0
  1
STANDARD
  0
DICTIONARYVAR
  5
15FC
102
{ACAD_REACTORS
330
15F6
102
}
330
15F6
100
DictionaryVariables
280
     0
  1
1
  0
DICTIONARYVAR
  5
15FB
102
{ACAD_REACTORS
330
15F6
102
}
330
15F6
100
DictionaryVariables
280
     0
  1
0
  0
DICTIONARYVAR
  5
1646
102
{ACAD_REACTORS
330
15F6
102
}
330
15F6
100
DictionaryVariables
280
     0
  1
1
  0
DICTIONARYVAR
  5
1647
102
{ACAD_REACTORS
330
15F6
102
}
330
15F6
100
DictionaryVariables
280
     0
  1
15
  0
DICTIONARYVAR
  5
1645
102
{ACAD_REACTORS
330
15F6
102
}
330
15F6
100
DictionaryVariables
280
     0
  1
0
  0
DICTIONARYVAR
  5
1644
102
{ACAD_REACTORS
330
15F6
102
}
330
15F6
100
DictionaryVariables
280
     0
  1
0
  0
DICTIONARYVAR
  5
15FA
102
{ACAD_REACTORS
330
15F6
102
}
330
15F6
100
DictionaryVariables
280
     0
  1
127
  0
DICTIONARYVAR
  5
15FD
102
{ACAD_REACTORS
330
15F6
102
}
330
15F6
100
DictionaryVariables
280
     0
  1
2
  0
DICTIONARY
  5
1576
330
1575
100
AcDbDictionary
280
     1
281
     1
  3
BUMPTILE
360
1578
  3
DIFFUSETILE
360
1577
  3
OPACITYTILE
360
157B
  3
REFLECTIONTILE
360
157A
  3
REFRACTIONTILE
360
157C
  3
SPECULARTILE
360
1579
  0
DICTIONARY
  5
156E
330
156D
100
AcDbDictionary
280
     1
281
     1
  3
BUMPTILE
360
1570
  3
DIFFUSETILE
360
156F
  3
OPACITYTILE
360
1573
  3
REFLECTIONTILE
360
1572
  3
REFRACTIONTILE
360
1574
  3
SPECULARTILE
360
1571
  0
DICTIONARY
  5
157E
330
157D
100
AcDbDictionary
280
     1
281
     1
  3
BUMPTILE
360
1580
  3
DIFFUSETILE
360
157F
  3
OPACITYTILE
360
1583
  3
REFLECTIONTILE
360
1582
  3
REFRACTIONTILE
360
1584
  3
SPECULARTILE
360
1581
  0
DICTIONARY
  5
15C2
330
159B
100
AcDbDictionary
280
     1
281
     1
  3
ACAD_ROUNDTRIP_2008_TABLESTYLE_CELLSTYLEMAP
360
1648
  0
DICTIONARY
  5
15D8
330
158B
100
AcDbDictionary
280
     1
281
     1
  3
ACAD_XREC_ROUNDTRIP
360
15D9
  0
DICTIONARY
  5
15DC
330
158D
100
AcDbDictionary
280
     1
281
     1
  3
ACAD_XREC_ROUNDTRIP
360
15DD
  0
DICTIONARY
  5
15DA
330
158C
100
AcDbDictionary
280
     1
281
     1
  3
ACAD_XREC_ROUNDTRIP
360
15DB
  0
DICTIONARY
  5
15D6
330
158A
100
AcDbDictionary
280
     1
281
     1
  3
ACAD_XREC_ROUNDTRIP
360
15D7
  0
DICTIONARY
  5
15E4
330
1591
100
AcDbDictionary
280
     1
281
     1
  3
ACAD_XREC_ROUNDTRIP
360
15E5
  0
DICTIONARY
  5
15EC
330
1595
100
AcDbDictionary
280
     1
281
     1
  3
ACAD_XREC_ROUNDTRIP
360
15ED
  0
DICTIONARY
  5
15DE
330
158E
100
AcDbDictionary
280
     1
281
     1
  3
ACAD_XREC_ROUNDTRIP
360
15DF
  0
DICTIONARY
  5
15E2
330
1590
100
AcDbDictionary
280
     1
281
     1
  3
ACAD_XREC_ROUNDTRIP
360
15E3
  0
DICTIONARY
  5
15F2
330
1598
100
AcDbDictionary
280
     1
281
     1
  3
ACAD_XREC_ROUNDTRIP
360
15F3
  0
DICTIONARY
  5
15EA
330
1594
100
AcDbDictionary
280
     1
281
     1
  3
ACAD_XREC_ROUNDTRIP
360
15EB
  0
DICTIONARY
  5
15CE
330
1586
100
AcDbDictionary
280
     1
281
     1
  3
ACAD_XREC_ROUNDTRIP
360
15CF
  0
DICTIONARY
  5
15D0
330
1587
100
AcDbDictionary
280
     1
281
     1
  3
ACAD_XREC_ROUNDTRIP
360
15D1
  0
DICTIONARY
  5
15D2
330
1588
100
AcDbDictionary
280
     1
281
     1
  3
ACAD_XREC_ROUNDTRIP
360
15D3
  0
DICTIONARY
  5
15D4
330
1589
100
AcDbDictionary
280
     1
281
     1
  3
ACAD_XREC_ROUNDTRIP
360
15D5
  0
DICTIONARY
  5
15EE
330
1596
100
AcDbDictionary
280
     1
281
     1
  3
ACAD_XREC_ROUNDTRIP
360
15EF
  0
DICTIONARY
  5
15E8
330
1593
100
AcDbDictionary
280
     1
281
     1
  3
ACAD_XREC_ROUNDTRIP
360
15E9
  0
DICTIONARY
  5
15F0
330
1597
100
AcDbDictionary
280
     1
281
     1
  3
ACAD_XREC_ROUNDTRIP
360
15F1
  0
DICTIONARY
  5
15E0
330
158F
100
AcDbDictionary
280
     1
281
     1
  3
ACAD_XREC_ROUNDTRIP
360
15E1
  0
DICTIONARY
  5
15E6
330
1592
100
AcDbDictionary
280
     1
281
     1
  3
ACAD_XREC_ROUNDTRIP
360
15E7
  0
XRECORD
  5
1578
102
{ACAD_REACTORS
330
1576
102
}
330
1576
100
AcDbXrecord
280
     1
270
     1
271
     1
  0
XRECORD
  5
1577
102
{ACAD_REACTORS
330
1576
102
}
330
1576
100
AcDbXrecord
280
     1
270
     1
271
     1
  0
XRECORD
  5
157B
102
{ACAD_REACTORS
330
1576
102
}
330
1576
100
AcDbXrecord
280
     1
270
     1
271
     1
  0
XRECORD
  5
157A
102
{ACAD_REACTORS
330
1576
102
}
330
1576
100
AcDbXrecord
280
     1
270
     1
271
     1
  0
XRECORD
  5
157C
102
{ACAD_REACTORS
330
1576
102
}
330
1576
100
AcDbXrecord
280
     1
270
     1
271
     1
  0
XRECORD
  5
1579
102
{ACAD_REACTORS
330
1576
102
}
330
1576
100
AcDbXrecord
280
     1
270
     1
271
     1
  0
XRECORD
  5
1570
102
{ACAD_REACTORS
330
156E
102
}
330
156E
100
AcDbXrecord
280
     1
270
     1
271
     1
  0
XRECORD
  5
156F
102
{ACAD_REACTORS
330
156E
102
}
330
156E
100
AcDbXrecord
280
     1
270
     1
271
     1
  0
XRECORD
  5
1573
102
{ACAD_REACTORS
330
156E
102
}
330
156E
100
AcDbXrecord
280
     1
270
     1
271
     1
  0
XRECORD
  5
1572
102
{ACAD_REACTORS
330
156E
102
}
330
156E
100
AcDbXrecord
280
     1
270
     1
271
     1
  0
XRECORD
  5
1574
102
{ACAD_REACTORS
330
156E
102
}
330
156E
100
AcDbXrecord
280
     1
270
     1
271
     1
  0
XRECORD
  5
1571
102
{ACAD_REACTORS
330
156E
102
}
330
156E
100
AcDbXrecord
280
     1
270
     1
271
     1
  0
XRECORD
  5
1580
102
{ACAD_REACTORS
330
157E
102
}
330
157E
100
AcDbXrecord
280
     1
270
     1
271
     1
  0
XRECORD
  5
157F
102
{ACAD_REACTORS
330
157E
102
}
330
157E
100
AcDbXrecord
280
     1
270
     1
271
     1
  0
XRECORD
  5
1583
102
{ACAD_REACTORS
330
157E
102
}
330
157E
100
AcDbXrecord
280
     1
270
     1
271
     1
  0
XRECORD
  5
1582
102
{ACAD_REACTORS
330
157E
102
}
330
157E
100
AcDbXrecord
280
     1
270
     1
271
     1
  0
XRECORD
  5
1584
102
{ACAD_REACTORS
330
157E
102
}
330
157E
100
AcDbXrecord
280
     1
270
     1
271
     1
  0
XRECORD
  5
1581
102
{ACAD_REACTORS
330
157E
102
}
330
157E
100
AcDbXrecord
280
     1
270
     1
271
     1
  0
CELLSTYLEMAP
  5
1648
102
{ACAD_REACTORS
330
15C2
102
}
330
15C2
100
AcDbCellStyleMap
 90
        3
300
CELLSTYLE
  1
TABLEFORMAT_BEGIN
 90
        5
170
     1
 91
        0
 92
    32768
 62
   257
 93
        1
300
CONTENTFORMAT
  1
CONTENTFORMAT_BEGIN
 90
        0
 91
        0
 92
      512
 93
        0
300

 40
0.0
140
1.0
 94
        5
 62
     0
340
11
144
0.25
309
CONTENTFORMAT_END
171
     0
 94
        0
309
TABLEFORMAT_END
  1
CELLSTYLE_BEGIN
 90
        1
 91
        1
300
_TITLE
309
CELLSTYLE_END
300
CELLSTYLE
  1
TABLEFORMAT_BEGIN
 90
        5
170
     1
 91
        0
 92
        0
 62
   257
 93
        1
300
CONTENTFORMAT
  1
CONTENTFORMAT_BEGIN
 90
        0
 91
        0
 92
      512
 93
        0
300

 40
0.0
140
1.0
 94
        5
 62
     0
340
11
144
0.18
309
CONTENTFORMAT_END
171
     0
 94
        0
309
TABLEFORMAT_END
  1
CELLSTYLE_BEGIN
 90
        2
 91
        1
300
_HEADER
309
CELLSTYLE_END
300
CELLSTYLE
  1
TABLEFORMAT_BEGIN
 90
        5
170
     1
 91
        0
 92
        0
 62
   257
 93
        1
300
CONTENTFORMAT
  1
CONTENTFORMAT_BEGIN
 90
        0
 91
        0
 92
      512
 93
        0
300

 40
0.0
140
1.0
 94
        2
 62
     0
340
11
144
0.18
309
CONTENTFORMAT_END
171
     0
 94
        0
309
TABLEFORMAT_END
  1
CELLSTYLE_BEGIN
 90
        3
 91
        2
300
_DATA
309
CELLSTYLE_END
  0
XRECORD
  5
15D9
102
{ACAD_REACTORS
330
15D8
102
}
330
15D8
100
AcDbXrecord
280
     1
102
RTVSPropertyOp0
 70
     1
102
RTVSPropertyOp1
 70
     1
102
RTVSPropertyOp2
 70
     1
102
RTVSPropertyOp3
 70
     1
102
RTVSPropertyOp4
 70
     1
102
RTVSPropertyOp5
 70
     1
102
RTVSPropertyOp6
 70
     1
102
RTVSPropertyOp7
 70
     1
102
RTVSPropertyOp8
 70
     1
102
RTVSPropertyOp9
 70
     1
102
RTVSPropertyOp10
 70
     1
102
RTVSPropertyOp11
 70
     1
102
RTVSPropertyOp12
 70
     1
102
RTVSPropertyOp13
 70
     1
102
RTVSPropertyOp14
 70
     1
102
RTVSPropertyOp15
 70
     1
102
RTVSPropertyOp16
 70
     1
102
RTVSPropertyOp17
 70
     1
102
RTVSPropertyOp18
 70
     1
102
RTVSPropertyOp19
 70
     1
102
RTVSPropertyOp20
 70
     1
102
RTVSPropertyOp21
 70
     1
102
RTVSPropertyOp22
 70
     1
102
RTVSPropertyOp23
 70
     1
102
RTVSPropertyOp24
 70
     1
102
RTVSPropertyOp25
 70
     1
102
RTVSPropertyOp26
 70
     1
102
RTVSPropertyOp27
 70
     1
  0
XRECORD
  5
15DD
102
{ACAD_REACTORS
330
15DC
102
}
330
15DC
100
AcDbXrecord
280
     1
102
RTVSPropertyOp0
 70
     1
102
RTVSPropertyOp1
 70
     1
102
RTVSPropertyOp2
 70
     1
102
RTVSPropertyOp3
 70
     1
102
RTVSPropertyOp4
 70
     1
102
RTVSPropertyOp5
 70
     1
102
RTVSPropertyOp6
 70
     1
102
RTVSPropertyOp7
 70
     1
102
RTVSPropertyOp8
 70
     1
102
RTVSPropertyOp9
 70
     1
102
RTVSPropertyOp10
 70
     1
102
RTVSPropertyOp11
 70
     1
102
RTVSPropertyOp12
 70
     1
102
RTVSPropertyOp13
 70
     1
102
RTVSPropertyOp14
 70
     1
102
RTVSPropertyOp15
 70
     1
102
RTVSPropertyOp16
 70
     1
102
RTVSPropertyOp17
 70
     1
102
RTVSPropertyOp18
 70
     1
102
RTVSPropertyOp19
 70
     1
102
RTVSPropertyOp20
 70
     1
102
RTVSPropertyOp21
 70
     1
102
RTVSPropertyOp22
 70
     1
102
RTVSPropertyOp23
 70
     1
102
RTVSPropertyOp24
 70
     1
102
RTVSPropertyOp25
 70
     1
102
RTVSPropertyOp26
 70
     1
102
RTVSPropertyOp27
 70
     1
  0
XRECORD
  5
15DB
102
{ACAD_REACTORS
330
15DA
102
}
330
15DA
100
AcDbXrecord
280
     1
102
RTVSPropertyOp0
 70
     1
102
RTVSPropertyOp1
 70
     1
102
RTVSPropertyOp2
 70
     1
102
RTVSPropertyOp3
 70
     1
102
RTVSPropertyOp4
 70
     1
102
RTVSPropertyOp5
 70
     1
102
RTVSPropertyOp6
 70
     1
102
RTVSPropertyOp7
 70
     1
102
RTVSPropertyOp8
 70
     1
102
RTVSPropertyOp9
 70
     1
102
RTVSPropertyOp10
 70
     1
102
RTVSPropertyOp11
 70
     1
102
RTVSPropertyOp12
 70
     1
102
RTVSPropertyOp13
 70
     1
102
RTVSPropertyOp14
 70
     1
102
RTVSPropertyOp15
 70
     1
102
RTVSPropertyOp16
 70
     1
102
RTVSPropertyOp17
 70
     1
102
RTVSPropertyOp18
 70
     1
102
RTVSPropertyOp19
 70
     1
102
RTVSPropertyOp20
 70
     1
102
RTVSPropertyOp21
 70
     1
102
RTVSPropertyOp22
 70
     1
102
RTVSPropertyOp23
 70
     1
102
RTVSPropertyOp24
 70
     1
102
RTVSPropertyOp25
 70
     1
102
RTVSPropertyOp26
 70
     1
102
RTVSPropertyOp27
 70
     1
  0
XRECORD
  5
15D7
102
{ACAD_REACTORS
330
15D6
102
}
330
15D6
100
AcDbXrecord
280
     1
102
RTVSPropertyOp0
 70
     1
102
RTVSPropertyOp1
 70
     1
102
RTVSPropertyOp2
 70
     1
102
RTVSPropertyOp3
 70
     1
102
RTVSPropertyOp4
 70
     1
102
RTVSPropertyOp5
 70
     1
102
RTVSPropertyOp6
 70
     1
102
RTVSPropertyOp7
 70
     1
102
RTVSPropertyOp8
 70
     1
102
RTVSPropertyOp9
 70
     1
102
RTVSPropertyOp10
 70
     1
102
RTVSPropertyOp11
 70
     1
102
RTVSPropertyOp12
 70
     1
102
RTVSPropertyOp13
 70
     1
102
RTVSPropertyOp14
 70
     1
102
RTVSPropertyOp15
 70
     1
102
RTVSPropertyOp16
 70
     1
102
RTVSPropertyOp17
 70
     1
102
RTVSPropertyOp18
 70
     1
102
RTVSPropertyOp19
 70
     1
102
RTVSPropertyOp20
 70
     1
102
RTVSPropertyOp21
 70
     1
102
RTVSPropertyOp22
 70
     1
102
RTVSPropertyOp23
 70
     1
102
RTVSPropertyOp24
 70
     1
102
RTVSPropertyOp25
 70
     1
102
RTVSPropertyOp26
 70
     1
102
RTVSPropertyOp27
 70
     1
  0
XRECORD
  5
15E5
102
{ACAD_REACTORS
330
15E4
102
}
330
15E4
100
AcDbXrecord
280
     1
102
RTVSPropertyOp0
 70
     1
102
RTVSPropertyOp1
 70
     1
102
RTVSPropertyOp2
 70
     1
102
RTVSPropertyOp3
 70
     1
102
RTVSPropertyOp4
 70
     1
102
RTVSPropertyOp5
 70
     1
102
RTVSPropertyOp6
 70
     1
102
RTVSPropertyOp7
 70
     1
102
RTVSPropertyOp8
 70
     1
102
RTVSPropertyOp9
 70
     1
102
RTVSPropertyOp10
 70
     1
102
RTVSPropertyOp11
 70
     1
102
RTVSPropertyOp12
 70
     1
102
RTVSPropertyOp13
 70
     1
102
RTVSPropertyOp14
 70
     1
102
RTVSPropertyOp15
 70
     1
102
RTVSPropertyOp16
 70
     1
102
RTVSPropertyOp17
 70
     1
102
RTVSPropertyOp18
 70
     1
102
RTVSPropertyOp19
 70
     1
102
RTVSPropertyOp20
 70
     1
102
RTVSPropertyOp21
 70
     1
102
RTVSPropertyOp22
 70
     1
102
RTVSPropertyOp23
 70
     1
102
RTVSPropertyOp24
 70
     1
102
RTVSPropertyOp25
 70
     1
102
RTVSPropertyOp26
 70
     1
102
RTVSPropertyOp27
 70
     1
  0
XRECORD
  5
15ED
102
{ACAD_REACTORS
330
15EC
102
}
330
15EC
100
AcDbXrecord
280
     1
102
RTVSPropertyOp0
 70
     1
102
RTVSPropertyOp1
 70
     1
102
RTVSPropertyOp2
 70
     1
102
RTVSPropertyOp3
 70
     1
102
RTVSPropertyOp4
 70
     1
102
RTVSPropertyOp5
 70
     1
102
RTVSPropertyOp6
 70
     1
102
RTVSPropertyOp7
 70
     1
102
RTVSPropertyOp8
 70
     1
102
RTVSPropertyOp9
 70
     1
102
RTVSPropertyOp10
 70
     1
102
RTVSPropertyOp11
 70
     1
102
RTVSPropertyOp12
 70
     1
102
RTVSPropertyOp13
 70
     1
102
RTVSPropertyOp14
 70
     1
102
RTVSPropertyOp15
 70
     1
102
RTVSPropertyOp16
 70
     1
102
RTVSPropertyOp17
 70
     1
102
RTVSPropertyOp18
 70
     1
102
RTVSPropertyOp19
 70
     1
102
RTVSPropertyOp20
 70
     1
102
RTVSPropertyOp21
 70
     1
102
RTVSPropertyOp22
 70
     1
102
RTVSPropertyOp23
 70
     1
102
RTVSPropertyOp24
 70
     1
102
RTVSPropertyOp25
 70
     1
102
RTVSPropertyOp26
 70
     1
102
RTVSPropertyOp27
 70
     1
  0
XRECORD
  5
15DF
102
{ACAD_REACTORS
330
15DE
102
}
330
15DE
100
AcDbXrecord
280
     1
102
RTVSPropertyOp0
 70
     1
102
RTVSPropertyOp1
 70
     1
102
RTVSPropertyOp2
 70
     1
102
RTVSPropertyOp3
 70
     1
102
RTVSPropertyOp4
 70
     1
102
RTVSPropertyOp5
 70
     1
102
RTVSPropertyOp6
 70
     1
102
RTVSPropertyOp7
 70
     1
102
RTVSPropertyOp8
 70
     1
102
RTVSPropertyOp9
 70
     1
102
RTVSPropertyOp10
 70
     1
102
RTVSPropertyOp11
 70
     1
102
RTVSPropertyOp12
 70
     1
102
RTVSPropertyOp13
 70
     1
102
RTVSPropertyOp14
 70
     1
102
RTVSPropertyOp15
 70
     1
102
RTVSPropertyOp16
 70
     1
102
RTVSPropertyOp17
 70
     1
102
RTVSPropertyOp18
 70
     1
102
RTVSPropertyOp19
 70
     1
102
RTVSPropertyOp20
 70
     1
102
RTVSPropertyOp21
 70
     1
102
RTVSPropertyOp22
 70
     1
102
RTVSPropertyOp23
 70
     1
102
RTVSPropertyOp24
 70
     1
102
RTVSPropertyOp25
 70
     1
102
RTVSPropertyOp26
 70
     1
102
RTVSPropertyOp27
 70
     1
  0
XRECORD
  5
15E3
102
{ACAD_REACTORS
330
15E2
102
}
330
15E2
100
AcDbXrecord
280
     1
102
RTVSPropertyOp0
 70
     1
102
RTVSPropertyOp1
 70
     1
102
RTVSPropertyOp2
 70
     1
102
RTVSPropertyOp3
 70
     1
102
RTVSPropertyOp4
 70
     1
102
RTVSPropertyOp5
 70
     1
102
RTVSPropertyOp6
 70
     1
102
RTVSPropertyOp7
 70
     1
102
RTVSPropertyOp8
 70
     1
102
RTVSPropertyOp9
 70
     1
102
RTVSPropertyOp10
 70
     1
102
RTVSPropertyOp11
 70
     1
102
RTVSPropertyOp12
 70
     1
102
RTVSPropertyOp13
 70
     1
102
RTVSPropertyOp14
 70
     1
102
RTVSPropertyOp15
 70
     1
102
RTVSPropertyOp16
 70
     1
102
RTVSPropertyOp17
 70
     1
102
RTVSPropertyOp18
 70
     1
102
RTVSPropertyOp19
 70
     1
102
RTVSPropertyOp20
 70
     1
102
RTVSPropertyOp21
 70
     1
102
RTVSPropertyOp22
 70
     1
102
RTVSPropertyOp23
 70
     1
102
RTVSPropertyOp24
 70
     1
102
RTVSPropertyOp25
 70
     1
102
RTVSPropertyOp26
 70
     1
102
RTVSPropertyOp27
 70
     1
  0
XRECORD
  5
15F3
102
{ACAD_REACTORS
330
15F2
102
}
330
15F2
100
AcDbXrecord
280
     1
102
RTVSPropertyOp0
 70
     0
102
RTVSPropertyOp1
 70
     0
102
RTVSPropertyOp2
 70
     0
102
RTVSPropertyOp3
 70
     0
102
RTVSPropertyOp4
 70
     0
102
RTVSPropertyOp5
 70
     0
102
RTVSPropertyOp6
 70
     0
102
RTVSPropertyOp7
 70
     0
102
RTVSPropertyOp8
 70
     0
102
RTVSPropertyOp9
 70
     0
102
RTVSPropertyOp10
 70
     0
102
RTVSPropertyOp11
 70
     0
102
RTVSPropertyOp12
 70
     0
102
RTVSPropertyOp13
 70
     0
102
RTVSPropertyOp14
 70
     2
102
RTVSPropertyOp15
 70
     0
102
RTVSPropertyOp16
 70
     0
102
RTVSPropertyOp17
 70
     0
102
RTVSPropertyOp18
 70
     0
102
RTVSPropertyOp19
 70
     0
102
RTVSPropertyOp20
 70
     0
102
RTVSPropertyOp21
 70
     0
102
RTVSPropertyOp22
 70
     0
102
RTVSPropertyOp23
 70
     0
102
RTVSPropertyOp24
 70
     0
102
RTVSPropertyOp25
 70
     0
102
RTVSPropertyOp26
 70
     0
102
RTVSPropertyOp27
 70
     0
  0
XRECORD
  5
15EB
102
{ACAD_REACTORS
330
15EA
102
}
330
15EA
100
AcDbXrecord
280
     1
102
RTVSPropertyOp0
 70
     1
102
RTVSPropertyOp1
 70
     1
102
RTVSPropertyOp2
 70
     1
102
RTVSPropertyOp3
 70
     1
102
RTVSPropertyOp4
 70
     1
102
RTVSPropertyOp5
 70
     1
102
RTVSPropertyOp6
 70
     1
102
RTVSPropertyOp7
 70
     1
102
RTVSPropertyOp8
 70
     1
102
RTVSPropertyOp9
 70
     1
102
RTVSPropertyOp10
 70
     1
102
RTVSPropertyOp11
 70
     1
102
RTVSPropertyOp12
 70
     1
102
RTVSPropertyOp13
 70
     1
102
RTVSPropertyOp14
 70
     1
102
RTVSPropertyOp15
 70
     1
102
RTVSPropertyOp16
 70
     1
102
RTVSPropertyOp17
 70
     1
102
RTVSPropertyOp18
 70
     1
102
RTVSPropertyOp19
 70
     1
102
RTVSPropertyOp20
 70
     1
102
RTVSPropertyOp21
 70
     1
102
RTVSPropertyOp22
 70
     1
102
RTVSPropertyOp23
 70
     1
102
RTVSPropertyOp24
 70
     1
102
RTVSPropertyOp25
 70
     1
102
RTVSPropertyOp26
 70
     1
102
RTVSPropertyOp27
 70
     1
  0
XRECORD
  5
15CF
102
{ACAD_REACTORS
330
15CE
102
}
330
15CE
100
AcDbXrecord
280
     1
102
RTVSPropertyOp0
 70
     1
102
RTVSPropertyOp1
 70
     1
102
RTVSPropertyOp2
 70
     1
102
RTVSPropertyOp3
 70
     1
102
RTVSPropertyOp4
 70
     1
102
RTVSPropertyOp5
 70
     1
102
RTVSPropertyOp6
 70
     1
102
RTVSPropertyOp7
 70
     1
102
RTVSPropertyOp8
 70
     1
102
RTVSPropertyOp9
 70
     1
102
RTVSPropertyOp10
 70
     1
102
RTVSPropertyOp11
 70
     1
102
RTVSPropertyOp12
 70
     1
102
RTVSPropertyOp13
 70
     1
102
RTVSPropertyOp14
 70
     1
102
RTVSPropertyOp15
 70
     1
102
RTVSPropertyOp16
 70
     1
102
RTVSPropertyOp17
 70
     1
102
RTVSPropertyOp18
 70
     1
102
RTVSPropertyOp19
 70
     1
102
RTVSPropertyOp20
 70
     1
102
RTVSPropertyOp21
 70
     1
102
RTVSPropertyOp22
 70
     1
102
RTVSPropertyOp23
 70
     1
102
RTVSPropertyOp24
 70
     1
102
RTVSPropertyOp25
 70
     1
102
RTVSPropertyOp26
 70
     1
102
RTVSPropertyOp27
 70
     1
  0
XRECORD
  5
15D1
102
{ACAD_REACTORS
330
15D0
102
}
330
15D0
100
AcDbXrecord
280
     1
102
RTVSPropertyOp0
 70
     1
102
RTVSPropertyOp1
 70
     1
102
RTVSPropertyOp2
 70
     1
102
RTVSPropertyOp3
 70
     1
102
RTVSPropertyOp4
 70
     1
102
RTVSPropertyOp5
 70
     1
102
RTVSPropertyOp6
 70
     1
102
RTVSPropertyOp7
 70
     1
102
RTVSPropertyOp8
 70
     1
102
RTVSPropertyOp9
 70
     1
102
RTVSPropertyOp10
 70
     1
102
RTVSPropertyOp11
 70
     1
102
RTVSPropertyOp12
 70
     1
102
RTVSPropertyOp13
 70
     1
102
RTVSPropertyOp14
 70
     1
102
RTVSPropertyOp15
 70
     1
102
RTVSPropertyOp16
 70
     1
102
RTVSPropertyOp17
 70
     1
102
RTVSPropertyOp18
 70
     1
102
RTVSPropertyOp19
 70
     1
102
RTVSPropertyOp20
 70
     1
102
RTVSPropertyOp21
 70
     1
102
RTVSPropertyOp22
 70
     1
102
RTVSPropertyOp23
 70
     1
102
RTVSPropertyOp24
 70
     1
102
RTVSPropertyOp25
 70
     1
102
RTVSPropertyOp26
 70
     1
102
RTVSPropertyOp27
 70
     1
  0
XRECORD
  5
15D3
102
{ACAD_REACTORS
330
15D2
102
}
330
15D2
100
AcDbXrecord
280
     1
102
RTVSPropertyOp0
 70
     1
102
RTVSPropertyOp1
 70
     1
102
RTVSPropertyOp2
 70
     1
102
RTVSPropertyOp3
 70
     1
102
RTVSPropertyOp4
 70
     1
102
RTVSPropertyOp5
 70
     1
102
RTVSPropertyOp6
 70
     1
102
RTVSPropertyOp7
 70
     1
102
RTVSPropertyOp8
 70
     1
102
RTVSPropertyOp9
 70
     1
102
RTVSPropertyOp10
 70
     1
102
RTVSPropertyOp11
 70
     1
102
RTVSPropertyOp12
 70
     1
102
RTVSPropertyOp13
 70
     1
102
RTVSPropertyOp14
 70
     1
102
RTVSPropertyOp15
 70
     1
102
RTVSPropertyOp16
 70
     1
102
RTVSPropertyOp17
 70
     1
102
RTVSPropertyOp18
 70
     1
102
RTVSPropertyOp19
 70
     1
102
RTVSPropertyOp20
 70
     1
102
RTVSPropertyOp21
 70
     1
102
RTVSPropertyOp22
 70
     1
102
RTVSPropertyOp23
 70
     1
102
RTVSPropertyOp24
 70
     1
102
RTVSPropertyOp25
 70
     1
102
RTVSPropertyOp26
 70
     1
102
RTVSPropertyOp27
 70
     1
  0
XRECORD
  5
15D5
102
{ACAD_REACTORS
330
15D4
102
}
330
15D4
100
AcDbXrecord
280
     1
102
RTVSPropertyOp0
 70
     1
102
RTVSPropertyOp1
 70
     1
102
RTVSPropertyOp2
 70
     1
102
RTVSPropertyOp3
 70
     1
102
RTVSPropertyOp4
 70
     1
102
RTVSPropertyOp5
 70
     1
102
RTVSPropertyOp6
 70
     1
102
RTVSPropertyOp7
 70
     1
102
RTVSPropertyOp8
 70
     1
102
RTVSPropertyOp9
 70
     1
102
RTVSPropertyOp10
 70
     1
102
RTVSPropertyOp11
 70
     1
102
RTVSPropertyOp12
 70
     1
102
RTVSPropertyOp13
 70
     1
102
RTVSPropertyOp14
 70
     1
102
RTVSPropertyOp15
 70
     1
102
RTVSPropertyOp16
 70
     1
102
RTVSPropertyOp17
 70
     1
102
RTVSPropertyOp18
 70
     1
102
RTVSPropertyOp19
 70
     1
102
RTVSPropertyOp20
 70
     1
102
RTVSPropertyOp21
 70
     1
102
RTVSPropertyOp22
 70
     1
102
RTVSPropertyOp23
 70
     1
102
RTVSPropertyOp24
 70
     1
102
RTVSPropertyOp25
 70
     1
102
RTVSPropertyOp26
 70
     1
102
RTVSPropertyOp27
 70
     1
  0
XRECORD
  5
15EF
102
{ACAD_REACTORS
330
15EE
102
}
330
15EE
100
AcDbXrecord
280
     1
102
RTVSPropertyOp0
 70
     0
102
RTVSPropertyOp1
 70
     0
102
RTVSPropertyOp2
 70
     0
102
RTVSPropertyOp3
 70
     0
102
RTVSPropertyOp4
 70
     0
102
RTVSPropertyOp5
 70
     0
102
RTVSPropertyOp6
 70
     0
102
RTVSPropertyOp7
 70
     0
102
RTVSPropertyOp8
 70
     0
102
RTVSPropertyOp9
 70
     0
102
RTVSPropertyOp10
 70
     0
102
RTVSPropertyOp11
 70
     0
102
RTVSPropertyOp12
 70
     0
102
RTVSPropertyOp13
 70
     0
102
RTVSPropertyOp14
 70
     2
102
RTVSPropertyOp15
 70
     0
102
RTVSPropertyOp16
 70
     0
102
RTVSPropertyOp17
 70
     0
102
RTVSPropertyOp18
 70
     0
102
RTVSPropertyOp19
 70
     0
102
RTVSPropertyOp20
 70
     0
102
RTVSPropertyOp21
 70
     0
102
RTVSPropertyOp22
 70
     0
102
RTVSPropertyOp23
 70
     0
102
RTVSPropertyOp24
 70
     0
102
RTVSPropertyOp25
 70
     0
102
RTVSPropertyOp26
 70
     0
102
RTVSPropertyOp27
 70
     0
  0
XRECORD
  5
15E9
102
{ACAD_REACTORS
330
15E8
102
}
330
15E8
100
AcDbXrecord
280
     1
102
RTVSPropertyOp0
 70
     1
102
RTVSPropertyOp1
 70
     1
102
RTVSPropertyOp2
 70
     1
102
RTVSPropertyOp3
 70
     1
102
RTVSPropertyOp4
 70
     1
102
RTVSPropertyOp5
 70
     1
102
RTVSPropertyOp6
 70
     1
102
RTVSPropertyOp7
 70
     1
102
RTVSPropertyOp8
 70
     1
102
RTVSPropertyOp9
 70
     1
102
RTVSPropertyOp10
 70
     1
102
RTVSPropertyOp11
 70
     1
102
RTVSPropertyOp12
 70
     1
102
RTVSPropertyOp13
 70
     1
102
RTVSPropertyOp14
 70
     1
102
RTVSPropertyOp15
 70
     1
102
RTVSPropertyOp16
 70
     1
102
RTVSPropertyOp17
 70
     1
102
RTVSPropertyOp18
 70
     1
102
RTVSPropertyOp19
 70
     1
102
RTVSPropertyOp20
 70
     1
102
RTVSPropertyOp21
 70
     1
102
RTVSPropertyOp22
 70
     1
102
RTVSPropertyOp23
 70
     1
102
RTVSPropertyOp24
 70
     1
102
RTVSPropertyOp25
 70
     1
102
RTVSPropertyOp26
 70
     1
102
RTVSPropertyOp27
 70
     1
  0
XRECORD
  5
15F1
102
{ACAD_REACTORS
330
15F0
102
}
330
15F0
100
AcDbXrecord
280
     1
102
RTVSPropertyOp0
 70
     0
102
RTVSPropertyOp1
 70
     0
102
RTVSPropertyOp2
 70
     0
102
RTVSPropertyOp3
 70
     0
102
RTVSPropertyOp4
 70
     0
102
RTVSPropertyOp5
 70
     0
102
RTVSPropertyOp6
 70
     0
102
RTVSPropertyOp7
 70
     0
102
RTVSPropertyOp8
 70
     0
102
RTVSPropertyOp9
 70
     0
102
RTVSPropertyOp10
 70
     0
102
RTVSPropertyOp11
 70
     0
102
RTVSPropertyOp12
 70
     0
102
RTVSPropertyOp13
 70
     0
102
RTVSPropertyOp14
 70
     2
102
RTVSPropertyOp15
 70
     0
102
RTVSPropertyOp16
 70
     0
102
RTVSPropertyOp17
 70
     0
102
RTVSPropertyOp18
 70
     0
102
RTVSPropertyOp19
 70
     0
102
RTVSPropertyOp20
 70
     0
102
RTVSPropertyOp21
 70
     0
102
RTVSPropertyOp22
 70
     0
102
RTVSPropertyOp23
 70
     0
102
RTVSPropertyOp24
 70
     0
102
RTVSPropertyOp25
 70
     0
102
RTVSPropertyOp26
 70
     0
102
RTVSPropertyOp27
 70
     0
  0
XRECORD
  5
15E1
102
{ACAD_REACTORS
330
15E0
102
}
330
15E0
100
AcDbXrecord
280
     1
102
RTVSPropertyOp0
 70
     1
102
RTVSPropertyOp1
 70
     1
102
RTVSPropertyOp2
 70
     1
102
RTVSPropertyOp3
 70
     1
102
RTVSPropertyOp4
 70
     1
102
RTVSPropertyOp5
 70
     1
102
RTVSPropertyOp6
 70
     1
102
RTVSPropertyOp7
 70
     1
102
RTVSPropertyOp8
 70
     1
102
RTVSPropertyOp9
 70
     1
102
RTVSPropertyOp10
 70
     1
102
RTVSPropertyOp11
 70
     1
102
RTVSPropertyOp12
 70
     1
102
RTVSPropertyOp13
 70
     1
102
RTVSPropertyOp14
 70
     1
102
RTVSPropertyOp15
 70
     1
102
RTVSPropertyOp16
 70
     1
102
RTVSPropertyOp17
 70
     1
102
RTVSPropertyOp18
 70
     1
102
RTVSPropertyOp19
 70
     1
102
RTVSPropertyOp20
 70
     1
102
RTVSPropertyOp21
 70
     1
102
RTVSPropertyOp22
 70
     1
102
RTVSPropertyOp23
 70
     1
102
RTVSPropertyOp24
 70
     1
102
RTVSPropertyOp25
 70
     1
102
RTVSPropertyOp26
 70
     1
102
RTVSPropertyOp27
 70
     1
  0
XRECORD
  5
15E7
102
{ACAD_REACTORS
330
15E6
102
}
330
15E6
100
AcDbXrecord
280
     1
102
RTVSPropertyOp0
 70
     1
102
RTVSPropertyOp1
 70
     1
102
RTVSPropertyOp2
 70
     1
102
RTVSPropertyOp3
 70
     1
102
RTVSPropertyOp4
 70
     1
102
RTVSPropertyOp5
 70
     1
102
RTVSPropertyOp6
 70
     1
102
RTVSPropertyOp7
 70
     1
102
RTVSPropertyOp8
 70
     1
102
RTVSPropertyOp9
 70
     1
102
RTVSPropertyOp10
 70
     1
102
RTVSPropertyOp11
 70
     1
102
RTVSPropertyOp12
 70
     1
102
RTVSPropertyOp13
 70
     1
102
RTVSPropertyOp14
 70
     1
102
RTVSPropertyOp15
 70
     1
102
RTVSPropertyOp16
 70
     1
102
RTVSPropertyOp17
 70
     1
102
RTVSPropertyOp18
 70
     1
102
RTVSPropertyOp19
 70
     1
102
RTVSPropertyOp20
 70
     1
102
RTVSPropertyOp21
 70
     1
102
RTVSPropertyOp22
 70
     1
102
RTVSPropertyOp23
 70
     1
102
RTVSPropertyOp24
 70
     1
102
RTVSPropertyOp25
 70
     1
102
RTVSPropertyOp26
 70
     1
102
RTVSPropertyOp27
 70
     1
  0
ENDSEC
  0
EOF
