  0
SECTION
  2
HEADER
  9
$ACADVER
  1
AC1014
  9
$DWGCODEPAGE
  3
ANSI_1252
  9
$EXTMAX
 10
22.0
 20
17.0
 30
0.0
  9
$EXTMIN
 10
0.0
 20
0.0
 30
0.0
  9
$LIMMIN
 10
0.0
 20
0.0
  9
$LIMMAX
 10
22.0
 20
17.0
  9
$VIEWCTR
 10
11.0
 20
8.5
  9
$VIEWSIZE
 40
17.0
  9
$CLAYER
  8
0
  9
$LTSCALE
 40
1.21
  9
$CELTYPE
  6
BYLAYER
  9
$DIMSCALE
 40
1.0
  9
$DIMASZ
 40
0.1875
  9
$DIMEXO
 40
0.1375
  9
$DIMDLI
 40
0.836
  9
$DIMEXE
 40
0.396
  9
$DIMCEN
 40
0.198
  9
$DIMLFAC
 40
1.0
  9
$DIMBLK
  1
_ARROW_FILLED
  9
$DIMTXT
 40
0.125
  9
$DIMTOL
 70
1
  9
$DIMLIM
 70
0
  9
$DIMTFAC
 40
1.0
  9
$DIMTP
 40
0.00001
  9
$DIMTM
 40
0.00001
  9
$PDMODE
 70
3
  9
$PDSIZE
 40
0.03125
  9
$HANDSEED
  5
38F
  9
$TILEMODE
 70
1
  9
$MEASUREMENT
 70
0
  0
ENDSEC
  0
SECTION
  2
CLASSES
  0
ENDSEC
  0
SECTION
  2
TABLES
  0
TABLE
  2
VPORT
  5
8
100
AcDbSymbolTable
 70
2
  0
VPORT
  5
1F4
100
AcDbSymbolTableRecord
100
AcDbViewportTableRecord
  2
*ACTIVE
 70
0
 10
0.0
 20
0.0
 11
1.0
 21
1.0
 12
11.0
 22
8.5
 13
0.0
 23
0.0
 14
1.0
 24
1.0
 15
0.0
 25
0.0
 16
0.0
 26
0.0
 36
1.0
 17
0.0
 27
0.0
 37
0.0
 40
17.0
 41
1.2941176471
 42
50.0
 43
0.0
 44
0.0
 50
0.0
 51
0.0
 71
0
 72
100
 73
1
 74
1
 75
0
 76
0
 77
0
 78
0
  0
ENDTAB
  0
TABLE
  2
LTYPE
  5
5
100
AcDbSymbolTable
 70
6
  0
LTYPE
  5
14
100
AcDbSymbolTableRecord
100
AcDbLinetypeTableRecord
  2
BYBLOCK
 70
0
  3

 72
65
 73
0
 40
0.0
  0
LTYPE
  5
15
100
AcDbSymbolTableRecord
100
AcDbLinetypeTableRecord
  2
BYLAYER
 70
0
  3

 72
65
 73
0
 40
0.0
  0
LTYPE
  5
16
100
AcDbSymbolTableRecord
100
AcDbLinetypeTableRecord
  2
CONTINUOUS
 70
64
  3
Solid line
 72
65
 73
0
 40
0.0
  0
LTYPE
  5
1F5
100
AcDbSymbolTableRecord
100
AcDbLinetypeTableRecord
  2
CENTER
 70
64
  3
____ _ ____ _ ____ _ ____ _ ____ _ ____ _ ____
 72
65
 73
4
 40
0.6
 49
0.375
 74
0
 49
-0.075
 74
0
 49
0.075
 74
0
 49
-0.075
 74
0
  0
LTYPE
  5
1F6
100
AcDbSymbolTableRecord
100
AcDbLinetypeTableRecord
  2
HIDDEN
 70
64
  3
- - - - - - - - - - - - - - - - - - - -
 72
65
 73
2
 40
0.2
 49
0.1
 74
0
 49
-0.1
 74
0
  0
LTYPE
  5
1F7
100
AcDbSymbolTableRecord
100
AcDbLinetypeTableRecord
  2
PHANTOM
 70
64
  3
_____ _ _ _____ _ _ _____ _ _ _____
 72
65
 73
6
 40
0.8
 49
0.45
 74
0
 49
-0.05
 74
0
 49
0.1
 74
0
 49
-0.05
 74
0
 49
0.1
 74
0
 49
-0.05
 74
0
  0
LTYPE
  5
1F8
100
AcDbSymbolTableRecord
100
AcDbLinetypeTableRecord
  2
DOT
 70
64
  3
. . . . . . . . . . . . . . . . . . . .
 72
65
 73
2
 40
0.2
 49
0.1
 74
0
 49
-0.1
 74
0
  0
LTYPE
  5
1F9
100
AcDbSymbolTableRecord
100
AcDbLinetypeTableRecord
  2
DASHED
 70
64
  3
- - - - - - - - - - - - - - - - - - - -
 72
65
 73
2
 40
0.2
 49
0.1
 74
0
 49
-0.1
 74
0
  0
ENDTAB
  0
TABLE
  2
LAYER
  5
2
100
AcDbSymbolTable
 70
36
  0
LAYER
  5
10
100
AcDbSymbolTableRecord
100
AcDbLayerTableRecord
  2
0
 70
0
 62
7
  6
CONTINUOUS
  0
LAYER
  5
1FA
100
AcDbSymbolTableRecord
100
AcDbLayerTableRecord
  2
DEFAULT_1
 70
0
 62
7
  6
CENTER
  0
LAYER
  5
1FB
100
AcDbSymbolTableRecord
100
AcDbLayerTableRecord
  2
DEFAULT_2
 70
0
 62
8
  6
HIDDEN
  0
LAYER
  5
1FC
100
AcDbSymbolTableRecord
100
AcDbLayerTableRecord
  2
DEFAULT_3
 70
0
 62
7
  6
PHANTOM
  0
LAYER
  5
1FD
100
AcDbSymbolTableRecord
100
AcDbLayerTableRecord
  2
1_CURVES
 70
0
 62
7
  6
CONTINUOUS
  0
LAYER
  5
1FE
100
AcDbSymbolTableRecord
100
AcDbLayerTableRecord
  2
1_CURVES_CONDUIT
 70
0
 62
7
  6
CONTINUOUS
  0
LAYER
  5
1FF
100
AcDbSymbolTableRecord
100
AcDbLayerTableRecord
  2
1_CURVES_DRW
 70
0
 62
7
  6
CONTINUOUS
  0
LAYER
  5
200
100
AcDbSymbolTableRecord
100
AcDbLayerTableRecord
  2
1_CURVES_JETS
 70
0
 62
7
  6
CONTINUOUS
  0
LAYER
  5
201
100
AcDbSymbolTableRecord
100
AcDbLayerTableRecord
  2
1_CURVES_PATINS
 70
0
 62
7
  6
CONTINUOUS
  0
LAYER
  5
202
100
AcDbSymbolTableRecord
100
AcDbLayerTableRecord
  2
1_CURVES_RESURFACAGE
 70
0
 62
7
  6
CONTINUOUS
  0
LAYER
  5
203
100
AcDbSymbolTableRecord
100
AcDbLayerTableRecord
  2
1_CURVES_SPEC
 70
0
 62
7
  6
CONTINUOUS
  0
LAYER
  5
204
100
AcDbSymbolTableRecord
100
AcDbLayerTableRecord
  2
2_PLANES
 70
0
 62
7
  6
CONTINUOUS
  0
LAYER
  5
205
100
AcDbSymbolTableRecord
100
AcDbLayerTableRecord
  2
2_PLANES_JETS
 70
0
 62
7
  6
CONTINUOUS
  0
LAYER
  5
206
100
AcDbSymbolTableRecord
100
AcDbLayerTableRecord
  2
3_POINTS
 70
0
 62
7
  6
CONTINUOUS
  0
LAYER
  5
207
100
AcDbSymbolTableRecord
100
AcDbLayerTableRecord
  2
3_POINTS_JETS
 70
0
 62
7
  6
CONTINUOUS
  0
LAYER
  5
208
100
AcDbSymbolTableRecord
100
AcDbLayerTableRecord
  2
4_CSYS
 70
0
 62
7
  6
CONTINUOUS
  0
LAYER
  5
209
100
AcDbSymbolTableRecord
100
AcDbLayerTableRecord
  2
5_AXIS
 70
0
 62
7
  6
CONTINUOUS
  0
LAYER
  5
20A
100
AcDbSymbolTableRecord
100
AcDbLayerTableRecord
  2
5_AXIS_JETS
 70
0
 62
7
  6
CONTINUOUS
  0
LAYER
  5
20B
100
AcDbSymbolTableRecord
100
AcDbLayerTableRecord
  2
6_AIRE_CONDUIT
 70
0
 62
7
  6
CONTINUOUS
  0
LAYER
  5
20C
100
AcDbSymbolTableRecord
100
AcDbLayerTableRecord
  2
6_SURFACE-OFFSET-FIBRE-ACRYLIQU
 70
0
 62
7
  6
CONTINUOUS
  0
LAYER
  5
20D
100
AcDbSymbolTableRecord
100
AcDbLayerTableRecord
  2
6_SURFACES
 70
0
 62
7
  6
CONTINUOUS
  0
LAYER
  5
20E
100
AcDbSymbolTableRecord
100
AcDbLayerTableRecord
  2
6_SURFACES-PATINS-SPEC
 70
0
 62
7
  6
CONTINUOUS
  0
LAYER
  5
20F
100
AcDbSymbolTableRecord
100
AcDbLayerTableRecord
  2
6_SURFACES_AIRE
 70
0
 62
7
  6
CONTINUOUS
  0
LAYER
  5
210
100
AcDbSymbolTableRecord
100
AcDbLayerTableRecord
  2
6_SURFACES_OFFSET_FIBRE
 70
0
 62
7
  6
CONTINUOUS
  0
LAYER
  5
211
100
AcDbSymbolTableRecord
100
AcDbLayerTableRecord
  2
6_SURFACES_OFFSET_FIBRE_ACRYLIQ
 70
0
 62
7
  6
CONTINUOUS
  0
LAYER
  5
212
100
AcDbSymbolTableRecord
100
AcDbLayerTableRecord
  2
6_SURFACES_POUR_CONDUIT
 70
0
 62
7
  6
CONTINUOUS
  0
LAYER
  5
213
100
AcDbSymbolTableRecord
100
AcDbLayerTableRecord
  2
6_SURFACES_POUR_HFL
 70
0
 62
7
  6
CONTINUOUS
  0
LAYER
  5
214
100
AcDbSymbolTableRecord
100
AcDbLayerTableRecord
  2
6_SURFACES_TOOLING
 70
0
 62
7
  6
CONTINUOUS
  0
LAYER
  5
215
100
AcDbSymbolTableRecord
100
AcDbLayerTableRecord
  2
7_NOTES
 70
0
 62
7
  6
CONTINUOUS
  0
LAYER
  5
216
100
AcDbSymbolTableRecord
100
AcDbLayerTableRecord
  2
8_COSMETIC
 70
0
 62
7
  6
CONTINUOUS
  0
LAYER
  5
217
100
AcDbSymbolTableRecord
100
AcDbLayerTableRecord
  2
8_TOL_GEOM
 70
0
 62
7
  6
CONTINUOUS
  0
LAYER
  5
218
100
AcDbSymbolTableRecord
100
AcDbLayerTableRecord
  2
9_IMPORT
 70
0
 62
7
  6
CONTINUOUS
  0
LAYER
  5
219
100
AcDbSymbolTableRecord
100
AcDbLayerTableRecord
  2
DEGAGEMENT_SERIGRAPHIE
 70
0
 62
7
  6
CONTINUOUS
  0
LAYER
  5
21A
100
AcDbSymbolTableRecord
100
AcDbLayerTableRecord
  2
NONE
 70
0
 62
7
  6
CONTINUOUS
  0
LAYER
  5
21B
100
AcDbSymbolTableRecord
100
AcDbLayerTableRecord
  2
XSEC_DATUMS
 70
0
 62
7
  6
CONTINUOUS
  0
ENDTAB
  0
TABLE
  2
STYLE
  5
3
100
AcDbSymbolTable
 70
1
  0
STYLE
  5
11
100
AcDbSymbolTableRecord
100
AcDbTextStyleTableRecord
  2
STANDARD
 70
0
 40
0.0
 41
0.8
 50
0.0
 71
0
 42
0.2
  3
txt
  4

  0
STYLE
  5
21C
100
AcDbSymbolTableRecord
100
AcDbTextStyleTableRecord
  2
TEXTSTYLE_1
 70
0
 40
0.0
 41
0.8
 50
0.0
 71
0
 42
0.2
  3
gdt
  4

  0
ENDTAB
  0
TABLE
  2
VIEW
  5
6
100
AcDbSymbolTable
 70
0
  0
ENDTAB
  0
TABLE
  2
UCS
  5
7
100
AcDbSymbolTable
 70
0
  0
ENDTAB
  0
TABLE
  2
APPID
  5
9
100
AcDbSymbolTable
 70
1
  0
APPID
  5
21D
100
AcDbSymbolTableRecord
100
AcDbRegAppTableRecord
  2
ACAD
 70
0
  0
ENDTAB
  0
TABLE
  2
BLOCK_RECORD
  5
1
100
AcDbSymbolTable
 70
0
  0
BLOCK_RECORD
  5
1F
100
AcDbSymbolTableRecord
100
AcDbBlockTableRecord
  2
*MODEL_SPACE
  0
BLOCK_RECORD
  5
1B
100
AcDbSymbolTableRecord
100
AcDbBlockTableRecord
  2
*PAPER_SPACE
  0
ENDTAB
  0
TABLE
  2
DIMSTYLE
  5
A
100
AcDbSymbolTable
 70
1
  0
DIMSTYLE
105
21E
100
AcDbSymbolTableRecord
100
AcDbDimStyleTableRecord
  2
STANDARD
 70
0
  3

  4

  5
_ARROW_FILLED
  6
_ARROW_FILLED
  7
_ARROW_FILLED
 40
1.0
 41
0.1875
 42
0.0625
 43
0.38
 44
0.18
 45
0.0
 46
0.0
 47
0.00001
 48
0.00001
140
0.125
141
0.09
142
0.0
143
25.4
144
1.0
145
0.0
146
1.0
147
0.09
 71
1.0
 72
0.0
 73
1
 74
1
 75
0
 76
0
 77
0
 78
4
170
0
171
2
172
0
173
0
174
0
175
0
176
0
177
0
178
0
270
2
271
5
272
5
273
2
274
2
275
0
280
0
281
0
282
0
283
1
284
4
285
0
286
0
287
3
288
0
340
11
  0
ENDTAB
  0
ENDSEC
  0
SECTION
  2
BLOCKS
  0
BLOCK
  5
20
100
AcDbEntity
  8
0
100
AcDbBlockBegin
  2
*MODEL_SPACE
 70
0
 10
0.0
 20
0.0
 30
0.0
  3
*MODEL_SPACE
  1

  0
ENDBLK
  5
21
100
AcDbEntity
  8
0
100
AcDbBlockEnd
  0
BLOCK
  5
1C
100
AcDbEntity
  8
0
100
AcDbBlockBegin
  2
*PAPER_SPACE
 70
0
 10
0.0
 20
0.0
 30
0.0
  3
*PAPER_SPACE
  1

  0
ENDBLK
  5
1D
100
AcDbEntity
  8
0
100
AcDbBlockEnd
  0
ENDSEC
  0
SECTION
  2
ENTITIES
  0
LINE
  5
21F
100
AcDbEntity
  8
0
100
AcDbLine
 62
7
  6
CONTINUOUS
 10
58.6145239993
 20
88.4066585905
 11
58.8328070429
 21
88.6535976585
  0
LWPOLYLINE
  5
220
100
AcDbEntity
  8
0
100
AcDbPolyline
 62
7
  6
CONTINUOUS
 90
34
 70
0
 10
29.6541839417
 20
66.4976751517
 10
29.6536107069
 20
66.4970415167
 10
29.6530003417
 20
66.4964444103
 10
29.6523560639
 20
66.4958820843
 10
29.6516810913
 20
66.4953527905
 10
29.6509786416
 20
66.4948547807
 10
29.6502519326
 20
66.4943863067
 10
29.6495041821
 20
66.4939456204
 10
29.6487386079
 20
66.4935309736
 10
29.6479584277
 20
66.493140618
 10
29.6471668593
 20
66.4927728057
 10
29.6463671205
 20
66.4924257882
 10
29.645562429
 20
66.4920978175
 10
29.6442383908
 20
66.4915971386
 10
29.6429090757
 20
66.4911377136
 10
29.6415738697
 20
66.4907142978
 10
29.6402321594
 20
66.4903216463
 10
29.6388833308
 20
66.4899545145
 10
29.6368097965
 20
66.4894334913
 10
29.6347220197
 20
66.4889541721
 10
29.6326237821
 20
66.4885109972
 10
29.6305188652
 20
66.4880984067
 10
29.6279948898
 20
66.4876377937
 10
29.6254670683
 20
66.4872083646
 10
29.6229357057
 20
66.486805451
 10
29.6204011072
 20
66.4864243846
 10
29.6164314696
 20
66.4858627591
 10
29.6124564062
 20
66.4853352437
 10
29.6084776597
 20
66.4848339301
 10
29.6026031983
 20
66.4841282239
 10
29.5967253742
 20
66.4834541041
 10
29.5908450489
 20
66.4828033303
 10
29.584963084
 20
66.482167662
 10
29.5790803411
 20
66.4815388587
  0
LINE
  5
221
100
AcDbEntity
  8
0
100
AcDbLine
 62
7
  6
CONTINUOUS
 10
58.3807428606
 20
88.1590906725
 11
58.6145239993
 21
88.4066585905
  0
LINE
  5
222
100
AcDbEntity
  8
0
100
AcDbLine
 62
7
  6
CONTINUOUS
 10
43.8050411323
 20
62.5433186812
 11
43.571098295
 21
62.2959035568
  0
LINE
  5
223
100
AcDbEntity
  8
0
100
AcDbLine
 62
7
  6
CONTINUOUS
 10
58.1388701878
 20
87.9195258387
 11
58.3807428606
 21
88.1590906725
  0
LINE
  5
224
100
AcDbEntity
  8
0
100
AcDbLine
 62
7
  6
CONTINUOUS
 10
44.047070273
 20
62.7827254364
 11
43.8050411323
 21
62.5433186812
  0
LINE
  5
225
100
AcDbEntity
  8
0
100
AcDbLine
 62
7
  6
CONTINUOUS
 10
57.8891894671
 20
87.6882378542
 11
58.1388701878
 21
87.9195258387
  0
LINE
  5
226
100
AcDbEntity
  8
0
100
AcDbLine
 62
7
  6
CONTINUOUS
 10
44.2969020522
 20
63.0138502428
 11
44.047070273
 21
62.7827254364
  0
LINE
  5
227
100
AcDbEntity
  8
0
100
AcDbLine
 62
7
  6
CONTINUOUS
 10
57.6319952086
 20
87.4654898805
 11
57.8891894671
 21
87.6882378542
  0
LINE
  5
228
100
AcDbEntity
  8
0
100
AcDbLine
 62
7
  6
CONTINUOUS
 10
44.5542417881
 20
63.2364301312
 11
44.2969020522
 21
63.0138502428
  0
LWPOLYLINE
  5
229
100
AcDbEntity
  8
0
100
AcDbPolyline
 62
7
  6
CONTINUOUS
 90
41
 70
0
 10
45.4531803119
 20
62.0462171262
 10
45.5728689476
 20
62.1469011852
 10
45.69435353
 20
62.2454193263
 10
45.8167244599
 20
62.3410706657
 10
45.9407842405
 20
62.4345188017
 10
46.066337052
 20
62.525621563
 10
46.1934973079
 20
62.6144675146
 10
46.3220306248
 20
62.7008993264
 10
46.4520854994
 20
62.7850240398
 10
46.58339512
 20
62.866676857
 10
46.7161388585
 20
62.9459769334
 10
46.8501035098
 20
63.0228019397
 10
46.9854147748
 20
63.0972295287
 10
47.1218275023
 20
63.1691310794
 10
47.2594973547
 20
63.2385952661
 10
47.3981160913
 20
63.3054747434
 10
47.5379004517
 20
63.3698824052
 10
47.6785846697
 20
63.4317021765
 10
47.8203430972
 20
63.4910172383
 10
47.9628909899
 20
63.5477152081
 10
48.1064205576
 20
63.6018799766
 10
48.2506607286
 20
63.6534158102
 10
48.3957896994
 20
63.7023928066
 10
48.5415803269
 20
63.7487389936
 10
48.6881669852
 20
63.7925022815
 10
48.8353071413
 20
63.8336155612
 10
48.9831498536
 20
63.872126032
 10
49.1314823512
 20
63.9079826165
 10
49.2804238789
 20
63.941218794
 10
49.4297971421
 20
63.9717983098
 10
49.5796859009
 20
63.9997417803
 10
49.729902258
 20
64.0250176498
 10
49.8805401821
 20
64.0476457407
 10
50.031438296
 20
64.0676048001
 10
50.1826641943
 20
64.0849068016
 10
50.3340916909
 20
64.0995390921
 10
50.4857526674
 20
64.1115069605
 10
50.6375282782
 20
64.1208027545
 10
50.7894451286
 20
64.1274300506
 10
50.9414080103
 20
64.1313858405
 10
51.0934119756
 20
64.1326715312
  0
LINE
  5
22A
100
AcDbEntity
  8
0
100
AcDbLine
 62
7
  6
CONTINUOUS
 10
56.7308933607
 20
88.6539267075
 11
56.5255111505
 21
88.4832219935
  0
LINE
  5
22B
100
AcDbEntity
  8
0
100
AcDbLine
 62
7
  6
CONTINUOUS
 10
45.4545669792
 20
62.0474048234
 11
45.6600606753
 21
62.2179753146
  0
LINE
  5
22C
100
AcDbEntity
  8
0
100
AcDbLine
 62
7
  6
CONTINUOUS
 10
57.3675918952
 20
87.251533362
 11
57.6319952086
 21
87.4654898805
  0
LINE
  5
22D
100
AcDbEntity
  8
0
100
AcDbLine
 62
7
  6
CONTINUOUS
 10
44.8187848335
 20
63.4502138563
 11
44.5542417881
 21
63.2364301312
  0
LWPOLYLINE
  5
22E
100
AcDbEntity
  8
2_PLANES
100
AcDbPolyline
 62
7
  6
CONTINUOUS
 90
37
 70
0
 10
28.5380655381
 20
77.1092046453
 10
28.5280496983
 20
77.1013770509
 10
28.51824403
 20
77.0932719482
 10
28.5086556023
 20
77.0848977519
 10
28.4992914842
 20
77.0762628763
 10
28.490158745
 20
77.0673757363
 10
28.4812644536
 20
77.0582447462
 10
28.4726156792
 20
77.0488783208
 10
28.4642194909
 20
77.0392848746
 10
28.4560829578
 20
77.0294728222
 10
28.4481186855
 20
77.0193276903
 10
28.4404308044
 20
77.0089753843
 10
28.4330224733
 20
76.9984240505
 10
28.4258968511
 20
76.9876818353
 10
28.4190570964
 20
76.9767568849
 10
28.4125063682
 20
76.9656573456
 10
28.4062478251
 20
76.9543913638
 10
28.400284626
 20
76.9429670857
 10
28.3946199296
 20
76.9313926577
 10
28.3891966078
 20
76.9195403733
 10
28.3840836829
 20
76.9075509967
 10
28.3792828976
 20
76.8954327309
 10
28.3747959946
 20
76.8831937791
 10
28.3706247166
 20
76.8708423444
 10
28.3667708062
 20
76.8583866299
 10
28.3632360063
 20
76.8458348386
 10
28.3600220595
 20
76.8331951738
 10
28.3571307084
 20
76.8204758385
 10
28.3545430552
 20
76.8075766774
 10
28.3522853009
 20
76.7946147406
 10
28.3503574892
 20
76.7815999352
 10
28.3487596637
 20
76.7685421685
 10
28.3474918678
 20
76.7554513477
 10
28.3465541453
 20
76.7423373802
 10
28.3459465395
 20
76.729210173
 10
28.3456690942
 20
76.7160796335
 10
28.3457218529
 20
76.7029556688
  0
LINE
  5
22F
100
AcDbEntity
  8
0
100
AcDbLine
 62
7
  6
CONTINUOUS
 10
56.5255111505
 20
88.4832219935
 11
56.2778278077
 21
88.2909717565
  0
LINE
  5
230
100
AcDbEntity
  8
0
100
AcDbLine
 62
7
  6
CONTINUOUS
 10
45.6600606753
 20
62.2179753146
 11
45.9078695719
 21
62.4100636868
  0
LINE
  5
231
100
AcDbEntity
  8
0
100
AcDbLine
 62
7
  6
CONTINUOUS
 10
57.0962945147
 20
87.0466089711
 11
57.3675918952
 21
87.251533362
  0
LINE
  5
232
100
AcDbEntity
  8
0
100
AcDbLine
 62
7
  6
CONTINUOUS
 10
45.0902160434
 20
63.6549609514
 11
44.8187848335
 21
63.4502138563
  0
LINE
  5
233
100
AcDbEntity
  8
0
100
AcDbLine
 62
7
  6
CONTINUOUS
 10
56.2778278077
 20
88.2909717565
 11
56.0236896834
 21
88.1080068862
  0
LINE
  5
234
100
AcDbEntity
  8
0
100
AcDbLine
 62
7
  6
CONTINUOUS
 10
45.9078695719
 20
62.4100636868
 11
46.1621271819
 21
62.592862477
  0
LINE
  5
235
100
AcDbEntity
  8
0
100
AcDbLine
 62
7
  6
CONTINUOUS
 10
56.8184288234
 20
86.8509448856
 11
57.0962945147
 21
87.0466089711
  0
LINE
  5
236
100
AcDbEntity
  8
0
100
AcDbLine
 62
7
  6
CONTINUOUS
 10
45.3682095124
 20
63.8504434518
 11
45.0902160434
 21
63.6549609514
  0
LINE
  5
237
100
AcDbEntity
  8
0
100
AcDbLine
 62
7
  6
CONTINUOUS
 10
56.0236896834
 20
88.1080068862
 11
55.7635174236
 21
87.9345799734
  0
LINE
  5
238
100
AcDbEntity
  8
0
100
AcDbLine
 62
7
  6
CONTINUOUS
 10
46.1621271819
 20
62.592862477
 11
46.4224126946
 21
62.7661193695
  0
LINE
  5
239
100
AcDbEntity
  8
0
100
AcDbLine
 62
7
  6
CONTINUOUS
 10
56.5343288994
 20
86.6647578563
 11
56.8184288234
 21
86.8509448856
  0
LINE
  5
23A
100
AcDbEntity
  8
0
100
AcDbLine
 62
7
  6
CONTINUOUS
 10
45.6524310209
 20
64.0364448248
 11
45.3682095124
 21
63.8504434518
  0
LINE
  5
23B
100
AcDbEntity
  8
0
100
AcDbLine
 62
7
  6
CONTINUOUS
 10
55.7635174236
 20
87.9345799734
 11
55.4977214735
 21
87.7709048856
  0
LINE
  5
23C
100
AcDbEntity
  8
0
100
AcDbLine
 62
7
  6
CONTINUOUS
 10
46.4224126946
 20
62.7661193695
 11
46.688315525
 21
62.9296207646
  0
LINE
  5
23D
100
AcDbEntity
  8
0
100
AcDbLine
 62
7
  6
CONTINUOUS
 10
56.2443321703
 20
86.4882459599
 11
56.5343288994
 21
86.6647578563
  0
LINE
  5
23E
100
AcDbEntity
  8
0
100
AcDbLine
 62
7
  6
CONTINUOUS
 10
45.9425430121
 20
64.2127672143
 11
45.6524310209
 21
64.0364448248
  0
LINE
  5
23F
100
AcDbEntity
  8
0
100
AcDbLine
 62
7
  6
CONTINUOUS
 10
55.4977214735
 20
87.7709048856
 11
55.2265777135
 21
87.6170986245
  0
LINE
  5
240
100
AcDbEntity
  8
0
100
AcDbLine
 62
7
  6
CONTINUOUS
 10
46.688315525
 20
62.9296207646
 11
46.9595597164
 21
63.0832498413
  0
LINE
  5
241
100
AcDbEntity
  8
0
100
AcDbLine
 62
7
  6
CONTINUOUS
 10
55.9487733087
 20
86.3215915823
 11
56.2443321703
 21
86.4882459599
  0
LINE
  5
242
100
AcDbEntity
  8
0
100
AcDbLine
 62
7
  6
CONTINUOUS
 10
46.2382106942
 20
64.3792284531
 11
45.9425430121
 21
64.2127672143
  0
LINE
  5
243
100
AcDbEntity
  8
0
100
AcDbLine
 62
7
  6
CONTINUOUS
 10
55.6479941144
 20
86.1649635422
 11
55.9487733087
 21
86.3215915823
  0
LINE
  5
244
100
AcDbEntity
  8
0
100
AcDbLine
 62
7
  6
CONTINUOUS
 10
55.2265777135
 20
87.6170986245
 11
54.9504832152
 21
87.4733373591
  0
LINE
  5
245
100
AcDbEntity
  8
0
100
AcDbLine
 62
7
  6
CONTINUOUS
 10
46.5390921572
 20
64.5356599459
 11
46.2382106942
 21
64.3792284531
  0
LINE
  5
246
100
AcDbEntity
  8
0
100
AcDbLine
 62
7
  6
CONTINUOUS
 10
46.9595597164
 20
63.0832498413
 11
47.2357480821
 21
63.2268306898
  0
LINE
  5
247
100
AcDbEntity
  8
0
100
AcDbLine
 62
7
  6
CONTINUOUS
 10
55.3423376703
 20
86.0185174941
 11
55.6479941144
 21
86.1649635422
  0
LINE
  5
248
100
AcDbEntity
  8
0
100
AcDbLine
 62
7
  6
CONTINUOUS
 10
46.8448442164
 20
64.6819062622
 11
46.5390921572
 21
64.5356599459
  0
LINE
  5
249
100
AcDbEntity
  8
0
100
AcDbLine
 62
7
  6
CONTINUOUS
 10
54.9504832152
 20
87.4733373591
 11
54.6699437265
 21
87.339824993
  0
LINE
  5
24A
100
AcDbEntity
  8
0
100
AcDbLine
 62
7
  6
CONTINUOUS
 10
47.2357480821
 20
63.2268306898
 11
47.5163747412
 21
63.3601597371
  0
LINE
  5
24B
100
AcDbEntity
  8
0
100
AcDbLine
 62
7
  6
CONTINUOUS
 10
55.0321494942
 20
85.8823963387
 11
55.3423376703
 21
86.0185174941
  0
LINE
  5
24C
100
AcDbEntity
  8
0
100
AcDbLine
 62
7
  6
CONTINUOUS
 10
47.155121261
 20
64.8178247272
 11
46.8448442164
 21
64.6819062622
  0
LINE
  5
24D
100
AcDbEntity
  8
0
100
AcDbLine
 62
7
  6
CONTINUOUS
 10
54.6699437265
 20
87.339824993
 11
54.3852589996
 21
87.2166440286
  0
LINE
  5
24E
100
AcDbEntity
  8
0
100
AcDbLine
 62
7
  6
CONTINUOUS
 10
47.5163747412
 20
63.3601597371
 11
47.8011398875
 21
63.4831546766
  0
LINE
  5
24F
100
AcDbEntity
  8
0
100
AcDbLine
 62
7
  6
CONTINUOUS
 10
54.7177785517
 20
85.756730384
 11
55.0321494942
 21
85.8823963387
  0
LINE
  5
250
100
AcDbEntity
  8
0
100
AcDbLine
 62
7
  6
CONTINUOUS
 10
47.4695742402
 20
64.943285261
 11
47.155121261
 21
64.8178247272
  0
LINE
  5
251
100
AcDbEntity
  8
0
100
AcDbLine
 62
7
  6
CONTINUOUS
 10
54.3852589996
 20
87.2166440286
 11
54.0968437878
 21
87.1039175601
  0
LINE
  5
252
100
AcDbEntity
  8
0
100
AcDbLine
 62
7
  6
CONTINUOUS
 10
47.8011398875
 20
63.4831546766
 11
48.0896286875
 21
63.5956926851
  0
LINE
  5
253
100
AcDbEntity
  8
0
100
AcDbLine
 62
7
  6
CONTINUOUS
 10
54.3995753223
 20
85.6416379403
 11
54.7177785517
 21
85.756730384
  0
LINE
  5
254
100
AcDbEntity
  8
0
100
AcDbLine
 62
7
  6
CONTINUOUS
 10
47.7878525973
 20
65.0581697823
 11
47.4695742402
 21
64.943285261
  0
LINE
  5
255
100
AcDbEntity
  8
0
100
AcDbLine
 62
7
  6
CONTINUOUS
 10
54.0968437878
 20
87.1039175601
 11
53.8050443391
 21
87.0017241799
  0
LINE
  5
256
100
AcDbEntity
  8
0
100
AcDbLine
 62
7
  6
CONTINUOUS
 10
48.0896286875
 20
63.5956926851
 11
48.3814948419
 21
63.6976953964
  0
LINE
  5
257
100
AcDbEntity
  8
0
100
AcDbLine
 62
7
  6
CONTINUOUS
 10
54.0778903162
 20
85.537224702
 11
54.3995753223
 21
85.6416379403
  0
LINE
  5
258
100
AcDbEntity
  8
0
100
AcDbLine
 62
7
  6
CONTINUOUS
 10
48.109605753
 20
65.1623728255
 11
47.7878525973
 21
65.0581697823
  0
LINE
  5
259
100
AcDbEntity
  8
2_PLANES
100
AcDbLine
 62
7
  6
CONTINUOUS
 10
26.4818721135
 20
76.751553089
 11
28.9723811332
 21
77.5368075647
  0
LWPOLYLINE
  5
25A
100
AcDbEntity
  8
2_PLANES
100
AcDbPolyline
 62
7
  6
CONTINUOUS
 90
47
 70
0
 10
28.9723811332
 20
77.5368075647
 10
28.9746930339
 20
77.537525803
 10
28.9770115954
 20
77.5382235202
 10
28.9793369611
 20
77.5388989067
 10
28.9816692746
 20
77.5395501531
 10
28.9840086793
 20
77.54017545
 10
28.9863553186
 20
77.5407729878
 10
28.9887093361
 20
77.5413409571
 10
28.9910708751
 20
77.5418775485
 10
28.9930791048
 20
77.5423063323
 10
28.9950925304
 20
77.5427086333
 10
28.9971108377
 20
77.5430818268
 10
28.9991337122
 20
77.5434232883
 10
29.0005649571
 20
77.5436436708
 10
29.0019990728
 20
77.54384474
 10
29.0034368091
 20
77.5440243162
 10
29.004878916
 20
77.5441802196
 10
29.0063261433
 20
77.5443102703
 10
29.0075833428
 20
77.5444002068
 10
29.0088420149
 20
77.5444671077
 10
29.0100992317
 20
77.5445089521
 10
29.0113520649
 20
77.5445237194
 10
29.0125975866
 20
77.5445093886
 10
29.0133422798
 20
77.5444855551
 10
29.0140853888
 20
77.5444478548
 10
29.0148290324
 20
77.5443936735
 10
29.0155753292
 20
77.5443203971
 10
29.0163263978
 20
77.5442254115
 10
29.0170843568
 20
77.5441061026
 10
29.0178513249
 20
77.5439598561
 10
29.0183163829
 20
77.5438580183
 10
29.0187832509
 20
77.5437446935
 10
29.0192497311
 20
77.5436190385
 10
29.0197136256
 20
77.5434802103
 10
29.0201727365
 20
77.5433273656
 10
29.0206248661
 20
77.5431596613
 10
29.0210678163
 20
77.5429762541
 10
29.0214993893
 20
77.542776301
 10
29.0219173872
 20
77.5425589587
 10
29.0223196123
 20
77.5423233841
 10
29.0227038665
 20
77.5420687339
 10
29.0230679521
 20
77.5417941651
 10
29.0234096712
 20
77.5414988344
 10
29.0237268258
 20
77.5411818988
 10
29.0240172182
 20
77.5408425149
 10
29.0242786504
 20
77.5404798396
 10
29.0245089246
 20
77.5400930298
  0
LINE
  5
25B
100
AcDbEntity
  8
0
100
AcDbLine
 62
7
  6
CONTINUOUS
 10
53.8050443391
 20
87.0017241799
 11
53.510160763
 21
86.9101226316
  0
LINE
  5
25C
100
AcDbEntity
  8
0
100
AcDbLine
 62
7
  6
CONTINUOUS
 10
48.3814948419
 20
63.6976953964
 11
48.6764382029
 21
63.7891042631
  0
LWPOLYLINE
  5
25D
100
AcDbEntity
  8
0
100
AcDbPolyline
 62
7
  6
CONTINUOUS
 90
50
 70
0
 10
43.3573451543
 20
62.0513862949
 10
43.3555362458
 20
62.0508423583
 10
43.3550752944
 20
62.0506937905
 10
43.3546230749
 20
62.0505257103
 10
43.354184801
 20
62.0503277406
 10
43.3537656864
 20
62.0500895045
 10
43.3533709447
 20
62.0498006249
 10
43.3530057897
 20
62.0494507249
 10
43.352808454
 20
62.0492139545
 10
43.3526323024
 20
62.0489593829
 10
43.3524865007
 20
62.0486938654
 10
43.3523802151
 20
62.0484242575
 10
43.3523226114
 20
62.0481574147
 10
43.3523228556
 20
62.0479001923
 10
43.3523870399
 20
62.0476582766
 10
43.3525092237
 20
62.0474318606
 10
43.352680469
 20
62.0472199869
 10
43.3528918375
 20
62.047021698
 10
43.3532206276
 20
62.0467767899
 10
43.3535836713
 20
62.0465520609
 10
43.3539597818
 20
62.0463452414
 10
43.3546620963
 20
62.0459936318
 10
43.3553418021
 20
62.0456903263
 10
43.3560057934
 20
62.0454268022
 10
43.3566609644
 20
62.0451945365
 10
43.3573142091
 20
62.0449850065
 10
43.3579724216
 20
62.0447896894
 10
43.3595536095
 20
62.0443579219
 10
43.3611816296
 20
62.0439561218
 10
43.3628383358
 20
62.0435830873
 10
43.3645055825
 20
62.0432376168
 10
43.3668185261
 20
62.0427995517
 10
43.3691223769
 20
62.0424041514
 10
43.3714227746
 20
62.0420430151
 10
43.3737253588
 20
62.0417077422
 10
43.3777367108
 20
62.0411688562
 10
43.3817636829
 20
62.0406768387
 10
43.385798328
 20
62.0402259719
 10
43.3907813746
 20
62.0397181285
 10
43.3957654627
 20
62.0392569777
 10
43.4007520516
 20
62.0388351957
 10
43.4067069811
 20
62.0383745748
 10
43.4126661491
 20
62.0379552787
 10
43.418628155
 20
62.0375730041
 10
43.425553132
 20
62.0371703923
 10
43.4324799474
 20
62.0368082296
 10
43.4394085019
 20
62.0364828501
 10
43.4471902192
 20
62.0361572346
 10
43.4549735832
 20
62.0358708792
 10
43.4627581734
 20
62.0356212889
  0
LINE
  5
25E
100
AcDbEntity
  8
0
100
AcDbLine
 62
7
  6
CONTINUOUS
 10
53.7530786909
 20
85.4435856987
 11
54.0778903162
 21
85.537224702
  0
LINE
  5
25F
100
AcDbEntity
  8
0
100
AcDbLine
 62
7
  6
CONTINUOUS
 10
48.434478488
 20
65.2557995934
 11
48.109605753
 21
65.1623728255
  0
LWPOLYLINE
  5
260
100
AcDbEntity
  8
0
100
AcDbPolyline
 62
7
  6
CONTINUOUS
 90
49
 70
0
 10
25.4999078299
 20
76.5054854214
 10
25.4817569585
 20
76.500302131
 10
25.4637706542
 20
76.4945487939
 10
25.4459758079
 20
76.4882185372
 10
25.4283993107
 20
76.4813044879
 10
25.411699911
 20
76.4740879844
 10
25.3952476994
 20
76.4663277265
 10
25.3790623266
 20
76.4580279881
 10
25.3631634433
 20
76.4491930432
 10
25.3478296295
 20
76.4399910199
 10
25.3328051318
 20
76.4302909018
 10
25.3181033451
 20
76.420107804
 10
25.3037376642
 20
76.4094568417
 10
25.2850750482
 20
76.3945140273
 10
25.2670460233
 20
76.3788121879
 10
25.2496594102
 20
76.3624016374
 10
25.2326080525
 20
76.3449992191
 10
25.216229935
 20
76.3269620672
 10
25.2005218987
 20
76.3083392891
 10
25.1850431845
 20
76.2886033327
 10
25.1702551543
 20
76.2683438449
 10
25.15614147
 20
76.2476060726
 10
25.1419458272
 20
76.2252278248
 10
25.1284604194
 20
76.2024065878
 10
25.115661207
 20
76.179182602
 10
25.1035241503
 20
76.1555961079
 10
25.0920252098
 20
76.1316873459
 10
25.0811403456
 20
76.1074965562
 10
25.0699923538
 20
76.0809599297
 10
25.0595125741
 20
76.0541616357
 10
25.0496739494
 20
76.0271249163
 10
25.0404494225
 20
75.9998730138
 10
25.0318119362
 20
75.9724291704
 10
25.0237344336
 20
75.9448166281
 10
25.0140293359
 20
75.9087015902
 10
25.0051845252
 20
75.8723679552
 10
24.997159604
 20
75.8358429582
 10
24.989914175
 20
75.7991538343
 10
24.9834078406
 20
75.7623278188
 10
24.9771924091
 20
75.7226053515
 10
24.9717478642
 20
75.6827725015
 10
24.9670372525
 20
75.6428456721
 10
24.9630236203
 20
75.6028412665
 10
24.9596700141
 20
75.5627756879
 10
24.9567843057
 20
75.5200401159
 10
24.9545764355
 20
75.4772654406
 10
24.9530170232
 20
75.4344633744
 10
24.9520766886
 20
75.39164563
 10
24.9517260516
 20
75.3488239198
  0
LWPOLYLINE
  5
261
100
AcDbEntity
  8
0
100
AcDbPolyline
 62
7
  6
CONTINUOUS
 90
39
 70
0
 10
58.8328068239
 20
88.6535976605
 10
58.8329477628
 20
88.65378077
 10
58.8330646554
 20
88.6539807258
 10
58.8331457224
 20
88.6541965363
 10
58.8331827327
 20
88.6544969581
 10
58.8331399211
 20
88.6547963517
 10
58.8330551144
 20
88.6550118426
 10
58.83293467
 20
88.6552112756
 10
58.8327894526
 20
88.6553949164
 10
58.832462021
 20
88.6557141799
 10
58.8320991774
 20
88.6559901435
 10
58.8315392558
 20
88.6563415948
 10
58.8309518361
 20
88.6566475422
 10
58.8303448101
 20
88.6569178806
 10
58.8297260697
 20
88.6571625049
 10
58.8285281449
 20
88.6575854385
 10
58.827318077
 20
88.6579607614
 10
58.8260977449
 20
88.6582988907
 10
58.8249733876
 20
88.6585838845
 10
58.823843893
 20
88.6588497303
 10
58.821315989
 20
88.659387372
 10
58.8185286621
 20
88.659910696
 10
58.8154968067
 20
88.6604189081
 10
58.8121314833
 20
88.6609264943
 10
58.8087593426
 20
88.6613873463
 10
58.8049912965
 20
88.6618575027
 10
58.8012186224
 20
88.6622886965
 10
58.7971021455
 20
88.6627215214
 10
58.792982268
 20
88.6631207837
 10
58.7885653598
 20
88.6635164106
 10
58.7841459273
 20
88.66388281
 10
58.7777701765
 20
88.6643663311
 10
58.7713909485
 20
88.6648025793
 10
58.7650089769
 20
88.6651971973
 10
58.7581336108
 20
88.6655814469
 10
58.751256233
 20
88.6659271247
 10
58.744377163
 20
88.6662373977
 10
58.7335368918
 20
88.6666611102
 10
58.7226940426
 20
88.6670115868
  0
LINE
  5
262
100
AcDbEntity
  8
0
100
AcDbLine
 62
7
  6
CONTINUOUS
 10
43.571098295
 20
62.2959035568
 11
43.3526539606
 21
62.0491071566
  0
LINE
  5
263
100
AcDbEntity
  8
0
100
AcDbLine
 62
7
  6
CONTINUOUS
 10
18.3265306122
 20
92.8507265707
 11
18.3265306122
 21
57.8469212688
  0
LINE
  5
264
100
AcDbEntity
  8
0
100
AcDbLine
 62
7
  6
CONTINUOUS
 10
18.6501943221
 20
92.7364680051
 11
18.6501943221
 21
57.9611798344
  0
LWPOLYLINE
  5
265
100
AcDbEntity
  8
0
100
AcDbPolyline
 62
7
  6
CONTINUOUS
 90
49
 70
0
 10
21.953848075
 20
87.8384669555
 10
21.954888578
 20
87.9026642932
 10
21.9580138375
 20
87.9668108239
 10
21.9632294851
 20
88.0308257929
 10
21.9705382441
 20
88.0946185032
 10
21.9799400397
 20
88.1581320614
 10
21.9914326946
 20
88.2212995501
 10
22.0050071997
 20
88.2840301223
 10
22.0206581462
 20
88.3462764153
 10
22.0383748391
 20
88.4079668313
 10
22.0581340025
 20
88.4689977032
 10
22.0799264147
 20
88.5293322161
 10
22.103732465
 20
88.5889008172
 10
22.1295130442
 20
88.6475951424
 10
22.1572563806
 20
88.7053877777
 10
22.1869338818
 20
88.7622113757
 10
22.2184902706
 20
88.8179563985
 10
22.2519120473
 20
88.8726034818
 10
22.2871619831
 20
88.9260894629
 10
22.3241696909
 20
88.9783087554
 10
22.3629201815
 20
89.029248242
 10
22.4033683122
 20
89.0788503279
 10
22.4454309673
 20
89.1270177742
 10
22.489091409
 20
89.1737418815
 10
22.5342977623
 20
89.2189719126
 10
22.5809576513
 20
89.2626226352
 10
22.6290515633
 20
89.3046880925
 10
22.6785219745
 20
89.3451252581
 10
22.7292712924
 20
89.3838633407
 10
22.7812769783
 20
89.420898053
 10
22.8344784519
 20
89.4561947741
 10
22.8887774017
 20
89.4896983079
 10
22.9441439191
 20
89.5214048201
 10
23.0005118858
 20
89.5512875257
 10
23.057785413
 20
89.5793065066
 10
23.115937969
 20
89.6054602309
 10
23.1749142737
 20
89.6297320115
 10
23.2345578711
 20
89.6520708873
 10
23.2949009979
 20
89.6725074106
 10
23.3558772509
 20
89.6910315933
 10
23.417420227
 20
89.7076334474
 10
23.4794635233
 20
89.7223029849
 10
23.5419407365
 20
89.7350302177
 10
23.604775332
 20
89.7458062904
 10
23.6679085507
 20
89.7546365626
 10
23.7312716152
 20
89.7615269234
 10
23.7947957481
 20
89.7664832619
 10
23.8584121724
 20
89.7695114673
 10
23.9220521105
 20
89.7706174287
  0
LINE
  5
266
100
AcDbEntity
  8
0
100
AcDbLine
 62
7
  6
CONTINUOUS
 10
26.9890050575
 20
84.8126729687
 11
26.9569297099
 21
86.2959039448
  0
LWPOLYLINE
  5
267
100
AcDbEntity
  8
0
100
AcDbPolyline
 62
7
  6
CONTINUOUS
 90
37
 70
0
 10
29.2402298922
 20
72.7513057995
 10
29.2399440001
 20
72.7645109754
 10
29.2393029652
 20
72.77771416
 10
29.2383082491
 20
72.7909042899
 10
29.2369613134
 20
72.8040703015
 10
29.2352636198
 20
72.8172011312
 10
29.2332166298
 20
72.8302857154
 10
29.2308218051
 20
72.8433129906
 10
29.2280806072
 20
72.8562718932
 10
29.2249944979
 20
72.8691513596
 10
29.2215569794
 20
72.8819703028
 10
29.2177781683
 20
72.8946900431
 10
29.2136618142
 20
72.9073022969
 10
29.2092116666
 20
72.9197987807
 10
29.2044314753
 20
72.9321712108
 10
29.1993249899
 20
72.9444113038
 10
29.19389596
 20
72.9565107759
 10
29.1881481352
 20
72.9684613437
 10
29.1820852653
 20
72.9802547236
 10
29.1756973079
 20
72.9919075748
 10
29.1690018699
 20
73.0033868316
 10
29.1620041045
 20
73.0146850825
 10
29.1547091652
 20
73.025794916
 10
29.1471222053
 20
73.0367089208
 10
29.1392483784
 20
73.0474196853
 10
29.1310928377
 20
73.0579197982
 10
29.1226607366
 20
73.068201848
 10
29.1139572286
 20
73.0782584231
 10
29.10497436
 20
73.088096741
 10
29.0957328669
 20
73.0976944786
 10
29.0862411779
 20
73.1070446408
 10
29.0765077213
 20
73.1161402325
 10
29.0665409255
 20
73.1249742583
 10
29.0563492189
 20
73.1335397231
 10
29.0459410298
 20
73.1418296318
 10
29.0353247866
 20
73.1498369891
 10
29.0245089177
 20
73.1575547999
  0
LWPOLYLINE
  5
268
100
AcDbEntity
  8
0
100
AcDbPolyline
 62
7
  6
CONTINUOUS
 90
49
 70
0
 10
78.0028669023
 20
92.7364680051
 10
78.002729271
 20
92.7446891034
 10
78.0023166628
 20
92.7529073575
 10
78.0016295041
 20
92.7611118198
 10
78.0006682215
 20
92.7692915429
 10
77.9994332416
 20
92.7774355793
 10
77.9979249908
 20
92.7855329812
 10
77.9961462227
 20
92.7935649494
 10
77.9940977283
 20
92.8015308389
 10
77.9917820645
 20
92.8094220347
 10
77.9892017883
 20
92.8172299215
 10
77.9863594569
 20
92.8249458843
 10
77.9832576271
 20
92.832561308
 10
77.97990564
 20
92.8400538514
 10
77.9763022498
 20
92.8474293209
 10
77.9724520457
 20
92.8546793937
 10
77.9683596172
 20
92.8617957469
 10
77.9640295535
 20
92.8687700577
 10
77.9594664439
 20
92.8755940035
 10
77.9546866603
 20
92.8822440754
 10
77.9496857668
 20
92.8887294174
 10
77.9444700402
 20
92.8950432441
 10
77.9390457573
 20
92.9011787705
 10
77.933419195
 20
92.9071292112
 10
77.9275966301
 20
92.9128877811
 10
77.9215993948
 20
92.9184346792
 10
77.9154207666
 20
92.9237787716
 10
77.9090681563
 20
92.9289149429
 10
77.9025489745
 20
92.9338380775
 10
77.8958706316
 20
92.9385430599
 10
77.8890405384
 20
92.9430247748
 10
77.8820812361
 20
92.9472695959
 10
77.8749863908
 20
92.9512837032
 10
77.8677641855
 20
92.9550637951
 10
77.8604228032
 20
92.9586065696
 10
77.852970427
 20
92.9619087248
 10
77.8454152397
 20
92.9649669589
 10
77.837777031
 20
92.9677741838
 10
77.8300523591
 20
92.9703333377
 10
77.8222491025
 20
92.9726428244
 10
77.8143751397
 20
92.9747010476
 10
77.8064383492
 20
92.9765064111
 10
77.7984466095
 20
92.9780573188
 10
77.7904138461
 20
92.9793516003
 10
77.7823436914
 20
92.9803901547
 10
77.774245758
 20
92.9811729414
 10
77.766129658
 20
92.9816999201
 10
77.7580050037
 20
92.9819710501
 10
77.7498814076
 20
92.9819862909
  0
LWPOLYLINE
  5
269
100
AcDbEntity
  8
0
100
AcDbPolyline
 62
7
  6
CONTINUOUS
 90
91
 70
0
 10
65.2723014928
 20
75.3488239198
 10
65.2732710392
 20
75.2896915597
 10
65.2761772736
 20
75.230606807
 10
65.2810170577
 20
75.1716449647
 10
65.2877861321
 20
75.1128795817
 10
65.2964764472
 20
75.054371444
 10
65.3070788948
 20
74.9961795898
 10
65.3195831952
 20
74.9383634038
 10
65.3339735487
 20
74.8809874037
 10
65.3502329428
 20
74.8241164454
 10
65.3683445783
 20
74.7678130813
 10
65.3882926759
 20
74.7121301439
 10
65.4100616753
 20
74.6571181636
 10
65.4385259324
 20
74.5921413908
 10
65.4695311931
 20
74.5283057468
 10
65.5030250396
 20
74.4657159242
 10
65.538955054
 20
74.4044766156
 10
65.5772688187
 20
74.3446925135
 10
65.6179098536
 20
74.2864655088
 10
65.6608052816
 20
74.2298864962
 10
65.7058781606
 20
74.1750435665
 10
65.7530515484
 20
74.1220248108
 10
65.8022485029
 20
74.0709183201
 10
65.8447889238
 20
74.0298022381
 10
65.8886433752
 20
73.9901121442
 10
65.9337707997
 20
73.9518815351
 10
65.9801282203
 20
73.9151449784
 10
66.0276649459
 20
73.8799413546
 10
66.0763283656
 20
73.8463106148
 10
66.1260655915
 20
73.8142913495
 10
66.1768226991
 20
73.7839166606
 10
66.2285454878
 20
73.7552182901
 10
66.2811793496
 20
73.7282271878
 10
66.3346680183
 20
73.7029711495
 10
66.3889548204
 20
73.6794771787
 10
66.4439820921
 20
73.6577712982
 10
66.4996883408
 20
73.6378755578
 10
66.5560110842
 20
73.6198110284
 10
66.6128898248
 20
73.6035977816
 10
66.6702719321
 20
73.5892519127
 10
66.7281067605
 20
73.5767885173
 10
66.7979458184
 20
73.5643499283
 10
66.8682469018
 20
73.554651654
 10
66.9388944375
 20
73.5477080694
 10
67.0097728525
 20
73.543533549
 10
67.0807665734
 20
73.5421424677
 10
67.1517600454
 20
73.5435443675
 10
67.2226377658
 20
73.5477294596
 10
67.2932842499
 20
73.5546831224
 10
67.3635840132
 20
73.564390734
 10
67.4334215713
 20
73.5768376728
 10
67.4912549903
 20
73.589307102
 10
67.5486356963
 20
73.6036581279
 10
67.6055131136
 20
73.6198756437
 10
67.6618347065
 20
73.6379435866
 10
67.7175399326
 20
73.6578420166
 10
67.77256629
 20
73.6795500362
 10
67.8268522355
 20
73.7030457324
 10
67.8803401431
 20
73.7283031664
 10
67.9329733452
 20
73.7552953847
 10
67.9846956001
 20
73.7839947065
 10
68.0354520949
 20
73.8143703851
 10
68.0851884441
 20
73.8463909434
 10
68.1338505548
 20
73.8800234625
 10
68.1813855787
 20
73.9152293092
 10
68.2277409594
 20
73.9519684097
 10
68.2728660951
 20
73.9902018157
 10
68.3167179319
 20
74.0298948504
 10
68.3592553729
 20
74.07101396
 10
68.408448432
 20
74.1221241302
 10
68.4556180925
 20
74.1751461311
 10
68.5006881675
 20
74.2299913892
 10
68.5435824703
 20
74.2865713312
 10
68.584224814
 20
74.3447973834
 10
68.6225432455
 20
74.4045785858
 10
68.6584817519
 20
74.4658128561
 10
68.6919885746
 20
74.5283957117
 10
68.7230119546
 20
74.59222267
 10
68.7515001332
 20
74.6571892486
 10
68.7732937612
 20
74.7121915645
 10
68.7932703815
 20
74.7678643816
 10
68.8114138163
 20
74.8241576233
 10
68.8277076336
 20
74.8810189995
 10
68.8421340585
 20
74.9383862073
 10
68.8546750747
 20
74.9961947264
 10
68.8653136986
 20
75.0543803009
 10
68.8740377866
 20
75.1128837289
 10
68.8808361846
 20
75.1716460813
 10
68.8856988872
 20
75.2306066405
 10
68.888619999
 20
75.2896912405
 10
68.8895948422
 20
75.3488239198
  0
LWPOLYLINE
  5
26A
100
AcDbEntity
  8
0
100
AcDbPolyline
 62
7
  6
CONTINUOUS
 90
49
 70
0
 10
21.953848075
 20
62.859180884
 10
21.954888578
 20
62.7949835463
 10
21.9580138375
 20
62.7308370156
 10
21.9632294851
 20
62.6668220466
 10
21.9705382441
 20
62.6030293363
 10
21.9799400397
 20
62.5395157781
 10
21.9914326946
 20
62.4763482894
 10
22.0050071997
 20
62.4136177172
 10
22.0206581462
 20
62.3513714242
 10
22.0383748391
 20
62.2896810082
 10
22.0581340025
 20
62.2286501364
 10
22.0799264147
 20
62.1683156234
 10
22.103732465
 20
62.1087470224
 10
22.1295130442
 20
62.0500526971
 10
22.1572563806
 20
61.9922600619
 10
22.1869338818
 20
61.9354364638
 10
22.2184902706
 20
61.879691441
 10
22.2519120473
 20
61.8250443577
 10
22.2871619831
 20
61.7715583766
 10
22.3241696909
 20
61.7193390841
 10
22.3629201815
 20
61.6683995975
 10
22.4033683122
 20
61.6187975116
 10
22.4454309673
 20
61.5706300653
 10
22.489091409
 20
61.523905958
 10
22.5342977623
 20
61.4786759269
 10
22.5809576513
 20
61.4350252043
 10
22.6290515633
 20
61.392959747
 10
22.6785219745
 20
61.3525225814
 10
22.7292712924
 20
61.3137844988
 10
22.7812769783
 20
61.2767497865
 10
22.8344784519
 20
61.2414530654
 10
22.8887774017
 20
61.2079495316
 10
22.9441439191
 20
61.1762430194
 10
23.0005118858
 20
61.1463603138
 10
23.057785413
 20
61.1183413329
 10
23.115937969
 20
61.0921876086
 10
23.1749142737
 20
61.067915828
 10
23.2345578711
 20
61.0455769522
 10
23.2949009979
 20
61.0251404289
 10
23.3558772509
 20
61.0066162462
 10
23.417420227
 20
60.9900143921
 10
23.4794635233
 20
60.9753448546
 10
23.5419407365
 20
60.9626176218
 10
23.604775332
 20
60.9518415491
 10
23.6679085507
 20
60.9430112769
 10
23.7312716152
 20
60.9361209161
 10
23.7947957481
 20
60.9311645776
 10
23.8584121724
 20
60.9281363722
 10
23.9220521105
 20
60.9270304108
  0
LWPOLYLINE
  5
26B
100
AcDbEntity
  8
0
100
AcDbPolyline
 62
7
  6
CONTINUOUS
 90
49
 70
0
 10
25.0698381019
 20
75.3488239198
 10
25.0701325527
 20
75.3180135743
 10
25.0710139252
 20
75.2872085994
 10
25.0724792502
 20
75.2564217743
 10
25.0745255583
 20
75.2256658789
 10
25.0771498802
 20
75.1949536924
 10
25.0802476151
 20
75.1652040733
 10
25.0838917954
 20
75.1355183282
 10
25.0880873527
 20
75.1059071365
 10
25.0928392182
 20
75.0763811774
 10
25.0981523235
 20
75.0469511301
 10
25.1037314347
 20
75.01906142
 10
25.1098326766
 20
74.9912808041
 10
25.1164660957
 20
74.9636219684
 10
25.1236417387
 20
74.9360975986
 10
25.1313696521
 20
74.9087203808
 10
25.1390491662
 20
74.8834489243
 10
25.1472336557
 20
74.8583364719
 10
25.1559434542
 20
74.8334042689
 10
25.1651988953
 20
74.8086735608
 10
25.1750203128
 20
74.7841655929
 10
25.1830320922
 20
74.765350415
 10
25.1914195634
 20
74.7467010011
 10
25.2002066485
 20
74.7282367307
 10
25.2088863818
 20
74.7110040044
 10
25.2179687534
 20
74.693979888
 10
25.227479348
 20
74.6771909147
 10
25.2368098402
 20
74.6616883768
 10
25.2465676053
 20
74.646451569
 10
25.2567809411
 20
74.631516163
 10
25.2667464241
 20
74.617887957
 10
25.2771613456
 20
74.6046003402
 10
25.2880539578
 20
74.5917004944
 10
25.2959662461
 20
74.5829420281
 10
25.3041380223
 20
74.5744250812
 10
25.3125816218
 20
74.566178699
 10
25.32130938
 20
74.5582319272
 10
25.3297914744
 20
74.551054972
 10
25.3385380117
 20
74.5442018649
 10
25.3475508876
 20
74.5377054271
 10
25.3568319977
 20
74.5315984799
 10
25.3660220944
 20
74.5261162274
 10
25.3754506485
 20
74.5210524794
 10
25.3851056409
 20
74.5164341544
 10
25.3949750527
 20
74.5122881708
 10
25.4050298172
 20
74.5086431425
 10
25.4152550896
 20
74.5055053718
 10
25.4256195272
 20
74.5028842124
 10
25.436091787
 20
74.5007890181
  0
LWPOLYLINE
  5
26C
100
AcDbEntity
  8
0
100
AcDbPolyline
 62
7
  6
CONTINUOUS
 90
9
 70
0
 10
71.5302365435
 20
66.6432686256
 10
71.5106171472
 20
68.8189480416
 10
71.4912581451
 20
70.9947227131
 10
71.4818438389
 20
72.0827050849
 10
71.4728890352
 20
73.1708463223
 10
71.468810278
 20
73.7150454563
 10
71.4653371892
 20
74.259419825
 10
71.4629165696
 20
74.8041199179
 10
71.4619862627
 20
75.3488239198
  0
LWPOLYLINE
  5
26D
100
AcDbEntity
  8
0
100
AcDbPolyline
 62
7
  6
CONTINUOUS
 90
49
 70
0
 10
26.9569297099
 20
86.2959039448
 10
26.9567329109
 20
86.3262890598
 10
26.9574479557
 20
86.356685675
 10
26.9590785288
 20
86.3870605062
 10
26.9616283152
 20
86.4173802694
 10
26.9651009995
 20
86.4476116806
 10
26.9695002664
 20
86.4777214558
 10
26.974817241
 20
86.5076176169
 10
26.9810582366
 20
86.5373305912
 10
26.9882207031
 20
86.5668314965
 10
26.9963020902
 20
86.5960914505
 10
27.005299848
 20
86.6250815709
 10
27.0152114262
 20
86.6537729756
 10
27.0260062858
 20
86.6820696735
 10
27.0376980393
 20
86.7100099984
 10
27.0502766261
 20
86.737563624
 10
27.0637319855
 20
86.7647002237
 10
27.0780540567
 20
86.7913894712
 10
27.0932327792
 20
86.8176010401
 10
27.1092177444
 20
86.8432447793
 10
27.1260273706
 20
86.8683561199
 10
27.1436437417
 20
86.89290826
 10
27.1620489418
 20
86.9168743977
 10
27.1812250548
 20
86.940227731
 10
27.201154165
 20
86.962941458
 10
27.2217757505
 20
86.9849468423
 10
27.2431051834
 20
87.0062673733
 10
27.2651181304
 20
87.0268819769
 10
27.2877902581
 20
87.0467695788
 10
27.3110972332
 20
87.0659091046
 10
27.3350147223
 20
87.0842794801
 10
27.3594865175
 20
87.101839314
 10
27.3845142212
 20
87.1185973852
 10
27.4100690316
 20
87.134540173
 10
27.4361221472
 20
87.1496541565
 10
27.4626447663
 20
87.1639258152
 10
27.4896080874
 20
87.1773416282
 10
27.5169730207
 20
87.1898848254
 10
27.5447212697
 20
87.201553631
 10
27.5728245595
 20
87.2123423656
 10
27.6012546152
 20
87.2222453501
 10
27.629983162
 20
87.2312569052
 10
27.658981925
 20
87.2393713517
 10
27.6882357977
 20
87.2465872554
 10
27.7176985605
 20
87.2528999578
 10
27.7473369314
 20
87.2583099067
 10
27.7771176285
 20
87.26281755
 10
27.8070073696
 20
87.2664233353
 10
27.8369728729
 20
87.2691277104
  0
LWPOLYLINE
  5
26E
100
AcDbEntity
  8
2_PLANES
100
AcDbPolyline
 62
7
  6
CONTINUOUS
 90
48
 70
0
 10
71.5302365435
 20
84.054379214
 10
71.5300571861
 20
84.0920203493
 10
71.5288380822
 20
84.1296616373
 10
71.5265791246
 20
84.1672691861
 10
71.5232802061
 20
84.2048091035
 10
71.5189412196
 20
84.2422474977
 10
71.5135620578
 20
84.2795504764
 10
71.5070504262
 20
84.3171796491
 10
71.4994740145
 20
84.3546045231
 10
71.4908363008
 20
84.3917946603
 10
71.4811407632
 20
84.4287196223
 10
71.4703908799
 20
84.4653489711
 10
71.4585901289
 20
84.5016522684
 10
71.4455213499
 20
84.5381975903
 10
71.4313912575
 20
84.5743483339
 10
71.4162212278
 20
84.6100784252
 10
71.4000326366
 20
84.6453617902
 10
71.3828468599
 20
84.6801723551
 10
71.3646852737
 20
84.7144840458
 10
71.345248567
 20
84.7488189051
 10
71.3248456913
 20
84.7825866871
 10
71.3034963639
 20
84.8157625622
 10
71.2812203022
 20
84.8483217005
 10
71.2580372236
 20
84.8802392723
 10
71.2339668454
 20
84.9114904479
 10
71.2086707617
 20
84.9424810698
 10
71.1825133222
 20
84.9727486336
 10
71.1555255391
 20
85.0022810549
 10
71.1277384248
 20
85.0310662492
 10
71.0991829916
 20
85.0590921322
 10
71.069890252
 20
85.0863466195
 10
71.0396436947
 20
85.1130289713
 10
71.0087038014
 20
85.1389010031
 10
70.9770950431
 20
85.1639486456
 10
70.9448418904
 20
85.1881578295
 10
70.9119688141
 20
85.2115144856
 10
70.878500285
 20
85.2340045446
 10
70.8444872775
 20
85.2556000677
 10
70.8099313981
 20
85.276315338
 10
70.774859891
 20
85.2961494332
 10
70.7393000005
 20
85.3151014311
 10
70.7032789707
 20
85.3331704097
 10
70.6668240459
 20
85.3503554467
 10
70.6230777179
 20
85.3695815431
 10
70.5788023875
 20
85.3875499671
 10
70.5340406657
 20
85.4042468656
 10
70.4888351634
 20
85.419658385
 10
70.4432284918
 20
85.4337706719
  0
LWPOLYLINE
  5
26F
100
AcDbEntity
  8
0
100
AcDbPolyline
 62
7
  6
CONTINUOUS
 90
28
 70
0
 10
73.7098801864
 20
75.3488239198
 10
73.7101224914
 20
75.288117146
 10
73.7108530936
 20
75.2274133181
 10
73.7120775243
 20
75.1667171205
 10
73.7137578937
 20
75.1074332963
 10
73.7159321343
 20
75.0481658602
 10
73.718617536
 20
74.9889194474
 10
73.7216721869
 20
74.9324594556
 10
73.7252379127
 20
74.8760294098
 10
73.7293454634
 20
74.8196359345
 10
73.7336740196
 20
74.7673295761
 10
73.7385449917
 20
74.7150712623
 10
73.7440074651
 20
74.662871821
 10
73.7494764296
 20
74.6159487665
 10
73.7555357059
 20
74.5690980785
 10
73.7622566383
 20
74.5223356558
 10
73.767020442
 20
74.4919862738
 10
73.7721431491
 20
74.4616958626
 10
73.7776737572
 20
74.4314793531
 10
73.7836612639
 20
74.4013516764
 10
73.789297846
 20
74.3751775474
 10
73.7953912358
 20
74.3491060284
 10
73.8012985154
 20
74.3258757135
 10
73.8077150082
 20
74.3027815114
 10
73.8138518761
 20
74.282626419
 10
73.8205595865
 20
74.2626525029
 10
73.8268796968
 20
74.245673821
 10
73.8338489051
 20
74.2289566698
  0
LINE
  5
270
100
AcDbEntity
  8
0
100
AcDbLine
 62
7
  6
CONTINUOUS
 10
49.3559201523
 20
84.1666580534
 11
49.3559589345
 21
84.1096073345
  0
LINE
  5
271
100
AcDbEntity
  8
0
100
AcDbLine
 62
7
  6
CONTINUOUS
 10
21.953848075
 20
62.859180884
 11
21.953848075
 21
87.8384669555
  0
LINE
  5
272
100
AcDbEntity
  8
0
100
AcDbLine
 62
7
  6
CONTINUOUS
 10
28.3457218529
 20
73.9946921707
 11
28.3457218529
 21
76.7029556688
  0
LINE
  5
273
100
AcDbEntity
  8
0
100
AcDbLine
 62
7
  6
CONTINUOUS
 10
29.2402298596
 20
72.7513057995
 11
29.2402298596
 21
66.988755243
  0
LINE
  5
274
100
AcDbEntity
  8
0
100
AcDbLine
 62
7
  6
CONTINUOUS
 10
29.2402298596
 20
77.94634204
 11
29.2402298596
 21
83.7088925965
  0
LINE
  5
275
100
AcDbEntity
  8
0
100
AcDbLine
 62
7
  6
CONTINUOUS
 10
49.3559589345
 20
66.588040505
 11
49.3559589345
 21
84.1096073345
  0
LWPOLYLINE
  5
276
100
AcDbEntity
  8
0
100
AcDbPolyline
 62
7
  6
CONTINUOUS
 90
8
 70
0
 10
49.3559200513
 20
66.5309897864
 10
49.3559459509
 20
66.2399335034
 10
49.3558827517
 20
66.1013347759
 10
49.3556334243
 20
65.9627359117
 10
49.3551452293
 20
65.8362616996
 10
49.3543418539
 20
65.7097889819
 10
49.3531655403
 20
65.5833196536
 10
49.3515585305
 20
65.45685561
  0
LINE
  5
277
100
AcDbEntity
  8
DEFAULT_1
100
AcDbLine
 62
7
  6
CENTER
 10
67.0765306122
 20
71.4403536951
 11
67.0765306122
 21
79.2572941445
  0
LINE
  5
278
100
AcDbEntity
  8
0
100
AcDbLine
 62
7
  6
CONTINUOUS
 10
74.8127542764
 20
62.9770910997
 11
74.8127542764
 21
87.7205567398
  0
LINE
  5
279
100
AcDbEntity
  8
0
100
AcDbLine
 62
7
  6
CONTINUOUS
 10
78.0028669023
 20
57.9611798344
 11
78.0028669023
 21
92.7364680051
  0
LINE
  5
27A
100
AcDbEntity
  8
0
100
AcDbLine
 62
7
  6
CONTINUOUS
 10
78.3265306122
 20
57.8469212688
 11
78.3265306122
 21
92.8507265707
  0
LWPOLYLINE
  5
27B
100
AcDbEntity
  8
0
100
AcDbPolyline
 62
7
  6
CONTINUOUS
 90
8
 70
0
 10
49.3559200513
 20
84.1666580531
 10
49.3559459509
 20
84.4577143354
 10
49.3558827517
 20
84.5963130627
 10
49.3556334243
 20
84.7349119266
 10
49.3551452294
 20
84.8613861384
 10
49.354341854
 20
84.9878588559
 10
49.3531655403
 20
85.1143281839
 10
49.3515585305
 20
85.2407922273
  0
LINE
  5
27C
100
AcDbEntity
  8
0
100
AcDbLine
 62
7
  6
CONTINUOUS
 10
51.0934119756
 20
64.1326715312
 11
51.0934154416
 21
64.1432812429
  0
LINE
  5
27D
100
AcDbEntity
  8
0
100
AcDbLine
 62
7
  6
CONTINUOUS
 10
49.3559201523
 20
66.5309897861
 11
49.3559589345
 21
66.588040505
  0
LWPOLYLINE
  5
27E
100
AcDbEntity
  8
0
100
AcDbPolyline
 62
7
  6
CONTINUOUS
 90
48
 70
0
 10
71.5302365435
 20
66.6432686255
 10
71.5300571861
 20
66.6056274902
 10
71.5288380822
 20
66.5679862022
 10
71.5265791246
 20
66.5303786534
 10
71.5232802061
 20
66.492838736
 10
71.5189412196
 20
66.4554003418
 10
71.5135620578
 20
66.4180973631
 10
71.5070504262
 20
66.3804681904
 10
71.4994740145
 20
66.3430433164
 10
71.4908363008
 20
66.3058531792
 10
71.4811407632
 20
66.2689282172
 10
71.4703908799
 20
66.2322988684
 10
71.4585901289
 20
66.1959955711
 10
71.4455213499
 20
66.1594502492
 10
71.4313912575
 20
66.1232995056
 10
71.4162212278
 20
66.0875694143
 10
71.4000326366
 20
66.0522860493
 10
71.3828468599
 20
66.0174754844
 10
71.3646852737
 20
65.9831637937
 10
71.345248567
 20
65.9488289344
 10
71.3248456913
 20
65.9150611524
 10
71.3034963639
 20
65.8818852774
 10
71.2812203022
 20
65.8493261391
 10
71.2580372236
 20
65.8174085673
 10
71.2339668454
 20
65.7861573917
 10
71.2086707617
 20
65.7551667698
 10
71.1825133222
 20
65.724899206
 10
71.1555255391
 20
65.6953667847
 10
71.1277384248
 20
65.6665815903
 10
71.0991829916
 20
65.6385557073
 10
71.069890252
 20
65.61130122
 10
71.0396436947
 20
65.5846188682
 10
71.0087038014
 20
65.5587468364
 10
70.9770950431
 20
65.5336991939
 10
70.9448418904
 20
65.50949001
 10
70.9119688141
 20
65.4861333539
 10
70.878500285
 20
65.4636432949
 10
70.8444872775
 20
65.4420477718
 10
70.8099313981
 20
65.4213325015
 10
70.774859891
 20
65.4014984063
 10
70.7393000005
 20
65.3825464084
 10
70.7032789707
 20
65.3644774298
 10
70.6668240459
 20
65.3472923928
 10
70.6230777179
 20
65.3280662964
 10
70.5788023875
 20
65.3100978724
 10
70.5340406657
 20
65.2934009739
 10
70.4888351634
 20
65.2779894545
 10
70.4432284918
 20
65.2638771676
  0
LWPOLYLINE
  5
27F
100
AcDbEntity
  8
0
100
AcDbPolyline
 62
7
  6
CONTINUOUS
 90
40
 70
0
 10
73.5864191438
 20
75.3488239198
 10
73.5868111289
 20
75.4260553163
 10
73.5879963074
 20
75.5032806027
 10
73.5899885141
 20
75.5804904869
 10
73.592687241
 20
75.6547843607
 10
73.5961947746
 20
75.7290432364
 10
73.6005594034
 20
75.803254995
 10
73.6042106499
 20
75.8559461901
 10
73.6083535981
 20
75.9086007529
 10
73.6127804788
 20
75.9586023627
 10
73.6177254987
 20
76.0085554176
 10
73.6228798741
 20
76.0553879038
 10
73.6285848467
 20
76.1021564178
 10
73.6344092986
 20
76.1453714974
 10
73.6408270566
 20
76.1885024474
 10
73.6472561525
 20
76.2276884666
 10
73.6543342227
 20
76.2667621476
 10
73.6612944658
 20
76.3015479495
 10
73.6689762742
 20
76.3361820582
 10
73.6738324457
 20
76.3562452341
 10
73.6790272786
 20
76.3762227123
 10
73.6846122242
 20
76.3960937378
 10
73.689695916
 20
76.412834335
 10
73.6951659665
 20
76.4294532629
 10
73.701091517
 20
76.4459202374
 10
73.7063263091
 20
76.4592223754
 10
73.7120134342
 20
76.4723328911
 10
73.7182554842
 20
76.4851816465
 10
73.7224909171
 20
76.493044488
 10
73.7270427931
 20
76.5007281728
 10
73.731318038
 20
76.5072345456
 10
73.7359388547
 20
76.5134998702
 10
73.7402492741
 20
76.5186466133
 10
73.7449222484
 20
76.523465968
 10
73.7492717225
 20
76.5272575459
 10
73.7539713438
 20
76.5306021682
 10
73.7583794793
 20
76.5330411991
 10
73.7630643277
 20
76.5348917504
 10
73.7675736481
 20
76.5359533299
 10
73.7721792907
 20
76.536323771
  0
LWPOLYLINE
  5
280
100
AcDbEntity
  8
0
100
AcDbPolyline
 62
7
  6
CONTINUOUS
 90
40
 70
0
 10
73.9579509983
 20
75.3488239198
 10
73.9575589915
 20
75.2715904082
 10
73.9563737472
 20
75.1943630073
 10
73.9543814299
 20
75.1171510098
 10
73.9516825475
 20
75.0428549955
 10
73.948174807
 20
74.9685939825
 10
73.9438099136
 20
74.8943800914
 10
73.9401584361
 20
74.8416873334
 10
73.9360152183
 20
74.7890312121
 10
73.9315880425
 20
74.73902815
 10
73.9266426817
 20
74.6890736492
 10
73.9214879486
 20
74.6422399055
 10
73.9157825639
 20
74.5954701433
 10
73.9099576978
 20
74.5522541012
 10
73.9035394595
 20
74.5091222021
 10
73.8971099034
 20
74.4699356239
 10
73.8900312902
 20
74.4308614055
 10
73.8830705538
 20
74.3960755447
 10
73.8753881539
 20
74.3614414072
 10
73.8705316629
 20
74.3413785647
 10
73.8653364604
 20
74.3214014408
 10
73.8597510775
 20
74.3015308008
 10
73.8546670672
 20
74.2847909356
 10
73.849196645
 20
74.2681727677
 10
73.8432706632
 20
74.2517065835
 10
73.8380356205
 20
74.238405517
 10
73.8323481589
 20
74.2252961414
 10
73.8261056236
 20
74.212448648
 10
73.8218699469
 20
74.2045869502
 10
73.8173178073
 20
74.1969044477
 10
73.8130423695
 20
74.1903992053
 10
73.8084212708
 20
74.1841351476
 10
73.804110633
 20
74.1789898488
 10
73.7994374253
 20
74.1741720411
 10
73.7950877435
 20
74.1703818071
 10
73.7903879262
 20
74.1670387595
 10
73.7859795433
 20
74.1646013607
 10
73.7812945702
 20
74.1627526139
 10
73.7767849602
 20
74.1616926662
 10
73.7721792824
 20
74.1613240686
  0
LWPOLYLINE
  5
281
100
AcDbEntity
  8
0
100
AcDbPolyline
 62
7
  6
CONTINUOUS
 90
49
 70
0
 10
26.9569297099
 20
64.4017438947
 10
26.9567329109
 20
64.3713587797
 10
26.9574479557
 20
64.3409621645
 10
26.9590785288
 20
64.3105873333
 10
26.9616283152
 20
64.2802675701
 10
26.9651009995
 20
64.2500361589
 10
26.9695002664
 20
64.2199263837
 10
26.974817241
 20
64.1900302226
 10
26.9810582366
 20
64.1603172483
 10
26.9882207031
 20
64.130816343
 10
26.9963020902
 20
64.101556389
 10
27.005299848
 20
64.0725662686
 10
27.0152114262
 20
64.0438748639
 10
27.0260062858
 20
64.015578166
 10
27.0376980393
 20
63.9876378411
 10
27.0502766261
 20
63.9600842155
 10
27.0637319855
 20
63.9329476158
 10
27.0780540567
 20
63.9062583683
 10
27.0932327792
 20
63.8800467994
 10
27.1092177444
 20
63.8544030602
 10
27.1260273706
 20
63.8292917196
 10
27.1436437417
 20
63.8047395795
 10
27.1620489418
 20
63.7807734418
 10
27.1812250548
 20
63.7574201085
 10
27.201154165
 20
63.7347063815
 10
27.2217757505
 20
63.7127009972
 10
27.2431051834
 20
63.6913804662
 10
27.2651181304
 20
63.6707658626
 10
27.2877902581
 20
63.6508782607
 10
27.3110972332
 20
63.6317387349
 10
27.3350147223
 20
63.6133683594
 10
27.3594865175
 20
63.5958085255
 10
27.3845142212
 20
63.5790504543
 10
27.4100690316
 20
63.5631076665
 10
27.4361221472
 20
63.547993683
 10
27.4626447663
 20
63.5337220243
 10
27.4896080874
 20
63.5203062113
 10
27.5169730207
 20
63.5077630141
 10
27.5447212697
 20
63.4960942085
 10
27.5728245595
 20
63.4853054739
 10
27.6012546152
 20
63.4754024894
 10
27.629983162
 20
63.4663909343
 10
27.658981925
 20
63.4582764878
 10
27.6882357977
 20
63.4510605841
 10
27.7176985605
 20
63.4447478817
 10
27.7473369314
 20
63.4393379328
 10
27.7771176285
 20
63.4348302895
 10
27.8070073696
 20
63.4312245042
 10
27.8369728729
 20
63.4285201291
  0
LWPOLYLINE
  5
282
100
AcDbEntity
  8
0
100
AcDbPolyline
 62
7
  6
CONTINUOUS
 90
9
 70
0
 10
71.5302365435
 20
84.0543792139
 10
71.5106171472
 20
81.8786997979
 10
71.4912581451
 20
79.7029251264
 10
71.4818438389
 20
78.6149427546
 10
71.4728890352
 20
77.5268015172
 10
71.468810278
 20
76.9826023832
 10
71.4653371892
 20
76.4382280145
 10
71.4629165696
 20
75.8935279216
 10
71.4619862627
 20
75.3488239198
  0
LWPOLYLINE
  5
283
100
AcDbEntity
  8
0
100
AcDbPolyline
 62
7
  6
CONTINUOUS
 90
49
 70
0
 10
25.0698381019
 20
75.3488239198
 10
25.0701325527
 20
75.3796342652
 10
25.0710139252
 20
75.4104392402
 10
25.0724792502
 20
75.4412260652
 10
25.0745255583
 20
75.4719819607
 10
25.0771498802
 20
75.5026941471
 10
25.0802476151
 20
75.5324437662
 10
25.0838917954
 20
75.5621295113
 10
25.0880873527
 20
75.591740703
 10
25.0928392182
 20
75.6212666621
 10
25.0981523235
 20
75.6506967094
 10
25.1037314347
 20
75.6785864195
 10
25.1098326766
 20
75.7063670354
 10
25.1164660957
 20
75.7340258711
 10
25.1236417387
 20
75.7615502409
 10
25.1313696521
 20
75.7889274587
 10
25.1390491662
 20
75.8141989152
 10
25.1472336557
 20
75.8393113676
 10
25.1559434542
 20
75.8642435706
 10
25.1651988953
 20
75.8889742787
 10
25.1750203128
 20
75.9134822466
 10
25.1830320922
 20
75.9322974245
 10
25.1914195634
 20
75.9509468384
 10
25.2002066485
 20
75.9694111088
 10
25.2088863818
 20
75.9866438351
 10
25.2179687534
 20
76.0036679515
 10
25.227479348
 20
76.0204569248
 10
25.2368098402
 20
76.0359594628
 10
25.2465676053
 20
76.0511962706
 10
25.2567809411
 20
76.0661316765
 10
25.2667464241
 20
76.0797598826
 10
25.2771613456
 20
76.0930474993
 10
25.2880539578
 20
76.1059473451
 10
25.2959662461
 20
76.1147058114
 10
25.3041380223
 20
76.1232227583
 10
25.3125816218
 20
76.1314691405
 10
25.32130938
 20
76.1394159123
 10
25.3297914744
 20
76.1465928675
 10
25.3385380117
 20
76.1534459746
 10
25.3475508876
 20
76.1599424124
 10
25.3568319977
 20
76.1660493596
 10
25.3660220944
 20
76.1715316121
 10
25.3754506485
 20
76.1765953601
 10
25.3851056409
 20
76.1812136851
 10
25.3949750527
 20
76.1853596687
 10
25.4050298172
 20
76.189004697
 10
25.4152550896
 20
76.1921424677
 10
25.4256195272
 20
76.1947636271
 10
25.436091787
 20
76.1968588214
  0
LWPOLYLINE
  5
284
100
AcDbEntity
  8
0
100
AcDbPolyline
 62
7
  6
CONTINUOUS
 90
91
 70
0
 10
65.2723014928
 20
75.3488239198
 10
65.2732710392
 20
75.4079562798
 10
65.2761772736
 20
75.4670410325
 10
65.2810170577
 20
75.5260028748
 10
65.2877861321
 20
75.5847682578
 10
65.2964764472
 20
75.6432763955
 10
65.3070788948
 20
75.7014682497
 10
65.3195831952
 20
75.7592844357
 10
65.3339735487
 20
75.8166604358
 10
65.3502329428
 20
75.8735313941
 10
65.3683445783
 20
75.9298347582
 10
65.3882926759
 20
75.9855176956
 10
65.4100616753
 20
76.0405296759
 10
65.4385259324
 20
76.1055064488
 10
65.4695311931
 20
76.1693420928
 10
65.5030250396
 20
76.2319319154
 10
65.538955054
 20
76.293171224
 10
65.5772688187
 20
76.3529553261
 10
65.6179098536
 20
76.4111823307
 10
65.6608052816
 20
76.4677613434
 10
65.7058781606
 20
76.5226042731
 10
65.7530515484
 20
76.5756230288
 10
65.8022485029
 20
76.6267295194
 10
65.8447889238
 20
76.6678456015
 10
65.8886433752
 20
76.7075356953
 10
65.9337707997
 20
76.7457663044
 10
65.9801282203
 20
76.7825028611
 10
66.0276649459
 20
76.8177064849
 10
66.0763283656
 20
76.8513372247
 10
66.1260655915
 20
76.88335649
 10
66.1768226991
 20
76.9137311789
 10
66.2285454878
 20
76.9424295494
 10
66.2811793496
 20
76.9694206517
 10
66.3346680183
 20
76.99467669
 10
66.3889548204
 20
77.0181706608
 10
66.4439820921
 20
77.0398765413
 10
66.4996883408
 20
77.0597722817
 10
66.5560110842
 20
77.0778368111
 10
66.6128898248
 20
77.0940500579
 10
66.6702719321
 20
77.1083959268
 10
66.7281067605
 20
77.1208593222
 10
66.7979458184
 20
77.1332979112
 10
66.8682469018
 20
77.1429961855
 10
66.9388944375
 20
77.1499397701
 10
67.0097728525
 20
77.1541142905
 10
67.0807665734
 20
77.1555053718
 10
67.1517600454
 20
77.154103472
 10
67.2226377658
 20
77.1499183799
 10
67.2932842499
 20
77.1429647171
 10
67.3635840132
 20
77.1332571055
 10
67.4334215713
 20
77.1208101667
 10
67.4912549903
 20
77.1083407375
 10
67.5486356963
 20
77.0939897116
 10
67.6055131136
 20
77.0777721958
 10
67.6618347065
 20
77.0597042529
 10
67.7175399326
 20
77.0398058229
 10
67.77256629
 20
77.0180978033
 10
67.8268522355
 20
76.9946021071
 10
67.8803401431
 20
76.9693446731
 10
67.9329733452
 20
76.9423524548
 10
67.9846956001
 20
76.913653133
 10
68.0354520949
 20
76.8832774544
 10
68.0851884441
 20
76.8512568961
 10
68.1338505548
 20
76.8176243771
 10
68.1813855787
 20
76.7824185303
 10
68.2277409594
 20
76.7456794299
 10
68.2728660951
 20
76.7074460239
 10
68.3167179319
 20
76.6677529891
 10
68.3592553729
 20
76.6266338795
 10
68.408448432
 20
76.5755237093
 10
68.4556180925
 20
76.5225017084
 10
68.5006881675
 20
76.4676564503
 10
68.5435824703
 20
76.4110765083
 10
68.584224814
 20
76.3528504561
 10
68.6225432455
 20
76.2930692537
 10
68.6584817519
 20
76.2318349834
 10
68.6919885746
 20
76.1692521278
 10
68.7230119546
 20
76.1054251695
 10
68.7515001332
 20
76.0404585909
 10
68.7732937612
 20
75.985456275
 10
68.7932703815
 20
75.9297834579
 10
68.8114138163
 20
75.8734902162
 10
68.8277076336
 20
75.81662884
 10
68.8421340585
 20
75.7592616322
 10
68.8546750747
 20
75.7014531131
 10
68.8653136986
 20
75.6432675386
 10
68.8740377866
 20
75.5847641106
 10
68.8808361846
 20
75.5260017582
 10
68.8856988872
 20
75.467041199
 10
68.888619999
 20
75.4079565991
 10
68.8895948422
 20
75.3488239198
  0
LWPOLYLINE
  5
285
100
AcDbEntity
  8
0
100
AcDbPolyline
 62
7
  6
CONTINUOUS
 90
49
 70
0
 10
78.0028669023
 20
57.9611798344
 10
78.002729271
 20
57.9529587361
 10
78.0023166628
 20
57.944740482
 10
78.0016295041
 20
57.9365360197
 10
78.0006682215
 20
57.9283562966
 10
77.9994332416
 20
57.9202122602
 10
77.9979249908
 20
57.9121148583
 10
77.9961462227
 20
57.9040828901
 10
77.9940977283
 20
57.8961170006
 10
77.9917820645
 20
57.8882258048
 10
77.9892017883
 20
57.880417918
 10
77.9863594569
 20
57.8727019552
 10
77.9832576271
 20
57.8650865315
 10
77.97990564
 20
57.8575939881
 10
77.9763022498
 20
57.8502185186
 10
77.9724520457
 20
57.8429684458
 10
77.9683596172
 20
57.8358520926
 10
77.9640295535
 20
57.8288777818
 10
77.9594664439
 20
57.822053836
 10
77.9546866603
 20
57.8154037641
 10
77.9496857668
 20
57.8089184221
 10
77.9444700402
 20
57.8026045954
 10
77.9390457573
 20
57.796469069
 10
77.933419195
 20
57.7905186283
 10
77.9275966301
 20
57.7847600584
 10
77.9215993948
 20
57.7792131603
 10
77.9154207666
 20
57.7738690679
 10
77.9090681563
 20
57.7687328966
 10
77.9025489745
 20
57.763809762
 10
77.8958706316
 20
57.7591047796
 10
77.8890405384
 20
57.7546230647
 10
77.8820812361
 20
57.7503782436
 10
77.8749863908
 20
57.7463641363
 10
77.8677641855
 20
57.7425840444
 10
77.8604228032
 20
57.7390412699
 10
77.852970427
 20
57.7357391147
 10
77.8454152397
 20
57.7326808806
 10
77.837777031
 20
57.7298736557
 10
77.8300523591
 20
57.7273145018
 10
77.8222491025
 20
57.7250050151
 10
77.8143751397
 20
57.7229467919
 10
77.8064383492
 20
57.7211414284
 10
77.7984466095
 20
57.7195905207
 10
77.7904138461
 20
57.7182962392
 10
77.7823436914
 20
57.7172576848
 10
77.774245758
 20
57.7164748981
 10
77.766129658
 20
57.7159479194
 10
77.7580050037
 20
57.7156767894
 10
77.7498814076
 20
57.7156615486
  0
LINE
  5
286
100
AcDbEntity
  8
0
100
AcDbLine
 62
7
  6
CONTINUOUS
 10
26.9890050575
 20
65.8849748708
 11
26.9569297099
 21
64.4017438947
  0
LWPOLYLINE
  5
287
100
AcDbEntity
  8
2_PLANES
100
AcDbPolyline
 62
7
  6
CONTINUOUS
 90
37
 70
0
 10
29.2402298922
 20
77.94634204
 10
29.2399440001
 20
77.9331368642
 10
29.2393029652
 20
77.9199336795
 10
29.2383082491
 20
77.9067435496
 10
29.2369613134
 20
77.8935775381
 10
29.2352636198
 20
77.8804467084
 10
29.2332166298
 20
77.8673621242
 10
29.2308218051
 20
77.854334849
 10
29.2280806072
 20
77.8413759464
 10
29.2249944979
 20
77.8284964799
 10
29.2215569794
 20
77.8156775367
 10
29.2177781683
 20
77.8029577964
 10
29.2136618142
 20
77.7903455426
 10
29.2092116666
 20
77.7778490588
 10
29.2044314753
 20
77.7654766287
 10
29.1993249899
 20
77.7532365357
 10
29.19389596
 20
77.7411370636
 10
29.1881481352
 20
77.7291864958
 10
29.1820852653
 20
77.7173931159
 10
29.1756973079
 20
77.7057402647
 10
29.1690018699
 20
77.6942610079
 10
29.1620041045
 20
77.682962757
 10
29.1547091652
 20
77.6718529235
 10
29.1471222053
 20
77.6609389187
 10
29.1392483784
 20
77.6502281542
 10
29.1310928377
 20
77.6397280413
 10
29.1226607366
 20
77.6294459915
 10
29.1139572286
 20
77.6193894164
 10
29.10497436
 20
77.6095510985
 10
29.0957328669
 20
77.5999533609
 10
29.0862411779
 20
77.5906031987
 10
29.0765077213
 20
77.581507607
 10
29.0665409255
 20
77.5726735812
 10
29.0563492189
 20
77.5641081164
 10
29.0459410298
 20
77.5558182077
 10
29.0353247866
 20
77.5478108504
 10
29.0245089177
 20
77.5400930397
  0
LWPOLYLINE
  5
288
100
AcDbEntity
  8
0
100
AcDbPolyline
 62
7
  6
CONTINUOUS
 90
28
 70
0
 10
73.8338488816
 20
76.4686911171
 10
73.8268796747
 20
76.4519739626
 10
73.8205595657
 20
76.4349952776
 10
73.8138518562
 20
76.4150213584
 10
73.8077149892
 20
76.3948662629
 10
73.8012984977
 20
76.3717720598
 10
73.7953912195
 20
76.3485417441
 10
73.7892978308
 20
76.3224702242
 10
73.7836612497
 20
76.2962960944
 10
73.7776737443
 20
76.2661684184
 10
73.7721431373
 20
76.2359519098
 10
73.7670204312
 20
76.2056614995
 10
73.7622566284
 20
76.1753121184
 10
73.7555356972
 20
76.1285496973
 10
73.7494764219
 20
76.0816990108
 10
73.7440074583
 20
76.034775958
 10
73.738544986
 20
75.982576519
 10
73.7336740147
 20
75.9303182076
 10
73.7293454592
 20
75.8780118517
 10
73.7252379095
 20
75.8216183822
 10
73.7216721845
 20
75.7651883423
 10
73.7186175342
 20
75.7087283564
 10
73.7159321332
 20
75.6494819502
 10
73.713757893
 20
75.5902145206
 10
73.7120775239
 20
75.5309307028
 10
73.7108530934
 20
75.4702345106
 10
73.7101224913
 20
75.4095306881
 10
73.7098801864
 20
75.3488239198
  0
LINE
  5
289
100
AcDbEntity
  8
0
100
AcDbLine
 62
7
  6
CONTINUOUS
 10
53.510160763
 20
86.9101226316
 11
53.2125994832
 21
86.8291959032
  0
LINE
  5
28A
100
AcDbEntity
  8
0
100
AcDbLine
 62
7
  6
CONTINUOUS
 10
48.6764382029
 20
63.7891042631
 11
48.9740522927
 21
63.8698365628
  0
LINE
  5
28B
100
AcDbEntity
  8
0
100
AcDbLine
 62
7
  6
CONTINUOUS
 10
53.4254890796
 20
85.3608027013
 11
53.7530786909
 21
85.4435856987
  0
LINE
  5
28C
100
AcDbEntity
  8
0
100
AcDbLine
 62
7
  6
CONTINUOUS
 10
48.7621221156
 20
65.3383685426
 11
48.434478488
 21
65.2557995934
  0
LWPOLYLINE
  5
28D
100
AcDbEntity
  8
0
100
AcDbPolyline
 62
7
  6
CONTINUOUS
 90
4
 70
0
 10
43.3613790914
 20
62.052493995
 10
43.3600256853
 20
62.0521592724
 10
43.3586839253
 20
62.051784414
 10
43.3573451543
 20
62.0513862949
  0
LWPOLYLINE
  5
28E
100
AcDbEntity
  8
2_PLANES
100
AcDbPolyline
 62
7
  6
CONTINUOUS
 90
28
 70
0
 10
26.4818721135
 20
76.751553089
 10
26.4516100824
 20
76.7441135147
 10
26.4212411617
 20
76.7371118842
 10
26.390780338
 20
76.7305132089
 10
26.3602425976
 20
76.7242825003
 10
26.3203802048
 20
76.71665697
 10
26.2804343325
 20
76.7094885064
 10
26.240426537
 20
76.7026694334
 10
26.1927174168
 20
76.6948508371
 10
26.1449841171
 20
76.6871803001
 10
26.0972597385
 20
76.6794628931
 10
26.0495773812
 20
76.671503687
 10
26.0019701456
 20
76.6631077526
 10
25.9615963618
 20
76.6554879699
 10
25.9213292943
 20
76.6473183045
 10
25.8811974968
 20
76.638505083
 10
25.8502037546
 20
76.6311745033
 10
25.8193244933
 20
76.6233736727
 10
25.7885757764
 20
76.6150752324
 10
25.7579736672
 20
76.6062518232
 10
25.7259765939
 20
76.596383295
 10
25.6941761508
 20
76.5858949031
 10
25.6625891736
 20
76.5747772518
 10
25.6312324979
 20
76.5630209454
 10
25.5979335123
 20
76.5497192196
 10
25.5649349757
 20
76.5356874761
 10
25.5322540333
 20
76.5209385863
 10
25.4999078299
 20
76.5054854214
  0
LINE
  5
28F
100
AcDbEntity
  8
0
100
AcDbLine
 62
7
  6
CONTINUOUS
 10
53.2125994832
 20
86.8291959032
 11
52.9126894356
 21
86.7589926484
  0
LINE
  5
290
100
AcDbEntity
  8
0
100
AcDbLine
 62
7
  6
CONTINUOUS
 10
48.9740522927
 20
63.8698365628
 11
49.2740081435
 21
63.9398438565
  0
LINE
  5
291
100
AcDbEntity
  8
0
100
AcDbLine
 62
7
  6
CONTINUOUS
 10
53.095468112
 20
85.2889465574
 11
53.4254890796
 21
85.3608027013
  0
LINE
  5
292
100
AcDbEntity
  8
0
100
AcDbLine
 62
7
  6
CONTINUOUS
 10
49.09218996
 20
65.4100090521
 11
48.7621221156
 21
65.3383685426
  0
LWPOLYLINE
  5
293
100
AcDbEntity
  8
0
100
AcDbPolyline
 62
7
  6
CONTINUOUS
 90
30
 70
0
 10
56.7919988612
 20
88.6746319148
 10
56.788389497
 20
88.6738719666
 10
56.7847848036
 20
88.6730889629
 10
56.7811856948
 20
88.6722804114
 10
56.7775930839
 20
88.6714438194
 10
56.7740078846
 20
88.6705766945
 10
56.7704310105
 20
88.6696765442
 10
56.7674766813
 20
88.668904164
 10
56.7645298311
 20
88.6681038932
 10
56.7615916061
 20
88.6672721877
 10
56.7586631524
 20
88.6664055029
 10
56.7557456163
 20
88.6655002946
 10
56.752840144
 20
88.6645530183
 10
56.7511483001
 20
88.6639781538
 10
56.7494625839
 20
88.6633850093
 10
56.7477846107
 20
88.6627708854
 10
56.7461159958
 20
88.6621330827
 10
56.7444583544
 20
88.6614689018
 10
56.7428133019
 20
88.6607756433
 10
56.7411824535
 20
88.6600506078
 10
56.7395674247
 20
88.659291096
 10
56.7383119985
 20
88.658668388
 10
56.7370703693
 20
88.6580184027
 10
56.735845588
 20
88.6573367765
 10
56.7346407053
 20
88.656619146
 10
56.7338597975
 20
88.6561245427
 10
56.7330917264
 20
88.6556102122
 10
56.732339373
 20
88.6550739396
 10
56.7316056182
 20
88.6545135098
 10
56.730893343
 20
88.6539267077
  0
LWPOLYLINE
  5
294
100
AcDbEntity
  8
0
100
AcDbPolyline
 62
7
  6
CONTINUOUS
 90
28
 70
0
 10
45.393447964
 20
62.0267395438
 10
45.3972217448
 20
62.0275323944
 10
45.4009880265
 20
62.0283505337
 10
45.4047475837
 20
62.0291969391
 10
45.4085011912
 20
62.0300745879
 10
45.4122496235
 20
62.0309864575
 10
45.4159936553
 20
62.0319355251
 10
45.4197340613
 20
62.0329247682
 10
45.4219103442
 20
62.0335207788
 10
45.4240832023
 20
62.0341336506
 10
45.4262501774
 20
62.0347656124
 10
45.4284088114
 20
62.0354188929
 10
45.4305566464
 20
62.0360957209
 10
45.4326912243
 20
62.0367983251
 10
45.4348100869
 20
62.0375289341
 10
45.4369107763
 20
62.0382897769
 10
45.4389908342
 20
62.039083082
 10
45.4404180944
 20
62.0396530029
 10
45.441835498
 20
62.0402427925
 10
45.4432442591
 20
62.0408556866
 10
45.4446455918
 20
62.0414949205
 10
45.4460407102
 20
62.0421637301
 10
45.4474308282
 20
62.0428653507
 10
45.4488171599
 20
62.043603018
 10
45.4502009194
 20
62.0443799677
 10
45.4515833207
 20
62.0451994352
 10
45.4523868581
 20
62.0456983591
 10
45.4531803119
 20
62.0462171262
  0
LINE
  5
295
100
AcDbEntity
  8
0
100
AcDbLine
 62
7
  6
CONTINUOUS
 10
56.8631678032
 20
88.6894160727
 11
56.7919988612
 21
88.6746319148
  0
LINE
  5
296
100
AcDbEntity
  8
0
100
AcDbLine
 62
7
  6
CONTINUOUS
 10
45.3222693779
 20
62.0120018873
 11
45.393447964
 21
62.0267395438
  0
LINE
  5
297
100
AcDbEntity
  8
0
100
AcDbLine
 62
7
  6
CONTINUOUS
 10
52.9126894356
 20
86.7589926484
 11
52.6107392639
 21
86.6995523884
  0
LINE
  5
298
100
AcDbEntity
  8
0
100
AcDbLine
 62
7
  6
CONTINUOUS
 10
49.2740081435
 20
63.9398438565
 11
49.575997086
 21
63.9990868249
  0
LWPOLYLINE
  5
299
100
AcDbEntity
  8
0
100
AcDbPolyline
 62
7
  6
CONTINUOUS
 90
47
 70
0
 10
29.6541839545
 20
84.1999711346
 10
29.6399426815
 20
84.1972289454
 10
29.6257789115
 20
84.1940702957
 10
29.6117067668
 20
84.1905003138
 10
29.5977403697
 20
84.1865241277
 10
29.5838938424
 20
84.1821468656
 10
29.5701813073
 20
84.1773736556
 10
29.556608883
 20
84.1722063995
 10
29.5431939805
 20
84.1666508195
 10
29.5299458494
 20
84.1607098283
 10
29.5168737391
 20
84.1543863384
 10
29.5039868991
 20
84.1476832624
 10
29.4912945789
 20
84.140603513
 10
29.4777260968
 20
84.1324828266
 10
29.4644119471
 20
84.1239306528
 10
29.4513655649
 20
84.1149573666
 10
29.438600385
 20
84.1055733429
 10
29.4261298426
 20
84.0957889567
 10
29.4139673726
 20
84.085614583
 10
29.4021264101
 20
84.0750605967
 10
29.3906203902
 20
84.0641373729
 10
29.3794627477
 20
84.0528552865
 10
29.3686669178
 20
84.0412247126
 10
29.3582463355
 20
84.029256026
 10
29.3482171708
 20
84.0169649673
 10
29.3385844543
 20
84.0043613819
 10
29.3293562387
 20
83.9914602388
 10
29.3205405765
 20
83.9782765071
 10
29.3121455204
 20
83.9648251557
 10
29.3041791227
 20
83.9511211536
 10
29.2966494363
 20
83.93717947
 10
29.2895645135
 20
83.9230150737
 10
29.282932407
 20
83.9086429339
 10
29.2767611694
 20
83.8940780195
 10
29.2710588532
 20
83.8793352996
 10
29.2662365338
 20
83.8656380903
 10
29.2618186561
 20
83.8518129023
 10
29.2578065718
 20
83.8378693699
 10
29.2542016327
 20
83.8238171274
 10
29.2510051905
 20
83.8096658089
 10
29.2482185971
 20
83.7954250488
 10
29.2458449877
 20
83.7811156836
 10
29.2438846686
 20
83.7667414512
 10
29.2423403212
 20
83.7523171772
 10
29.241214627
 20
83.7378576871
 10
29.2405102675
 20
83.7233778063
 10
29.240229924
 20
83.7088923604
  0
LINE
  5
29A
100
AcDbEntity
  8
0
100
AcDbLine
 62
7
  6
CONTINUOUS
 10
52.763364985
 20
85.2280780031
 11
53.095468112
 21
85.2889465574
  0
LINE
  5
29B
100
AcDbEntity
  8
0
100
AcDbLine
 62
7
  6
CONTINUOUS
 10
49.4243327845
 20
65.470660614
 11
49.09218996
 21
65.4100090521
  0
LINE
  5
29C
100
AcDbEntity
  8
2_PLANES
100
AcDbLine
 62
7
  6
CONTINUOUS
 10
25.4360917927
 20
76.1968584764
 11
28.3457218529
 21
76.7029556688
  0
LINE
  5
29D
100
AcDbEntity
  8
2_PLANES
100
AcDbLine
 62
7
  6
CONTINUOUS
 10
28.5380651777
 20
77.1092045826
 11
26.4818721135
 21
76.751553089
  0
LWPOLYLINE
  5
29E
100
AcDbEntity
  8
0
100
AcDbPolyline
 62
7
  6
CONTINUOUS
 90
13
 70
0
 10
29.6541839496
 20
84.1999728877
 10
31.0171239472
 20
84.4292566833
 10
32.3815409513
 20
84.6496718719
 10
33.7473744316
 20
84.8611582203
 10
35.1165970388
 20
85.063959336
 10
36.4871211855
 20
85.2577418851
 10
37.8588884318
 20
85.4425031118
 10
39.2383329871
 20
85.6190530471
 10
40.6189130108
 20
85.786511526
 10
42.0005680845
 20
85.9448966875
 10
43.386738961
 20
86.0945837992
 10
44.7738617107
 20
86.2351309914
 10
46.1618684306
 20
86.3664994384
  0
LINE
  5
29F
100
AcDbEntity
  8
0
100
AcDbLine
 62
7
  6
CONTINUOUS
 10
52.6107392639
 20
86.6995523884
 11
52.3071562212
 21
86.6509262771
  0
LINE
  5
2A0
100
AcDbEntity
  8
0
100
AcDbLine
 62
7
  6
CONTINUOUS
 10
49.575997086
 20
63.9990868249
 11
49.8796118338
 21
64.0475145799
  0
LINE
  5
2A1
100
AcDbEntity
  8
0
100
AcDbLine
 62
7
  6
CONTINUOUS
 10
52.4295286267
 20
85.1782487511
 11
52.763364985
 21
85.2280780031
  0
LINE
  5
2A2
100
AcDbEntity
  8
0
100
AcDbLine
 62
7
  6
CONTINUOUS
 10
49.7582016275
 20
65.5202717435
 11
49.4243327845
 21
65.470660614
  0
LWPOLYLINE
  5
2A3
100
AcDbEntity
  8
0
100
AcDbPolyline
 62
7
  6
CONTINUOUS
 90
13
 70
0
 10
29.5790727475
 20
66.4815356338
 10
29.5744460847
 20
66.4808739091
 10
29.5698137551
 20
66.4802523577
 10
29.5651765211
 20
66.4796676423
 10
29.5598909477
 20
66.4790428872
 10
29.5546005042
 20
66.4784594224
 10
29.5493056913
 20
66.4779151011
 10
29.5440070097
 20
66.4774077769
 10
29.5387049603
 20
66.4769353033
 10
29.5334000438
 20
66.4764955336
 10
29.5280927609
 20
66.4760863214
 10
29.5227836123
 20
66.4757055202
 10
29.5174730989
 20
66.4753509833
  0
LINE
  5
2A4
100
AcDbEntity
  8
0
100
AcDbLine
 62
7
  6
CONTINUOUS
 10
52.3071562212
 20
86.6509262771
 11
52.0022714462
 21
86.6131391216
  0
LINE
  5
2A5
100
AcDbEntity
  8
0
100
AcDbLine
 62
7
  6
CONTINUOUS
 10
49.8796118338
 20
64.0475145799
 11
50.1845212319
 21
64.0851025311
  0
LINE
  5
2A6
100
AcDbEntity
  8
0
100
AcDbLine
 62
7
  6
CONTINUOUS
 10
52.0943093225
 20
85.1394999136
 11
52.4295286267
 21
85.1782487511
  0
LINE
  5
2A7
100
AcDbEntity
  8
0
100
AcDbLine
 62
7
  6
CONTINUOUS
 10
50.0934461767
 20
65.5588015574
 11
49.7582016275
 21
65.5202717435
  0
LINE
  5
2A8
100
AcDbEntity
  8
0
100
AcDbLine
 62
7
  6
CONTINUOUS
 10
52.0022714462
 20
86.6131391216
 11
51.6963997655
 21
86.5862097273
  0
LINE
  5
2A9
100
AcDbEntity
  8
0
100
AcDbLine
 62
7
  6
CONTINUOUS
 10
50.1845212319
 20
64.0851025311
 11
50.4904104416
 21
64.1118320785
  0
LINE
  5
2AA
100
AcDbEntity
  8
0
100
AcDbLine
 62
7
  6
CONTINUOUS
 10
51.7580586571
 20
85.1118636594
 11
52.0943093225
 21
85.1394999136
  0
LINE
  5
2AB
100
AcDbEntity
  8
0
100
AcDbLine
 62
7
  6
CONTINUOUS
 10
50.4297148264
 20
65.5862181165
 11
50.0934461767
 21
65.5588015574
  0
LWPOLYLINE
  5
2AC
100
AcDbEntity
  8
0
100
AcDbPolyline
 62
7
  6
CONTINUOUS
 90
12
 70
0
 10
27.8369728729
 20
87.2691277104
 10
29.1131725472
 20
87.3609554962
 10
30.3899232478
 20
87.4449700063
 10
31.6671433647
 20
87.5215806645
 10
32.9487351123
 20
87.591387929
 10
34.2306706368
 20
87.6544792499
 10
35.5129034905
 20
87.7111767284
 10
36.7985775095
 20
87.7619107377
 10
38.084469611
 20
87.8068056613
 10
39.3705457473
 20
87.8461243772
 10
41.3035459503
 20
87.8952669304
 10
43.2367941903
 20
87.9330834168
  0
LINE
  5
2AD
100
AcDbEntity
  8
2_PLANES
100
AcDbLine
 62
7
  6
CONTINUOUS
 10
51.2391525414
 20
87.6047802837
 11
51.2059478106
 21
87.602504348
  0
LINE
  5
2AE
100
AcDbEntity
  8
1_CURVES
100
AcDbLine
 62
7
  6
CONTINUOUS
 10
50.7873865646
 20
86.5705282246
 11
51.2059486313
 21
86.5991369956
  0
LINE
  5
2AF
100
AcDbEntity
  8
2_PLANES
100
AcDbLine
 62
7
  6
CONTINUOUS
 10
52.1654655611
 20
86.6597453355
 11
52.2441598588
 21
86.6643569936
  0
LINE
  5
2B0
100
AcDbEntity
  8
2_PLANES
100
AcDbLine
 62
7
  6
CONTINUOUS
 10
52.2441598588
 20
86.6643569936
 11
52.32145815
 21
86.6688339259
  0
LINE
  5
2B1
100
AcDbEntity
  8
2_PLANES
100
AcDbLine
 62
7
  6
CONTINUOUS
 10
52.32145815
 20
86.6688339259
 11
52.4127229421
 21
86.6740522581
  0
LINE
  5
2B2
100
AcDbEntity
  8
0
100
AcDbLine
 62
7
  6
CONTINUOUS
 10
51.6963997655
 20
86.5862097273
 11
51.3899106319
 21
86.5701547714
  0
LINE
  5
2B3
100
AcDbEntity
  8
0
100
AcDbLine
 62
7
  6
CONTINUOUS
 10
50.4904104416
 20
64.1118320785
 11
50.7969099993
 21
64.1276867864
  0
LINE
  5
2B4
100
AcDbEntity
  8
0
100
AcDbLine
 62
7
  6
CONTINUOUS
 10
51.4211293826
 20
85.0953621724
 11
51.7580586571
 21
85.1118636594
  0
LINE
  5
2B5
100
AcDbEntity
  8
0
100
AcDbLine
 62
7
  6
CONTINUOUS
 10
50.7666548103
 20
65.6024994675
 11
50.4297148264
 21
65.5862181165
  0
LINE
  5
2B6
100
AcDbEntity
  8
0
100
AcDbLine
 62
7
  6
CONTINUOUS
 10
51.1769041148
 20
88.0254902403
 11
51.2103654481
 21
88.0266126444
  0
LWPOLYLINE
  5
2B7
100
AcDbEntity
  8
0
100
AcDbPolyline
 62
7
  6
CONTINUOUS
 90
8
 70
0
 10
51.2103654481
 20
88.0266126441
 10
51.8197221026
 20
88.0464012329
 10
52.4291177476
 20
88.0649558092
 10
53.0384504456
 20
88.0822821591
 10
53.6478158701
 20
88.0984293268
 10
54.4600185648
 20
88.1181951086
 10
55.2722671909
 20
88.135990932
 10
56.0845549303
 20
88.1518432289
  0
LWPOLYLINE
  5
2B8
100
AcDbEntity
  8
0
100
AcDbPolyline
 62
7
  6
CONTINUOUS
 90
4
 70
0
 10
58.7226940426
 20
62.0306362527
 10
58.2387555991
 20
62.0167892799
 10
57.777005133
 20
62.0041002758
 10
57.3327187781
 20
61.9924260199
  0
LWPOLYLINE
  5
2B9
100
AcDbEntity
  8
0
100
AcDbPolyline
 62
7
  6
CONTINUOUS
 90
27
 70
0
 10
57.3327187781
 20
61.9924260199
 10
57.3090237314
 20
61.9918822843
 10
57.2853260982
 20
61.9914616751
 10
57.2603059604
 20
61.9911441632
 10
57.2352845628
 20
61.990952181
 10
57.209879143
 20
61.9908823813
 10
57.1844736819
 20
61.9909377482
 10
57.1593808533
 20
61.9911155927
 10
57.1342892264
 20
61.9914184972
 10
57.1103042792
 20
61.9918286391
 10
57.0863217805
 20
61.9923628381
 10
57.0642852099
 20
61.9929697518
 10
57.042252295
 20
61.9936971109
 10
57.0224919893
 20
61.9944611772
 10
57.0027366044
 20
61.9953430593
 10
56.9853716797
 20
61.9962272331
 10
56.9680131202
 20
61.9972284625
 10
56.9531005624
 20
61.998196246
 10
56.938196144
 20
61.999281714
 10
56.9255674358
 20
62.0003106939
 10
56.9129492793
 20
62.0014621889
 10
56.9025075358
 20
62.0025288159
 10
56.8920802189
 20
62.0037268276
 10
56.8838147985
 20
62.004795963
 10
56.8755684583
 20
62.0060056496
 10
56.8693539522
 20
62.0070422845
 10
56.8631678032
 20
62.0082317668
  0
LWPOLYLINE
  5
2BA
100
AcDbEntity
  8
0
100
AcDbPolyline
 62
7
  6
CONTINUOUS
 90
59
 70
0
 10
27.2095036391
 20
84.3589441369
 10
27.2026479188
 20
84.3587888221
 10
27.1957876785
 20
84.3588668984
 10
27.1889328821
 20
84.359183927
 10
27.1820934939
 20
84.3597454686
 10
27.1753475961
 20
84.3605471273
 10
27.1686362398
 20
84.3615958725
 10
27.1619691005
 20
84.3628937033
 10
27.1553558532
 20
84.3644426184
 10
27.1487769341
 20
84.3662525186
 10
27.1422723542
 20
84.368315136
 10
27.135852312
 20
84.3706278227
 10
27.1295270061
 20
84.3731879307
 10
27.1231779956
 20
84.3760529698
 10
27.1169465095
 20
84.3791656809
 10
27.1108407266
 20
84.3825186743
 10
27.1048688256
 20
84.3861045604
 10
27.0988258956
 20
84.3900603571
 10
27.0929406517
 20
84.3942472738
 10
27.0872180364
 20
84.3986539704
 10
27.0816629926
 20
84.4032691065
 10
27.0760123723
 20
84.4083295538
 10
27.0705524049
 20
84.4135952317
 10
27.0652833637
 20
84.4190538597
 10
27.0602055215
 20
84.4246931569
 10
27.0541378424
 20
84.4319641046
 10
27.0483632866
 20
84.4394764096
 10
27.0428769361
 20
84.4472093189
 10
27.0376738725
 20
84.4551420797
 10
27.0327491779
 20
84.463253939
 10
27.0280979339
 20
84.4715241439
 10
27.0237152225
 20
84.4799319414
 10
27.0197485884
 20
84.4881294834
 10
27.0160167072
 20
84.4964279134
 10
27.0125105578
 20
84.5048200734
 10
27.0092211194
 20
84.5132988055
 10
27.0059626353
 20
84.5223694411
 10
27.0029303607
 20
84.5315202676
 10
27.0001173133
 20
84.5407423102
 10
26.9975165107
 20
84.5500265946
 10
26.9950000515
 20
84.5598597426
 10
26.9927037335
 20
84.5697457914
 10
26.9906201624
 20
84.5796785946
 10
26.9887419441
 20
84.5896520059
 10
26.9864547475
 20
84.603600485
 10
26.9845352592
 20
84.6176047675
 10
26.9829671415
 20
84.6316538001
 10
26.9816825626
 20
84.6464339477
 10
26.9807543611
 20
84.6612428798
 10
26.9801699469
 20
84.6760722712
 10
26.9799167297
 20
84.6909137965
 10
26.9799821194
 20
84.7057591304
 10
26.9803535259
 20
84.7205999477
 10
26.9810512571
 20
84.7360104685
 10
26.9820576618
 20
84.7514019175
 10
26.9833644913
 20
84.7667690932
 10
26.9849634968
 20
84.7821067941
 10
26.9868464295
 20
84.7974098187
 10
26.9890050407
 20
84.8126729654
  0
LWPOLYLINE
  5
2BB
100
AcDbEntity
  8
0
100
AcDbPolyline
 62
7
  6
CONTINUOUS
 90
23
 70
0
 10
44.8527081765
 20
88.7011449149
 10
44.8853035813
 20
88.7018846937
 10
44.9179040349
 20
88.7023959157
 10
44.9505074978
 20
88.7026879834
 10
44.9831119305
 20
88.7027702991
 10
45.0159194171
 20
88.7026480284
 10
45.048725104
 20
88.7023151458
 10
45.0809861172
 20
88.7017731135
 10
45.113242501
 20
88.7010022357
 10
45.1443243396
 20
88.7000228939
 10
45.1753969389
 20
88.6987788933
 10
45.194720284
 20
88.6978530517
 10
45.214036171
 20
88.6967861653
 10
45.2333418397
 20
88.6955534226
 10
45.2466028303
 20
88.6945951227
 10
45.2598555036
 20
88.6935267308
 10
45.2719503529
 20
88.6924349965
 10
45.2840314116
 20
88.6912031985
 10
45.2945962185
 20
88.6899796295
 10
45.3051393992
 20
88.6885740058
 10
45.3108690399
 20
88.6877098286
 10
45.3165818074
 20
88.6867445275
 10
45.3222693779
 20
88.6856459522
  0
LWPOLYLINE
  5
2BC
100
AcDbEntity
  8
0
100
AcDbPolyline
 62
7
  6
CONTINUOUS
 90
49
 70
0
 10
72.8472595434
 20
60.9435058561
 10
72.9123868091
 20
60.9449800721
 10
72.9774459332
 20
60.9486479747
 10
73.042349363
 20
60.954506402
 10
73.1070133861
 20
60.9625508571
 10
73.1713645335
 20
60.9727708378
 10
73.2353331832
 20
60.985154449
 10
73.2988608395
 20
60.9996912006
 10
73.3618640867
 20
61.0163599216
 10
73.4242708002
 20
61.0351400609
 10
73.4860309288
 20
61.0560173241
 10
73.5470542935
 20
61.0789582257
 10
73.6072732532
 20
61.1039340847
 10
73.6666502428
 20
61.1309289569
 10
73.7250906157
 20
61.159895998
 10
73.7825306724
 20
61.1907990969
 10
73.8389427901
 20
61.2236223355
 10
73.8942310207
 20
61.2583052575
 10
73.9483368346
 20
61.2948052032
 10
74.0012409954
 20
61.3331073322
 10
74.0528495001
 20
61.3731381918
 10
74.1031094609
 20
61.414849543
 10
74.1520077481
 20
61.45822792
 10
74.1994554854
 20
61.5031883546
 10
74.2454058106
 20
61.5496780239
 10
74.289849504
 20
61.5976843713
 10
74.3327056369
 20
61.6471131586
 10
74.3739335157
 20
61.6979079353
 10
74.4135258486
 20
61.7500559021
 10
74.4514119007
 20
61.8034563825
 10
74.4875571302
 20
61.858050161
 10
74.5219546545
 20
61.913822511
 10
74.5545454592
 20
61.9706695469
 10
74.5853010166
 20
62.0285300655
 10
74.6142139436
 20
62.0873854087
 10
74.6412376787
 20
62.1471317419
 10
74.6663494957
 20
62.2077064007
 10
74.6895412884
 20
62.2690846757
 10
74.7107788852
 20
62.3311662881
 10
74.7300451206
 20
62.3938879703
 10
74.747331626
 20
62.4572170772
 10
74.7626158358
 20
62.5210587054
 10
74.7758859135
 20
62.5853480142
 10
74.7871343065
 20
62.6500425268
 10
74.7963486709
 20
62.715059065
 10
74.8035223047
 20
62.7803365583
 10
74.8086500404
 20
62.845822685
 10
74.8117279339
 20
62.9114328403
 10
74.8127542764
 20
62.9770910997
  0
LINE
  5
2BD
100
AcDbEntity
  8
0
100
AcDbLine
 62
7
  6
CONTINUOUS
 10
51.3899106319
 20
86.5701547714
 11
51.0934119756
 21
86.5649763083
  0
LINE
  5
2BE
100
AcDbEntity
  8
0
100
AcDbLine
 62
7
  6
CONTINUOUS
 10
50.7969099993
 20
64.1276867864
 11
51.0934119756
 21
64.1326715312
  0
LINE
  5
2BF
100
AcDbEntity
  8
0
100
AcDbLine
 62
7
  6
CONTINUOUS
 10
51.0938936712
 20
85.0900062481
 11
51.4211293826
 21
85.0953621724
  0
LINE
  5
2C0
100
AcDbEntity
  8
0
100
AcDbLine
 62
7
  6
CONTINUOUS
 10
51.0938939512
 20
65.6076415913
 11
50.7666548103
 21
65.6024994675
  0
LWPOLYLINE
  5
2C1
100
AcDbEntity
  8
0
100
AcDbPolyline
 62
7
  6
CONTINUOUS
 90
14
 70
0
 10
58.4050143159
 20
88.1848290864
 10
59.1797369189
 20
88.1883989919
 10
59.9544702822
 20
88.187325562
 10
60.4702751561
 20
88.1839922273
 10
60.9860608268
 20
88.1785151263
 10
61.5018171977
 20
88.1708441731
 10
61.8880732889
 20
88.1636287449
 10
62.2743025684
 20
88.1551140122
 10
62.6599860129
 20
88.1452700496
 10
63.0456315415
 20
88.1340291402
 10
63.4304754747
 20
88.1213450638
 10
63.8152633503
 20
88.1070770336
 10
64.1991028116
 20
88.0911075414
 10
64.581877508
 20
88.0731590443
  0
LWPOLYLINE
  5
2C2
100
AcDbEntity
  8
0
100
AcDbPolyline
 62
7
  6
CONTINUOUS
 90
4
 70
0
 10
46.3854485344
 20
87.9561583365
 10
47.1451763302
 20
87.9580767686
 10
48.2850134209
 20
87.9602530975
 10
49.4248517864
 20
87.9615842013
  0
LWPOLYLINE
  5
2C3
100
AcDbEntity
  8
0
100
AcDbPolyline
 62
7
  6
CONTINUOUS
 90
4
 70
0
 10
23.9220521105
 20
89.7706174287
 10
33.5448106552
 20
89.7886919417
 10
38.3726734291
 20
89.7946405687
 10
43.2053172533
 20
89.7985030856
  0
LWPOLYLINE
  5
2C4
100
AcDbEntity
  8
0
100
AcDbPolyline
 62
7
  6
CONTINUOUS
 90
49
 70
0
 10
18.9031798168
 20
92.9819862909
 10
18.8950562206
 20
92.981971047
 10
18.8869315664
 20
92.9816999159
 10
18.8788154664
 20
92.9811729376
 10
18.8707175329
 20
92.980390152
 10
18.8626473783
 20
92.9793515992
 10
18.8546146149
 20
92.9780573192
 10
18.8466228752
 20
92.9765064124
 10
18.8386860847
 20
92.9747010492
 10
18.8308121219
 20
92.972642826
 10
18.8230088653
 20
92.9703333391
 10
18.8152841934
 20
92.9677741848
 10
18.8076459847
 20
92.9649669595
 10
18.8000907974
 20
92.9619087252
 10
18.7926384211
 20
92.9586065698
 10
18.7852970389
 20
92.9550637954
 10
18.7780748336
 20
92.9512837036
 10
18.7709799883
 20
92.9472695963
 10
18.764020686
 20
92.9430247753
 10
18.7571905928
 20
92.9385430605
 10
18.75051225
 20
92.933838078
 10
18.7439930682
 20
92.9289149433
 10
18.7376404579
 20
92.923778772
 10
18.7314618298
 20
92.9184346796
 10
18.7254645945
 20
92.9128877814
 10
18.7196420297
 20
92.9071292114
 10
18.7140154675
 20
92.9011787707
 10
18.7085911847
 20
92.8950432443
 10
18.7033754582
 20
92.8887294175
 10
18.6983745647
 20
92.8822440755
 10
18.693594781
 20
92.8755940035
 10
18.6890316714
 20
92.8687700577
 10
18.6847016075
 20
92.8617957468
 10
18.6806091789
 20
92.8546793936
 10
18.6767589749
 20
92.8474293209
 10
18.6731555848
 20
92.8400538514
 10
18.669803598
 20
92.8325613079
 10
18.6667017687
 20
92.8249458843
 10
18.6638594377
 20
92.8172299215
 10
18.661279162
 20
92.8094220346
 10
18.6589634982
 20
92.8015308389
 10
18.6569150033
 20
92.7935649494
 10
18.6551362342
 20
92.7855329812
 10
18.6536279815
 20
92.7774355793
 10
18.6523929996
 20
92.7692915429
 10
18.6514317154
 20
92.7611118198
 10
18.6507445564
 20
92.7529073575
 10
18.6503319495
 20
92.7446891034
 10
18.6501943221
 20
92.7364680051
  0
LINE
  5
2C5
100
AcDbEntity
  8
0
100
AcDbLine
 62
7
  6
CONTINUOUS
 10
43.2053172533
 20
89.7985030856
 11
43.3265306122
 21
89.7985674937
  0
LWPOLYLINE
  5
2C6
100
AcDbEntity
  8
0
100
AcDbPolyline
 62
7
  6
CONTINUOUS
 90
9
 70
0
 10
43.3265306122
 20
89.7985674937
 10
44.3696589463
 20
89.798962799
 10
45.5153274162
 20
89.7990256727
 10
46.7555470598
 20
89.7990261772
 10
48.0919053939
 20
89.7990262678
 10
49.534415623
 20
89.7990254544
 10
50.9579996798
 20
89.799024242
 10
52.2122311615
 20
89.7990322011
 10
53.3265306122
 20
89.7990239147
  0
LWPOLYLINE
  5
2C7
100
AcDbEntity
  8
0
100
AcDbPolyline
 62
7
  6
CONTINUOUS
 90
9
 70
0
 10
43.3265306122
 20
89.7985674937
 10
44.3696589463
 20
89.798962799
 10
45.5153274162
 20
89.7990256727
 10
46.7555470598
 20
89.7990261772
 10
48.0919053939
 20
89.7990262678
 10
49.534415623
 20
89.7990254544
 10
50.9579996798
 20
89.799024242
 10
52.2122311615
 20
89.7990322011
 10
53.3265306122
 20
89.7990239147
  0
LINE
  5
2C8
100
AcDbEntity
  8
0
100
AcDbLine
 62
7
  6
CONTINUOUS
 10
77.8284332632
 20
57.3488239198
 11
18.8246279613
 21
57.3488239198
  0
LINE
  5
2C9
100
AcDbEntity
  8
0
100
AcDbLine
 62
7
  6
CONTINUOUS
 10
53.3265306122
 20
57.8841170356
 11
43.3265306122
 21
57.8841170356
  0
LINE
  5
2CA
100
AcDbEntity
  8
0
100
AcDbLine
 62
7
  6
CONTINUOUS
 10
53.3265306122
 20
57.8841170356
 11
43.3265306122
 21
57.8841170356
  0
LWPOLYLINE
  5
2CB
100
AcDbEntity
  8
0
100
AcDbPolyline
 62
7
  6
CONTINUOUS
 90
11
 70
0
 10
53.3265306122
 20
60.8986239248
 10
54.5497916647
 20
60.898634986
 10
55.7729770658
 20
60.8986546265
 10
56.9960113179
 20
60.8987064014
 10
58.2188188154
 20
60.8988008604
 10
59.4413238603
 20
60.8993726032
 10
60.6634506129
 20
60.9005483437
 10
63.1062660975
 20
60.904663405
 10
65.5466593907
 20
60.911070419
 10
67.9840253785
 20
60.9197114017
 10
72.8472595434
 20
60.9435058561
  0
LINE
  5
2CC
100
AcDbEntity
  8
DEFAULT_1
100
AcDbLine
 62
7
  6
CENTER
 10
49.4080969785
 20
75.3488069698
 11
49.3559588809
 21
75.3488033582
  0
LINE
  5
2CD
100
AcDbEntity
  8
0
100
AcDbLine
 62
7
  6
CONTINUOUS
 10
49.4080969785
 20
75.3488069698
 11
65.272301495
 21
75.3488239198
  0
LINE
  5
2CE
100
AcDbEntity
  8
0
100
AcDbLine
 62
7
  6
CONTINUOUS
 10
49.3559588809
 20
75.3488033582
 11
48.9889305216
 21
75.3488033582
  0
LINE
  5
2CF
100
AcDbEntity
  8
0
100
AcDbLine
 62
7
  6
CONTINUOUS
 10
25.0698382224
 20
75.3488239198
 11
24.8500418908
 21
75.3488239198
  0
LINE
  5
2D0
100
AcDbEntity
  8
DEFAULT_1
100
AcDbLine
 62
7
  6
CENTER
 10
24.8500418908
 20
75.3488239198
 11
16.7406514774
 21
75.3488239198
  0
LINE
  5
2D1
100
AcDbEntity
  8
DEFAULT_1
100
AcDbLine
 62
7
  6
CENTER
 10
65.272301495
 20
75.3488239198
 11
68.8895948398
 21
75.3488239198
  0
LINE
  5
2D2
100
AcDbEntity
  8
0
100
AcDbLine
 62
7
  6
CONTINUOUS
 10
68.8895948398
 20
75.3488239198
 11
73.5864191438
 21
75.3488239198
  0
LINE
  5
2D3
100
AcDbEntity
  8
DEFAULT_1
100
AcDbLine
 62
7
  6
CENTER
 10
73.5864191438
 20
75.3488239198
 11
73.9579509983
 21
75.3488239198
  0
LINE
  5
2D4
100
AcDbEntity
  8
0
100
AcDbLine
 62
7
  6
CONTINUOUS
 10
73.9579509983
 20
75.3488239198
 11
74.8127542764
 21
75.3488239198
  0
LINE
  5
2D5
100
AcDbEntity
  8
DEFAULT_1
100
AcDbLine
 62
7
  6
CENTER
 10
74.8127542764
 20
75.3488239198
 11
79.2253358233
 21
75.3488239198
  0
LINE
  5
2D6
100
AcDbEntity
  8
DEFAULT_1
100
AcDbLine
 62
7
  6
CENTER
 10
48.9889305216
 20
75.3488033582
 11
25.0698382224
 21
75.3488239198
  0
LWPOLYLINE
  5
2D7
100
AcDbEntity
  8
0
100
AcDbPolyline
 62
7
  6
CONTINUOUS
 90
11
 70
0
 10
53.3265306122
 20
89.7990239147
 10
54.5497916647
 20
89.7990128535
 10
55.7729770658
 20
89.798993213
 10
56.9960113179
 20
89.7989414381
 10
58.2188188154
 20
89.7988469791
 10
59.4413238603
 20
89.7982752363
 10
60.6634506129
 20
89.7970994958
 10
63.1062660975
 20
89.7929844346
 10
65.5466593907
 20
89.7865774205
 10
67.9840253785
 20
89.7779364378
 10
72.8472595434
 20
89.7541419834
  0
LINE
  5
2D8
100
AcDbEntity
  8
0
100
AcDbLine
 62
7
  6
CONTINUOUS
 10
53.3265306122
 20
92.8135308039
 11
43.3265306122
 21
92.8135308039
  0
LINE
  5
2D9
100
AcDbEntity
  8
0
100
AcDbLine
 62
7
  6
CONTINUOUS
 10
53.3265306122
 20
92.8135308039
 11
43.3265306122
 21
92.8135308039
  0
LINE
  5
2DA
100
AcDbEntity
  8
0
100
AcDbLine
 62
7
  6
CONTINUOUS
 10
77.8284332632
 20
93.3488239198
 11
18.8246279613
 21
93.3488239198
  0
LWPOLYLINE
  5
2DB
100
AcDbEntity
  8
0
100
AcDbPolyline
 62
7
  6
CONTINUOUS
 90
9
 70
0
 10
43.3265306122
 20
60.8990803458
 10
44.3696589463
 20
60.8986850405
 10
45.5153274162
 20
60.8986221668
 10
46.7555470598
 20
60.8986216623
 10
48.0919053939
 20
60.8986215717
 10
49.534415623
 20
60.8986223851
 10
50.9579996798
 20
60.8986235976
 10
52.2122311615
 20
60.8986156384
 10
53.3265306122
 20
60.8986239248
  0
LWPOLYLINE
  5
2DC
100
AcDbEntity
  8
0
100
AcDbPolyline
 62
7
  6
CONTINUOUS
 90
9
 70
0
 10
43.3265306122
 20
60.8990803458
 10
44.3696589463
 20
60.8986850405
 10
45.5153274162
 20
60.8986221668
 10
46.7555470598
 20
60.8986216623
 10
48.0919053939
 20
60.8986215717
 10
49.534415623
 20
60.8986223851
 10
50.9579996798
 20
60.8986235976
 10
52.2122311615
 20
60.8986156384
 10
53.3265306122
 20
60.8986239248
  0
LINE
  5
2DD
100
AcDbEntity
  8
0
100
AcDbLine
 62
7
  6
CONTINUOUS
 10
43.2053172533
 20
60.8991447539
 11
43.3265306122
 21
60.8990803458
  0
LWPOLYLINE
  5
2DE
100
AcDbEntity
  8
0
100
AcDbPolyline
 62
7
  6
CONTINUOUS
 90
49
 70
0
 10
18.9031798168
 20
57.7156615486
 10
18.8950562206
 20
57.7156767925
 10
18.8869315664
 20
57.7159479236
 10
18.8788154664
 20
57.7164749019
 10
18.8707175329
 20
57.7172576875
 10
18.8626473783
 20
57.7182962403
 10
18.8546146149
 20
57.7195905203
 10
18.8466228752
 20
57.7211414271
 10
18.8386860847
 20
57.7229467903
 10
18.8308121219
 20
57.7250050135
 10
18.8230088653
 20
57.7273145004
 10
18.8152841934
 20
57.7298736547
 10
18.8076459847
 20
57.73268088
 10
18.8000907974
 20
57.7357391143
 10
18.7926384211
 20
57.7390412697
 10
18.7852970389
 20
57.7425840441
 10
18.7780748336
 20
57.7463641359
 10
18.7709799883
 20
57.7503782432
 10
18.764020686
 20
57.7546230642
 10
18.7571905928
 20
57.759104779
 10
18.75051225
 20
57.7638097615
 10
18.7439930682
 20
57.7687328962
 10
18.7376404579
 20
57.7738690675
 10
18.7314618298
 20
57.7792131599
 10
18.7254645945
 20
57.7847600581
 10
18.7196420297
 20
57.7905186281
 10
18.7140154675
 20
57.7964690688
 10
18.7085911847
 20
57.8026045952
 10
18.7033754582
 20
57.808918422
 10
18.6983745647
 20
57.815403764
 10
18.693594781
 20
57.822053836
 10
18.6890316714
 20
57.8288777818
 10
18.6847016075
 20
57.8358520927
 10
18.6806091789
 20
57.8429684459
 10
18.6767589749
 20
57.8502185186
 10
18.6731555848
 20
57.8575939881
 10
18.669803598
 20
57.8650865316
 10
18.6667017687
 20
57.8727019552
 10
18.6638594377
 20
57.880417918
 10
18.661279162
 20
57.8882258049
 10
18.6589634982
 20
57.8961170006
 10
18.6569150033
 20
57.9040828901
 10
18.6551362342
 20
57.9121148583
 10
18.6536279815
 20
57.9202122602
 10
18.6523929996
 20
57.9283562966
 10
18.6514317154
 20
57.9365360197
 10
18.6507445564
 20
57.944740482
 10
18.6503319495
 20
57.9529587361
 10
18.6501943221
 20
57.9611798344
  0
LWPOLYLINE
  5
2DF
100
AcDbEntity
  8
0
100
AcDbPolyline
 62
7
  6
CONTINUOUS
 90
4
 70
0
 10
23.9220521105
 20
60.9270304108
 10
33.5448106552
 20
60.9089558978
 10
38.3726734291
 20
60.9030072708
 10
43.2053172533
 20
60.8991447539
  0
LWPOLYLINE
  5
2E0
100
AcDbEntity
  8
0
100
AcDbPolyline
 62
7
  6
CONTINUOUS
 90
4
 70
0
 10
46.3854485344
 20
62.741489503
 10
47.1451763302
 20
62.7395710709
 10
48.2850134209
 20
62.737394742
 10
49.4248517864
 20
62.7360636382
  0
LWPOLYLINE
  5
2E1
100
AcDbEntity
  8
0
100
AcDbPolyline
 62
7
  6
CONTINUOUS
 90
14
 70
0
 10
58.4050143164
 20
62.5128187531
 10
59.1797369193
 20
62.5092488476
 10
59.9544702826
 20
62.5103222775
 10
60.4702751564
 20
62.5136556122
 10
60.9860608271
 20
62.5191327133
 10
61.5018171979
 20
62.5268036665
 10
61.8880732892
 20
62.5340190947
 10
62.2743025686
 20
62.5425338274
 10
62.6599860131
 20
62.55237779
 10
63.0456315416
 20
62.5636186993
 10
63.4304754748
 20
62.5763027757
 10
63.8152633504
 20
62.5905708059
 10
64.1991028117
 20
62.6065402981
 10
64.581877508
 20
62.6244887952
  0
LWPOLYLINE
  5
2E2
100
AcDbEntity
  8
0
100
AcDbPolyline
 62
7
  6
CONTINUOUS
 90
41
 70
0
 10
51.0934119756
 20
64.1326715312
 10
51.2454150685
 20
64.1312865291
 10
51.397375333
 20
64.1272314551
 10
51.5492878213
 20
64.1205049057
 10
51.7010573264
 20
64.1111099512
 10
51.8527104513
 20
64.0990429977
 10
52.0041283555
 20
64.0843117752
 10
52.1553429173
 20
64.066910974
 10
52.306227959
 20
64.0468533297
 10
52.4568510668
 20
64.0241268244
 10
52.6070508778
 20
63.9987528165
 10
52.7569213477
 20
63.9707114222
 10
52.9062745999
 20
63.9400343201
 10
53.0551943809
 20
63.9067008388
 10
53.2035034199
 20
63.870747349
 10
53.3513209399
 20
63.8321402934
 10
53.4984342033
 20
63.7909308885
 10
53.6449922377
 20
63.7470718376
 10
53.790752554
 20
63.7006304082
 10
53.9358494946
 20
63.6515586024
 10
54.0800559638
 20
63.5999285406
 10
54.2235501122
 20
63.5456700087
 10
54.3660609307
 20
63.4888789176
 10
54.5077805748
 20
63.4294712505
 10
54.648424373
 20
63.3675595763
 10
54.7881666229
 20
63.3030606002
 10
54.9267416343
 20
63.2360905706
 10
55.0643660727
 20
63.1665364524
 10
55.2007317939
 20
63.094545792
 10
55.335994403
 20
63.0200298132
 10
55.4699088323
 20
62.9431172975
 10
55.6026007318
 20
62.8637305099
 10
55.7338569765
 20
62.7819919191
 10
55.8638568605
 20
62.6977822525
 10
55.9923336797
 20
62.611266482
 10
56.1194358611
 20
62.5223374691
 10
56.244929124
 20
62.4311526973
 10
56.3689278237
 20
62.337623527
 10
56.4912362336
 20
62.2418922571
 10
56.6110045908
 20
62.144660607
 10
56.7290251198
 20
62.0453226208
  0
LINE
  5
2E3
100
AcDbEntity
  8
0
100
AcDbLine
 62
7
  6
CONTINUOUS
 10
50.7666545407
 20
85.0951483806
 11
51.0938936712
 21
85.0900062481
  0
LINE
  5
2E4
100
AcDbEntity
  8
0
100
AcDbLine
 62
7
  6
CONTINUOUS
 10
51.4211296522
 20
65.6022856584
 11
51.0938939512
 21
65.6076415913
  0
LINE
  5
2E5
100
AcDbEntity
  8
0
100
AcDbLine
 62
7
  6
CONTINUOUS
 10
51.0934119756
 20
86.5649763083
 11
50.7969099993
 21
86.5699610531
  0
LINE
  5
2E6
100
AcDbEntity
  8
0
100
AcDbLine
 62
7
  6
CONTINUOUS
 10
51.0934119756
 20
64.1326715312
 11
51.3899106319
 21
64.1274930681
  0
LWPOLYLINE
  5
2E7
100
AcDbEntity
  8
0
100
AcDbPolyline
 62
7
  6
CONTINUOUS
 90
23
 70
0
 10
57.3327187781
 20
88.7052218196
 10
57.300122897
 20
88.705940302
 10
57.2675221163
 20
88.7064302245
 10
57.2349184695
 20
88.7067009906
 10
57.2023139901
 20
88.7067620043
 10
57.1695065903
 20
88.7066182989
 10
57.1367011278
 20
88.7062639827
 10
57.1044404757
 20
88.7057008728
 10
57.0721846024
 20
88.7049089205
 10
57.0411034103
 20
88.7039092716
 10
57.0100316305
 20
88.70264497
 10
56.9907088944
 20
88.7017065037
 10
56.9713937086
 20
88.7006269975
 10
56.9520888494
 20
88.6993816417
 10
56.9388284878
 20
88.698414678
 10
56.9255765153
 20
88.6973376276
 10
56.9134823818
 20
88.6962379914
 10
56.9014021304
 20
88.6949983005
 10
56.8908381253
 20
88.6937678292
 10
56.8802958652
 20
88.6923553174
 10
56.8745667904
 20
88.691487397
 10
56.8688546547
 20
88.6905183636
 10
56.8631678032
 20
88.6894160727
  0
LWPOLYLINE
  5
2E8
100
AcDbEntity
  8
0
100
AcDbPolyline
 62
7
  6
CONTINUOUS
 90
59
 70
0
 10
27.2095036391
 20
66.3387037026
 10
27.2026479188
 20
66.3388590174
 10
27.1957876785
 20
66.3387809411
 10
27.1889328821
 20
66.3384639125
 10
27.1820934939
 20
66.3379023709
 10
27.1753475961
 20
66.3371007122
 10
27.1686362398
 20
66.336051967
 10
27.1619691005
 20
66.3347541362
 10
27.1553558532
 20
66.3332052211
 10
27.1487769341
 20
66.3313953209
 10
27.1422723542
 20
66.3293327035
 10
27.135852312
 20
66.3270200168
 10
27.1295270061
 20
66.3244599088
 10
27.1231779956
 20
66.3215948697
 10
27.1169465095
 20
66.3184821586
 10
27.1108407266
 20
66.3151291652
 10
27.1048688256
 20
66.3115432791
 10
27.0988258956
 20
66.3075874824
 10
27.0929406517
 20
66.3034005657
 10
27.0872180364
 20
66.2989938691
 10
27.0816629926
 20
66.294378733
 10
27.0760123723
 20
66.2893182857
 10
27.0705524049
 20
66.2840526078
 10
27.0652833637
 20
66.2785939798
 10
27.0602055215
 20
66.2729546826
 10
27.0541378424
 20
66.2656837349
 10
27.0483632866
 20
66.2581714299
 10
27.0428769361
 20
66.2504385206
 10
27.0376738725
 20
66.2425057598
 10
27.0327491779
 20
66.2343939005
 10
27.0280979339
 20
66.2261236956
 10
27.0237152225
 20
66.2177158981
 10
27.0197485884
 20
66.2095183561
 10
27.0160167072
 20
66.2012199262
 10
27.0125105578
 20
66.1928277662
 10
27.0092211194
 20
66.1843490341
 10
27.0059626353
 20
66.1752783984
 10
27.0029303607
 20
66.166127572
 10
27.0001173133
 20
66.1569055293
 10
26.9975165107
 20
66.1476212449
 10
26.9950000515
 20
66.1377880969
 10
26.9927037335
 20
66.1279020481
 10
26.9906201624
 20
66.1179692449
 10
26.9887419441
 20
66.1079958336
 10
26.9864547475
 20
66.0940473545
 10
26.9845352592
 20
66.080043072
 10
26.9829671415
 20
66.0659940394
 10
26.9816825626
 20
66.0512138918
 10
26.9807543611
 20
66.0364049597
 10
26.9801699469
 20
66.0215755683
 10
26.9799167297
 20
66.006734043
 10
26.9799821194
 20
65.9918887091
 10
26.9803535259
 20
65.9770478918
 10
26.9810512571
 20
65.961637371
 10
26.9820576618
 20
65.946245922
 10
26.9833644913
 20
65.9308787463
 10
26.9849634968
 20
65.9155410454
 10
26.9868464295
 20
65.9002380208
 10
26.9890050407
 20
65.8849748741
  0
LWPOLYLINE
  5
2E9
100
AcDbEntity
  8
0
100
AcDbPolyline
 62
7
  6
CONTINUOUS
 90
49
 70
0
 10
72.8472595434
 20
89.7541419834
 10
72.9123868091
 20
89.7526677674
 10
72.9774459332
 20
89.7489998648
 10
73.042349363
 20
89.7431414375
 10
73.1070133861
 20
89.7350969824
 10
73.1713645335
 20
89.7248770017
 10
73.2353331832
 20
89.7124933905
 10
73.2988608395
 20
89.6979566389
 10
73.3618640867
 20
89.6812879179
 10
73.4242708002
 20
89.6625077786
 10
73.4860309288
 20
89.6416305154
 10
73.5470542935
 20
89.6186896138
 10
73.6072732532
 20
89.5937137549
 10
73.6666502428
 20
89.5667188827
 10
73.7250906157
 20
89.5377518415
 10
73.7825306724
 20
89.5068487427
 10
73.8389427901
 20
89.4740255041
 10
73.8942310207
 20
89.4393425821
 10
73.9483368346
 20
89.4028426363
 10
74.0012409954
 20
89.3645405074
 10
74.0528495001
 20
89.3245096478
 10
74.1031094609
 20
89.2827982966
 10
74.1520077481
 20
89.2394199195
 10
74.1994554854
 20
89.1944594849
 10
74.2454058106
 20
89.1479698156
 10
74.289849504
 20
89.0999634682
 10
74.3327056369
 20
89.0505346809
 10
74.3739335157
 20
88.9997399042
 10
74.4135258486
 20
88.9475919374
 10
74.4514119007
 20
88.894191457
 10
74.4875571302
 20
88.8395976785
 10
74.5219546545
 20
88.7838253285
 10
74.5545454592
 20
88.7269782926
 10
74.5853010166
 20
88.669117774
 10
74.6142139436
 20
88.6102624308
 10
74.6412376787
 20
88.5505160976
 10
74.6663494957
 20
88.4899414388
 10
74.6895412884
 20
88.4285631638
 10
74.7107788852
 20
88.3664815514
 10
74.7300451206
 20
88.3037598692
 10
74.747331626
 20
88.2404307623
 10
74.7626158358
 20
88.1765891341
 10
74.7758859135
 20
88.1122998253
 10
74.7871343065
 20
88.0476053127
 10
74.7963486709
 20
87.9825887745
 10
74.8035223047
 20
87.9173112812
 10
74.8086500404
 20
87.8518251545
 10
74.8117279339
 20
87.7862149992
 10
74.8127542764
 20
87.7205567398
  0
LWPOLYLINE
  5
2EA
100
AcDbEntity
  8
0
100
AcDbPolyline
 62
7
  6
CONTINUOUS
 90
27
 70
0
 10
44.8527081765
 20
61.9965029246
 10
44.8764028629
 20
61.9959437079
 10
44.9001002163
 20
61.995507616
 10
44.9251201413
 20
61.9951737574
 10
44.9501414082
 20
61.9949654275
 10
44.9755467769
 20
61.9948790292
 10
45.0009522688
 20
61.9949177974
 10
45.0260452082
 20
61.9950792475
 10
45.0511370276
 20
61.9953657583
 10
45.0751222377
 20
61.9957602295
 10
45.0991050803
 20
61.9962787595
 10
45.1211420428
 20
61.9968712755
 10
45.1431754281
 20
61.9975842392
 10
45.1629362288
 20
61.998335395
 10
45.1826921857
 20
61.9992043698
 10
45.2000576843
 20
62.0000771979
 10
45.2174168943
 20
62.0010670859
 10
45.2323300812
 20
62.0020251261
 10
45.2472352056
 20
62.0031008561
 10
45.2598645834
 20
62.0041215848
 10
45.2724834896
 20
62.0052648354
 10
45.2829259278
 20
62.0063246402
 10
45.2933540251
 20
62.0075158389
 10
45.3016201422
 20
62.0085795739
 10
45.309867271
 20
62.0097838725
 10
45.316082453
 20
62.010816447
 10
45.3222693779
 20
62.0120018873
  0
LWPOLYLINE
  5
2EB
100
AcDbEntity
  8
0
100
AcDbPolyline
 62
7
  6
CONTINUOUS
 90
4
 70
0
 10
43.4627581734
 20
62.0356212889
 10
43.9466874666
 20
62.0214581381
 10
44.4084295438
 20
62.0084674522
 10
44.8527081765
 20
61.9965029246
  0
LWPOLYLINE
  5
2EC
100
AcDbEntity
  8
0
100
AcDbPolyline
 62
7
  6
CONTINUOUS
 90
8
 70
0
 10
51.2103654481
 20
62.6710351954
 10
51.8197221026
 20
62.6512466066
 10
52.4291177476
 20
62.6326920303
 10
53.0384504456
 20
62.6153656804
 10
53.6478158701
 20
62.5992185127
 10
54.4600185648
 20
62.5794527309
 10
55.2722671909
 20
62.5616569075
 10
56.0845549303
 20
62.5458046106
  0
LINE
  5
2ED
100
AcDbEntity
  8
0
100
AcDbLine
 62
7
  6
CONTINUOUS
 10
51.1769041148
 20
62.6721575992
 11
51.2103654481
 21
62.6710351951
  0
LINE
  5
2EE
100
AcDbEntity
  8
0
100
AcDbLine
 62
7
  6
CONTINUOUS
 10
50.4297145679
 20
85.1114297398
 11
50.7666545407
 21
85.0951483806
  0
LINE
  5
2EF
100
AcDbEntity
  8
0
100
AcDbLine
 62
7
  6
CONTINUOUS
 10
51.7580589156
 20
65.5857841631
 11
51.4211296522
 21
65.6022856584
  0
LINE
  5
2F0
100
AcDbEntity
  8
0
100
AcDbLine
 62
7
  6
CONTINUOUS
 10
50.7969099993
 20
86.5699610531
 11
50.4904104416
 21
86.585815761
  0
LINE
  5
2F1
100
AcDbEntity
  8
0
100
AcDbLine
 62
7
  6
CONTINUOUS
 10
51.3899106319
 20
64.1274930681
 11
51.6963997655
 21
64.1114381122
  0
LINE
  5
2F2
100
AcDbEntity
  8
0
100
AcDbLine
 62
7
  6
CONTINUOUS
 10
52.32145815
 20
64.0288139136
 11
52.4127229421
 21
64.0235955814
  0
LINE
  5
2F3
100
AcDbEntity
  8
0
100
AcDbLine
 62
7
  6
CONTINUOUS
 10
52.2441598588
 20
64.0332908459
 11
52.32145815
 21
64.0288139136
  0
LINE
  5
2F4
100
AcDbEntity
  8
0
100
AcDbLine
 62
7
  6
CONTINUOUS
 10
52.1654655611
 20
64.037902504
 11
52.2441598588
 21
64.0332908459
  0
LINE
  5
2F5
100
AcDbEntity
  8
0
100
AcDbLine
 62
7
  6
CONTINUOUS
 10
50.7873865646
 20
64.1271196149
 11
51.2059486313
 21
64.0985108439
  0
LINE
  5
2F6
100
AcDbEntity
  8
0
100
AcDbLine
 62
7
  6
CONTINUOUS
 10
51.2391525414
 20
63.0928675558
 11
51.2059478106
 21
63.0951434915
  0
LWPOLYLINE
  5
2F7
100
AcDbEntity
  8
0
100
AcDbPolyline
 62
7
  6
CONTINUOUS
 90
12
 70
0
 10
27.8369728729
 20
63.4285201291
 10
29.1131725472
 20
63.3366923433
 10
30.3899232478
 20
63.2526778332
 10
31.6671433647
 20
63.176067175
 10
32.9487351123
 20
63.1062599105
 10
34.2306706368
 20
63.0431685896
 10
35.5129034905
 20
62.9864711111
 10
36.7985775095
 20
62.9357371018
 10
38.084469611
 20
62.8908421782
 10
39.3705457473
 20
62.8515234623
 10
41.3035459503
 20
62.8023809091
 10
43.2367941903
 20
62.7645644227
  0
LWPOLYLINE
  5
2F8
100
AcDbEntity
  8
0
100
AcDbPolyline
 62
7
  6
CONTINUOUS
 90
40
 70
0
 10
73.7721792907
 20
76.536323771
 10
73.7767849681
 20
76.5359551721
 10
73.7812945775
 20
76.5348952232
 10
73.7859795501
 20
76.5330464758
 10
73.7903879324
 20
76.5306090766
 10
73.7950877495
 20
76.5272660278
 10
73.7994374311
 20
76.5234757925
 10
73.8041106386
 20
76.518657984
 10
73.8084212766
 20
76.5135126848
 10
73.8130423751
 20
76.5072486266
 10
73.8173178125
 20
76.5007433836
 10
73.8218699518
 20
76.4930608807
 10
73.8261056281
 20
76.4851991825
 10
73.8323481633
 20
76.4723516881
 10
73.8380356249
 20
76.4592423115
 10
73.8432706676
 20
76.4459412441
 10
73.849196649
 20
76.4294750601
 10
73.8546670707
 20
76.4128568925
 10
73.8597510807
 20
76.3961170276
 10
73.8653364633
 20
76.3762463875
 10
73.8705316657
 20
76.3562692635
 10
73.8753881565
 20
76.3362064209
 10
73.883070556
 20
76.3015722847
 10
73.890031292
 20
76.2667864251
 10
73.8971099051
 20
76.2277122061
 10
73.9035394611
 20
76.1885256275
 10
73.9099576989
 20
76.1453937312
 10
73.9157825646
 20
76.1021776918
 10
73.9214879492
 20
76.0554079297
 10
73.9266426821
 20
76.0085741863
 10
73.9315880425
 20
75.9586196883
 10
73.936015218
 20
75.9086166293
 10
73.9401584359
 20
75.8559605068
 10
73.9438099136
 20
75.8032677478
 10
73.948174807
 20
75.7290538566
 10
73.9516825474
 20
75.6547928436
 10
73.9543814298
 20
75.5804968294
 10
73.9563737472
 20
75.503284832
 10
73.9575589915
 20
75.4260574312
 10
73.9579509983
 20
75.3488239198
  0
LWPOLYLINE
  5
2F9
100
AcDbEntity
  8
0
100
AcDbPolyline
 62
7
  6
CONTINUOUS
 90
40
 70
0
 10
73.7721792824
 20
74.1613240686
 10
73.7675736398
 20
74.1616945109
 10
73.7630643195
 20
74.1627560916
 10
73.7583794709
 20
74.1646066444
 10
73.7539713354
 20
74.1670456766
 10
73.7492717139
 20
74.1703903006
 10
73.7449222397
 20
74.17418188
 10
73.7402492651
 20
74.1790012365
 10
73.7359388455
 20
74.1841479812
 10
73.7313180288
 20
74.1904133072
 10
73.7270427839
 20
74.1969196814
 10
73.7224909081
 20
74.2046033673
 10
73.7182554754
 20
74.2124662099
 10
73.7120134255
 20
74.2253149675
 10
73.7063263004
 20
74.2384254853
 10
73.7010915082
 20
74.2517276254
 10
73.6951659582
 20
74.2681946006
 10
73.6896959082
 20
74.2848135292
 10
73.6846122169
 20
74.301554127
 10
73.6790272714
 20
74.321425154
 10
73.6738324387
 20
74.3414026336
 10
73.6689762673
 20
74.3614658109
 10
73.6612944595
 20
74.3960999198
 10
73.654334217
 20
74.4308857219
 10
73.6472561471
 20
74.4699594044
 10
73.6408270515
 20
74.5091454249
 10
73.6344092943
 20
74.5522763727
 10
73.628584843
 20
74.59549145
 10
73.6228798708
 20
74.6422599639
 10
73.6177254958
 20
74.6890924501
 10
73.6127804766
 20
74.7390455012
 10
73.6083535964
 20
74.7890471072
 10
73.6042106484
 20
74.8417016698
 10
73.600559402
 20
74.8943928649
 10
73.5961947736
 20
74.9686046208
 10
73.5926872404
 20
75.042863494
 10
73.5899885137
 20
75.1171573651
 10
73.5879963073
 20
75.1943672451
 10
73.5868111289
 20
75.2715925274
 10
73.5864191438
 20
75.3488239198
  0
LINE
  5
2FA
100
AcDbEntity
  8
0
100
AcDbLine
 62
7
  6
CONTINUOUS
 10
50.0934459296
 20
85.1388463064
 11
50.4297145679
 21
85.1114297398
  0
LINE
  5
2FB
100
AcDbEntity
  8
0
100
AcDbLine
 62
7
  6
CONTINUOUS
 10
52.0943095696
 20
65.5581479015
 11
51.7580589156
 21
65.5857841631
  0
LINE
  5
2FC
100
AcDbEntity
  8
0
100
AcDbLine
 62
7
  6
CONTINUOUS
 10
50.4904104416
 20
86.585815761
 11
50.1845212319
 21
86.6125453084
  0
LINE
  5
2FD
100
AcDbEntity
  8
0
100
AcDbLine
 62
7
  6
CONTINUOUS
 10
51.6963997655
 20
64.1114381122
 11
52.0022714462
 21
64.0845087179
  0
LINE
  5
2FE
100
AcDbEntity
  8
0
100
AcDbLine
 62
7
  6
CONTINUOUS
 10
49.758201392
 20
85.177376127
 11
50.0934459296
 21
85.1388463064
  0
LINE
  5
2FF
100
AcDbEntity
  8
0
100
AcDbLine
 62
7
  6
CONTINUOUS
 10
52.4295288622
 20
65.5193990572
 11
52.0943095696
 21
65.5581479015
  0
LINE
  5
300
100
AcDbEntity
  8
0
100
AcDbLine
 62
7
  6
CONTINUOUS
 10
50.1845212319
 20
86.6125453084
 11
49.8796118338
 21
86.6501332596
  0
LINE
  5
301
100
AcDbEntity
  8
0
100
AcDbLine
 62
7
  6
CONTINUOUS
 10
52.0022714462
 20
64.0845087179
 11
52.3071562212
 21
64.0467215624
  0
LWPOLYLINE
  5
302
100
AcDbEntity
  8
0
100
AcDbPolyline
 62
7
  6
CONTINUOUS
 90
13
 70
0
 10
29.5790727475
 20
84.2161122057
 10
29.5744460847
 20
84.2167739304
 10
29.5698137551
 20
84.2173954818
 10
29.5651765211
 20
84.2179801972
 10
29.5598909477
 20
84.2186049523
 10
29.5546005042
 20
84.2191884171
 10
29.5493056913
 20
84.2197327384
 10
29.5440070097
 20
84.2202400626
 10
29.5387049603
 20
84.2207125362
 10
29.5334000438
 20
84.2211523059
 10
29.5280927609
 20
84.2215615181
 10
29.5227836123
 20
84.2219423193
 10
29.5174730989
 20
84.2222968562
  0
LINE
  5
303
100
AcDbEntity
  8
0
100
AcDbLine
 62
7
  6
CONTINUOUS
 10
49.4243325608
 20
85.2269872625
 11
49.758201392
 21
85.177376127
  0
LINE
  5
304
100
AcDbEntity
  8
0
100
AcDbLine
 62
7
  6
CONTINUOUS
 10
52.7633652087
 20
65.4695697992
 11
52.4295288622
 21
65.5193990572
  0
LINE
  5
305
100
AcDbEntity
  8
0
100
AcDbLine
 62
7
  6
CONTINUOUS
 10
49.8796118338
 20
86.6501332596
 11
49.575997086
 21
86.6985610147
  0
LINE
  5
306
100
AcDbEntity
  8
0
100
AcDbLine
 62
7
  6
CONTINUOUS
 10
52.3071562212
 20
64.0467215624
 11
52.6107392639
 21
63.9980954511
  0
LWPOLYLINE
  5
307
100
AcDbEntity
  8
0
100
AcDbPolyline
 62
7
  6
CONTINUOUS
 90
13
 70
0
 10
29.6541839496
 20
66.4976749518
 10
31.0171239474
 20
66.2683911562
 10
32.3815409516
 20
66.0479759676
 10
33.7473744321
 20
65.8364896191
 10
35.1165970395
 20
65.6336885034
 10
36.4871211862
 20
65.4399059543
 10
37.8588884327
 20
65.2551447276
 10
39.2383329882
 20
65.0785947923
 10
40.618913012
 20
64.9111363134
 10
42.0005680858
 20
64.7527511519
 10
43.3867389624
 20
64.6030640402
 10
44.7738617123
 20
64.462516848
 10
46.1618684323
 20
64.3311484009
  0
LINE
  5
308
100
AcDbEntity
  8
0
100
AcDbLine
 62
7
  6
CONTINUOUS
 10
28.5380651777
 20
73.5884432569
 11
26.4818721135
 21
73.9460947505
  0
LINE
  5
309
100
AcDbEntity
  8
0
100
AcDbLine
 62
7
  6
CONTINUOUS
 10
25.4360917927
 20
74.5007893631
 11
28.3457218529
 21
73.9946921707
  0
LINE
  5
30A
100
AcDbEntity
  8
0
100
AcDbLine
 62
7
  6
CONTINUOUS
 10
49.0921897481
 20
85.2876388297
 11
49.4243325608
 21
85.2269872625
  0
LINE
  5
30B
100
AcDbEntity
  8
0
100
AcDbLine
 62
7
  6
CONTINUOUS
 10
53.0954683238
 20
65.4087012396
 11
52.7633652087
 21
65.4695697992
  0
LWPOLYLINE
  5
30C
100
AcDbEntity
  8
0
100
AcDbPolyline
 62
7
  6
CONTINUOUS
 90
47
 70
0
 10
29.6541839545
 20
66.4976767049
 10
29.6399426815
 20
66.5004188941
 10
29.6257789115
 20
66.5035775438
 10
29.6117067668
 20
66.5071475257
 10
29.5977403697
 20
66.5111237118
 10
29.5838938424
 20
66.5155009739
 10
29.5701813073
 20
66.5202741839
 10
29.556608883
 20
66.52544144
 10
29.5431939805
 20
66.53099702
 10
29.5299458494
 20
66.5369380112
 10
29.5168737391
 20
66.5432615011
 10
29.5039868991
 20
66.5499645771
 10
29.4912945789
 20
66.5570443265
 10
29.4777260968
 20
66.5651650129
 10
29.4644119471
 20
66.5737171867
 10
29.4513655649
 20
66.5826904729
 10
29.438600385
 20
66.5920744966
 10
29.4261298426
 20
66.6018588828
 10
29.4139673726
 20
66.6120332565
 10
29.4021264101
 20
66.6225872428
 10
29.3906203902
 20
66.6335104666
 10
29.3794627477
 20
66.644792553
 10
29.3686669178
 20
66.6564231269
 10
29.3582463355
 20
66.6683918135
 10
29.3482171708
 20
66.6806828722
 10
29.3385844543
 20
66.6932864576
 10
29.3293562387
 20
66.7061876007
 10
29.3205405765
 20
66.7193713324
 10
29.3121455204
 20
66.7328226838
 10
29.3041791227
 20
66.7465266859
 10
29.2966494363
 20
66.7604683695
 10
29.2895645135
 20
66.7746327658
 10
29.282932407
 20
66.7890049056
 10
29.2767611694
 20
66.80356982
 10
29.2710588532
 20
66.8183125399
 10
29.2662365338
 20
66.8320097492
 10
29.2618186561
 20
66.8458349372
 10
29.2578065718
 20
66.8597784696
 10
29.2542016327
 20
66.8738307121
 10
29.2510051905
 20
66.8879820306
 10
29.2482185971
 20
66.9022227907
 10
29.2458449877
 20
66.9165321559
 10
29.2438846686
 20
66.9309063883
 10
29.2423403212
 20
66.9453306623
 10
29.241214627
 20
66.9597901524
 10
29.2405102675
 20
66.9742700332
 10
29.240229924
 20
66.9887554791
  0
LINE
  5
30D
100
AcDbEntity
  8
0
100
AcDbLine
 62
7
  6
CONTINUOUS
 10
49.575997086
 20
86.6985610147
 11
49.2740081435
 21
86.757803983
  0
LINE
  5
30E
100
AcDbEntity
  8
0
100
AcDbLine
 62
7
  6
CONTINUOUS
 10
52.6107392639
 20
63.9980954511
 11
52.9126894356
 21
63.9386551911
  0
LINE
  5
30F
100
AcDbEntity
  8
0
100
AcDbLine
 62
7
  6
CONTINUOUS
 10
45.3222693779
 20
88.6856459522
 11
45.393447964
 21
88.6709082957
  0
LINE
  5
310
100
AcDbEntity
  8
0
100
AcDbLine
 62
7
  6
CONTINUOUS
 10
56.8631678032
 20
62.0082317668
 11
56.7919988612
 21
62.0230159247
  0
LWPOLYLINE
  5
311
100
AcDbEntity
  8
0
100
AcDbPolyline
 62
7
  6
CONTINUOUS
 90
30
 70
0
 10
45.393447964
 20
88.6709082957
 10
45.3970578239
 20
88.6701507058
 10
45.400663028
 20
88.6693700574
 10
45.4042626644
 20
88.6685638575
 10
45.4078558211
 20
88.6677296129
 10
45.4114415861
 20
88.6668648306
 10
45.4150190476
 20
88.6659670175
 10
45.4179738808
 20
88.6651965676
 10
45.4209212532
 20
88.6643982224
 10
45.423860021
 20
88.6635684367
 10
45.4267890403
 20
88.6627036655
 10
45.4297071672
 20
88.6618003635
 10
45.4326132578
 20
88.6608549857
 10
45.4343054769
 20
88.6602812267
 10
45.4359915803
 20
88.6596891837
 10
45.4376699544
 20
88.6590761562
 10
45.4393389857
 20
88.6584394438
 10
45.4409970607
 20
88.6577763461
 10
45.4426425658
 20
88.6570841625
 10
45.4442738875
 20
88.6563601927
 10
45.4458894122
 20
88.6556017362
 10
45.447145245
 20
88.6549798485
 10
45.4483872986
 20
88.6543306746
 10
45.449612525
 20
88.6536498488
 10
45.4508178763
 20
88.6529330056
 10
45.4515991071
 20
88.6524389126
 10
45.452367514
 20
88.6519250841
 10
45.4531202176
 20
88.6513893032
 10
45.4538543384
 20
88.6508293529
 10
45.4545669969
 20
88.6502430163
  0
LWPOLYLINE
  5
312
100
AcDbEntity
  8
0
100
AcDbPolyline
 62
7
  6
CONTINUOUS
 90
34
 70
0
 10
56.7919988612
 20
62.0230159247
 10
56.7882255992
 20
62.0238112407
 10
56.7844598529
 20
62.0246318406
 10
56.7807008494
 20
62.0254807021
 10
56.7769478161
 20
62.0263608031
 10
56.7731999804
 20
62.0272751215
 10
56.7694565694
 20
62.0282266351
 10
56.7657168105
 20
62.0292183218
 10
56.763269122
 20
62.0298915728
 10
56.7608261711
 20
62.0305865134
 10
56.7583914598
 20
62.0313063146
 10
56.7559684901
 20
62.0320541474
 10
56.7535607638
 20
62.0328331828
 10
56.751171783
 20
62.033646592
 10
56.7488050495
 20
62.0344975459
 10
56.7464640653
 20
62.0353892156
 10
56.7450371778
 20
62.0359600689
 10
56.7436201598
 20
62.0365507845
 10
56.7422117994
 20
62.0371645988
 10
56.7408108847
 20
62.0378047482
 10
56.7394162036
 20
62.0384744691
 10
56.7380265443
 20
62.0391769978
 10
56.7366406948
 20
62.0399155707
 10
56.7352574432
 20
62.0406934243
 10
56.7338755776
 20
62.0415137949
 10
56.7332828933
 20
62.0418802352
 10
56.7326942622
 20
62.0422568405
 10
56.7321137057
 20
62.042645336
 10
56.731545245
 20
62.0430474471
 10
56.7309929012
 20
62.043464899
 10
56.7304606955
 20
62.043899417
 10
56.7299526493
 20
62.0443527265
 10
56.7294727836
 20
62.0448265526
 10
56.7290251198
 20
62.0453226208
  0
LINE
  5
313
100
AcDbEntity
  8
0
100
AcDbLine
 62
7
  6
CONTINUOUS
 10
48.7621219157
 20
85.3592793438
 11
49.0921897481
 21
85.2876388297
  0
LINE
  5
314
100
AcDbEntity
  8
0
100
AcDbLine
 62
7
  6
CONTINUOUS
 10
53.4254892795
 20
65.3368450912
 11
53.0954683238
 21
65.4087012396
  0
LINE
  5
315
100
AcDbEntity
  8
0
100
AcDbLine
 62
7
  6
CONTINUOUS
 10
49.2740081435
 20
86.757803983
 11
48.9740522927
 21
86.8278112767
  0
LINE
  5
316
100
AcDbEntity
  8
0
100
AcDbLine
 62
7
  6
CONTINUOUS
 10
52.9126894356
 20
63.9386551911
 11
53.2125994832
 21
63.8684519363
  0
LWPOLYLINE
  5
317
100
AcDbEntity
  8
0
100
AcDbPolyline
 62
7
  6
CONTINUOUS
 90
28
 70
0
 10
26.4818721135
 20
73.9460947505
 10
26.4516100824
 20
73.9535343248
 10
26.4212411617
 20
73.9605359553
 10
26.390780338
 20
73.9671346306
 10
26.3602425976
 20
73.9733653392
 10
26.3203802048
 20
73.9809908695
 10
26.2804343325
 20
73.9881593331
 10
26.240426537
 20
73.9949784061
 10
26.1927174168
 20
74.0027970024
 10
26.1449841171
 20
74.0104675394
 10
26.0972597385
 20
74.0181849464
 10
26.0495773812
 20
74.0261441525
 10
26.0019701456
 20
74.0345400869
 10
25.9615963618
 20
74.0421598696
 10
25.9213292943
 20
74.050329535
 10
25.8811974968
 20
74.0591427565
 10
25.8502037546
 20
74.0664733362
 10
25.8193244933
 20
74.0742741668
 10
25.7885757764
 20
74.0825726071
 10
25.7579736672
 20
74.0913960163
 10
25.7259765939
 20
74.1012645445
 10
25.6941761508
 20
74.1117529364
 10
25.6625891736
 20
74.1228705877
 10
25.6312324979
 20
74.1346268941
 10
25.5979335123
 20
74.1479286199
 10
25.5649349757
 20
74.1619603634
 10
25.5322540333
 20
74.1767092532
 10
25.4999078299
 20
74.1921624181
  0
LWPOLYLINE
  5
318
100
AcDbEntity
  8
0
100
AcDbPolyline
 62
7
  6
CONTINUOUS
 90
5
 70
0
 10
58.8240841267
 20
62.0474427192
 10
58.8254373138
 20
62.0471071125
 10
58.8267788287
 20
62.0467313775
 10
58.8281173392
 20
62.0463323839
 10
58.8299258919
 20
62.0457872655
  0
LINE
  5
319
100
AcDbEntity
  8
0
100
AcDbLine
 62
7
  6
CONTINUOUS
 10
48.4344783001
 20
85.4418482968
 11
48.7621219157
 21
85.3592793438
  0
LINE
  5
31A
100
AcDbEntity
  8
0
100
AcDbLine
 62
7
  6
CONTINUOUS
 10
53.7530788788
 20
65.25406209
 11
53.4254892795
 21
65.3368450912
  0
LINE
  5
31B
100
AcDbEntity
  8
0
100
AcDbLine
 62
7
  6
CONTINUOUS
 10
48.9740522927
 20
86.8278112767
 11
48.6764382029
 21
86.9085435764
  0
LINE
  5
31C
100
AcDbEntity
  8
0
100
AcDbLine
 62
7
  6
CONTINUOUS
 10
53.2125994832
 20
63.8684519363
 11
53.510160763
 21
63.7875252079
  0
LWPOLYLINE
  5
31D
100
AcDbEntity
  8
0
100
AcDbPolyline
 62
7
  6
CONTINUOUS
 90
49
 70
0
 10
25.4999078299
 20
74.1921624181
 10
25.4817569585
 20
74.1973457085
 10
25.4637706542
 20
74.2030990456
 10
25.4459758079
 20
74.2094293023
 10
25.4283993107
 20
74.2163433516
 10
25.411699911
 20
74.2235598551
 10
25.3952476994
 20
74.231320113
 10
25.3790623266
 20
74.2396198514
 10
25.3631634433
 20
74.2484547963
 10
25.3478296295
 20
74.2576568196
 10
25.3328051318
 20
74.2673569377
 10
25.3181033451
 20
74.2775400356
 10
25.3037376642
 20
74.2881909979
 10
25.2850750482
 20
74.3031338123
 10
25.2670460233
 20
74.3188356516
 10
25.2496594102
 20
74.3352462021
 10
25.2326080525
 20
74.3526486204
 10
25.216229935
 20
74.3706857723
 10
25.2005218987
 20
74.3893085504
 10
25.1850431845
 20
74.4090445068
 10
25.1702551543
 20
74.4293039946
 10
25.15614147
 20
74.4500417669
 10
25.1419458272
 20
74.4724200147
 10
25.1284604194
 20
74.4952412517
 10
25.115661207
 20
74.5184652375
 10
25.1035241503
 20
74.5420517316
 10
25.0920252098
 20
74.5659604936
 10
25.0811403456
 20
74.5901512833
 10
25.0699923538
 20
74.6166879098
 10
25.0595125741
 20
74.6434862038
 10
25.0496739494
 20
74.6705229232
 10
25.0404494225
 20
74.6977748257
 10
25.0318119362
 20
74.7252186691
 10
25.0237344336
 20
74.7528312114
 10
25.0140293359
 20
74.7889462493
 10
25.0051845252
 20
74.8252798843
 10
24.997159604
 20
74.8618048813
 10
24.989914175
 20
74.8984940052
 10
24.9834078406
 20
74.9353200207
 10
24.9771924091
 20
74.975042488
 10
24.9717478642
 20
75.014875338
 10
24.9670372525
 20
75.0548021674
 10
24.9630236203
 20
75.094806573
 10
24.9596700141
 20
75.1348721516
 10
24.9567843057
 20
75.1776077236
 10
24.9545764355
 20
75.220382399
 10
24.9530170232
 20
75.2631844651
 10
24.9520766886
 20
75.3060022096
 10
24.9517260516
 20
75.3488239198
  0
LINE
  5
31E
100
AcDbEntity
  8
0
100
AcDbLine
 62
7
  6
CONTINUOUS
 10
48.1096055771
 20
85.5352750677
 11
48.4344783001
 21
85.4418482968
  0
LINE
  5
31F
100
AcDbEntity
  8
0
100
AcDbLine
 62
7
  6
CONTINUOUS
 10
54.0778904921
 20
65.1604230836
 11
53.7530788788
 21
65.25406209
  0
LINE
  5
320
100
AcDbEntity
  8
0
100
AcDbLine
 62
7
  6
CONTINUOUS
 10
48.6764382029
 20
86.9085435764
 11
48.3814948419
 21
86.9999524431
  0
LINE
  5
321
100
AcDbEntity
  8
0
100
AcDbLine
 62
7
  6
CONTINUOUS
 10
53.510160763
 20
63.7875252079
 11
53.8050443391
 21
63.6959236596
  0
LWPOLYLINE
  5
322
100
AcDbEntity
  8
0
100
AcDbPolyline
 62
7
  6
CONTINUOUS
 90
47
 70
0
 10
28.9723811332
 20
73.1608402748
 10
28.9746930339
 20
73.1601220365
 10
28.9770115954
 20
73.1594243193
 10
28.9793369611
 20
73.1587489328
 10
28.9816692746
 20
73.1580976864
 10
28.9840086793
 20
73.1574723895
 10
28.9863553186
 20
73.1568748517
 10
28.9887093361
 20
73.1563068824
 10
28.9910708751
 20
73.155770291
 10
28.9930791048
 20
73.1553415072
 10
28.9950925304
 20
73.1549392062
 10
28.9971108377
 20
73.1545660127
 10
28.9991337122
 20
73.1542245512
 10
29.0005649571
 20
73.1540041687
 10
29.0019990728
 20
73.1538030995
 10
29.0034368091
 20
73.1536235233
 10
29.004878916
 20
73.1534676199
 10
29.0063261433
 20
73.1533375692
 10
29.0075833428
 20
73.1532476327
 10
29.0088420149
 20
73.1531807318
 10
29.0100992317
 20
73.1531388874
 10
29.0113520649
 20
73.1531241201
 10
29.0125975866
 20
73.1531384509
 10
29.0133422798
 20
73.1531622844
 10
29.0140853888
 20
73.1531999847
 10
29.0148290324
 20
73.153254166
 10
29.0155753292
 20
73.1533274424
 10
29.0163263978
 20
73.153422428
 10
29.0170843568
 20
73.1535417369
 10
29.0178513249
 20
73.1536879834
 10
29.0183163829
 20
73.1537898212
 10
29.0187832509
 20
73.153903146
 10
29.0192497311
 20
73.154028801
 10
29.0197136256
 20
73.1541676292
 10
29.0201727365
 20
73.1543204739
 10
29.0206248661
 20
73.1544881782
 10
29.0210678163
 20
73.1546715854
 10
29.0214993893
 20
73.1548715385
 10
29.0219173872
 20
73.1550888808
 10
29.0223196123
 20
73.1553244554
 10
29.0227038665
 20
73.1555791056
 10
29.0230679521
 20
73.1558536744
 10
29.0234096712
 20
73.1561490051
 10
29.0237268258
 20
73.1564659407
 10
29.0240172182
 20
73.1568053246
 10
29.0242786504
 20
73.1571679999
 10
29.0245089246
 20
73.1575548097
  0
LINE
  5
323
100
AcDbEntity
  8
0
100
AcDbLine
 62
7
  6
CONTINUOUS
 10
26.4818721135
 20
73.9460947505
 11
28.9723811332
 21
73.1608402748
  0
LWPOLYLINE
  5
324
100
AcDbEntity
  8
0
100
AcDbPolyline
 62
7
  6
CONTINUOUS
 90
49
 70
0
 10
58.8299258919
 20
62.0457872655
 10
58.8303867462
 20
62.0456383965
 10
58.8308388557
 20
62.0454700209
 10
58.8312770002
 20
62.0452717649
 10
58.831695959
 20
62.045033255
 10
58.8320905119
 20
62.0447441176
 10
58.8324554383
 20
62.0443939792
 10
58.8326526192
 20
62.0441570799
 10
58.8328286045
 20
62.0439023932
 10
58.8329742326
 20
62.0436367805
 10
58.8330803421
 20
62.0433671032
 10
58.8331377714
 20
62.0431002228
 10
58.8331373592
 20
62.0428430006
 10
58.8330730169
 20
62.0426011269
 10
58.8329506851
 20
62.0423747908
 10
58.8327793015
 20
62.042163029
 10
58.8325678034
 20
62.0419648783
 10
58.8322388534
 20
62.041720185
 10
58.831875663
 20
62.0414956932
 10
58.8314994174
 20
62.0412891196
 10
58.8307968734
 20
62.0409379689
 10
58.8301169695
 20
62.0406351076
 10
58.8294528062
 20
62.0403720173
 10
58.8287974836
 20
62.0401401798
 10
58.8281441022
 20
62.0399310766
 10
58.8274857621
 20
62.0397361896
 10
58.8259042925
 20
62.0393054552
 10
58.8242760102
 20
62.0389047189
 10
58.8226190606
 20
62.0385327669
 10
58.8209515886
 20
62.0381883857
 10
58.8186383593
 20
62.0377518319
 10
58.8163342506
 20
62.0373579369
 10
58.8140336175
 20
62.0369983036
 10
58.8117308147
 20
62.0366645352
 10
58.8077191115
 20
62.0361282701
 10
58.8036918188
 20
62.0356388837
 10
58.79965688
 20
62.035190653
 10
58.7946735026
 20
62.0346860654
 10
58.7896891143
 20
62.034228171
 10
58.7847022509
 20
62.0338096472
 10
58.7787470217
 20
62.0333529171
 10
58.7727875811
 20
62.0329375144
 10
58.7668253267
 20
62.0325591352
 10
58.7599000882
 20
62.0321610479
 10
58.7529730376
 20
62.0318034109
 10
58.746044272
 20
62.0314825582
 10
58.7382623436
 20
62.031162027
 10
58.7304787942
 20
62.0308807569
 10
58.7226940426
 20
62.0306362527
  0
LINE
  5
325
100
AcDbEntity
  8
0
100
AcDbLine
 62
7
  6
CONTINUOUS
 10
47.7878524334
 20
85.6394781134
 11
48.1096055771
 21
85.5352750677
  0
LINE
  5
326
100
AcDbEntity
  8
0
100
AcDbLine
 62
7
  6
CONTINUOUS
 10
54.3995754862
 20
65.056009843
 11
54.0778904921
 21
65.1604230836
  0
LINE
  5
327
100
AcDbEntity
  8
0
100
AcDbLine
 62
7
  6
CONTINUOUS
 10
48.3814948419
 20
86.9999524431
 11
48.0896286875
 21
87.1019551544
  0
LINE
  5
328
100
AcDbEntity
  8
0
100
AcDbLine
 62
7
  6
CONTINUOUS
 10
53.8050443391
 20
63.6959236596
 11
54.0968437878
 21
63.5937302794
  0
LINE
  5
329
100
AcDbEntity
  8
0
100
AcDbLine
 62
7
  6
CONTINUOUS
 10
47.4695740882
 20
85.7543626362
 11
47.7878524334
 21
85.6394781134
  0
LINE
  5
32A
100
AcDbEntity
  8
0
100
AcDbLine
 62
7
  6
CONTINUOUS
 10
54.7177787036
 20
64.9409173977
 11
54.3995754862
 21
65.056009843
  0
LINE
  5
32B
100
AcDbEntity
  8
0
100
AcDbLine
 62
7
  6
CONTINUOUS
 10
48.0896286875
 20
87.1019551544
 11
47.8011398875
 21
87.2144931629
  0
LINE
  5
32C
100
AcDbEntity
  8
0
100
AcDbLine
 62
7
  6
CONTINUOUS
 10
54.0968437878
 20
63.5937302794
 11
54.3852589996
 21
63.4810038109
  0
LINE
  5
32D
100
AcDbEntity
  8
0
100
AcDbLine
 62
7
  6
CONTINUOUS
 10
47.155121121
 20
85.8798231709
 11
47.4695740882
 21
85.7543626362
  0
LINE
  5
32E
100
AcDbEntity
  8
0
100
AcDbLine
 62
7
  6
CONTINUOUS
 10
55.0321496342
 20
64.8152514421
 11
54.7177787036
 21
64.9409173977
  0
LINE
  5
32F
100
AcDbEntity
  8
0
100
AcDbLine
 62
7
  6
CONTINUOUS
 10
47.8011398875
 20
87.2144931629
 11
47.5163747412
 21
87.3374881024
  0
LINE
  5
330
100
AcDbEntity
  8
0
100
AcDbLine
 62
7
  6
CONTINUOUS
 10
54.3852589996
 20
63.4810038109
 11
54.6699437265
 21
63.3578228465
  0
LINE
  5
331
100
AcDbEntity
  8
0
100
AcDbLine
 62
7
  6
CONTINUOUS
 10
46.8448440882
 20
86.015741636
 11
47.155121121
 21
85.8798231709
  0
LINE
  5
332
100
AcDbEntity
  8
0
100
AcDbLine
 62
7
  6
CONTINUOUS
 10
55.3423377985
 20
64.6791302866
 11
55.0321496342
 21
64.8152514421
  0
LINE
  5
333
100
AcDbEntity
  8
0
100
AcDbLine
 62
7
  6
CONTINUOUS
 10
47.5163747412
 20
87.3374881024
 11
47.2357480821
 21
87.4708171497
  0
LINE
  5
334
100
AcDbEntity
  8
0
100
AcDbLine
 62
7
  6
CONTINUOUS
 10
54.6699437265
 20
63.3578228465
 11
54.9504832152
 21
63.2243104805
  0
LINE
  5
335
100
AcDbEntity
  8
0
100
AcDbLine
 62
7
  6
CONTINUOUS
 10
46.5390920406
 20
86.1619879518
 11
46.8448440882
 21
86.015741636
  0
LINE
  5
336
100
AcDbEntity
  8
0
100
AcDbLine
 62
7
  6
CONTINUOUS
 10
55.6479942309
 20
64.5326842391
 11
55.3423377985
 21
64.6791302866
  0
LINE
  5
337
100
AcDbEntity
  8
0
100
AcDbLine
 62
7
  6
CONTINUOUS
 10
46.2382105892
 20
86.3184194432
 11
46.5390920406
 21
86.1619879518
  0
LINE
  5
338
100
AcDbEntity
  8
0
100
AcDbLine
 62
7
  6
CONTINUOUS
 10
47.2357480821
 20
87.4708171497
 11
46.9595597164
 21
87.6143979982
  0
LINE
  5
339
100
AcDbEntity
  8
0
100
AcDbLine
 62
7
  6
CONTINUOUS
 10
54.9504832152
 20
63.2243104805
 11
55.2265777135
 21
63.080549215
  0
LINE
  5
33A
100
AcDbEntity
  8
0
100
AcDbLine
 62
7
  6
CONTINUOUS
 10
55.9487734137
 20
64.3760562003
 11
55.6479942309
 21
64.5326842391
  0
LINE
  5
33B
100
AcDbEntity
  8
0
100
AcDbLine
 62
7
  6
CONTINUOUS
 10
45.9425429184
 20
86.48488068
 11
46.2382105892
 21
86.3184194432
  0
LINE
  5
33C
100
AcDbEntity
  8
0
100
AcDbLine
 62
7
  6
CONTINUOUS
 10
56.244332264
 20
64.2094018247
 11
55.9487734137
 21
64.3760562003
  0
LINE
  5
33D
100
AcDbEntity
  8
0
100
AcDbLine
 62
7
  6
CONTINUOUS
 10
46.9595597164
 20
87.6143979982
 11
46.688315525
 21
87.7680270749
  0
LINE
  5
33E
100
AcDbEntity
  8
0
100
AcDbLine
 62
7
  6
CONTINUOUS
 10
55.2265777135
 20
63.080549215
 11
55.4977214735
 21
62.9267429539
  0
LINE
  5
33F
100
AcDbEntity
  8
0
100
AcDbLine
 62
7
  6
CONTINUOUS
 10
45.6524309382
 20
86.6612030669
 11
45.9425429184
 21
86.48488068
  0
LINE
  5
340
100
AcDbEntity
  8
0
100
AcDbLine
 62
7
  6
CONTINUOUS
 10
56.5343289821
 20
64.032889931
 11
56.244332264
 21
64.2094018247
  0
LINE
  5
341
100
AcDbEntity
  8
0
100
AcDbLine
 62
7
  6
CONTINUOUS
 10
46.688315525
 20
87.7680270749
 11
46.4224126946
 21
87.93152847
  0
LINE
  5
342
100
AcDbEntity
  8
0
100
AcDbLine
 62
7
  6
CONTINUOUS
 10
55.4977214735
 20
62.9267429539
 11
55.7635174236
 21
62.7630678662
  0
LINE
  5
343
100
AcDbEntity
  8
0
100
AcDbLine
 62
7
  6
CONTINUOUS
 10
45.3682094405
 20
86.8472044365
 11
45.6524309382
 21
86.6612030669
  0
LINE
  5
344
100
AcDbEntity
  8
0
100
AcDbLine
 62
7
  6
CONTINUOUS
 10
56.8184288953
 20
63.8467029051
 11
56.5343289821
 21
64.032889931
  0
LINE
  5
345
100
AcDbEntity
  8
0
100
AcDbLine
 62
7
  6
CONTINUOUS
 10
46.4224126946
 20
87.93152847
 11
46.1621271819
 21
88.1047853625
  0
LINE
  5
346
100
AcDbEntity
  8
0
100
AcDbLine
 62
7
  6
CONTINUOUS
 10
55.7635174236
 20
62.7630678662
 11
56.0236896834
 21
62.5896409533
  0
LINE
  5
347
100
AcDbEntity
  8
0
100
AcDbLine
 62
7
  6
CONTINUOUS
 10
45.0902159818
 20
87.0426869329
 11
45.3682094405
 21
86.8472044365
  0
LINE
  5
348
100
AcDbEntity
  8
0
100
AcDbLine
 62
7
  6
CONTINUOUS
 10
57.0962945762
 20
63.6510388235
 11
56.8184288953
 21
63.8467029051
  0
LINE
  5
349
100
AcDbEntity
  8
0
100
AcDbLine
 62
7
  6
CONTINUOUS
 10
46.1621271819
 20
88.1047853625
 11
45.9078695719
 21
88.2875841527
  0
LINE
  5
34A
100
AcDbEntity
  8
0
100
AcDbLine
 62
7
  6
CONTINUOUS
 10
56.0236896834
 20
62.5896409533
 11
56.2778278077
 21
62.406676083
  0
LINE
  5
34B
100
AcDbEntity
  8
0
100
AcDbLine
 62
7
  6
CONTINUOUS
 10
44.818784782
 20
87.2474340234
 11
45.0902159818
 21
87.0426869329
  0
LINE
  5
34C
100
AcDbEntity
  8
0
100
AcDbLine
 62
7
  6
CONTINUOUS
 10
57.3675919466
 20
63.4461144373
 11
57.0962945762
 21
63.6510388235
  0
LINE
  5
34D
100
AcDbEntity
  8
0
100
AcDbLine
 62
7
  6
CONTINUOUS
 10
45.9078695719
 20
88.2875841527
 11
45.6600606753
 21
88.4796725249
  0
LINE
  5
34E
100
AcDbEntity
  8
0
100
AcDbLine
 62
7
  6
CONTINUOUS
 10
56.2778278077
 20
62.406676083
 11
56.5255111505
 21
62.214425846
  0
LWPOLYLINE
  5
34F
100
AcDbEntity
  8
0
100
AcDbPolyline
 62
7
  6
CONTINUOUS
 90
37
 70
0
 10
28.5380655381
 20
73.5884431942
 10
28.5280496983
 20
73.5962707886
 10
28.51824403
 20
73.6043758913
 10
28.5086556023
 20
73.6127500876
 10
28.4992914842
 20
73.6213849632
 10
28.490158745
 20
73.6302721032
 10
28.4812644536
 20
73.6394030933
 10
28.4726156792
 20
73.6487695187
 10
28.4642194909
 20
73.6583629649
 10
28.4560829578
 20
73.6681750173
 10
28.4481186855
 20
73.6783201492
 10
28.4404308044
 20
73.6886724552
 10
28.4330224733
 20
73.699223789
 10
28.4258968511
 20
73.7099660042
 10
28.4190570964
 20
73.7208909546
 10
28.4125063682
 20
73.7319904939
 10
28.4062478251
 20
73.7432564757
 10
28.400284626
 20
73.7546807538
 10
28.3946199296
 20
73.7662551818
 10
28.3891966078
 20
73.7781074662
 10
28.3840836829
 20
73.7900968428
 10
28.3792828976
 20
73.8022151086
 10
28.3747959946
 20
73.8144540604
 10
28.3706247166
 20
73.8268054951
 10
28.3667708062
 20
73.8392612096
 10
28.3632360063
 20
73.8518130009
 10
28.3600220595
 20
73.8644526657
 10
28.3571307084
 20
73.877172001
 10
28.3545430552
 20
73.8900711621
 10
28.3522853009
 20
73.9030330989
 10
28.3503574892
 20
73.9160479043
 10
28.3487596637
 20
73.929105671
 10
28.3474918678
 20
73.9421964918
 10
28.3465541453
 20
73.9553104593
 10
28.3459465395
 20
73.9684376665
 10
28.3456690942
 20
73.981568206
 10
28.3457218529
 20
73.9946921707
  0
LINE
  5
350
100
AcDbEntity
  8
0
100
AcDbLine
 62
7
  6
CONTINUOUS
 10
44.5542417464
 20
87.4612177432
 11
44.818784782
 21
87.2474340234
  0
LINE
  5
351
100
AcDbEntity
  8
0
100
AcDbLine
 62
7
  6
CONTINUOUS
 10
57.6319952503
 20
63.2321579241
 11
57.3675919466
 21
63.4461144373
  0
LINE
  5
352
100
AcDbEntity
  8
0
100
AcDbLine
 62
7
  6
CONTINUOUS
 10
45.6600606753
 20
88.4796725249
 11
45.4545669792
 21
88.6502430161
  0
LINE
  5
353
100
AcDbEntity
  8
0
100
AcDbLine
 62
7
  6
CONTINUOUS
 10
56.5255111505
 20
62.214425846
 11
56.7308933607
 21
62.043721132
  0
LINE
  5
354
100
AcDbEntity
  8
0
100
AcDbLine
 62
7
  6
CONTINUOUS
 10
44.2969020198
 20
87.6837976258
 11
44.5542417464
 21
87.4612177432
  0
LINE
  5
355
100
AcDbEntity
  8
0
100
AcDbLine
 62
7
  6
CONTINUOUS
 10
57.8891894996
 20
63.0094099562
 11
57.6319952503
 21
63.2321579241
  0
LINE
  5
356
100
AcDbEntity
  8
0
100
AcDbLine
 62
7
  6
CONTINUOUS
 10
44.0470702494
 20
87.9149224256
 11
44.2969020198
 21
87.6837976258
  0
LINE
  5
357
100
AcDbEntity
  8
0
100
AcDbLine
 62
7
  6
CONTINUOUS
 10
58.1388702114
 20
62.7781219782
 11
57.8891894996
 21
63.0094099562
  0
LINE
  5
358
100
AcDbEntity
  8
0
100
AcDbLine
 62
7
  6
CONTINUOUS
 10
43.805041117
 20
88.1543291739
 11
44.0470702494
 21
87.9149224256
  0
LINE
  5
359
100
AcDbEntity
  8
0
100
AcDbLine
 62
7
  6
CONTINUOUS
 10
58.3807428758
 20
62.5385571515
 11
58.1388702114
 21
62.7781219782
  0
LINE
  5
35A
100
AcDbEntity
  8
0
100
AcDbLine
 62
7
  6
CONTINUOUS
 10
43.5710982877
 20
88.4017442908
 11
43.805041117
 21
88.1543291739
  0
LINE
  5
35B
100
AcDbEntity
  8
0
100
AcDbLine
 62
7
  6
CONTINUOUS
 10
58.6145240067
 20
62.290989241
 11
58.3807428758
 21
62.5385571515
  0
LWPOLYLINE
  5
35C
100
AcDbEntity
  8
0
100
AcDbPolyline
 62
7
  6
CONTINUOUS
 90
34
 70
0
 10
29.6541839417
 20
84.1999726878
 10
29.6536107069
 20
84.2006063228
 10
29.6530003417
 20
84.2012034292
 10
29.6523560639
 20
84.2017657552
 10
29.6516810913
 20
84.202295049
 10
29.6509786416
 20
84.2027930588
 10
29.6502519326
 20
84.2032615328
 10
29.6495041821
 20
84.2037022191
 10
29.6487386079
 20
84.2041168659
 10
29.6479584277
 20
84.2045072215
 10
29.6471668593
 20
84.2048750338
 10
29.6463671205
 20
84.2052220513
 10
29.645562429
 20
84.205550022
 10
29.6442383908
 20
84.2060507009
 10
29.6429090757
 20
84.2065101259
 10
29.6415738697
 20
84.2069335417
 10
29.6402321594
 20
84.2073261932
 10
29.6388833308
 20
84.207693325
 10
29.6368097965
 20
84.2082143482
 10
29.6347220197
 20
84.2086936674
 10
29.6326237821
 20
84.2091368423
 10
29.6305188652
 20
84.2095494328
 10
29.6279948898
 20
84.2100100458
 10
29.6254670683
 20
84.2104394749
 10
29.6229357057
 20
84.2108423885
 10
29.6204011072
 20
84.2112234549
 10
29.6164314696
 20
84.2117850804
 10
29.6124564062
 20
84.2123125958
 10
29.6084776597
 20
84.2128139094
 10
29.6026031983
 20
84.2135196156
 10
29.5967253742
 20
84.2141937354
 10
29.5908450489
 20
84.2148445092
 10
29.584963084
 20
84.2154801775
 10
29.5790803411
 20
84.2161089808
  0
LINE
  5
35D
100
AcDbEntity
  8
0
100
AcDbLine
 62
7
  6
CONTINUOUS
 10
43.3526539606
 20
88.6485406829
 11
43.5710982877
 21
88.4017442908
  0
LINE
  5
35E
100
AcDbEntity
  8
0
100
AcDbLine
 62
7
  6
CONTINUOUS
 10
58.8328070429
 20
62.044050181
 11
58.6145240067
 21
62.290989241
  0
LWPOLYLINE
  5
35F
100
AcDbEntity
  8
0
100
AcDbPolyline
 62
7
  6
CONTINUOUS
 90
39
 70
0
 10
43.3526541795
 20
88.648540685
 10
43.352513121
 20
88.6487237024
 10
43.3523960978
 20
88.6489235818
 10
43.3523148898
 20
88.6491393393
 10
43.3522776832
 20
88.6494397369
 10
43.3523202992
 20
88.6497391583
 10
43.3524049651
 20
88.6499547047
 10
43.3525252792
 20
88.6501542162
 10
43.3526703766
 20
88.650337952
 10
43.3529975995
 20
88.6506574293
 10
43.3533602628
 20
88.6509336299
 10
43.3539199546
 20
88.651285447
 10
43.3545071743
 20
88.6515917781
 10
43.3551140236
 20
88.651862513
 10
43.355732604
 20
88.6521075415
 10
43.3569302523
 20
88.6525312577
 10
43.3581400747
 20
88.6529073711
 10
43.3593601855
 20
88.6532462976
 10
43.3604843565
 20
88.653532026
 10
43.3616136772
 20
88.6537986097
 10
43.3641412293
 20
88.6543379029
 10
43.3669282137
 20
88.6548630479
 10
43.3699597365
 20
88.6553732407
 10
43.3733247275
 20
88.6558830256
 10
43.3766965663
 20
88.6563460806
 10
43.3804643044
 20
88.6568186988
 10
43.384236696
 20
88.6572523574
 10
43.3883528892
 20
88.6576878716
 10
43.392472505
 20
88.6580898256
 10
43.3968891537
 20
88.6584883381
 10
43.4013083459
 20
88.6588576249
 10
43.4076837794
 20
88.6593453115
 10
43.414062721
 20
88.6597857275
 10
43.4204444335
 20
88.6601845151
 10
43.4273195471
 20
88.6605732566
 10
43.4341966975
 20
88.6609234276
 10
43.4410755634
 20
88.661238195
 10
43.4519155555
 20
88.6616689899
 10
43.4627581734
 20
88.6620265506
  0
ARC
  5
360
100
AcDbEntity
  8
0
100
AcDbCircle
 62
7
  6
CONTINUOUS
 10
-4117.3537121695
 20
75.6275601066
 40
4166.7618184762
100
AcDbArc
 50
359.9961671898
 51
0.1175416103
  0
ARC
  5
361
100
AcDbEntity
  8
0
100
AcDbCircle
 62
7
  6
CONTINUOUS
 10
-4117.352394262
 20
75.0700864252
 40
4166.7605005688
100
AcDbArc
 50
359.8824583705
 51
0.0038328294
  0
ARC
  5
362
100
AcDbEntity
  8
0
100
AcDbCircle
 62
7
  6
CONTINUOUS
 10
43.2700626835
 20
1855.2083923203
 40
1762.394862421
100
AcDbArc
 50
269.2078029381
 51
270.0018357827
  0
ARC
  5
363
100
AcDbEntity
  8
0
100
AcDbCircle
 62
7
  6
CONTINUOUS
 10
43.2700626834
 20
-1704.5107444804
 40
1762.3948624206
100
AcDbArc
 50
89.9981642173
 51
90.7921970619
  0
ARC
  5
364
100
AcDbEntity
  8
0
100
AcDbCircle
 62
7
  6
CONTINUOUS
 10
53.382998548
 20
-1704.5107434595
 40
1762.3948613997
100
AcDbArc
 50
89.2078029378
 51
90.0018357829
  0
ARC
  5
365
100
AcDbEntity
  8
0
100
AcDbCircle
 62
7
  6
CONTINUOUS
 10
53.382998548
 20
1855.2083912981
 40
1762.3948613989
100
AcDbArc
 50
269.9981642171
 51
270.7921970622
  0
ARC
  5
366
100
AcDbEntity
  8
0
100
AcDbCircle
 62
7
  6
CONTINUOUS
 10
46.8175091105
 20
-319.1077077689
 40
407.9484712239
100
AcDbArc
 50
88.3276963708
 51
88.5229902531
  0
ARC
  5
367
100
AcDbEntity
  8
0
100
AcDbCircle
 62
7
  6
CONTINUOUS
 10
55.6343599684
 20
-319.1048275224
 40
407.9484712202
100
AcDbArc
 50
91.5144439178
 51
91.7097378001
  0
ARC
  5
368
100
AcDbEntity
  8
0
100
AcDbCircle
 62
7
  6
CONTINUOUS
 10
61.3791197672
 20
-215.7278517464
 40
303.9246255738
100
AcDbArc
 50
91.9236800358
 51
92.2541965221
  0
ARC
  5
369
100
AcDbEntity
  8
0
100
AcDbCircle
 62
7
  6
CONTINUOUS
 10
61.3791197671
 20
366.4254995822
 40
303.9246255701
100
AcDbArc
 50
267.7458034779
 51
268.0763199642
  0
ARC
  5
36A
100
AcDbEntity
  8
0
100
AcDbCircle
 62
7
  6
CONTINUOUS
 10
15.2503636333
 20
-137.1897466849
 40
221.8712316583
100
AcDbArc
 50
86.313133741
 51
86.9101876343
  0
ARC
  5
36B
100
AcDbEntity
  8
0
100
AcDbCircle
 62
7
  6
CONTINUOUS
 10
15.2503636333
 20
287.8873945234
 40
221.8712316573
100
AcDbArc
 50
273.0898123657
 51
273.6868662591
  0
ARC
  5
36C
100
AcDbEntity
  8
0
100
AcDbCircle
 62
7
  6
CONTINUOUS
 10
63.812669109
 20
246.752368401
 40
184.0893960012
100
AcDbArc
 50
264.9379495888
 51
266.0732247044
  0
ARC
  5
36D
100
AcDbEntity
  8
0
100
AcDbCircle
 62
7
  6
CONTINUOUS
 10
63.812669109
 20
-96.0547205612
 40
184.0893960009
100
AcDbArc
 50
93.9267752956
 51
95.0620504112
  0
ARC
  5
36E
100
AcDbEntity
  8
0
100
AcDbCircle
 62
7
  6
CONTINUOUS
 10
63.8114818967
 20
-96.0426657308
 40
184.0772817659
100
AcDbArc
 50
95.8508565082
 51
101.4691499784
  0
ARC
  5
36F
100
AcDbEntity
  8
0
100
AcDbCircle
 62
7
  6
CONTINUOUS
 10
63.8114818967
 20
246.7403135703
 40
184.0772817659
100
AcDbArc
 50
258.5308500216
 51
264.1491434922
  0
ARC
  5
370
100
AcDbEntity
  8
2_PLANES
100
AcDbCircle
 62
7
  6
CONTINUOUS
 10
63.5076470397
 20
-91.6309683658
 40
179.6551407235
100
AcDbArc
 50
92.5137018279
 51
93.9157268011
  0
ARC
  5
371
100
AcDbEntity
  8
0
100
AcDbCircle
 62
7
  6
CONTINUOUS
 10
63.5076470397
 20
242.3286162051
 40
179.6551407233
100
AcDbArc
 50
266.0842731989
 51
267.4862981721
  0
ARC
  5
372
100
AcDbEntity
  8
2_PLANES
100
AcDbCircle
 62
7
  6
CONTINUOUS
 10
63.4911996493
 20
-91.148458843
 40
179.1723448956
100
AcDbArc
 50
89.6561031863
 51
91.7037105481
  0
ARC
  5
373
100
AcDbEntity
  8
0
100
AcDbCircle
 62
7
  6
CONTINUOUS
 10
63.4911996493
 20
241.8461066823
 40
179.1723448954
100
AcDbArc
 50
268.2962894521
 51
270.3438968137
  0
ARC
  5
374
100
AcDbEntity
  8
0
100
AcDbCircle
 62
7
  6
CONTINUOUS
 10
45.6449354161
 20
206.5569457492
 40
143.8125449039
100
AcDbArc
 50
269.0405372661
 51
269.351765465
  0
ARC
  5
375
100
AcDbEntity
  8
0
100
AcDbCircle
 62
7
  6
CONTINUOUS
 10
45.6449354161
 20
-55.8592979063
 40
143.8125449005
100
AcDbArc
 50
90.6482345353
 51
90.9594627339
  0
ARC
  5
376
100
AcDbEntity
  8
2_PLANES
100
AcDbCircle
 62
7
  6
CONTINUOUS
 10
58.9067790431
 20
-30.4173552457
 40
117.2755098717
100
AcDbArc
 50
87.9391039924
 51
90.2926486424
  0
ARC
  5
377
100
AcDbEntity
  8
0
100
AcDbCircle
 62
7
  6
CONTINUOUS
 10
58.9067790431
 20
181.1150030853
 40
117.2755098717
100
AcDbArc
 50
269.7073513576
 51
272.0608960076
  0
ARC
  5
378
100
AcDbEntity
  8
0
100
AcDbCircle
 62
7
  6
CONTINUOUS
 10
58.9102259253
 20
178.742208859
 40
114.9027652566
100
AcDbArc
 50
268.9431956134
 51
269.6995893058
  0
ARC
  5
379
100
AcDbEntity
  8
2_PLANES
100
AcDbCircle
 62
7
  6
CONTINUOUS
 10
58.9102259252
 20
-28.0445610188
 40
114.9027652559
100
AcDbArc
 50
90.3004106942
 51
91.0568043855
  0
ARC
  5
37A
100
AcDbEntity
  8
0
100
AcDbCircle
 62
7
  6
CONTINUOUS
 10
58.9054266113
 20
178.3757002193
 40
114.5362783634
100
AcDbArc
 50
266.1454960237
 51
266.626444051
  0
ARC
  5
37B
100
AcDbEntity
  8
2_PLANES
100
AcDbCircle
 62
7
  6
CONTINUOUS
 10
58.9054266112
 20
-27.6780523775
 40
114.536278361
100
AcDbArc
 50
93.373555949
 51
93.8545039763
  0
ARC
  5
37C
100
AcDbEntity
  8
2_PLANES
100
AcDbCircle
 62
7
  6
CONTINUOUS
 10
56.8579401886
 20
39.2745779904
 40
48.1168486813
100
AcDbArc
 50
73.6001152551
 51
77.5677979199
  0
ARC
  5
37D
100
AcDbEntity
  8
0
100
AcDbCircle
 62
7
  6
CONTINUOUS
 10
56.8579401886
 20
111.4230698491
 40
48.1168486813
100
AcDbArc
 50
282.4322020801
 51
286.3998847449
  0
ARC
  5
37E
100
AcDbEntity
  8
0
100
AcDbCircle
 62
7
  6
CONTINUOUS
 10
63.0235029898
 20
94.3861784098
 40
31.7998971389
100
AcDbArc
 50
272.8089417874
 51
276.16393993
  0
ARC
  5
37F
100
AcDbEntity
  8
0
100
AcDbCircle
 62
7
  6
CONTINUOUS
 10
63.0235029898
 20
56.3114694298
 40
31.7998971388
100
AcDbArc
 50
83.83606007
 51
87.1910582126
  0
ARC
  5
380
100
AcDbEntity
  8
0
100
AcDbCircle
 62
7
  6
CONTINUOUS
 10
79.7642973383
 20
66.4714994198
 40
30.3650013468
100
AcDbArc
 50
179.904651047
 51
181.8928676744
  0
ARC
  5
381
100
AcDbEntity
  8
0
100
AcDbCircle
 62
7
  6
CONTINUOUS
 10
79.7642973346
 20
84.2261484198
 40
30.365001343
100
AcDbArc
 50
178.1071323323
 51
180.0953489531
  0
ARC
  5
382
100
AcDbEntity
  8
2_PLANES
100
AcDbCircle
 62
7
  6
CONTINUOUS
 10
62.2410975198
 20
63.429677944
 40
23.3693111766
100
AcDbArc
 50
77.7068573187
 51
87.8343310998
  0
ARC
  5
383
100
AcDbEntity
  8
0
100
AcDbCircle
 62
7
  6
CONTINUOUS
 10
62.2410975198
 20
87.2679698955
 40
23.3693111766
100
AcDbArc
 50
272.1656689002
 51
282.2931426813
  0
ARC
  5
384
100
AcDbEntity
  8
0
100
AcDbCircle
 62
7
  6
CONTINUOUS
 10
64.4433461991
 20
66.6968064653
 40
21.3242084577
100
AcDbArc
 50
84.6328106292
 51
89.6688041607
  0
ARC
  5
385
100
AcDbEntity
  8
0
100
AcDbCircle
 62
7
  6
CONTINUOUS
 10
64.4433461991
 20
84.0008413742
 40
21.3242084577
100
AcDbArc
 50
270.3311958393
 51
275.3671893708
  0
CIRCLE
  5
386
100
AcDbEntity
  8
0
100
AcDbCircle
 62
7
  6
CONTINUOUS
 10
67.0765306122
 20
75.3488239198
 40
1.4482233047
  0
ELLIPSE
  5
387
100
AcDbEntity
  8
0
100
AcDbEllipse
 62
7
  6
CONTINUOUS
 10
77.8246206934
 20
92.846914001
 30
0.0
 11
0.3562493039
 21
0.3562493039
 31
0.0
 40
0.9924325091
 41
-0.7816000651
 42
0.7816000651
  0
ELLIPSE
  5
388
100
AcDbEntity
  8
0
100
AcDbEllipse
 62
7
  6
CONTINUOUS
 10
18.828440531
 20
92.846914001
 30
0.0
 11
0.3562493039
 21
-0.3562493039
 31
0.0
 40
0.9924325091
 41
2.3599925885
 42
3.9231927187
  0
ELLIPSE
  5
389
100
AcDbEntity
  8
0
100
AcDbEllipse
 62
7
  6
CONTINUOUS
 10
77.8246206934
 20
57.8507338385
 30
0.0
 11
-0.3562493039
 21
0.3562493039
 31
0.0
 40
0.9924325091
 41
2.3599925885
 42
3.9231927187
  0
ELLIPSE
  5
38A
100
AcDbEntity
  8
0
100
AcDbEllipse
 62
7
  6
CONTINUOUS
 10
18.828440531
 20
57.8507338385
 30
0.0
 11
0.3562493039
 21
0.3562493039
 31
0.0
 40
0.9924325091
 41
2.3599925885
 42
3.9231927187
  0
ENDSEC
  0
SECTION
  2
OBJECTS
  0
DICTIONARY
  5
38B
100
AcDbDictionary
  3
ACAD_GROUP
350
38C
  3
ACAD_MLINESTYLE
350
38D
  0
DICTIONARY
  5
38C
102
{ACAD_REACTORS
330
38B
102
}
100
AcDbDictionary
  0
DICTIONARY
  5
38D
102
{ACAD_REACTORS
330
38B
102
}
100
AcDbDictionary
  3
STANDARD
350
38E
  0
MLINESTYLE
  5
38E
102
{ACAD_REACTORS
330
38D
102
}
100
AcDbMlineStyle
  2
STANDARD
 70
0
  3

 62
256
 51
90.0
 52
90.0
 71
2
 49
0.5
 62
256
  6
BYLAYER
 49
-0.5
 62
256
  6
BYLAYER
  0
ENDSEC
  0
EOF
