  0
SECTION
  2
HEADER
  9
$ACADVER
  1
AC1015
  9
$ACADMAINTVER
 70
    20
  9
$DWGCODEPAGE
  3
ANSI_1252
  9
$INSBASE
 10
0.0
 20
0.0
 30
0.0
  9
$EXTMIN
 10
21.4406158994
 20
23.5884651481
 30
0.0
  9
$EXTMAX
 10
138.0153120188
 20
103.3957875109
 30
0.0
  9
$LIMMIN
 10
0.0
 20
0.0
  9
$LIMMAX
 10
181.3333333333
 20
117.3333333333
  9
$ORTHOMODE
 70
     0
  9
$REGENMODE
 70
     1
  9
$FILLMODE
 70
     1
  9
$QTEXTMODE
 70
     0
  9
$MIRRTEXT
 70
     0
  9
$LTSCALE
 40
9.973333333300001
  9
$ATTMODE
 70
     1
  9
$TEXTSIZE
 40
0.2
  9
$TRACEWID
 40
0.05
  9
$TEXTSTYLE
  7
STANDARD
  9
$CLAYER
  8
0
  9
$CELTYPE
  6
BYLAYER
  9
$CECOLOR
 62
   256
  9
$CELTSCALE
 40
1.0
  9
$DISPSILH
 70
     0
  9
$DIMSCALE
 40
1.0
  9
$DIMASZ
 40
2.0
  9
$DIMEXO
 40
0.0625
  9
$DIMDLI
 40
6.890666666699999
  9
$DIMRND
 40
0.0
  9
$DIMDLE
 40
0.0
  9
$DIMEXE
 40
0.125
  9
$DIMTP
 40
0.0
  9
$DIMTM
 40
0.0
  9
$DIMTXT
 40
1.333333333299999
  9
$DIMCEN
 40
1.631999999999999
  9
$DIMTSZ
 40
0.0
  9
$DIMTOL
 70
     0
  9
$DIMLIM
 70
     0
  9
$DIMTIH
 70
     1
  9
$DIMTOH
 70
     1
  9
$DIMSE1
 70
     0
  9
$DIMSE2
 70
     0
  9
$DIMTAD
 70
     0
  9
$DIMZIN
 70
     0
  9
$DIMBLK
  1
_FILLED
  9
$DIMASO
 70
     1
  9
$DIMSHO
 70
     1
  9
$DIMPOST
  1

  9
$DIMAPOST
  1

  9
$DIMALT
 70
     0
  9
$DIMALTD
 70
     2
  9
$DIMALTF
 40
25.4
  9
$DIMLFAC
 40
1.0
  9
$DIMTOFL
 70
     0
  9
$DIMTVP
 40
0.0
  9
$DIMTIX
 70
     0
  9
$DIMSOXD
 70
     0
  9
$DIMSAH
 70
     0
  9
$DIMBLK1
  1

  9
$DIMBLK2
  1

  9
$DIMSTYLE
  2
STANDARD
  9
$DIMCLRD
 70
     0
  9
$DIMCLRE
 70
     0
  9
$DIMCLRT
 70
     0
  9
$DIMTFAC
 40
1.0
  9
$DIMGAP
 40
0.09
  9
$DIMJUST
 70
     0
  9
$DIMSD1
 70
     0
  9
$DIMSD2
 70
     0
  9
$DIMTOLJ
 70
     1
  9
$DIMTZIN
 70
     0
  9
$DIMALTZ
 70
     0
  9
$DIMALTTZ
 70
     0
  9
$DIMUPT
 70
     0
  9
$DIMDEC
 70
     4
  9
$DIMTDEC
 70
     4
  9
$DIMALTU
 70
     2
  9
$DIMALTTD
 70
     2
  9
$DIMTXSTY
  7
STANDARD
  9
$DIMAUNIT
 70
     0
  9
$DIMADEC
 70
     0
  9
$DIMALTRND
 40
0.0
  9
$DIMAZIN
 70
     0
  9
$DIMDSEP
 70
    46
  9
$DIMATFIT
 70
     3
  9
$DIMFRAC
 70
     0
  9
$DIMLDRBLK
  1

  9
$DIMLUNIT
 70
     2
  9
$DIMLWD
 70
    -2
  9
$DIMLWE
 70
    -2
  9
$DIMTMOVE
 70
     0
  9
$LUNITS
 70
     2
  9
$LUPREC
 70
     4
  9
$SKETCHINC
 40
0.1
  9
$FILLETRAD
 40
0.0
  9
$AUNITS
 70
     0
  9
$AUPREC
 70
     0
  9
$MENU
  1
.
  9
$ELEVATION
 40
0.0
  9
$PELEVATION
 40
0.0
  9
$THICKNESS
 40
0.0
  9
$LIMCHECK
 70
     0
  9
$CHAMFERA
 40
0.0
  9
$CHAMFERB
 40
0.0
  9
$CHAMFERC
 40
0.0
  9
$CHAMFERD
 40
0.0
  9
$SKPOLY
 70
     0
  9
$TDCREATE
 40
2456087.442917835
  9
$TDUCREATE
 40
2456087.609584503
  9
$TDUPDATE
 40
2456087.460942963
  9
$TDUUPDATE
 40
2456087.627609630
  9
$TDINDWG
 40
0.0012524653
  9
$TDUSRTIMER
 40
0.0012524653
  9
$USRTIMER
 70
     1
  9
$ANGBASE
 50
0.0
  9
$ANGDIR
 70
     0
  9
$PDMODE
 70
     3
  9
$PDSIZE
 40
0.03125
  9
$PLINEWID
 40
0.0
  9
$SPLFRAME
 70
     0
  9
$SPLINETYPE
 70
     6
  9
$SPLINESEGS
 70
     8
  9
$HANDSEED
  5
1968
  9
$SURFTAB1
 70
     6
  9
$SURFTAB2
 70
     6
  9
$SURFTYPE
 70
     6
  9
$SURFU
 70
     6
  9
$SURFV
 70
     6
  9
$UCSBASE
  2

  9
$UCSNAME
  2

  9
$UCSORG
 10
0.0
 20
0.0
 30
0.0
  9
$UCSXDIR
 10
1.0
 20
0.0
 30
0.0
  9
$UCSYDIR
 10
0.0
 20
1.0
 30
0.0
  9
$UCSORTHOREF
  2

  9
$UCSORTHOVIEW
 70
     0
  9
$UCSORGTOP
 10
0.0
 20
0.0
 30
0.0
  9
$UCSORGBOTTOM
 10
0.0
 20
0.0
 30
0.0
  9
$UCSORGLEFT
 10
0.0
 20
0.0
 30
0.0
  9
$UCSORGRIGHT
 10
0.0
 20
0.0
 30
0.0
  9
$UCSORGFRONT
 10
0.0
 20
0.0
 30
0.0
  9
$UCSORGBACK
 10
0.0
 20
0.0
 30
0.0
  9
$PUCSBASE
  2

  9
$PUCSNAME
  2

  9
$PUCSORG
 10
0.0
 20
0.0
 30
0.0
  9
$PUCSXDIR
 10
1.0
 20
0.0
 30
0.0
  9
$PUCSYDIR
 10
0.0
 20
1.0
 30
0.0
  9
$PUCSORTHOREF
  2

  9
$PUCSORTHOVIEW
 70
     0
  9
$PUCSORGTOP
 10
0.0
 20
0.0
 30
0.0
  9
$PUCSORGBOTTOM
 10
0.0
 20
0.0
 30
0.0
  9
$PUCSORGLEFT
 10
0.0
 20
0.0
 30
0.0
  9
$PUCSORGRIGHT
 10
0.0
 20
0.0
 30
0.0
  9
$PUCSORGFRONT
 10
0.0
 20
0.0
 30
0.0
  9
$PUCSORGBACK
 10
0.0
 20
0.0
 30
0.0
  9
$USERI1
 70
     0
  9
$USERI2
 70
     0
  9
$USERI3
 70
     0
  9
$USERI4
 70
     0
  9
$USERI5
 70
     0
  9
$USERR1
 40
0.0
  9
$USERR2
 40
0.0
  9
$USERR3
 40
0.0
  9
$USERR4
 40
0.0
  9
$USERR5
 40
0.0
  9
$WORLDVIEW
 70
     1
  9
$SHADEDGE
 70
     3
  9
$SHADEDIF
 70
    70
  9
$TILEMODE
 70
     1
  9
$MAXACTVP
 70
    64
  9
$PINSBASE
 10
0.0
 20
0.0
 30
0.0
  9
$PLIMCHECK
 70
     0
  9
$PEXTMIN
 10
1.000000000000000E+20
 20
1.000000000000000E+20
 30
1.000000000000000E+20
  9
$PEXTMAX
 10
-1.000000000000000E+20
 20
-1.000000000000000E+20
 30
-1.000000000000000E+20
  9
$PLIMMIN
 10
0.0
 20
0.0
  9
$PLIMMAX
 10
12.0
 20
9.0
  9
$UNITMODE
 70
     0
  9
$VISRETAIN
 70
     1
  9
$PLINEGEN
 70
     0
  9
$PSLTSCALE
 70
     1
  9
$TREEDEPTH
 70
  3020
  9
$CMLSTYLE
  2
Standard
  9
$CMLJUST
 70
     0
  9
$CMLSCALE
 40
1.0
  9
$PROXYGRAPHICS
 70
     1
  9
$MEASUREMENT
 70
     0
  9
$CELWEIGHT
370
    -1
  9
$ENDCAPS
280
     0
  9
$JOINSTYLE
280
     0
  9
$LWDISPLAY
290
     0
  9
$INSUNITS
 70
     1
  9
$HYPERLINKBASE
  1

  9
$STYLESHEET
  1

  9
$XEDIT
290
     1
  9
$CEPSNTYPE
380
     0
  9
$PSTYLEMODE
290
     1
  9
$FINGERPRINTGUID
  2
{5893340B-8AF4-465C-88BD-8F6C86E1AD06}
  9
$VERSIONGUID
  2
{3C4DE99C-98C2-40BF-B9A5-9278CB14D83E}
  9
$EXTNAMES
290
     1
  9
$PSVPSCALE
 40
0.0
  9
$OLESTARTUP
290
     0
  0
ENDSEC
  0
SECTION
  2
CLASSES
  0
CLASS
  1
ACDBDICTIONARYWDFLT
  2
AcDbDictionaryWithDefault
  3
ObjectDBX Classes
 90
        0
280
     0
281
     0
  0
CLASS
  1
ACDBPLACEHOLDER
  2
AcDbPlaceHolder
  3
ObjectDBX Classes
 90
        0
280
     0
281
     0
  0
CLASS
  1
LAYOUT
  2
AcDbLayout
  3
ObjectDBX Classes
 90
        0
280
     0
281
     0
  0
CLASS
  1
MATERIAL
  2
AcDbMaterial
  3
ObjectDBX Classes
 90
     1153
280
     0
281
     0
  0
CLASS
  1
VISUALSTYLE
  2
AcDbVisualStyle
  3
ObjectDBX Classes
 90
     4095
280
     0
281
     0
  0
CLASS
  1
TABLESTYLE
  2
AcDbTableStyle
  3
ObjectDBX Classes
 90
     4095
280
     0
281
     0
  0
CLASS
  1
SCALE
  2
AcDbScale
  3
ObjectDBX Classes
 90
     1153
280
     0
281
     0
  0
CLASS
  1
MLEADERSTYLE
  2
AcDbMLeaderStyle
  3
ACDB_MLEADERSTYLE_CLASS
 90
     4095
280
     0
281
     0
  0
CLASS
  1
CELLSTYLEMAP
  2
AcDbCellStyleMap
  3
ObjectDBX Classes
 90
     1152
280
     0
281
     0
  0
CLASS
  1
DICTIONARYVAR
  2
AcDbDictionaryVar
  3
ObjectDBX Classes
 90
        0
280
     0
281
     0
  0
ENDSEC
  0
SECTION
  2
TABLES
  0
TABLE
  2
VPORT
  5
8
102
{ACAD_XDICTIONARY
360
18CA
102
}
330
0
100
AcDbSymbolTable
 70
     1
  0
VPORT
  5
1F4
330
8
100
AcDbSymbolTableRecord
100
AcDbViewportTableRecord
  2
*ACTIVE
 70
     0
 10
0.0
 20
0.0
 11
1.0
 21
1.0
 12
61.02391423860123
 22
85.49483686205114
 13
0.0
 23
0.0
 14
1.0
 24
1.0
 15
0.0
 25
0.0
 16
0.0
 26
0.0
 36
1.0
 17
0.0
 27
0.0
 37
0.0
 40
156.5779678610295
 41
2.280385078219013
 42
50.0
 43
0.0
 44
0.0
 50
0.0
 51
0.0
 71
     0
 72
   100
 73
     1
 74
     1
 75
     0
 76
     0
 77
     0
 78
     0
281
     0
 65
     1
110
0.0
120
0.0
130
0.0
111
1.0
121
0.0
131
0.0
112
0.0
122
1.0
132
0.0
 79
     0
146
0.0
  0
ENDTAB
  0
TABLE
  2
LTYPE
  5
5
330
0
100
AcDbSymbolTable
 70
     6
  0
LTYPE
  5
14
330
5
100
AcDbSymbolTableRecord
100
AcDbLinetypeTableRecord
  2
BYBLOCK
 70
     0
  3

 72
    65
 73
     0
 40
0.0
  0
LTYPE
  5
15
330
5
100
AcDbSymbolTableRecord
100
AcDbLinetypeTableRecord
  2
BYLAYER
 70
     0
  3

 72
    65
 73
     0
 40
0.0
  0
LTYPE
  5
16
330
5
100
AcDbSymbolTableRecord
100
AcDbLinetypeTableRecord
  2
CONTINUOUS
 70
     0
  3
Solid line
 72
    65
 73
     0
 40
0.0
  0
LTYPE
  5
1F5
330
5
100
AcDbSymbolTableRecord
100
AcDbLinetypeTableRecord
  2
CENTER
 70
     0
  3
____ _ ____ _ ____ _ ____ _ ____ _ ____ _ ____
 72
    65
 73
     4
 40
0.6
 49
0.375
 74
     0
 49
-0.075
 74
     0
 49
0.075
 74
     0
 49
-0.075
 74
     0
  0
LTYPE
  5
1F6
330
5
100
AcDbSymbolTableRecord
100
AcDbLinetypeTableRecord
  2
HIDDEN
 70
     0
  3
- - - - - - - - - - - - - - - - - - - -
 72
    65
 73
     2
 40
0.2
 49
0.1
 74
     0
 49
-0.1
 74
     0
  0
LTYPE
  5
1F7
330
5
100
AcDbSymbolTableRecord
100
AcDbLinetypeTableRecord
  2
PHANTOM
 70
     0
  3
_____ _ _ _____ _ _ _____ _ _ _____
 72
    65
 73
     6
 40
0.8
 49
0.45
 74
     0
 49
-0.05
 74
     0
 49
0.1
 74
     0
 49
-0.05
 74
     0
 49
0.1
 74
     0
 49
-0.05
 74
     0
  0
LTYPE
  5
1F8
330
5
100
AcDbSymbolTableRecord
100
AcDbLinetypeTableRecord
  2
DOT
 70
     0
  3
. . . . . . . . . . . . . . . . . . . .
 72
    65
 73
     2
 40
0.2
 49
0.1
 74
     0
 49
-0.1
 74
     0
  0
LTYPE
  5
1F9
330
5
100
AcDbSymbolTableRecord
100
AcDbLinetypeTableRecord
  2
DASHED
 70
     0
  3
- - - - - - - - - - - - - - - - - - - -
 72
    65
 73
     2
 40
0.2
 49
0.1
 74
     0
 49
-0.1
 74
     0
  0
ENDTAB
  0
TABLE
  2
LAYER
  5
2
330
0
100
AcDbSymbolTable
 70
    31
  0
LAYER
  5
10
102
{ACAD_XDICTIONARY
360
190A
102
}
330
2
100
AcDbSymbolTableRecord
100
AcDbLayerTableRecord
  2
0
 70
     0
 62
     7
  6
CONTINUOUS
370
    -3
390
F
  0
LAYER
  5
1FA
102
{ACAD_XDICTIONARY
360
190C
102
}
330
2
100
AcDbSymbolTableRecord
100
AcDbLayerTableRecord
  2
DEFAULT_1
 70
     0
 62
     7
  6
CENTER
370
    -3
390
F
  0
LAYER
  5
1FB
102
{ACAD_XDICTIONARY
360
190E
102
}
330
2
100
AcDbSymbolTableRecord
100
AcDbLayerTableRecord
  2
DEFAULT_2
 70
     0
 62
     7
  6
HIDDEN
370
    -3
390
F
  0
LAYER
  5
1FC
102
{ACAD_XDICTIONARY
360
1910
102
}
330
2
100
AcDbSymbolTableRecord
100
AcDbLayerTableRecord
  2
DEFAULT_3
 70
     0
 62
     7
  6
PHANTOM
370
    -3
390
F
  0
LAYER
  5
1FD
102
{ACAD_XDICTIONARY
360
1912
102
}
330
2
100
AcDbSymbolTableRecord
100
AcDbLayerTableRecord
  2
1_CURVES
 70
     0
 62
     7
  6
CONTINUOUS
370
    -3
390
F
  0
LAYER
  5
1FE
102
{ACAD_XDICTIONARY
360
1914
102
}
330
2
100
AcDbSymbolTableRecord
100
AcDbLayerTableRecord
  2
1_CURVES-CONTOUR-REBORD
 70
     0
 62
     7
  6
CONTINUOUS
370
    -3
390
F
  0
LAYER
  5
1FF
102
{ACAD_XDICTIONARY
360
1916
102
}
330
2
100
AcDbSymbolTableRecord
100
AcDbLayerTableRecord
  2
1_CURVES-JETS
 70
     0
 62
     7
  6
CONTINUOUS
370
    -3
390
F
  0
LAYER
  5
200
102
{ACAD_XDICTIONARY
360
1918
102
}
330
2
100
AcDbSymbolTableRecord
100
AcDbLayerTableRecord
  2
1_CURVES-ROLL-EDGE
 70
     0
 62
     7
  6
CONTINUOUS
370
    -3
390
F
  0
LAYER
  5
201
102
{ACAD_XDICTIONARY
360
191A
102
}
330
2
100
AcDbSymbolTableRecord
100
AcDbLayerTableRecord
  2
1_CURVES-SPEC-FRONT
 70
     0
 62
     7
  6
CONTINUOUS
370
    -3
390
F
  0
LAYER
  5
202
102
{ACAD_XDICTIONARY
360
191C
102
}
330
2
100
AcDbSymbolTableRecord
100
AcDbLayerTableRecord
  2
2_PLANES
 70
     0
 62
     7
  6
CONTINUOUS
370
    -3
390
F
  0
LAYER
  5
203
102
{ACAD_XDICTIONARY
360
191E
102
}
330
2
100
AcDbSymbolTableRecord
100
AcDbLayerTableRecord
  2
3_POINTS
 70
     0
 62
     7
  6
CONTINUOUS
370
    -3
390
F
  0
LAYER
  5
204
102
{ACAD_XDICTIONARY
360
1920
102
}
330
2
100
AcDbSymbolTableRecord
100
AcDbLayerTableRecord
  2
3_POINTS-JETS
 70
     0
 62
     7
  6
CONTINUOUS
370
    -3
390
F
  0
LAYER
  5
205
102
{ACAD_XDICTIONARY
360
1922
102
}
330
2
100
AcDbSymbolTableRecord
100
AcDbLayerTableRecord
  2
4_CSYS
 70
     0
 62
     7
  6
CONTINUOUS
370
    -3
390
F
  0
LAYER
  5
206
102
{ACAD_XDICTIONARY
360
1924
102
}
330
2
100
AcDbSymbolTableRecord
100
AcDbLayerTableRecord
  2
5-AXIS-JETS
 70
     0
 62
     7
  6
CONTINUOUS
370
    -3
390
F
  0
LAYER
  5
207
102
{ACAD_XDICTIONARY
360
1926
102
}
330
2
100
AcDbSymbolTableRecord
100
AcDbLayerTableRecord
  2
5_AXIS
 70
     0
 62
     7
  6
CONTINUOUS
370
    -3
390
F
  0
LAYER
  5
208
102
{ACAD_XDICTIONARY
360
1928
102
}
330
2
100
AcDbSymbolTableRecord
100
AcDbLayerTableRecord
  2
6_COPIE-TOOLING
 70
     0
 62
     7
  6
CONTINUOUS
370
    -3
390
F
  0
LAYER
  5
209
102
{ACAD_XDICTIONARY
360
192A
102
}
330
2
100
AcDbSymbolTableRecord
100
AcDbLayerTableRecord
  2
6_SURFACE-OFFSET-FIBRE-ACRYLIQU
 70
     0
 62
     7
  6
CONTINUOUS
370
    -3
390
F
  0
LAYER
  5
20A
102
{ACAD_XDICTIONARY
360
192C
102
}
330
2
100
AcDbSymbolTableRecord
100
AcDbLayerTableRecord
  2
6_SURFACES
 70
     0
 62
     7
  6
CONTINUOUS
370
    -3
390
F
  0
LAYER
  5
20B
102
{ACAD_XDICTIONARY
360
192E
102
}
330
2
100
AcDbSymbolTableRecord
100
AcDbLayerTableRecord
  2
6_SURFACES-CELLA
 70
     0
 62
     7
  6
CONTINUOUS
370
    -3
390
F
  0
LAYER
  5
20C
102
{ACAD_XDICTIONARY
360
1930
102
}
330
2
100
AcDbSymbolTableRecord
100
AcDbLayerTableRecord
  2
6_SURFACES-PATINS-PR-CELLA
 70
     0
 62
     7
  6
CONTINUOUS
370
    -3
390
F
  0
LAYER
  5
20D
102
{ACAD_XDICTIONARY
360
1932
102
}
330
2
100
AcDbSymbolTableRecord
100
AcDbLayerTableRecord
  2
6_SURFACES-POUR-NAOS
 70
     0
 62
     7
  6
CONTINUOUS
370
    -3
390
F
  0
LAYER
  5
20E
102
{ACAD_XDICTIONARY
360
1934
102
}
330
2
100
AcDbSymbolTableRecord
100
AcDbLayerTableRecord
  2
6_SURFACES-TOOLING
 70
     0
 62
     7
  6
CONTINUOUS
370
    -3
390
F
  0
LAYER
  5
20F
102
{ACAD_XDICTIONARY
360
1936
102
}
330
2
100
AcDbSymbolTableRecord
100
AcDbLayerTableRecord
  2
6_SURFACES_TOOLING
 70
     0
 62
     7
  6
CONTINUOUS
370
    -3
390
F
  0
LAYER
  5
210
102
{ACAD_XDICTIONARY
360
1938
102
}
330
2
100
AcDbSymbolTableRecord
100
AcDbLayerTableRecord
  2
6_SURFACE_FLAT_EDGE
 70
     0
 62
     7
  6
CONTINUOUS
370
    -3
390
F
  0
LAYER
  5
211
102
{ACAD_XDICTIONARY
360
193A
102
}
330
2
100
AcDbSymbolTableRecord
100
AcDbLayerTableRecord
  2
6_SURFACE_ROLL_EDGE
 70
     0
 62
     7
  6
CONTINUOUS
370
    -3
390
F
  0
LAYER
  5
212
102
{ACAD_XDICTIONARY
360
193C
102
}
330
2
100
AcDbSymbolTableRecord
100
AcDbLayerTableRecord
  2
7_NOTES
 70
     0
 62
     7
  6
CONTINUOUS
370
    -3
390
F
  0
LAYER
  5
213
102
{ACAD_XDICTIONARY
360
193E
102
}
330
2
100
AcDbSymbolTableRecord
100
AcDbLayerTableRecord
  2
8_COSMETIC
 70
     0
 62
     7
  6
CONTINUOUS
370
    -3
390
F
  0
LAYER
  5
214
102
{ACAD_XDICTIONARY
360
1940
102
}
330
2
100
AcDbSymbolTableRecord
100
AcDbLayerTableRecord
  2
8_ZONE-ROBINETERIE
 70
     0
 62
     7
  6
CONTINUOUS
370
    -3
390
F
  0
LAYER
  5
215
102
{ACAD_XDICTIONARY
360
1942
102
}
330
2
100
AcDbSymbolTableRecord
100
AcDbLayerTableRecord
  2
8_ZONES_PLACAGE_FRONT
 70
     0
 62
     7
  6
CONTINUOUS
370
    -3
390
F
  0
LAYER
  5
216
102
{ACAD_XDICTIONARY
360
1944
102
}
330
2
100
AcDbSymbolTableRecord
100
AcDbLayerTableRecord
  2
8_ZONE_PLACAGE_TOP
 70
     0
 62
     7
  6
CONTINUOUS
370
    -3
390
F
  0
LAYER
  5
217
102
{ACAD_XDICTIONARY
360
1946
102
}
330
2
100
AcDbSymbolTableRecord
100
AcDbLayerTableRecord
  2
XSEC_DATUMS
 70
     0
 62
     7
  6
CONTINUOUS
370
    -3
390
F
  0
ENDTAB
  0
TABLE
  2
STYLE
  5
3
330
0
100
AcDbSymbolTable
 70
     8
  0
STYLE
  5
11
330
3
100
AcDbSymbolTableRecord
100
AcDbTextStyleTableRecord
  2
STANDARD
 70
     0
 40
0.0
 41
0.8
 50
0.0
 71
     0
 42
0.2
  3
txt
  4

  0
STYLE
  5
218
330
3
100
AcDbSymbolTableRecord
100
AcDbTextStyleTableRecord
  2
TEXTSTYLE_1
 70
     0
 40
0.0
 41
0.8
 50
0.0
 71
     0
 42
0.2
  3
gdt
  4

  0
STYLE
  5
219
330
3
100
AcDbSymbolTableRecord
100
AcDbTextStyleTableRecord
  2
TEXTSTYLE_2
 70
     0
 40
0.0
 41
1.0
 50
0.0
 71
     0
 42
0.2
  3
trium.ttf
  4

  0
STYLE
  5
21A
330
3
100
AcDbSymbolTableRecord
100
AcDbTextStyleTableRecord
  2
TEXTSTYLE_3
 70
     0
 40
0.0
 41
1.0
 50
0.0
 71
     0
 42
0.2
  3
trium.ttf
  4

  0
STYLE
  5
21B
330
3
100
AcDbSymbolTableRecord
100
AcDbTextStyleTableRecord
  2
TEXTSTYLE_4
 70
     0
 40
0.0
 41
1.0
 50
0.0
 71
     0
 42
0.2
  3
txt_____.ttf
  4

1001
ACAD
1000
txt
1071
        2
  0
STYLE
  5
21C
330
3
100
AcDbSymbolTableRecord
100
AcDbTextStyleTableRecord
  2
TEXTSTYLE_5
 70
     0
 40
0.0
 41
1.0
 50
0.0
 71
     0
 42
0.2
  3
txt_____.ttf
  4

1001
ACAD
1000
txt
1071
        2
  0
STYLE
  5
21D
330
3
100
AcDbSymbolTableRecord
100
AcDbTextStyleTableRecord
  2
TEXTSTYLE_6
 70
     0
 40
0.0
 41
1.0
 50
0.0
 71
     0
 42
0.2
  3
trium.ttf
  4

  0
STYLE
  5
21E
330
3
100
AcDbSymbolTableRecord
100
AcDbTextStyleTableRecord
  2
TEXTSTYLE_7
 70
     0
 40
0.0
 41
0.8
 50
0.0
 71
     0
 42
0.2
  3
txt_____.ttf
  4

1001
ACAD
1000
txt
1071
        2
  0
ENDTAB
  0
TABLE
  2
VIEW
  5
6
330
0
100
AcDbSymbolTable
 70
     0
  0
ENDTAB
  0
TABLE
  2
UCS
  5
7
330
0
100
AcDbSymbolTable
 70
     0
  0
ENDTAB
  0
TABLE
  2
APPID
  5
9
330
0
100
AcDbSymbolTable
 70
     2
  0
APPID
  5
21F
330
9
100
AcDbSymbolTableRecord
100
AcDbRegAppTableRecord
  2
ACAD
 70
     0
  0
APPID
  5
18FA
330
9
100
AcDbSymbolTableRecord
100
AcDbRegAppTableRecord
  2
ACAD_MLEADERVER
 70
     0
  0
ENDTAB
  0
TABLE
  2
DIMSTYLE
  5
A
330
0
100
AcDbSymbolTable
 70
     5
100
AcDbDimStyleTable
 71
     0
  0
DIMSTYLE
105
240
330
A
100
AcDbSymbolTableRecord
100
AcDbDimStyleTableRecord
  2
STANDARD
 70
     0
 41
2.0
 44
0.125
 47
0.00001
 48
0.00001
 78
     4
140
1.333333333299999
271
     5
272
     5
284
     4
340
11
341
222
342
222
343
222
344
222
  0
DIMSTYLE
105
241
330
A
100
AcDbSymbolTableRecord
100
AcDbDimStyleTableRecord
  2
DIMSTYLE_1
 70
     0
 41
2.0
 44
0.125
 78
     4
140
1.333333333299999
147
0.0625
271
     3
272
     3
284
     4
340
11
341
222
342
222
343
222
344
222
  0
DIMSTYLE
105
242
330
A
100
AcDbSymbolTableRecord
100
AcDbDimStyleTableRecord
  2
DIMSTYLE_2
 70
     0
 41
2.0
 44
0.125
 78
     4
140
1.333333333299999
271
     0
272
     0
284
     4
340
11
341
222
342
222
343
222
344
222
  0
DIMSTYLE
105
243
330
A
100
AcDbSymbolTableRecord
100
AcDbDimStyleTableRecord
  2
DIMSTYLE_3
 70
     0
 41
2.0
 44
0.125
 78
     4
140
1.333333333299999
147
0.0625
271
     6
272
     6
284
     4
340
11
341
222
342
222
343
222
344
222
  0
DIMSTYLE
105
244
330
A
100
AcDbSymbolTableRecord
100
AcDbDimStyleTableRecord
  2
DIMSTYLE_4
 70
     0
 41
2.0
 44
0.125
 78
     4
140
1.333333333299999
271
     3
272
     3
284
     4
340
11
341
222
342
222
343
222
344
222
  0
ENDTAB
  0
TABLE
  2
BLOCK_RECORD
  5
1
330
0
100
AcDbSymbolTable
 70
    30
  0
BLOCK_RECORD
  5
220
330
1
100
AcDbSymbolTableRecord
100
AcDbBlockTableRecord
  2
*Model_Space
340
186C
  0
BLOCK_RECORD
  5
221
330
1
100
AcDbSymbolTableRecord
100
AcDbBlockTableRecord
  2
*Paper_Space
340
186D
  0
BLOCK_RECORD
  5
222
330
1
100
AcDbSymbolTableRecord
100
AcDbBlockTableRecord
  2
_FILLED
340
0
102
{BLKREFS
331
325
331
326
331
32E
331
32F
331
337
331
338
331
351
331
352
331
35B
331
35C
331
364
331
365
331
36D
331
36E
331
376
331
377
331
37F
331
380
331
388
331
389
331
391
331
392
331
39B
331
39C
331
3A5
331
3A6
331
3AF
331
3B0
331
3B8
331
3B9
331
3C1
331
3C2
331
3CB
331
3CC
331
3D5
331
3D6
331
3DF
331
3E0
331
3E8
331
3E9
102
}
  0
BLOCK_RECORD
  5
23C
330
1
100
AcDbSymbolTableRecord
100
AcDbBlockTableRecord
  2
SYMBOL_4_BL3
340
0
  0
BLOCK_RECORD
  5
23D
330
1
100
AcDbSymbolTableRecord
100
AcDbBlockTableRecord
  2
SYMBOL_3_BL2
340
0
  0
BLOCK_RECORD
  5
23E
330
1
100
AcDbSymbolTableRecord
100
AcDbBlockTableRecord
  2
SYMBOL_7_BL1
340
0
  0
BLOCK_RECORD
  5
23F
330
1
100
AcDbSymbolTableRecord
100
AcDbBlockTableRecord
  2
SYMBOL_0_BL0
340
0
  0
ENDTAB
  0
ENDSEC
  0
SECTION
  2
BLOCKS
  0
BLOCK
  5
20
330
220
100
AcDbEntity
  8
0
100
AcDbBlockBegin
  2
*Model_Space
 70
     0
 10
0.0
 20
0.0
 30
0.0
  3
*Model_Space
  1

  0
ENDBLK
  5
21
330
220
100
AcDbEntity
  8
0
100
AcDbBlockEnd
  0
BLOCK
  5
1C
330
221
100
AcDbEntity
 67
     1
  8
0
100
AcDbBlockBegin
  2
*Paper_Space
 70
     0
 10
0.0
 20
0.0
 30
0.0
  3
*Paper_Space
  1

  0
ENDBLK
  5
1D
330
221
100
AcDbEntity
 67
     1
  8
0
100
AcDbBlockEnd
  0
BLOCK
  5
31C
330
222
100
AcDbEntity
  8
0
100
AcDbBlockBegin
  2
_FILLED
 70
     0
 10
0.0
 20
0.0
 30
0.0
  3
_FILLED
  1

  0
SOLID
  5
31D
330
222
100
AcDbEntity
  8
0
  6
ByBlock
 62
     0
100
AcDbTrace
 10
0.0
 20
0.0
 30
0.0
 11
-1.0
 21
0.1666666667
 31
0.0
 12
-1.0
 22
-0.1666666667
 32
0.0
 13
-1.0
 23
-0.1666666667
 33
0.0
  0
ENDBLK
  5
31E
330
222
100
AcDbEntity
  8
0
  6
ByBlock
 62
     0
100
AcDbBlockEnd
  0
BLOCK
  5
245
330
23C
100
AcDbEntity
  8
0
  6
Continuous
 62
     7
100
AcDbBlockBegin
  2
SYMBOL_4_BL3
 70
     0
 10
67.6852712302
 20
73.0158827716
 30
0.0
  3
SYMBOL_4_BL3
  1

  0
TEXT
  5
246
330
23C
100
AcDbEntity
  8
0
  6
Continuous
 62
     7
100
AcDbText
 10
67.26206440760001
 20
72.2517063673
 30
0.0
 40
1.333333852099999
  1
L
 50
10.0
  7
TEXTSTYLE_2
100
AcDbText
  0
TEXT
  5
247
330
23C
100
AcDbEntity
  8
0
  6
Continuous
 62
     7
100
AcDbText
 10
63.1279537757
 20
71.5353534067
 30
0.0
 40
1.333333852099999
  1
16
 50
10.0
  7
TEXTSTYLE_2
100
AcDbText
  0
TEXT
  5
248
330
23C
100
AcDbEntity
  8
0
  6
Continuous
 62
     7
100
AcDbText
 10
70.46073415550001
 20
72.82832043129999
 30
0.0
 40
1.333333852099999
  1
15
 50
10.0
  7
TEXTSTYLE_2
100
AcDbText
  0
ELLIPSE
  5
249
330
23C
100
AcDbEntity
  8
0
  6
Continuous
 62
     7
100
AcDbEllipse
 10
67.66666666669999
 20
73.0
 30
0.0
 11
-1.913370740099999
 21
-0.3373788856
 31
0.0
210
0.0
220
0.0
230
1.0
 40
0.6606458385
 41
0.0
 42
6.283185307179586
  0
ENDBLK
  5
24A
330
23C
100
AcDbEntity
  8
0
  6
ByBlock
 62
     0
100
AcDbBlockEnd
  0
BLOCK
  5
24B
330
23D
100
AcDbEntity
  8
0
  6
Continuous
 62
     7
100
AcDbBlockBegin
  2
SYMBOL_3_BL2
 70
     0
 10
44.6852712302
 20
95.01588277160001
 30
0.0
  3
SYMBOL_3_BL2
  1

  0
TEXT
  5
24C
330
23D
100
AcDbEntity
  8
0
  6
Continuous
 62
     7
100
AcDbText
 10
44.2620644076
 20
94.25170636729999
 30
0.0
 40
1.333333852099999
  1
L
 50
10.0
  7
TEXTSTYLE_2
100
AcDbText
  0
TEXT
  5
24D
330
23D
100
AcDbEntity
  8
0
  6
Continuous
 62
     7
100
AcDbText
 10
40.6313001564
 20
93.6241069543
 30
0.0
 40
1.333333852099999
  1
5
 50
10.0
  7
TEXTSTYLE_2
100
AcDbText
  0
TEXT
  5
24E
330
23D
100
AcDbEntity
  8
0
  6
Continuous
 62
     7
100
AcDbText
 10
47.9640805362
 20
94.91707397889999
 30
0.0
 40
1.333333852099999
  1
4
 50
10.0
  7
TEXTSTYLE_2
100
AcDbText
  0
ELLIPSE
  5
24F
330
23D
100
AcDbEntity
  8
0
  6
Continuous
 62
     7
100
AcDbEllipse
 10
44.6666666667
 20
95.0
 30
0.0
 11
-1.913370740099999
 21
-0.3373788856
 31
0.0
210
0.0
220
0.0
230
1.0
 40
0.6606458385
 41
0.0
 42
6.283185307179586
  0
ENDBLK
  5
250
330
23D
100
AcDbEntity
  8
0
  6
ByBlock
 62
     0
100
AcDbBlockEnd
  0
BLOCK
  5
251
330
23E
100
AcDbEntity
  8
0
  6
Continuous
 62
     7
100
AcDbBlockBegin
  2
SYMBOL_7_BL1
 70
     0
 10
129.4781412034
 20
55.8631248321
 30
0.0
  3
SYMBOL_7_BL1
  1

  0
TEXT
  5
252
330
23E
100
AcDbEntity
  8
0
  6
Continuous
 62
     7
100
AcDbText
 10
122.7002863559
 20
57.90613537189999
 30
0.0
 40
1.1626666667
  1
INTERNAL USE 
 50
10.0
 41
0.9102564103
  7
TEXTSTYLE_4
100
AcDbText
  0
TEXT
  5
253
330
23E
100
AcDbEntity
  8
0
  6
Continuous
 62
     7
100
AcDbText
 10
122.1277847822
 20
56.05504226459999
 30
0.0
 40
1.1626666667
  1
DOCUMENT ONLY
 50
10.0
 41
0.9871794872
  7
TEXTSTYLE_4
100
AcDbText
  0
TEXT
  5
254
330
23E
100
AcDbEntity
  8
0
  6
Continuous
 62
     7
100
AcDbText
 10
128.2051242609
 20
55.8582095896
 30
0.0
 40
1.1626666667
  1
 
 50
10.0
  7
TEXTSTYLE_5
100
AcDbText
  0
TEXT
  5
255
330
23E
100
AcDbEntity
  8
0
  6
Continuous
 62
     7
100
AcDbText
 10
119.3491233953
 20
51.6085825539
 30
0.0
 40
1.1626666667
  1
DOCUMENT POUR USAGE
 50
10.0
 41
0.9736842104999999
  7
TEXTSTYLE_4
100
AcDbText
  0
TEXT
  5
256
330
23E
100
AcDbEntity
  8
0
  6
Continuous
 62
     7
100
AcDbText
 10
119.3776421464
 20
49.84270716800001
 30
0.0
 40
1.1626666667
  1
A L'INTERNE SEULEMENT
 50
10.0
 41
0.9037698412999999
  7
TEXTSTYLE_4
100
AcDbText
  0
LINE
  5
257
330
23E
100
AcDbEntity
  8
0
  6
Continuous
 62
     7
100
AcDbLine
 10
143.3346929267
 20
51.5195912141
 30
0.0
 11
143.3414518594
 21
51.5263501467
 31
0.0
  0
LINE
  5
258
330
23E
100
AcDbEntity
  8
0
  6
Continuous
 62
     7
100
AcDbLine
 10
142.6021233603
 20
51.3904194343
 30
0.0
 11
143.2510048054
 21
52.03930087939999
 31
0.0
  0
LINE
  5
259
330
23E
100
AcDbEntity
  8
0
  6
Continuous
 62
     7
100
AcDbLine
 10
141.8695537939
 20
51.2612476545
 30
0.0
 11
143.1605577515
 21
52.5522516121
 31
0.0
  0
LINE
  5
25A
330
23E
100
AcDbEntity
  8
0
  6
Continuous
 62
     7
100
AcDbLine
 10
141.1369842275
 20
51.1320758747
 30
0.0
 11
143.0701106976
 21
53.0652023447
 31
0.0
  0
LINE
  5
25B
330
23E
100
AcDbEntity
  8
0
  6
Continuous
 62
     7
100
AcDbLine
 10
140.4044146611
 20
51.0029040949
 30
0.0
 11
142.9796636436
 21
53.5781530774
 31
0.0
  0
LINE
  5
25C
330
23E
100
AcDbEntity
  8
0
  6
Continuous
 62
     7
100
AcDbLine
 10
139.6718450946
 20
50.87373231499999
 30
0.0
 11
141.2128489094
 21
52.4147361298
 31
0.0
  0
LINE
  5
25D
330
23E
100
AcDbEntity
  8
0
  6
Continuous
 62
     7
100
AcDbLine
 10
141.8101941022
 20
53.01208132260001
 30
0.0
 11
142.8892165897
 21
54.0911038101
 31
0.0
  0
LINE
  5
25E
330
23E
100
AcDbEntity
  8
0
  6
Continuous
 62
     7
100
AcDbLine
 10
138.9392755282
 20
50.7445605352
 30
0.0
 11
140.480279343
 21
52.28556435
 31
0.0
  0
LINE
  5
25F
330
23E
100
AcDbEntity
  8
0
  6
Continuous
 62
     7
100
AcDbLine
 10
141.7197470482
 20
53.52503205520001
 30
0.0
 11
142.7987695357
 21
54.6040545427
 31
0.0
  0
LINE
  5
260
330
23E
100
AcDbEntity
  8
0
  6
Continuous
 62
     7
100
AcDbLine
 10
138.2067059618
 20
50.6153887554
 30
0.0
 11
139.7477097766
 21
52.15639257020001
 31
0.0
  0
LINE
  5
261
330
23E
100
AcDbEntity
  8
0
  6
Continuous
 62
     7
100
AcDbLine
 10
141.6292999943
 20
54.0379827879
 30
0.0
 11
142.7083224818
 21
55.1170052754
 31
0.0
  0
LINE
  5
262
330
23E
100
AcDbEntity
  8
0
  6
Continuous
 62
     7
100
AcDbLine
 10
137.4741363954
 20
50.4862169756
 30
0.0
 11
139.0151402102
 21
52.0272207904
 31
0.0
  0
LINE
  5
263
330
23E
100
AcDbEntity
  8
0
  6
Continuous
 62
     7
100
AcDbLine
 10
141.5388529403
 20
54.5509335206
 30
0.0
 11
142.6178754278
 21
55.6299560081
 31
0.0
  0
LINE
  5
264
330
23E
100
AcDbEntity
  8
0
  6
Continuous
 62
     7
100
AcDbLine
 10
136.741566829
 20
50.3570451958
 30
0.0
 11
138.2825706438
 21
51.8980490106
 31
0.0
  0
LINE
  5
265
330
23E
100
AcDbEntity
  8
0
  6
Continuous
 62
     7
100
AcDbLine
 10
141.4484058864
 20
55.06388425319999
 30
0.0
 11
142.5274283739
 21
56.1429067407
 31
0.0
  0
LINE
  5
266
330
23E
100
AcDbEntity
  8
0
  6
Continuous
 62
     7
100
AcDbLine
 10
136.0089972626
 20
50.227873416
 30
0.0
 11
137.5500010772999
 21
51.7688772308
 31
0.0
  0
LINE
  5
267
330
23E
100
AcDbEntity
  8
0
  6
Continuous
 62
     7
100
AcDbLine
 10
141.3579588324
 20
55.5768349859
 30
0.0
 11
142.4369813199
 21
56.6558574734
 31
0.0
  0
LINE
  5
268
330
23E
100
AcDbEntity
  8
0
  6
Continuous
 62
     7
100
AcDbLine
 10
135.2764276961
 20
50.0987016362
 30
0.0
 11
136.8174315109
 21
51.639705451
 31
0.0
  0
LINE
  5
269
330
23E
100
AcDbEntity
  8
0
  6
Continuous
 62
     7
100
AcDbLine
 10
141.2675117785
 20
56.08978571859999
 30
0.0
 11
142.346534266
 21
57.1688082061
 31
0.0
  0
LINE
  5
26A
330
23E
100
AcDbEntity
  8
0
  6
Continuous
 62
     7
100
AcDbLine
 10
134.5438581297
 20
49.9695298564
 30
0.0
 11
136.0848619445
 21
51.5105336712
 31
0.0
  0
LINE
  5
26B
330
23E
100
AcDbEntity
  8
0
  6
Continuous
 62
     7
100
AcDbLine
 10
141.1770647245
 20
56.6027364512
 30
0.0
 11
142.2560872121
 21
57.6817589387
 31
0.0
  0
LINE
  5
26C
330
23E
100
AcDbEntity
  8
0
  6
Continuous
 62
     7
100
AcDbLine
 10
133.8112885633
 20
49.84035807659999
 30
0.0
 11
135.3522923781
 21
51.3813618914
 31
0.0
  0
LINE
  5
26D
330
23E
100
AcDbEntity
  8
0
  6
Continuous
 62
     7
100
AcDbLine
 10
141.0866176706
 20
57.1156871839
 30
0.0
 11
142.1656401581
 21
58.1947096714
 31
0.0
  0
LINE
  5
26E
330
23E
100
AcDbEntity
  8
0
  6
Continuous
 62
     7
100
AcDbLine
 10
133.0787189969
 20
49.7111862968
 30
0.0
 11
134.6197228117
 21
51.2521901116
 31
0.0
  0
LINE
  5
26F
330
23E
100
AcDbEntity
  8
0
  6
Continuous
 62
     7
100
AcDbLine
 10
140.7837380708
 20
57.4162053707
 30
0.0
 11
142.0751931042
 21
58.7076604041
 31
0.0
  0
LINE
  5
270
330
23E
100
AcDbEntity
  8
0
  6
Continuous
 62
     7
100
AcDbLine
 10
132.3461494305
 20
49.58201451699999
 30
0.0
 11
133.8871532452
 21
51.1230183318
 31
0.0
  0
LINE
  5
271
330
23E
100
AcDbEntity
  8
0
  6
Continuous
 62
     7
100
AcDbLine
 10
140.0511685044
 20
57.2870335909
 30
0.0
 11
141.9847460502
 21
59.2206111368
 31
0.0
  0
LINE
  5
272
330
23E
100
AcDbEntity
  8
0
  6
Continuous
 62
     7
100
AcDbLine
 10
131.6135798641
 20
49.4528427372
 30
0.0
 11
133.1545836787999
 21
50.993846552
 31
0.0
  0
LINE
  5
273
330
23E
100
AcDbEntity
  8
0
  6
Continuous
 62
     7
100
AcDbLine
 10
139.3185989379
 20
57.1578618111
 30
0.0
 11
140.3459412362
 21
58.1852041093
 31
0.0
  0
LINE
  5
274
330
23E
100
AcDbEntity
  8
0
  6
Continuous
 62
     7
100
AcDbLine
 10
140.8152765088
 20
58.65453938189999
 30
0.0
 11
141.8942989963
 21
59.7335618694
 31
0.0
  0
LINE
  5
275
330
23E
100
AcDbEntity
  8
0
  6
Continuous
 62
     7
100
AcDbLine
 10
130.8810102976
 20
49.3236709574
 30
0.0
 11
132.4220141124
 21
50.86467477220001
 31
0.0
  0
LINE
  5
276
330
23E
100
AcDbEntity
  8
0
  6
Continuous
 62
     7
100
AcDbLine
 10
138.5860293715
 20
57.0286900313
 30
0.0
 11
139.6133714602
 21
58.0560321199
 31
0.0
  0
LINE
  5
277
330
23E
100
AcDbEntity
  8
0
  6
Continuous
 62
     7
100
AcDbLine
 10
140.7248294548
 20
59.1674901146
 30
0.0
 11
141.8038519423
 21
60.24651260209999
 31
0.0
  0
LINE
  5
278
330
23E
100
AcDbEntity
  8
0
  6
Continuous
 62
     7
100
AcDbLine
 10
130.1484407312
 20
49.1944991776
 30
0.0
 11
131.689444546
 21
50.7355029924
 31
0.0
  0
LINE
  5
279
330
23E
100
AcDbEntity
  8
0
  6
Continuous
 62
     7
100
AcDbLine
 10
137.8534598051
 20
56.8995182515
 30
0.0
 11
138.8808016841
 21
57.9268601305
 31
0.0
  0
LINE
  5
27A
330
23E
100
AcDbEntity
  8
0
  6
Continuous
 62
     7
100
AcDbLine
 10
140.6343824009
 20
59.6804408472
 30
0.0
 11
141.7134048884
 21
60.7594633348
 31
0.0
  0
LINE
  5
27B
330
23E
100
AcDbEntity
  8
0
  6
Continuous
 62
     7
100
AcDbLine
 10
129.4158711648
 20
49.0653273978
 30
0.0
 11
130.9568749796
 21
50.6063312126
 31
0.0
  0
LINE
  5
27C
330
23E
100
AcDbEntity
  8
0
  6
Continuous
 62
     7
100
AcDbLine
 10
137.1208902387
 20
56.7703464717
 30
0.0
 11
138.1482319081
 21
57.79768814109999
 31
0.0
  0
LINE
  5
27D
330
23E
100
AcDbEntity
  8
0
  6
Continuous
 62
     7
100
AcDbLine
 10
140.5439353469
 20
60.1933915799
 30
0.0
 11
141.6229578345
 21
61.2724140674
 31
0.0
  0
LINE
  5
27E
330
23E
100
AcDbEntity
  8
0
  6
Continuous
 62
     7
100
AcDbLine
 10
128.6833015984
 20
48.936155618
 30
0.0
 11
130.2243054132
 21
50.4771594327
 31
0.0
  0
LINE
  5
27F
330
23E
100
AcDbEntity
  8
0
  6
Continuous
 62
     7
100
AcDbLine
 10
136.3883206723
 20
56.64117469189999
 30
0.0
 11
137.4156621321
 21
57.66851615170001
 31
0.0
  0
LINE
  5
280
330
23E
100
AcDbEntity
  8
0
  6
Continuous
 62
     7
100
AcDbLine
 10
140.453488293
 20
60.7063423126
 30
0.0
 11
141.5325107805
 21
61.7853648001
 31
0.0
  0
LINE
  5
281
330
23E
100
AcDbEntity
  8
0
  6
Continuous
 62
     7
100
AcDbLine
 10
127.950732032
 20
48.8069838382
 30
0.0
 11
129.4917358467
 21
50.3479876529
 31
0.0
  0
LINE
  5
282
330
23E
100
AcDbEntity
  8
0
  6
Continuous
 62
     7
100
AcDbLine
 10
135.6557511058
 20
56.512002912
 30
0.0
 11
136.6830923561
 21
57.53934416229999
 31
0.0
  0
LINE
  5
283
330
23E
100
AcDbEntity
  8
0
  6
Continuous
 62
     7
100
AcDbLine
 10
140.3630412391
 20
61.2192930453
 30
0.0
 11
141.4420637266
 21
62.2983155328
 31
0.0
  0
LINE
  5
284
330
23E
100
AcDbEntity
  8
0
  6
Continuous
 62
     7
100
AcDbLine
 10
127.2181624655
 20
48.6778120584
 30
0.0
 11
128.7591662803
 21
50.21881587310001
 31
0.0
  0
LINE
  5
285
330
23E
100
AcDbEntity
  8
0
  6
Continuous
 62
     7
100
AcDbLine
 10
134.9231815394
 20
56.3828311322
 30
0.0
 11
135.95052258
 21
57.41017217279999
 31
0.0
  0
LINE
  5
286
330
23E
100
AcDbEntity
  8
0
  6
Continuous
 62
     7
100
AcDbLine
 10
140.2725941851
 20
61.7322437779
 30
0.0
 11
141.3516166726
 21
62.8112662654
 31
0.0
  0
LINE
  5
287
330
23E
100
AcDbEntity
  8
0
  6
Continuous
 62
     7
100
AcDbLine
 10
126.4855928991
 20
48.54864027859999
 30
0.0
 11
128.0265967139
 21
50.0896440933
 31
0.0
  0
LINE
  5
288
330
23E
100
AcDbEntity
  8
0
  6
Continuous
 62
     7
100
AcDbLine
 10
134.190611973
 20
56.2536593524
 30
0.0
 11
135.217952804
 21
57.28100018340001
 31
0.0
  0
LINE
  5
289
330
23E
100
AcDbEntity
  8
0
  6
Continuous
 62
     7
100
AcDbLine
 10
140.1821471312
 20
62.2451945106
 30
0.0
 11
141.2611696187
 21
63.32421699810001
 31
0.0
  0
LINE
  5
28A
330
23E
100
AcDbEntity
  8
0
  6
Continuous
 62
     7
100
AcDbLine
 10
125.7530233327
 20
48.4194684987
 30
0.0
 11
127.2940271475
 21
49.96047231350001
 31
0.0
  0
LINE
  5
28B
330
23E
100
AcDbEntity
  8
0
  6
Continuous
 62
     7
100
AcDbLine
 10
133.4580424066
 20
56.12448757260001
 30
0.0
 11
134.485383028
 21
57.15182819399999
 31
0.0
  0
LINE
  5
28C
330
23E
100
AcDbEntity
  8
0
  6
Continuous
 62
     7
100
AcDbLine
 10
140.0917000772
 20
62.7581452433
 30
0.0
 11
141.1707225647
 21
63.83716773079999
 31
0.0
  0
LINE
  5
28D
330
23E
100
AcDbEntity
  8
0
  6
Continuous
 62
     7
100
AcDbLine
 10
125.0204537663
 20
48.2902967189
 30
0.0
 11
126.5614575811
 21
49.8313005337
 31
0.0
  0
LINE
  5
28E
330
23E
100
AcDbEntity
  8
0
  6
Continuous
 62
     7
100
AcDbLine
 10
132.7254728402
 20
55.9953157928
 30
0.0
 11
133.7528132519
 21
57.0226562046
 31
0.0
  0
LINE
  5
28F
330
23E
100
AcDbEntity
  8
0
  6
Continuous
 62
     7
100
AcDbLine
 10
139.9168239758
 20
63.1866669285
 30
0.0
 11
141.0802755108
 21
64.35011846340001
 31
0.0
  0
LINE
  5
290
330
23E
100
AcDbEntity
  8
0
  6
Continuous
 62
     7
100
AcDbLine
 10
124.2878841999
 20
48.1611249391
 30
0.0
 11
125.8288880147
 21
49.7021287539
 31
0.0
  0
LINE
  5
291
330
23E
100
AcDbEntity
  8
0
  6
Continuous
 62
     7
100
AcDbLine
 10
131.9929032737999
 20
55.866144013
 30
0.0
 11
133.0202434759
 21
56.8934842152
 31
0.0
  0
LINE
  5
292
330
23E
100
AcDbEntity
  8
0
  6
Continuous
 62
     7
100
AcDbLine
 10
139.1842544094
 20
63.0574951486
 30
0.0
 11
140.7252582242
 21
64.5984989634
 31
0.0
  0
LINE
  5
293
330
23E
100
AcDbEntity
  8
0
  6
Continuous
 62
     7
100
AcDbLine
 10
123.5553146335
 20
48.0319531593
 30
0.0
 11
125.0963184482
 21
49.5729569741
 31
0.0
  0
LINE
  5
294
330
23E
100
AcDbEntity
  8
0
  6
Continuous
 62
     7
100
AcDbLine
 10
131.2603337073
 20
55.73697223319999
 30
0.0
 11
132.2876736999
 21
56.76431222579999
 31
0.0
  0
LINE
  5
295
330
23E
100
AcDbEntity
  8
0
  6
Continuous
 62
     7
100
AcDbLine
 10
138.451684843
 20
62.9283233688
 30
0.0
 11
139.9926886577
 21
64.4693271836
 31
0.0
  0
LINE
  5
296
330
23E
100
AcDbEntity
  8
0
  6
Continuous
 62
     7
100
AcDbLine
 10
122.822745067
 20
47.90278137949999
 30
0.0
 11
124.3637488818
 21
49.4437851943
 31
0.0
  0
LINE
  5
297
330
23E
100
AcDbEntity
  8
0
  6
Continuous
 62
     7
100
AcDbLine
 10
130.5277641409
 20
55.6078004534
 30
0.0
 11
131.5551039239
 21
56.6351402363
 31
0.0
  0
LINE
  5
298
330
23E
100
AcDbEntity
  8
0
  6
Continuous
 62
     7
100
AcDbLine
 10
137.7191152765
 20
62.79915158899999
 30
0.0
 11
139.2601190913
 21
64.34015540379999
 31
0.0
  0
LINE
  5
299
330
23E
100
AcDbEntity
  8
0
  6
Continuous
 62
     7
100
AcDbLine
 10
122.0901755006
 20
47.7736095997
 30
0.0
 11
123.6311793154
 21
49.31461341449999
 31
0.0
  0
LINE
  5
29A
330
23E
100
AcDbEntity
  8
0
  6
Continuous
 62
     7
100
AcDbLine
 10
129.7951945745
 20
55.4786286736
 30
0.0
 11
130.8225341478
 21
56.5059682469
 31
0.0
  0
LINE
  5
29B
330
23E
100
AcDbEntity
  8
0
  6
Continuous
 62
     7
100
AcDbLine
 10
136.9865457101
 20
62.6699798092
 30
0.0
 11
138.5275495249
 21
64.21098362399999
 31
0.0
  0
LINE
  5
29C
330
23E
100
AcDbEntity
  8
0
  6
Continuous
 62
     7
100
AcDbLine
 10
121.3576059342
 20
47.64443781989999
 30
0.0
 11
122.898609749
 21
49.1854416347
 31
0.0
  0
LINE
  5
29D
330
23E
100
AcDbEntity
  8
0
  6
Continuous
 62
     7
100
AcDbLine
 10
129.0626250081
 20
55.3494568938
 30
0.0
 11
130.0899643718
 21
56.37679625749999
 31
0.0
  0
LINE
  5
29E
330
23E
100
AcDbEntity
  8
0
  6
Continuous
 62
     7
100
AcDbLine
 10
136.2539761437
 20
62.54080802939999
 30
0.0
 11
137.7949799585
 21
64.0818118442
 31
0.0
  0
LINE
  5
29F
330
23E
100
AcDbEntity
  8
0
  6
Continuous
 62
     7
100
AcDbLine
 10
120.6250363678
 20
47.5152660401
 30
0.0
 11
122.1660401826
 21
49.05626985489999
 31
0.0
  0
LINE
  5
2A0
330
23E
100
AcDbEntity
  8
0
  6
Continuous
 62
     7
100
AcDbLine
 10
128.3300554417
 20
55.220285114
 30
0.0
 11
129.3573945958
 21
56.24762426810001
 31
0.0
  0
LINE
  5
2A1
330
23E
100
AcDbEntity
  8
0
  6
Continuous
 62
     7
100
AcDbLine
 10
135.5214065773
 20
62.4116362496
 30
0.0
 11
137.0624103921
 21
63.95264006439999
 31
0.0
  0
LINE
  5
2A2
330
23E
100
AcDbEntity
  8
0
  6
Continuous
 62
     7
100
AcDbLine
 10
119.8924668014
 20
47.3860942603
 30
0.0
 11
121.4334706161
 21
48.92709807510001
 31
0.0
  0
LINE
  5
2A3
330
23E
100
AcDbEntity
  8
0
  6
Continuous
 62
     7
100
AcDbLine
 10
127.5974858753
 20
55.0911133342
 30
0.0
 11
128.6248248197
 21
56.11845227869999
 31
0.0
  0
LINE
  5
2A4
330
23E
100
AcDbEntity
  8
0
  6
Continuous
 62
     7
100
AcDbLine
 10
134.7888370109
 20
62.2824644698
 30
0.0
 11
136.3298408257
 21
63.8234682846
 31
0.0
  0
LINE
  5
2A5
330
23E
100
AcDbEntity
  8
0
  6
Continuous
 62
     7
100
AcDbLine
 10
119.1598972349
 20
47.2569224805
 30
0.0
 11
120.7009010497
 21
48.79792629529999
 31
0.0
  0
LINE
  5
2A6
330
23E
100
AcDbEntity
  8
0
  6
Continuous
 62
     7
100
AcDbLine
 10
126.8649163088
 20
54.9619415544
 30
0.0
 11
127.8922550437
 21
55.9892802893
 31
0.0
  0
LINE
  5
2A7
330
23E
100
AcDbEntity
  8
0
  6
Continuous
 62
     7
100
AcDbLine
 10
134.0562674445
 20
62.15329269
 30
0.0
 11
135.5972712592
 21
63.69429650479999
 31
0.0
  0
LINE
  5
2A8
330
23E
100
AcDbEntity
  8
0
  6
Continuous
 62
     7
100
AcDbLine
 10
118.4273276685
 20
47.1277507007
 30
0.0
 11
119.9683314833
 21
48.66875451550001
 31
0.0
  0
LINE
  5
2A9
330
23E
100
AcDbEntity
  8
0
  6
Continuous
 62
     7
100
AcDbLine
 10
126.1323467424
 20
54.8327697746
 30
0.0
 11
127.1596852677
 21
55.8601082998
 31
0.0
  0
LINE
  5
2AA
330
23E
100
AcDbEntity
  8
0
  6
Continuous
 62
     7
100
AcDbLine
 10
133.323697878
 20
62.02412091020001
 30
0.0
 11
134.8647016928
 21
63.565124725
 31
0.0
  0
LINE
  5
2AB
330
23E
100
AcDbEntity
  8
0
  6
Continuous
 62
     7
100
AcDbLine
 10
117.876006896
 20
47.1798277148
 30
0.0
 11
119.2357619169
 21
48.53958273569999
 31
0.0
  0
LINE
  5
2AC
330
23E
100
AcDbEntity
  8
0
  6
Continuous
 62
     7
100
AcDbLine
 10
125.399777176
 20
54.70359799479999
 30
0.0
 11
126.4271154917
 21
55.73093631039999
 31
0.0
  0
LINE
  5
2AD
330
23E
100
AcDbEntity
  8
0
  6
Continuous
 62
     7
100
AcDbLine
 10
132.5911283116
 20
61.8949491304
 30
0.0
 11
134.1321321264
 21
63.4359529452
 31
0.0
  0
LINE
  5
2AE
330
23E
100
AcDbEntity
  8
0
  6
Continuous
 62
     7
100
AcDbLine
 10
117.7855598421
 20
47.69277844749999
 30
0.0
 11
118.8645823296
 21
48.771800935
 31
0.0
  0
LINE
  5
2AF
330
23E
100
AcDbEntity
  8
0
  6
Continuous
 62
     7
100
AcDbLine
 10
124.6672076096
 20
54.574426215
 30
0.0
 11
125.6945457156
 21
55.601764321
 31
0.0
  0
LINE
  5
2B0
330
23E
100
AcDbEntity
  8
0
  6
Continuous
 62
     7
100
AcDbLine
 10
131.8585587452
 20
61.7657773506
 30
0.0
 11
133.39956256
 21
63.30678116539999
 31
0.0
  0
LINE
  5
2B1
330
23E
100
AcDbEntity
  8
0
  6
Continuous
 62
     7
100
AcDbLine
 10
117.6951127881
 20
48.2057291801
 30
0.0
 11
118.7741352756
 21
49.28475166760001
 31
0.0
  0
LINE
  5
2B2
330
23E
100
AcDbEntity
  8
0
  6
Continuous
 62
     7
100
AcDbLine
 10
123.9346380432
 20
54.4452544352
 30
0.0
 11
124.9619759396
 21
55.4725923316
 31
0.0
  0
LINE
  5
2B3
330
23E
100
AcDbEntity
  8
0
  6
Continuous
 62
     7
100
AcDbLine
 10
131.1259891788
 20
61.6366055708
 30
0.0
 11
132.6669929936
 21
63.17760938560001
 31
0.0
  0
LINE
  5
2B4
330
23E
100
AcDbEntity
  8
0
  6
Continuous
 62
     7
100
AcDbLine
 10
117.6046657342
 20
48.7186799128
 30
0.0
 11
118.6836882217
 21
49.79770240029999
 31
0.0
  0
LINE
  5
2B5
330
23E
100
AcDbEntity
  8
0
  6
Continuous
 62
     7
100
AcDbLine
 10
123.2020684767
 20
54.3160826554
 30
0.0
 11
124.2294061636
 21
55.3434203422
 31
0.0
  0
LINE
  5
2B6
330
23E
100
AcDbEntity
  8
0
  6
Continuous
 62
     7
100
AcDbLine
 10
130.3934196124
 20
61.507433791
 30
0.0
 11
131.9344234271
 21
63.04843760579999
 31
0.0
  0
LINE
  5
2B7
330
23E
100
AcDbEntity
  8
0
  6
Continuous
 62
     7
100
AcDbLine
 10
117.5142186802
 20
49.2316306455
 30
0.0
 11
118.5932411678
 21
50.310653133
 31
0.0
  0
LINE
  5
2B8
330
23E
100
AcDbEntity
  8
0
  6
Continuous
 62
     7
100
AcDbLine
 10
122.4694989103
 20
54.1869108756
 30
0.0
 11
123.4968363875
 21
55.2142483528
 31
0.0
  0
LINE
  5
2B9
330
23E
100
AcDbEntity
  8
0
  6
Continuous
 62
     7
100
AcDbLine
 10
129.660850046
 20
61.3782620112
 30
0.0
 11
131.2018538607
 21
62.91926582600001
 31
0.0
  0
LINE
  5
2BA
330
23E
100
AcDbEntity
  8
0
  6
Continuous
 62
     7
100
AcDbLine
 10
117.4237716263
 20
49.7445813781
 30
0.0
 11
118.5027941138
 21
50.82360386560001
 31
0.0
  0
LINE
  5
2BB
330
23E
100
AcDbEntity
  8
0
  6
Continuous
 62
     7
100
AcDbLine
 10
121.7369293439
 20
54.05773909569999
 30
0.0
 11
122.7642666115
 21
55.0850763634
 31
0.0
  0
LINE
  5
2BC
330
23E
100
AcDbEntity
  8
0
  6
Continuous
 62
     7
100
AcDbLine
 10
128.9282804795
 20
61.2490902314
 30
0.0
 11
130.4692842943
 21
62.7900940461
 31
0.0
  0
LINE
  5
2BD
330
23E
100
AcDbEntity
  8
0
  6
Continuous
 62
     7
100
AcDbLine
 10
117.3333245723
 20
50.2575321108
 30
0.0
 11
118.4123470599
 21
51.33655459829999
 31
0.0
  0
LINE
  5
2BE
330
23E
100
AcDbEntity
  8
0
  6
Continuous
 62
     7
100
AcDbLine
 10
121.0043597775
 20
53.92856731590001
 30
0.0
 11
122.0316968355
 21
54.9559043739
 31
0.0
  0
LINE
  5
2BF
330
23E
100
AcDbEntity
  8
0
  6
Continuous
 62
     7
100
AcDbLine
 10
128.1957109131
 20
61.1199184516
 30
0.0
 11
129.7367147279
 21
62.6609222663
 31
0.0
  0
LINE
  5
2C0
330
23E
100
AcDbEntity
  8
0
  6
Continuous
 62
     7
100
AcDbLine
 10
117.2428775184
 20
50.7704828435
 30
0.0
 11
118.3219000059
 21
51.849505331
 31
0.0
  0
LINE
  5
2C1
330
23E
100
AcDbEntity
  8
0
  6
Continuous
 62
     7
100
AcDbLine
 10
120.2717902111
 20
53.79939553609999
 30
0.0
 11
121.2991270595
 21
54.8267323845
 31
0.0
  0
LINE
  5
2C2
330
23E
100
AcDbEntity
  8
0
  6
Continuous
 62
     7
100
AcDbLine
 10
127.4631413467
 20
60.9907466718
 30
0.0
 11
129.0041451615
 21
62.5317504865
 31
0.0
  0
LINE
  5
2C3
330
23E
100
AcDbEntity
  8
0
  6
Continuous
 62
     7
100
AcDbLine
 10
117.1524304645
 20
51.28343357609999
 30
0.0
 11
118.231452952
 21
52.3624560637
 31
0.0
  0
LINE
  5
2C4
330
23E
100
AcDbEntity
  8
0
  6
Continuous
 62
     7
100
AcDbLine
 10
119.5392206447
 20
53.6702237563
 30
0.0
 11
120.5665572834
 21
54.6975603951
 31
0.0
  0
LINE
  5
2C5
330
23E
100
AcDbEntity
  8
0
  6
Continuous
 62
     7
100
AcDbLine
 10
126.7305717803
 20
60.861574892
 30
0.0
 11
128.2715755951
 21
62.40257870669999
 31
0.0
  0
LINE
  5
2C6
330
23E
100
AcDbEntity
  8
0
  6
Continuous
 62
     7
100
AcDbLine
 10
117.0619834105
 20
51.7963843088
 30
0.0
 11
118.141005898
 21
52.8754067963
 31
0.0
  0
LINE
  5
2C7
330
23E
100
AcDbEntity
  8
0
  6
Continuous
 62
     7
100
AcDbLine
 10
118.8066510782
 20
53.5410519765
 30
0.0
 11
119.8339875074
 21
54.5683884057
 31
0.0
  0
LINE
  5
2C8
330
23E
100
AcDbEntity
  8
0
  6
Continuous
 62
     7
100
AcDbLine
 10
125.9980022139
 20
60.73240311220001
 30
0.0
 11
127.5390060286
 21
62.27340692689999
 31
0.0
  0
LINE
  5
2C9
330
23E
100
AcDbEntity
  8
0
  6
Continuous
 62
     7
100
AcDbLine
 10
116.9715363566
 20
52.3093350415
 30
0.0
 11
118.0505588441
 21
53.38835752899999
 31
0.0
  0
LINE
  5
2CA
330
23E
100
AcDbEntity
  8
0
  6
Continuous
 62
     7
100
AcDbLine
 10
118.0740815118
 20
53.4118801967
 30
0.0
 11
119.1014177314
 21
54.4392164163
 31
0.0
  0
LINE
  5
2CB
330
23E
100
AcDbEntity
  8
0
  6
Continuous
 62
     7
100
AcDbLine
 10
125.2654326474
 20
60.60323133229999
 30
0.0
 11
126.8064364622
 21
62.14423514709999
 31
0.0
  0
LINE
  5
2CC
330
23E
100
AcDbEntity
  8
0
  6
Continuous
 62
     7
100
AcDbLine
 10
116.8810893026
 20
52.82228577409999
 30
0.0
 11
118.3688479553
 21
54.31004442689999
 31
0.0
  0
LINE
  5
2CD
330
23E
100
AcDbEntity
  8
0
  6
Continuous
 62
     7
100
AcDbLine
 10
124.532863081
 20
60.4740595525
 30
0.0
 11
126.0738668958
 21
62.01506336729999
 31
0.0
  0
LINE
  5
2CE
330
23E
100
AcDbEntity
  8
0
  6
Continuous
 62
     7
100
AcDbLine
 10
116.7906422487
 20
53.3352365068
 30
0.0
 11
117.8696647362
 21
54.41425899430001
 31
0.0
  0
LINE
  5
2CF
330
23E
100
AcDbEntity
  8
0
  6
Continuous
 62
     7
100
AcDbLine
 10
123.8002935146
 20
60.3448877727
 30
0.0
 11
125.3412973294
 21
61.8858915875
 31
0.0
  0
LINE
  5
2D0
330
23E
100
AcDbEntity
  8
0
  6
Continuous
 62
     7
100
AcDbLine
 10
116.7001951947
 20
53.8481872395
 30
0.0
 11
117.7792176823
 21
54.92720972699999
 31
0.0
  0
LINE
  5
2D1
330
23E
100
AcDbEntity
  8
0
  6
Continuous
 62
     7
100
AcDbLine
 10
123.0677239482
 20
60.2157159929
 30
0.0
 11
124.608727763
 21
61.7567198077
 31
0.0
  0
LINE
  5
2D2
330
23E
100
AcDbEntity
  8
0
  6
Continuous
 62
     7
100
AcDbLine
 10
116.6097481408
 20
54.3611379721
 30
0.0
 11
117.6887706283
 21
55.4401604597
 31
0.0
  0
LINE
  5
2D3
330
23E
100
AcDbEntity
  8
0
  6
Continuous
 62
     7
100
AcDbLine
 10
122.3351543818
 20
60.08654421310001
 30
0.0
 11
123.8761581966
 21
61.6275480279
 31
0.0
  0
LINE
  5
2D4
330
23E
100
AcDbEntity
  8
0
  6
Continuous
 62
     7
100
AcDbLine
 10
116.5193010869
 20
54.87408870479999
 30
0.0
 11
117.5983235744
 21
55.95311119229999
 31
0.0
  0
LINE
  5
2D5
330
23E
100
AcDbEntity
  8
0
  6
Continuous
 62
     7
100
AcDbLine
 10
121.6025848154
 20
59.9573724333
 30
0.0
 11
123.1435886301
 21
61.4983762481
 31
0.0
  0
LINE
  5
2D6
330
23E
100
AcDbEntity
  8
0
  6
Continuous
 62
     7
100
AcDbLine
 10
116.4288540329
 20
55.3870394375
 30
0.0
 11
117.5078765204
 21
56.466061925
 31
0.0
  0
LINE
  5
2D7
330
23E
100
AcDbEntity
  8
0
  6
Continuous
 62
     7
100
AcDbLine
 10
120.8700152489
 20
59.82820065350001
 30
0.0
 11
122.4110190637
 21
61.3692044683
 31
0.0
  0
LINE
  5
2D8
330
23E
100
AcDbEntity
  8
0
  6
Continuous
 62
     7
100
AcDbLine
 10
116.338406979
 20
55.89999017020001
 30
0.0
 11
117.4174294665
 21
56.9790126577
 31
0.0
  0
LINE
  5
2D9
330
23E
100
AcDbEntity
  8
0
  6
Continuous
 62
     7
100
AcDbLine
 10
120.1374456825
 20
59.6990288737
 30
0.0
 11
121.6784494973
 21
61.2400326885
 31
0.0
  0
LINE
  5
2DA
330
23E
100
AcDbEntity
  8
0
  6
Continuous
 62
     7
100
AcDbLine
 10
116.247959925
 20
56.41294090279999
 30
0.0
 11
117.3269824125
 21
57.4919633903
 31
0.0
  0
LINE
  5
2DB
330
23E
100
AcDbEntity
  8
0
  6
Continuous
 62
     7
100
AcDbLine
 10
119.4048761161
 20
59.5698570939
 30
0.0
 11
120.9458799309
 21
61.11086090869999
 31
0.0
  0
LINE
  5
2DC
330
23E
100
AcDbEntity
  8
0
  6
Continuous
 62
     7
100
AcDbLine
 10
116.1575128711
 20
56.9258916355
 30
0.0
 11
117.2365353586
 21
58.004914123
 31
0.0
  0
LINE
  5
2DD
330
23E
100
AcDbEntity
  8
0
  6
Continuous
 62
     7
100
AcDbLine
 10
118.6723065497
 20
59.4406853141
 30
0.0
 11
120.2133103645
 21
60.9816891289
 31
0.0
  0
LINE
  5
2DE
330
23E
100
AcDbEntity
  8
0
  6
Continuous
 62
     7
100
AcDbLine
 10
116.0670658171
 20
57.4388423682
 30
0.0
 11
117.1460883047
 21
58.51786485569999
 31
0.0
  0
LINE
  5
2DF
330
23E
100
AcDbEntity
  8
0
  6
Continuous
 62
     7
100
AcDbLine
 10
117.9397369833
 20
59.3115135343
 30
0.0
 11
119.480740798
 21
60.85251734909999
 31
0.0
  0
LINE
  5
2E0
330
23E
100
AcDbEntity
  8
0
  6
Continuous
 62
     7
100
AcDbLine
 10
115.9766187632
 20
57.95179310079999
 30
0.0
 11
117.0556412507
 21
59.0308155883
 31
0.0
  0
LINE
  5
2E1
330
23E
100
AcDbEntity
  8
0
  6
Continuous
 62
     7
100
AcDbLine
 10
117.2071674168
 20
59.1823417545
 30
0.0
 11
118.7481712316
 21
60.7233455693
 31
0.0
  0
LINE
  5
2E2
330
23E
100
AcDbEntity
  8
0
  6
Continuous
 62
     7
100
AcDbLine
 10
115.8861717092
 20
58.4647438335
 30
0.0
 11
118.0156016652
 21
60.5941737895
 31
0.0
  0
LINE
  5
2E3
330
23E
100
AcDbEntity
  8
0
  6
Continuous
 62
     7
100
AcDbLine
 10
115.7957246553
 20
58.9776945662
 30
0.0
 11
117.2830320988
 21
60.4650020097
 31
0.0
  0
LINE
  5
2E4
330
23E
100
AcDbEntity
  8
0
  6
Continuous
 62
     7
100
AcDbLine
 10
115.7052776014
 20
59.49064529880001
 30
0.0
 11
116.5504625324
 21
60.3358302298
 31
0.0
  0
LINE
  5
2E5
330
23E
100
AcDbEntity
  8
0
  6
Continuous
 62
     7
100
AcDbLine
 10
115.6148305474
 20
60.00359603149999
 30
0.0
 11
115.817892966
 21
60.20665844999999
 31
0.0
  0
ENDBLK
  5
2E6
330
23E
100
AcDbEntity
  8
0
  6
ByBlock
 62
     0
100
AcDbBlockEnd
  0
BLOCK
  5
2E7
330
23F
100
AcDbEntity
  8
0
  6
Continuous
 62
     7
100
AcDbBlockBegin
  2
SYMBOL_0_BL0
 70
     0
 10
160.6666666667
 20
55.33333333329999
 30
0.0
  3
SYMBOL_0_BL0
  1

  0
TEXT
  5
2E8
330
23F
100
AcDbEntity
  8
0
  6
Continuous
 62
     7
100
AcDbText
 10
144.4188815905
 20
63.10676672439999
 30
0.0
 40
0.5
  1
Infomations Techniques/Technical Infomations
  7
TEXTSTYLE_2
100
AcDbText
  0
TEXT
  5
2E9
330
23F
100
AcDbEntity
  8
0
  6
Continuous
 62
     7
100
AcDbText
 10
144.6666666667
 20
61.6666666667
 30
0.0
 40
0.6666666667
  1
NOMBRE DE JETS:     
  7
TEXTSTYLE_2
100
AcDbText
  0
TEXT
  5
2EA
330
23F
100
AcDbEntity
  8
0
  6
Continuous
 62
     7
100
AcDbText
 10
154.5111111111
 20
61.6666666667
 30
0.0
 40
0.6666666667
  1
38
  7
TEXTSTYLE_2
100
AcDbText
  0
TEXT
  5
2EB
330
23F
100
AcDbEntity
  8
0
  6
Continuous
 62
     7
100
AcDbText
 10
144.6666666667
 20
60.6666666667
 30
0.0
 40
0.6666666667
  1
 
  7
TEXTSTYLE_2
100
AcDbText
  0
TEXT
  5
2EC
330
23F
100
AcDbEntity
  8
0
  6
Continuous
 62
     7
100
AcDbText
 10
144.6666666667
 20
59.66666666670001
 30
0.0
 40
0.6666666667
  1
NIVEAU D'EAU              GALLONS(US)        LITRES        GALLONS(UK)
  7
TEXTSTYLE_2
100
AcDbText
  0
TEXT
  5
2ED
330
23F
100
AcDbEntity
  8
0
  6
Continuous
 62
     7
100
AcDbText
 10
144.6666666667
 20
58.6666666667
 30
0.0
 40
0.6666666667
  1
PLEIN
  7
TEXTSTYLE_2
100
AcDbText
  0
TEXT
  5
2EE
330
23F
100
AcDbEntity
  8
0
  6
Continuous
 62
     7
100
AcDbText
 10
144.6666666667
 20
57.6666666667
 30
0.0
 40
0.6666666667
  1
HAUT T.PLEIN
  7
TEXTSTYLE_2
100
AcDbText
  0
TEXT
  5
2EF
330
23F
100
AcDbEntity
  8
0
  6
Continuous
 62
     7
100
AcDbText
 10
144.6666666667
 20
56.6666666667
 30
0.0
 40
0.6666666667
  1
MILIEU T.PLEIN
  7
TEXTSTYLE_2
100
AcDbText
  0
TEXT
  5
2F0
330
23F
100
AcDbEntity
  8
0
  6
Continuous
 62
     7
100
AcDbText
 10
144.6666666667
 20
55.6666666667
 30
0.0
 40
0.6666666667
  1
BAS T.PLEIN
  7
TEXTSTYLE_2
100
AcDbText
  0
TEXT
  5
2F1
330
23F
100
AcDbEntity
  8
0
  6
Continuous
 62
     7
100
AcDbText
 10
144.6666666667
 20
54.66666666670001
 30
0.0
 40
0.6666666667
  1
3" EN BAS T.PLEIN
  7
TEXTSTYLE_2
100
AcDbText
  0
TEXT
  5
2F2
330
23F
100
AcDbEntity
  8
0
  6
Continuous
 62
     7
100
AcDbText
 10
144.6666666667
 20
53.6666666667
 30
0.0
 40
0.6666666667
  1
 
  7
TEXTSTYLE_2
100
AcDbText
  0
TEXT
  5
2F3
330
23F
100
AcDbEntity
  8
0
  6
Continuous
 62
     7
100
AcDbText
 10
144.4665051611
 20
53.1198797418
 30
0.0
 40
0.5
  1
Legende/Legend
  7
TEXTSTYLE_2
100
AcDbText
  0
TEXT
  5
2F4
330
23F
100
AcDbEntity
  8
0
  6
Continuous
 62
     7
100
AcDbText
 10
150.9953401051
 20
51.6086147641
 30
0.0
 40
0.6666666667
  1
ZONE DE ROBINETTERIE
  7
TEXTSTYLE_2
100
AcDbText
  0
TEXT
  5
2F5
330
23F
100
AcDbEntity
  8
0
  6
Continuous
 62
     7
100
AcDbText
 10
145.9156155382
 20
50.1133702497
 30
0.0
 40
0.6666666667
  1
L   :  SYSTEME LED       DC   :  DOUBLE DOSSIER CHAUFFANT
  7
TEXTSTYLE_2
100
AcDbText
  0
TEXT
  5
2F6
330
23F
100
AcDbEntity
  8
0
  6
Continuous
 62
     7
100
AcDbText
 10
145.9156155382
 20
48.7800369164
 30
0.0
 40
0.6666666667
  1
C   :  CONTROLE
  7
TEXTSTYLE_2
100
AcDbText
  0
TEXT
  5
2F7
330
23F
100
AcDbEntity
  8
0
  6
Continuous
 62
     7
100
AcDbText
 10
145.9156155382
 20
47.4467035831
 30
0.0
 40
0.6666666667
  1
T   :  MOTEUR
  7
TEXTSTYLE_2
100
AcDbText
  0
TEXT
  5
2F8
330
23F
100
AcDbEntity
  8
0
  6
Continuous
 62
     7
100
AcDbText
 10
157.499363366
 20
58.6666666667
 30
0.0
 40
0.6666666667
  1
82
  7
TEXTSTYLE_2
100
AcDbText
  0
TEXT
  5
2F9
330
23F
100
AcDbEntity
  8
0
  6
Continuous
 62
     7
100
AcDbText
 10
157.499363366
 20
57.6666666667
 30
0.0
 40
0.6666666667
  1
69
  7
TEXTSTYLE_2
100
AcDbText
  0
TEXT
  5
2FA
330
23F
100
AcDbEntity
  8
0
  6
Continuous
 62
     7
100
AcDbText
 10
157.499363366
 20
56.6666666667
 30
0.0
 40
0.6666666667
  1
63
  7
TEXTSTYLE_2
100
AcDbText
  0
TEXT
  5
2FB
330
23F
100
AcDbEntity
  8
0
  6
Continuous
 62
     7
100
AcDbText
 10
157.499363366
 20
55.6666666667
 30
0.0
 40
0.6666666667
  1
57
  7
TEXTSTYLE_2
100
AcDbText
  0
TEXT
  5
2FC
330
23F
100
AcDbEntity
  8
0
  6
Continuous
 62
     7
100
AcDbText
 10
157.499363366
 20
54.66666666670001
 30
0.0
 40
0.6666666667
  1
48
  7
TEXTSTYLE_2
100
AcDbText
  0
TEXT
  5
2FD
330
23F
100
AcDbEntity
  8
0
  6
Continuous
 62
     7
100
AcDbText
 10
164.4195693097
 20
58.68374606879999
 30
0.0
 40
0.6666666667
  1
309
  7
TEXTSTYLE_2
100
AcDbText
  0
TEXT
  5
2FE
330
23F
100
AcDbEntity
  8
0
  6
Continuous
 62
     7
100
AcDbText
 10
164.4195693097
 20
57.6837460688
 30
0.0
 40
0.6666666667
  1
262
  7
TEXTSTYLE_2
100
AcDbText
  0
TEXT
  5
2FF
330
23F
100
AcDbEntity
  8
0
  6
Continuous
 62
     7
100
AcDbText
 10
164.4195693097
 20
56.6837460688
 30
0.0
 40
0.6666666667
  1
238
  7
TEXTSTYLE_2
100
AcDbText
  0
TEXT
  5
300
330
23F
100
AcDbEntity
  8
0
  6
Continuous
 62
     7
100
AcDbText
 10
164.4195693097
 20
55.68374606879999
 30
0.0
 40
0.6666666667
  1
216
  7
TEXTSTYLE_2
100
AcDbText
  0
TEXT
  5
301
330
23F
100
AcDbEntity
  8
0
  6
Continuous
 62
     7
100
AcDbText
 10
164.4195693097
 20
54.6837460688
 30
0.0
 40
0.6666666667
  1
183
  7
TEXTSTYLE_2
100
AcDbText
  0
TEXT
  5
302
330
23F
100
AcDbEntity
  8
0
  6
Continuous
 62
     7
100
AcDbText
 10
171.3642082472
 20
58.6666666667
 30
0.0
 40
0.6666666667
  1
68
  7
TEXTSTYLE_2
100
AcDbText
  0
TEXT
  5
303
330
23F
100
AcDbEntity
  8
0
  6
Continuous
 62
     7
100
AcDbText
 10
171.3642082472
 20
57.6666666667
 30
0.0
 40
0.6666666667
  1
58
  7
TEXTSTYLE_2
100
AcDbText
  0
TEXT
  5
304
330
23F
100
AcDbEntity
  8
0
  6
Continuous
 62
     7
100
AcDbText
 10
171.3642082472
 20
56.6666666667
 30
0.0
 40
0.6666666667
  1
52
  7
TEXTSTYLE_2
100
AcDbText
  0
TEXT
  5
305
330
23F
100
AcDbEntity
  8
0
  6
Continuous
 62
     7
100
AcDbText
 10
171.3642082472
 20
55.6666666667
 30
0.0
 40
0.6666666667
  1
48
  7
TEXTSTYLE_2
100
AcDbText
  0
TEXT
  5
306
330
23F
100
AcDbEntity
  8
0
  6
Continuous
 62
     7
100
AcDbText
 10
171.3642082472
 20
54.66666666670001
 30
0.0
 40
0.6666666667
  1
40
  7
TEXTSTYLE_2
100
AcDbText
  0
LINE
  5
307
330
23F
100
AcDbEntity
  8
0
  6
Continuous
 62
     7
100
AcDbLine
 10
144.0
 20
64.0
 30
0.0
 11
144.0
 21
46.6666666667
 31
0.0
  0
LINE
  5
308
330
23F
100
AcDbEntity
  8
0
  6
Continuous
 62
     7
100
AcDbLine
 10
144.0
 20
64.0
 30
0.0
 11
177.3333333333
 21
64.0
 31
0.0
  0
LINE
  5
309
330
23F
100
AcDbEntity
  8
0
  6
Continuous
 62
     7
100
AcDbLine
 10
177.3333333333
 20
64.0
 30
0.0
 11
177.3333333333
 21
46.6666666667
 31
0.0
  0
LINE
  5
30A
330
23F
100
AcDbEntity
  8
0
  6
Continuous
 62
     7
100
AcDbLine
 10
144.0
 20
46.6666666667
 30
0.0
 11
177.3333333333
 21
46.6666666667
 31
0.0
  0
LINE
  5
30B
330
23F
100
AcDbEntity
  8
0
  6
Continuous
 62
     7
100
AcDbLine
 10
145.3333333333
 20
54.0
 30
0.0
 11
176.0
 21
54.0
 31
0.0
  0
LINE
  5
30C
330
23F
100
AcDbEntity
  8
0
  6
Continuous
 62
     7
100
AcDbLine
 10
145.3333333333
 20
61.0
 30
0.0
 11
176.0
 21
61.0
 31
0.0
  0
LINE
  5
30D
330
23F
100
AcDbEntity
  8
0
  6
Continuous
 62
     7
100
AcDbLine
 10
144.8089065593
 20
52.3781645044
 30
0.0
 11
144.4398858169
 21
52.009143762
 31
0.0
  0
LINE
  5
30E
330
23F
100
AcDbEntity
  8
0
  6
Continuous
 62
     7
100
AcDbLine
 10
145.4755732259
 20
52.3781645044
 30
0.0
 11
144.6775574355
 21
51.5801487139
 31
0.0
  0
LINE
  5
30F
330
23F
100
AcDbEntity
  8
0
  6
Continuous
 62
     7
100
AcDbLine
 10
146.1422398926
 20
52.3781645044
 30
0.0
 11
145.3442241022
 21
51.5801487139
 31
0.0
  0
LINE
  5
310
330
23F
100
AcDbEntity
  8
0
  6
Continuous
 62
     7
100
AcDbLine
 10
146.8089065593
 20
52.3781645044
 30
0.0
 11
146.0108907688
 21
51.5801487139
 31
0.0
  0
LINE
  5
311
330
23F
100
AcDbEntity
  8
0
  6
Continuous
 62
     7
100
AcDbLine
 10
147.4755732259
 20
52.3781645044
 30
0.0
 11
146.6775574355
 21
51.5801487139
 31
0.0
  0
LINE
  5
312
330
23F
100
AcDbEntity
  8
0
  6
Continuous
 62
     7
100
AcDbLine
 10
148.1422398926
 20
52.3781645044
 30
0.0
 11
147.3442241022
 21
51.5801487139
 31
0.0
  0
LINE
  5
313
330
23F
100
AcDbEntity
  8
0
  6
Continuous
 62
     7
100
AcDbLine
 10
148.8089065593
 20
52.3781645044
 30
0.0
 11
148.0108907688
 21
51.5801487139
 31
0.0
  0
LINE
  5
314
330
23F
100
AcDbEntity
  8
0
  6
Continuous
 62
     7
100
AcDbLine
 10
149.4755732259
 20
52.3781645044
 30
0.0
 11
148.6775574355
 21
51.5801487139
 31
0.0
  0
LINE
  5
315
330
23F
100
AcDbEntity
  8
0
  6
Continuous
 62
     7
100
AcDbLine
 10
150.1422398926
 20
52.3781645044
 30
0.0
 11
149.3442241022
 21
51.5801487139
 31
0.0
  0
LINE
  5
316
330
23F
100
AcDbEntity
  8
0
  6
Continuous
 62
     7
100
AcDbLine
 10
150.5857273268
 20
52.1549852718
 30
0.0
 11
150.0108907688
 21
51.5801487139
 31
0.0
  0
ELLIPSE
  5
317
330
23F
100
AcDbEntity
  8
0
  6
Continuous
 62
     7
100
AcDbEllipse
 10
146.1454024822
 20
50.43094770689999
 30
0.0
 11
1.0473539356
 21
0.0
 31
0.0
210
0.0
220
0.0
230
1.0
 40
0.4938647983
 41
0.0
 42
6.283185307179586
  0
ELLIPSE
  5
318
330
23F
100
AcDbEntity
  8
0
  6
Continuous
 62
     7
100
AcDbEllipse
 10
146.1454024822
 20
49.0976143736
 30
0.0
 11
1.0473539356
 21
0.0
 31
0.0
210
0.0
220
0.0
230
1.0
 40
0.4938647983
 41
0.0
 42
6.283185307179586
  0
ELLIPSE
  5
319
330
23F
100
AcDbEntity
  8
0
  6
Continuous
 62
     7
100
AcDbEllipse
 10
146.1454024822
 20
47.76428104029999
 30
0.0
 11
1.0473539356
 21
0.0
 31
0.0
210
0.0
220
0.0
230
1.0
 40
0.4938647983
 41
0.0
 42
6.283185307179586
  0
ELLIPSE
  5
31A
330
23F
100
AcDbEntity
  8
0
  6
Continuous
 62
     7
100
AcDbEllipse
 10
157.1640380633
 20
50.45046906399999
 30
0.0
 11
1.0473539356
 21
0.0
 31
0.0
210
0.0
220
0.0
230
1.0
 40
0.4938647983
 41
0.0
 42
6.283185307179586
  0
ENDBLK
  5
31B
330
23F
100
AcDbEntity
  8
0
  6
ByBlock
 62
     0
100
AcDbBlockEnd
  0
ENDSEC
  0
SECTION
  2
ENTITIES
  0
LWPOLYLINE
  5
49C
330
220
100
AcDbEntity
  8
DEFAULT_2
  6
HIDDEN
 62
     7
100
AcDbPolyline
 90
       64
 70
     0
 43
0.0
 10
35.5277136076
 20
31.8530364392
 10
35.5512425638
 20
31.8039794179
 10
35.5758346431
 20
31.7554436018
 10
35.6010304355
 20
31.7082695035
 10
35.6272291608
 20
31.66164584300001
 10
35.6539378681
 20
31.6163893112
 10
35.6815919066
 20
31.571704019
 10
35.70966370260001
 20
31.528387125
 10
35.7386237217
 20
31.4856590957
 10
35.767911854
 20
31.4442951647
 10
35.7980324213
 20
31.4035334709
 10
35.8283940309
 20
31.3641268323
 10
35.859533639
 20
31.3253321312
 10
35.890830046
 20
31.2878789074
 10
35.9228515741
 20
31.2510438009
 10
35.9549486497
 20
31.215532411
 10
35.9877196611
 20
31.1806420632
 10
36.0204879546
 20
31.14705396590001
 10
36.0538808097
 20
31.1140868097
 10
36.0871958707
 20
31.0823969382
 10
36.1210880291
 20
31.0513251191
 10
36.1548306092
 20
31.0215024226
 10
36.1891048137
 20
30.9922923348
 10
36.2231609957
 20
30.9643003397
 10
36.2577053818
 20
30.9369131825
 10
36.2919666622
 20
30.9107105396
 10
36.3266748232
 20
30.8851028587
 10
36.3610381281
 20
30.8606438911
 10
36.3958091135
 20
30.8367681172
 10
36.4301750271
 20
30.8140044786
 10
36.4649115183
 20
30.7918105195
 10
36.4991690367
 20
30.7707004813
 10
36.5337618109
 20
30.7501445143
 10
36.5677943222
 20
30.7306464637
 10
36.6021284599
 20
30.711684674
 10
36.6358230041
 20
30.6937509419
 10
36.6697873445
 20
30.6763336669
 10
36.7030349991
 20
30.6599110273
 10
36.73652250510001
 20
30.6439832662
 10
36.8021559313
 20
30.6145028488
 10
36.86656393630001
 20
30.5877389865
 10
36.929639516
 20
30.5635371153
 10
36.9912875703
 20
30.541744337
 10
37.0514235774
 20
30.52221027010001
 10
37.1098963235
 20
30.5048093116
 10
37.16640627090001
 20
30.4894523783
 10
37.2206354118
 20
30.4760387536
 10
37.2724549244
 20
30.4644119831
 10
37.32202501030001
 20
30.4543630771
 10
37.369556779
 20
30.4457002612
 10
37.4152100031
 20
30.438266381
 10
37.4584624812
 20
30.43201663690001
 10
37.4985311
 20
30.4269091758
 10
37.5347413743
 20
30.4228529305
 10
37.5667193646
 20
30.4197084104
 10
37.594762089
 20
30.4172852992
 10
37.6192391853
 20
30.4154225868
 10
37.6405432148
 20
30.41398962400001
 10
37.6589840496
 20
30.4128874863
 10
37.6747741484
 20
30.41204237780001
 10
37.6882270998
 20
30.4113907726
 10
37.69972446420001
 20
30.4108805171
 10
37.7096999792
 20
30.4104695142
 10
37.7185487687
 20
30.410126655
  0
LINE
  5
49D
330
220
100
AcDbEntity
  8
DEFAULT_2
  6
HIDDEN
 62
     7
100
AcDbLine
 10
34.8914589268
 20
33.2177463705
 30
0.0
 11
34.8836842923
 21
33.2341617661
 31
0.0
  0
LINE
  5
49E
330
220
100
AcDbEntity
  8
DEFAULT_2
  6
HIDDEN
 62
     7
100
AcDbLine
 10
34.900412471
 20
33.1987576405
 30
0.0
 11
34.8914589268
 21
33.2177463705
 31
0.0
  0
LINE
  5
49F
330
220
100
AcDbEntity
  8
DEFAULT_2
  6
HIDDEN
 62
     7
100
AcDbLine
 10
34.9111943356
 20
33.1757723781
 30
0.0
 11
34.900412471
 21
33.1987576405
 31
0.0
  0
LINE
  5
4A0
330
220
100
AcDbEntity
  8
DEFAULT_2
  6
HIDDEN
 62
     7
100
AcDbLine
 10
27.677997021
 20
48.68680797989999
 30
0.0
 11
34.883684465
 21
33.23416138920001
 31
0.0
  0
LINE
  5
4A1
330
220
100
AcDbEntity
  8
DEFAULT_2
  6
HIDDEN
 62
     7
100
AcDbLine
 10
34.949718218
 20
33.0925515489
 30
0.0
 11
35.5277136093
 21
31.8530364322
 31
0.0
  0
LINE
  5
4A2
330
220
100
AcDbEntity
  8
DEFAULT_2
  6
HIDDEN
 62
     7
100
AcDbLine
 10
34.92277286010001
 20
33.1509418912
 30
0.0
 11
34.9111943356
 21
33.1757723781
 31
0.0
  0
LINE
  5
4A3
330
220
100
AcDbEntity
  8
DEFAULT_2
  6
HIDDEN
 62
     7
100
AcDbLine
 10
34.9334354278
 20
33.1279389522
 30
0.0
 11
34.92277286010001
 21
33.1509418912
 31
0.0
  0
LINE
  5
4A4
330
220
100
AcDbEntity
  8
DEFAULT_2
  6
HIDDEN
 62
     7
100
AcDbLine
 10
34.94971839570001
 20
33.0925511744
 30
0.0
 11
34.9334354278
 21
33.1279389522
 31
0.0
  0
LWPOLYLINE
  5
4AA
330
220
100
AcDbEntity
  8
DEFAULT_2
  6
HIDDEN
 62
     7
100
AcDbPolyline
 90
       37
 70
     0
 43
0.0
 10
54.3190922976
 20
29.7687850189
 10
54.315369583
 20
29.7724314469
 10
54.3115704797
 20
29.7760004821
 10
54.307696981
 20
29.7794903293
 10
54.30375107999999
 20
29.7828991934
 10
54.29973477
 20
29.786225279
 10
54.2956500442
 20
29.7894667912
 10
54.2914989483
 20
29.7926219707
 10
54.2872832318
 20
29.79568958510001
 10
54.2830046939
 20
29.7986684346
 10
54.2786651338
 20
29.8015573192
 10
54.27426635079999
 20
29.8043550391
 10
54.26981014409999
 20
29.8070603943
 10
54.26529843369999
 20
29.8096721631
 10
54.2607331345
 20
29.812189316
 10
54.2561162802
 20
29.8146107981
 10
54.25144990439999
 20
29.8169355546
 10
54.2467360407
 20
29.8191625307
 10
54.2419767227
 20
29.8212906716
 10
54.23717407539999
 20
29.8233189411
 10
54.23233016680001
 20
29.8252465546
 10
54.2274471552
 20
29.8270727429
 10
54.2225271987
 20
29.8287967371
 10
54.2175724554
 20
29.8304177682
 10
54.2125850834
 20
29.8319350673
 10
54.2075672836
 20
29.8333478964
 10
54.20252111859999
 20
29.8346557281
 10
54.197448693
 20
29.8358580636
 10
54.19235211149999
 20
29.8369544044
 10
54.1872334787
 20
29.8379442519
 10
54.1820948992
 20
29.8388271074
 10
54.17693859989999
 20
29.8396025127
 10
54.17176713159999
 20
29.8402701944
 10
54.1665831671
 20
29.8408299184
 10
54.1613893792
 20
29.8412814507
 10
54.1561884406
 20
29.841624557
 10
54.1509830241
 20
29.8418590034
  0
LINE
  5
4AB
330
220
100
AcDbEntity
  8
DEFAULT_2
  6
HIDDEN
 62
     7
100
AcDbLine
 10
54.6759009883
 20
29.4116884528
 30
0.0
 11
54.3181777825
 21
29.7694116585
 31
0.0
  0
LINE
  5
567
330
220
100
AcDbEntity
  8
DEFAULT_2
  6
HIDDEN
 62
     7
100
AcDbLine
 10
74.5323862318
 20
30.4103149083
 30
0.0
 11
74.5333585258
 21
30.4104071051
 31
0.0
  0
LINE
  5
56A
330
220
100
AcDbEntity
  8
DEFAULT_2
  6
HIDDEN
 62
     7
100
AcDbLine
 10
74.5333585258
 20
30.4104071051
 30
0.0
 11
74.5338260147
 21
30.4104487223
 31
0.0
  0
LINE
  5
56F
330
220
100
AcDbEntity
  8
DEFAULT_2
  6
HIDDEN
 62
     7
100
AcDbLine
 10
74.5338260147
 20
30.4104487223
 30
0.0
 11
74.53426231849999
 21
30.41048394780001
 31
0.0
  0
LINE
  5
578
330
220
100
AcDbEntity
  8
DEFAULT_2
  6
HIDDEN
 62
     7
100
AcDbLine
 10
74.53426231849999
 20
30.41048394780001
 30
0.0
 11
74.53465907729999
 21
30.4105126519
 31
0.0
  0
LWPOLYLINE
  5
57E
330
220
100
AcDbEntity
  8
DEFAULT_2
  6
HIDDEN
 62
     7
100
AcDbPolyline
 90
        6
 70
     0
 43
0.0
 10
74.53087272800001
 20
30.410197297
 10
74.53120683739999
 20
30.4102194333
 10
74.53152905899999
 20
30.4102425949
 10
74.53183861789999
 20
30.4102668399
 10
74.5321162302
 20
30.4102904621
 10
74.5323862318
 20
30.4103149083
  0
LINE
  5
582
330
220
100
AcDbEntity
  8
DEFAULT_2
  6
HIDDEN
 62
     7
100
AcDbLine
 10
74.53465907729999
 20
30.4105126519
 30
0.0
 11
74.5350925142
 21
30.4105404935
 31
0.0
  0
LINE
  5
589
330
220
100
AcDbEntity
  8
DEFAULT_2
  6
HIDDEN
 62
     7
100
AcDbLine
 10
74.53017194569999
 20
30.4101558677
 30
0.0
 11
74.53087272800001
 21
30.410197297
 31
0.0
  0
LINE
  5
58C
330
220
100
AcDbEntity
  8
DEFAULT_2
  6
HIDDEN
 62
     7
100
AcDbLine
 10
74.5350925142
 20
30.4105404935
 30
0.0
 11
74.5355687432
 21
30.4105672183
 31
0.0
  0
LINE
  5
590
330
220
100
AcDbEntity
  8
DEFAULT_2
  6
HIDDEN
 62
     7
100
AcDbLine
 10
74.5294329116
 20
30.4101178424
 30
0.0
 11
74.53017194569999
 21
30.4101558677
 31
0.0
  0
LINE
  5
592
330
220
100
AcDbEntity
  8
DEFAULT_2
  6
HIDDEN
 62
     7
100
AcDbLine
 10
74.5355687432
 20
30.4105672183
 30
0.0
 11
74.53602535279999
 21
30.4105894865
 31
0.0
  0
LWPOLYLINE
  5
595
330
220
100
AcDbEntity
  8
DEFAULT_2
  6
HIDDEN
 62
     7
100
AcDbPolyline
 90
       37
 70
     0
 43
0.0
 10
58.0972655619
 20
29.8418590041
 10
58.09206014539999
 20
29.8416245577
 10
58.0868592068
 20
29.8412814512
 10
58.0816654189
 20
29.8408299189
 10
58.07648145449999
 20
29.8402701947
 10
58.07130998619999
 20
29.8396025129
 10
58.066153687
 20
29.8388271075
 10
58.0610151075
 20
29.8379442519
 10
58.05589647479999
 20
29.8369544043
 10
58.0507998933
 20
29.8358580634
 10
58.0457274677
 20
29.8346557278
 10
58.0406813027
 20
29.833347896
 10
58.0356635031
 20
29.8319350668
 10
58.03067613109999
 20
29.8304177676
 10
58.0257213878
 20
29.8287967364
 10
58.0208014314
 20
29.8270727421
 10
58.01591841979999
 20
29.8252465537
 10
58.0110745114
 20
29.8233189402
 10
58.0062718641
 20
29.8212906706
 10
58.0015125462
 20
29.8191625297
 10
57.9967986826
 20
29.8169355535
 10
57.9921323068
 20
29.8146107969
 10
57.9875154525
 20
29.8121893147
 10
57.9829501534
 20
29.8096721618
 10
57.9784384431
 20
29.8070603929
 10
57.97398223640001
 20
29.8043550376
 10
57.9695834535
 20
29.8015573176
 10
57.9652438935
 20
29.798668433
 10
57.9609653556
 20
29.7956895835
 10
57.95674963919999
 20
29.792621969
 10
57.9525985434
 20
29.7894667894
 10
57.9485138177
 20
29.7862252772
 10
57.94449750770001
 20
29.7828991915
 10
57.9405516068
 20
29.7794903274
 10
57.9366781081
 20
29.7760004802
 10
57.9328790049
 20
29.7724314449
 10
57.9291562904
 20
29.7687850168
  0
LINE
  5
596
330
220
100
AcDbEntity
  8
DEFAULT_2
  6
HIDDEN
 62
     7
100
AcDbLine
 10
74.52866182520001
 20
30.4100827562
 30
0.0
 11
74.5294329116
 21
30.4101178424
 31
0.0
  0
LINE
  5
59A
330
220
100
AcDbEntity
  8
DEFAULT_2
  6
HIDDEN
 62
     7
100
AcDbLine
 10
74.53602535279999
 20
30.4105894865
 30
0.0
 11
74.53652350199999
 21
30.4106105345
 31
0.0
  0
LINE
  5
59E
330
220
100
AcDbEntity
  8
DEFAULT_2
  6
HIDDEN
 62
     7
100
AcDbLine
 10
74.52745865899998
 20
30.410034621
 30
0.0
 11
74.52866182520001
 21
30.4100827562
 31
0.0
  0
LINE
  5
5A3
330
220
100
AcDbEntity
  8
DEFAULT_2
  6
HIDDEN
 62
     7
100
AcDbLine
 10
74.53652350199999
 20
30.4106105345
 30
0.0
 11
74.53706728649999
 21
30.4106301921
 31
0.0
  0
LWPOLYLINE
  5
5A4
330
220
100
AcDbEntity
  8
DEFAULT_2
  6
HIDDEN
 62
     7
100
AcDbPolyline
 90
       20
 70
     0
 43
0.0
 10
74.5380347963
 20
30.4106589745
 10
74.5382213095
 20
30.4106654527
 10
74.53840343510001
 20
30.4106734158
 10
74.5385781243
 20
30.4106834098
 10
74.53869666060001
 20
30.4106920942
 10
74.5388087364
 20
30.4107022923
 10
74.5389132404
 20
30.4107142031
 10
74.5390090618
 20
30.4107280256
 10
74.53909508939999
 20
30.4107439587
 10
74.5391702121
 20
30.4107622014
 10
74.5392333189
 20
30.4107829526
 10
74.5392733834
 20
30.4108009542
 10
74.5393049842
 20
30.4108206873
 10
74.53932759850001
 20
30.4108422455
 10
74.5393407034
 20
30.4108657225
 10
74.5393437763
 20
30.4108912119
 10
74.5393362944
 20
30.4109188072
 10
74.53931773479999
 20
30.4109486022
 10
74.539287575
 20
30.4109806904
 10
74.539245292
 20
30.4110151655
  0
LINE
  5
5A5
330
220
100
AcDbEntity
  8
DEFAULT_2
  6
HIDDEN
 62
     7
100
AcDbLine
 10
58.0972655619
 20
29.8418590041
 30
0.0
 11
74.5228423121
 21
30.4098788587
 31
0.0
  0
LWPOLYLINE
  5
5A7
330
220
100
AcDbEntity
  8
DEFAULT_2
  6
HIDDEN
 62
     7
100
AcDbPolyline
 90
        3
 70
     0
 43
0.0
 10
74.4613987485
 20
30.4077858597
 10
74.486820968
 20
30.4086398588
 10
74.50691644289999
 20
30.4093138433
  0
LINE
  5
5A8
330
220
100
AcDbEntity
  8
DEFAULT_2
  6
HIDDEN
 62
     7
100
AcDbLine
 10
74.3639443696
 20
30.4045358036
 30
0.0
 11
74.4613987485
 21
30.4077858597
 31
0.0
  0
LWPOLYLINE
  5
5A9
330
220
100
AcDbEntity
  8
DEFAULT_2
  6
HIDDEN
 62
     7
100
AcDbPolyline
 90
       15
 70
     0
 43
0.0
 10
67.0310569248
 20
30.1728980243
 10
67.16005491989999
 20
30.1771345689
 10
67.27778935519999
 20
30.1810028912
 10
67.3849162705
 20
30.1845240246
 10
67.4821002394
 20
30.1877193866
 10
67.57001812979999
 20
30.1906108948
 10
67.6496156592
 20
30.19322939
 10
67.7221129668
 20
30.1956148172
 10
67.7887382768
 20
30.1978074602
 10
67.850406881
 20
30.1998373448
 10
67.907163991
 20
30.2017058774
 10
67.9589119197
 20
30.2034097649
 10
68.00562517029999
 20
30.2049480956
 10
68.0472966629
 20
30.2063205703
 10
68.08402641319999
 20
30.2075304157
  0
LWPOLYLINE
  5
5AA
330
220
100
AcDbEntity
  8
DEFAULT_2
  6
HIDDEN
 62
     7
100
AcDbPolyline
 90
        3
 70
     0
 43
0.0
 10
66.18955112800001
 20
30.1453169691
 10
66.3903412465
 20
30.1518882727
 10
67.0310569248
 20
30.1728980243
  0
LINE
  5
5AB
330
220
100
AcDbEntity
  8
DEFAULT_2
  6
HIDDEN
 62
     7
100
AcDbLine
 10
68.08402641319999
 20
30.2075304157
 30
0.0
 11
68.47107612870001
 21
30.2202656506
 31
0.0
  0
LINE
  5
5AC
330
220
100
AcDbEntity
  8
DEFAULT_2
  6
HIDDEN
 62
     7
100
AcDbLine
 10
74.5228423121
 20
30.4098788587
 30
0.0
 11
74.52745865899998
 21
30.410034621
 31
0.0
  0
LINE
  5
5AD
330
220
100
AcDbEntity
  8
DEFAULT_2
  6
HIDDEN
 62
     7
100
AcDbLine
 10
74.25818129560001
 20
30.4010734553
 30
0.0
 11
74.3639443696
 21
30.4045358036
 31
0.0
  0
LINE
  5
5AE
330
220
100
AcDbEntity
  8
DEFAULT_2
  6
HIDDEN
 62
     7
100
AcDbLine
 10
68.47107612870001
 20
30.2202656506
 30
0.0
 11
68.7947120816
 21
30.2308019892
 31
0.0
  0
LINE
  5
5AF
330
220
100
AcDbEntity
  8
DEFAULT_2
  6
HIDDEN
 62
     7
100
AcDbLine
 10
74.13512965799999
 20
30.3970939225
 30
0.0
 11
74.25818129560001
 21
30.4010734553
 31
0.0
  0
LINE
  5
5B0
330
220
100
AcDbEntity
  8
DEFAULT_2
  6
HIDDEN
 62
     7
100
AcDbLine
 10
68.7947120816
 20
30.2308019892
 30
0.0
 11
68.9609242879
 21
30.2361696597
 31
0.0
  0
LINE
  5
5B1
330
220
100
AcDbEntity
  8
DEFAULT_2
  6
HIDDEN
 62
     7
100
AcDbLine
 10
68.9609242879
 20
30.2361696597
 30
0.0
 11
69.19116488350001
 21
30.2435590902
 31
0.0
  0
LINE
  5
5B2
330
220
100
AcDbEntity
  8
DEFAULT_2
  6
HIDDEN
 62
     7
100
AcDbLine
 10
73.98934039470001
 20
30.3924282939
 30
0.0
 11
74.13512965799999
 21
30.3970939225
 31
0.0
  0
LINE
  5
5B3
330
220
100
AcDbEntity
  8
DEFAULT_2
  6
HIDDEN
 62
     7
100
AcDbLine
 10
69.19116488350001
 20
30.2435590902
 30
0.0
 11
69.3736337136
 21
30.2493796042
 31
0.0
  0
LINE
  5
5B4
330
220
100
AcDbEntity
  8
DEFAULT_2
  6
HIDDEN
 62
     7
100
AcDbLine
 10
73.74916320189999
 20
30.3848294557
 30
0.0
 11
73.98934039470001
 21
30.3924282939
 31
0.0
  0
LINE
  5
5B5
330
220
100
AcDbEntity
  8
DEFAULT_2
  6
HIDDEN
 62
     7
100
AcDbLine
 10
69.3736337136
 20
30.2493796042
 30
0.0
 11
69.7369477279
 21
30.2608836641
 31
0.0
  0
LINE
  5
5B6
330
220
100
AcDbEntity
  8
DEFAULT_2
  6
HIDDEN
 62
     7
100
AcDbLine
 10
69.7369477279
 20
30.2608836641
 30
0.0
 11
69.98101494869999
 21
30.2685542843
 31
0.0
  0
LINE
  5
5B7
330
220
100
AcDbEntity
  8
DEFAULT_2
  6
HIDDEN
 62
     7
100
AcDbLine
 10
73.4959831357
 20
30.3769048822
 30
0.0
 11
73.74916320189999
 21
30.3848294557
 31
0.0
  0
LINE
  5
5B8
330
220
100
AcDbEntity
  8
DEFAULT_2
  6
HIDDEN
 62
     7
100
AcDbLine
 10
69.98101494869999
 20
30.2685542843
 30
0.0
 11
70.25520865
 21
30.2771230231
 31
0.0
  0
LINE
  5
5B9
330
220
100
AcDbEntity
  8
DEFAULT_2
  6
HIDDEN
 62
     7
100
AcDbLine
 10
70.25520865
 20
30.2771230231
 30
0.0
 11
70.6296367677
 21
30.2887525172
 31
0.0
  0
LWPOLYLINE
  5
5BB
330
220
100
AcDbEntity
  8
DEFAULT_2
  6
HIDDEN
 62
     7
100
AcDbPolyline
 90
        3
 70
     0
 43
0.0
 10
72.87913882869999
 20
30.35781940130001
 10
73.0029656991
 20
30.3616329529
 10
73.4959831357
 20
30.3769048822
  0
LINE
  5
5BC
330
220
100
AcDbEntity
  8
DEFAULT_2
  6
HIDDEN
 62
     7
100
AcDbLine
 10
70.6296367677
 20
30.2887525172
 30
0.0
 11
71.0045679273
 21
30.3003299286
 31
0.0
  0
LWPOLYLINE
  5
5BD
330
220
100
AcDbEntity
  8
DEFAULT_2
  6
HIDDEN
 62
     7
100
AcDbPolyline
 90
        6
 70
     0
 43
0.0
 10
71.0045679273
 20
30.3003299286
 10
71.69904127409999
 20
30.3216530306
 10
71.9141897503
 20
30.3282409515
 10
72.1483938735
 20
30.3354096637
 10
72.3765366933
 20
30.3423949283
 10
72.87913882869999
 20
30.35781940130001
  0
LWPOLYLINE
  5
5BE
330
220
100
AcDbEntity
  8
DEFAULT_2
  6
HIDDEN
 62
     7
100
AcDbPolyline
 90
       17
 70
     0
 43
0.0
 10
62.10747890850001
 20
30.0150705902
 10
62.212051966
 20
30.0182323487
 10
62.3290219518
 20
30.0217920024
 10
62.45928268890001
 20
30.0257817561
 10
62.60378025560001
 20
30.0302355556
 10
62.7634841813
 20
30.0351884061
 10
62.9391780217
 20
30.0406697448
 10
63.1313717026
 20
30.0467003278
 10
63.3407567295
 20
30.0533063258
 10
63.57039276590001
 20
30.0605890165
 10
63.8247980909
 20
30.0686973062
 10
64.1084223917
 20
30.07777952530001
 10
64.425781524
 20
30.0879874663
 10
64.7683849939
 20
30.099052908
 10
65.1069635856
 20
30.1100274851
 10
65.42337507790001
 20
30.1203134357
 10
66.18955112800001
 20
30.1453169691
  0
LINE
  5
5BF
330
220
100
AcDbEntity
  8
DEFAULT_2
  6
HIDDEN
 62
     7
100
AcDbLine
 10
61.9317559265
 20
30.0098072614
 30
0.0
 11
62.10747890850001
 21
30.0150705902
 31
0.0
  0
LINE
  5
5C2
330
220
100
AcDbEntity
  8
DEFAULT_2
  6
HIDDEN
 62
     7
100
AcDbLine
 10
61.78807601369999
 20
30.0055552581
 30
0.0
 11
61.9317559265
 21
30.0098072614
 31
0.0
  0
LINE
  5
5C4
330
220
100
AcDbEntity
  8
DEFAULT_2
  6
HIDDEN
 62
     7
100
AcDbLine
 10
61.6556909408
 20
30.0016851314
 30
0.0
 11
61.78807601369999
 21
30.0055552581
 31
0.0
  0
LWPOLYLINE
  5
5C5
330
220
100
AcDbEntity
  8
DEFAULT_2
  6
HIDDEN
 62
     7
100
AcDbPolyline
 90
        7
 70
     0
 43
0.0
 10
61.1733940537
 20
29.9879686311
 10
61.247271192
 20
29.990094111
 10
61.31947296609999
 20
29.9921496223
 10
61.388748764
 20
29.9940882967
 10
61.4560656587
 20
29.9959712149
 10
61.5226058918
 20
29.9978561814
 10
61.6556909408
 20
30.0016851314
  0
LINE
  5
5C6
330
220
100
AcDbEntity
  8
DEFAULT_2
  6
HIDDEN
 62
     7
100
AcDbLine
 10
60.95282942619999
 20
29.9816210667
 30
0.0
 11
61.1733940537
 21
29.9879686311
 31
0.0
  0
LINE
  5
5C7
330
220
100
AcDbEntity
  8
DEFAULT_2
  6
HIDDEN
 62
     7
100
AcDbLine
 10
60.63743783239999
 20
29.9725863244
 30
0.0
 11
60.95282942619999
 21
29.9816210667
 31
0.0
  0
LINE
  5
5C8
330
220
100
AcDbEntity
  8
DEFAULT_2
  6
HIDDEN
 62
     7
100
AcDbLine
 10
60.3730688429
 20
29.9650643631
 30
0.0
 11
60.63743783239999
 21
29.9725863244
 31
0.0
  0
LINE
  5
5C9
330
220
100
AcDbEntity
  8
DEFAULT_2
  6
HIDDEN
 62
     7
100
AcDbLine
 10
60.1713465652
 20
29.9593662997
 30
0.0
 11
60.3730688429
 21
29.9650643631
 31
0.0
  0
LINE
  5
5CA
330
220
100
AcDbEntity
  8
DEFAULT_2
  6
HIDDEN
 62
     7
100
AcDbLine
 10
74.53706728649999
 20
30.4106301921
 30
0.0
 11
74.5380347963
 21
30.4106589745
 31
0.0
  0
LWPOLYLINE
  5
5D2
330
220
100
AcDbEntity
  8
DEFAULT_2
  6
HIDDEN
 62
     7
100
AcDbPolyline
 90
       15
 70
     0
 43
0.0
 10
56.124124293
 20
29.883969787
 10
56.6619832688
 20
29.8855695637
 10
57.1377137197
 20
29.8897739981
 10
57.54914618419999
 20
29.895581604
 10
57.9150453002
 20
29.9022461141
 10
58.2579290052
 20
29.9095100034
 10
58.5595539405
 20
29.9165230394
 10
58.8246134601
 20
29.9230550274
 10
59.060093123
 20
29.929085253
 10
59.2692585099
 20
29.9345861439
 10
59.45717080459999
 20
29.939623794
 10
59.6287808091
 20
29.9442909727
 10
59.78542466859999
 20
29.9485984879
 10
59.9272362301
 20
29.9525318857
 10
60.1713465652
 20
29.9593662997
  0
LINE
  5
5D4
330
220
100
AcDbEntity
  8
DEFAULT_2
  6
HIDDEN
 62
     7
100
AcDbLine
 10
57.39557090239999
 20
29.3384651481
 30
0.0
 11
54.85267768359999
 21
29.3384651481
 31
0.0
  0
LWPOLYLINE
  5
5D8
330
220
100
AcDbEntity
  8
DEFAULT_2
  6
HIDDEN
 62
     7
100
AcDbPolyline
 90
       14
 70
     0
 43
0.0
 10
52.3235482735
 20
29.9524612907
 10
52.4656595359
 20
29.9485201486
 10
52.6226202216
 20
29.9442047245
 10
52.79452304260001
 20
29.9395307094
 10
52.9826922804
 20
29.9344877467
 10
53.1921297589
 20
29.9289819565
 10
53.4278809793
 20
29.922948106
 10
53.6932203057
 20
29.9164142445
 10
53.99515721109999
 20
29.9094018238
 10
54.3380148574
 20
29.9021505746
 10
54.70352717229999
 20
29.8955090669
 10
55.11495427939999
 20
29.8897223679
 10
55.58946395989999
 20
29.8855504147
 10
56.124124293
 20
29.883969787
  0
LINE
  5
5D9
330
220
100
AcDbEntity
  8
DEFAULT_2
  6
HIDDEN
 62
     7
100
AcDbLine
 10
52.0778086892
 20
29.9593407838
 30
0.0
 11
52.3235482735
 21
29.9524612907
 31
0.0
  0
LINE
  5
5DA
330
220
100
AcDbEntity
  8
DEFAULT_2
  6
HIDDEN
 62
     7
100
AcDbLine
 10
50.80520940939999
 20
29.9956048609
 30
0.0
 11
50.9437030637
 21
29.9917278377
 31
0.0
  0
LINE
  5
5DB
330
220
100
AcDbEntity
  8
DEFAULT_2
  6
HIDDEN
 62
     7
100
AcDbLine
 10
51.78093909850001
 20
29.9677394268
 30
0.0
 11
52.0778086892
 21
29.9593407838
 31
0.0
  0
LWPOLYLINE
  5
5DC
330
220
100
AcDbEntity
  8
DEFAULT_2
  6
HIDDEN
 62
     7
100
AcDbPolyline
 90
        3
 70
     0
 43
0.0
 10
50.6695383252
 20
29.9994615492
 10
50.7373570867
 20
29.9975227636
 10
50.80520940939999
 20
29.9956048609
  0
LINE
  5
5DD
330
220
100
AcDbEntity
  8
DEFAULT_2
  6
HIDDEN
 62
     7
100
AcDbLine
 10
51.61013932020001
 20
29.9726054937
 30
0.0
 11
51.78093909850001
 21
29.9677394268
 31
0.0
  0
LWPOLYLINE
  5
5DE
330
220
100
AcDbEntity
  8
DEFAULT_2
  6
HIDDEN
 62
     7
100
AcDbPolyline
 90
        6
 70
     0
 43
0.0
 10
50.9437030637
 20
29.9917278377
 10
51.08908319939999
 20
29.9875591211
 10
51.1619102851
 20
29.9854621745
 10
51.2347267161
 20
29.9833661843
 10
51.3076523047
 20
29.9812695479
 10
51.61013932020001
 20
29.9726054937
  0
LINE
  5
5DF
330
220
100
AcDbEntity
  8
DEFAULT_2
  6
HIDDEN
 62
     7
100
AcDbLine
 10
50.53410914189999
 20
30.0033876011
 30
0.0
 11
50.6695383252
 21
29.9994615492
 31
0.0
  0
LINE
  5
5E0
330
220
100
AcDbEntity
  8
DEFAULT_2
  6
HIDDEN
 62
     7
100
AcDbLine
 10
50.3962237061
 20
30.0074415594
 30
0.0
 11
50.53410914189999
 21
30.0033876011
 31
0.0
  0
LWPOLYLINE
  5
5E1
330
220
100
AcDbEntity
  8
DEFAULT_2
  6
HIDDEN
 62
     7
100
AcDbPolyline
 90
        3
 70
     0
 43
0.0
 10
39.6956222674
 20
30.3477913289
 10
39.8942436888
 20
30.3417048075
 10
40.1259975186
 20
30.3346094556
  0
LINE
  5
5E2
330
220
100
AcDbEntity
  8
DEFAULT_2
  6
HIDDEN
 62
     7
100
AcDbLine
 10
39.2560569077
 20
30.3613008625
 30
0.0
 11
39.6956222674
 21
30.3477913289
 31
0.0
  0
LINE
  5
5E3
330
220
100
AcDbEntity
  8
DEFAULT_2
  6
HIDDEN
 62
     7
100
AcDbLine
 10
40.1259975186
 20
30.3346094556
 30
0.0
 11
41.2666279532
 21
30.2996229831
 31
0.0
  0
LINE
  5
5E4
330
220
100
AcDbEntity
  8
DEFAULT_2
  6
HIDDEN
 62
     7
100
AcDbLine
 10
41.2666279532
 20
30.2996229831
 30
0.0
 11
41.742315325
 21
30.2849186524
 31
0.0
  0
LINE
  5
5E5
330
220
100
AcDbEntity
  8
DEFAULT_2
  6
HIDDEN
 62
     7
100
AcDbLine
 10
38.9691829639
 20
30.3701649515
 30
0.0
 11
39.2560569077
 21
30.3613008625
 31
0.0
  0
LINE
  5
5E6
330
220
100
AcDbEntity
  8
DEFAULT_2
  6
HIDDEN
 62
     7
100
AcDbLine
 10
41.742315325
 20
30.2849186524
 30
0.0
 11
42.0127267366
 21
30.2765093803
 31
0.0
  0
LINE
  5
5E7
330
220
100
AcDbEntity
  8
DEFAULT_2
  6
HIDDEN
 62
     7
100
AcDbLine
 10
38.5599092893
 20
30.3829187333
 30
0.0
 11
38.9691829639
 21
30.3701649515
 31
0.0
  0
LINE
  5
5E8
330
220
100
AcDbEntity
  8
DEFAULT_2
  6
HIDDEN
 62
     7
100
AcDbLine
 10
42.0127267366
 20
30.2765093803
 30
0.0
 11
42.2866284219
 21
30.2679463009
 31
0.0
  0
LINE
  5
5E9
330
220
100
AcDbEntity
  8
DEFAULT_2
  6
HIDDEN
 62
     7
100
AcDbLine
 10
42.2866284219
 20
30.2679463009
 30
0.0
 11
42.5390145418
 21
30.2600098734
 31
0.0
  0
LINE
  5
5EA
330
220
100
AcDbEntity
  8
DEFAULT_2
  6
HIDDEN
 62
     7
100
AcDbLine
 10
38.31482490320001
 20
30.3906505243
 30
0.0
 11
38.5599092893
 21
30.3829187333
 31
0.0
  0
LINE
  5
5EB
330
220
100
AcDbEntity
  8
DEFAULT_2
  6
HIDDEN
 62
     7
100
AcDbLine
 10
42.5390145418
 20
30.2600098734
 30
0.0
 11
42.7412381574
 21
30.253615535
 31
0.0
  0
LINE
  5
5EC
330
220
100
AcDbEntity
  8
DEFAULT_2
  6
HIDDEN
 62
     7
100
AcDbLine
 10
42.7412381574
 20
30.253615535
 30
0.0
 11
43.0079740301
 21
30.2451286166
 31
0.0
  0
LINE
  5
5ED
330
220
100
AcDbEntity
  8
DEFAULT_2
  6
HIDDEN
 62
     7
100
AcDbLine
 10
38.159940662
 20
30.3955902893
 30
0.0
 11
38.31482490320001
 21
30.3906505243
 31
0.0
  0
LINE
  5
5EE
330
220
100
AcDbEntity
  8
DEFAULT_2
  6
HIDDEN
 62
     7
100
AcDbLine
 10
43.0079740301
 20
30.2451286166
 30
0.0
 11
43.1870750815
 21
30.2393935278
 31
0.0
  0
LINE
  5
5EF
330
220
100
AcDbEntity
  8
DEFAULT_2
  6
HIDDEN
 62
     7
100
AcDbLine
 10
43.1870750815
 20
30.2393935278
 30
0.0
 11
43.4929243844
 21
30.2295258191
 31
0.0
  0
LINE
  5
5F0
330
220
100
AcDbEntity
  8
DEFAULT_2
  6
HIDDEN
 62
     7
100
AcDbLine
 10
37.9563929948
 20
30.402170755
 30
0.0
 11
38.159940662
 21
30.3955902893
 31
0.0
  0
LWPOLYLINE
  5
5F1
330
220
100
AcDbEntity
  8
DEFAULT_2
  6
HIDDEN
 62
     7
100
AcDbPolyline
 90
       18
 70
     0
 43
0.0
 10
46.7407186542
 20
30.1230534804
 10
47.0337577413
 20
30.1135199821
 10
47.3507979799
 20
30.1032321639
 10
47.6868337113
 20
30.0923629555
 10
48.0231335206
 20
30.0815277969
 10
48.3344772517
 20
30.0715418789
 10
48.6083093063
 20
30.0628016394
 10
48.8513734331
 20
30.0550826141
 10
49.0704333514
 20
30.0481625282
 10
49.2709378547
 20
30.04186353570001
 10
49.454206618
 20
30.0361394161
 10
49.6207871144
 20
30.0309680498
 10
49.7714920943
 20
30.0263188493
 10
49.9073828026
 20
30.0221536954
 10
50.0294658532
 20
30.018436544
 10
50.1384617235
 20
30.0151401452
 10
50.234989021
 20
30.0122403874
 10
50.3962237061
 20
30.0074415594
  0
LWPOLYLINE
  5
5F2
330
220
100
AcDbEntity
  8
DEFAULT_2
  6
HIDDEN
 62
     7
100
AcDbPolyline
 90
        4
 70
     0
 43
0.0
 10
45.61972458199999
 20
30.1596917195
 10
45.8026950977
 20
30.1536963799
 10
46.0046330673
 20
30.1470856739
 10
46.7407186542
 20
30.1230534804
  0
LINE
  5
5F3
330
220
100
AcDbEntity
  8
DEFAULT_2
  6
HIDDEN
 62
     7
100
AcDbLine
 10
43.4929243844
 20
30.2295258191
 30
0.0
 11
43.76204254100001
 21
30.220760981
 31
0.0
  0
LWPOLYLINE
  5
5F4
330
220
100
AcDbEntity
  8
DEFAULT_2
  6
HIDDEN
 62
     7
100
AcDbPolyline
 90
       16
 70
     0
 43
0.0
 10
43.98274692770001
 20
30.2135089739
 10
44.11598695699999
 20
30.2091193858
 10
44.1437224814
 20
30.20820570150001
 10
44.17465633189999
 20
30.2071867127
 10
44.20893708609999
 20
30.2060575615
 10
44.246719136
 20
30.2048132096
 10
44.2881845544
 20
30.203447703
 10
44.33354755769999
 20
30.2019540313
 10
44.38329987270001
 20
30.2003160558
 10
44.43878570329999
 20
30.198489592
 10
44.501434966
 20
30.1964276694
 10
44.57181048
 20
30.1941118908
 10
44.64987799319999
 20
30.1915435294
 10
44.7356179435
 20
30.1887234077
 10
44.8292835667
 20
30.1856434211
 10
45.61972458199999
 20
30.1596917195
  0
LWPOLYLINE
  5
5F5
330
220
100
AcDbEntity
  8
DEFAULT_2
  6
HIDDEN
 62
     7
100
AcDbPolyline
 90
        9
 70
     0
 43
0.0
 10
43.76204254100001
 20
30.220760981
 10
43.8769309693
 20
30.2169921417
 10
43.8883611784
 20
30.2166162765
 10
43.90016018559999
 20
30.2162281546
 10
43.91287070529999
 20
30.2158099184
 10
43.92704243999999
 20
30.2153434624
 10
43.94320332289999
 20
30.2148113842
 10
43.96185487989999
 20
30.2141971448
 10
43.98274692770001
 20
30.2135089739
  0
LINE
  5
5F6
330
220
100
AcDbEntity
  8
DEFAULT_2
  6
HIDDEN
 62
     7
100
AcDbLine
 10
37.8501493874
 20
30.4056663095
 30
0.0
 11
37.9563929948
 21
30.402170755
 31
0.0
  0
LWPOLYLINE
  5
5F7
330
220
100
AcDbEntity
  8
DEFAULT_2
  6
HIDDEN
 62
     7
100
AcDbPolyline
 90
        3
 70
     0
 43
0.0
 10
37.7413237107
 20
30.4093141303
 10
37.78666910670001
 20
30.4077919464
 10
37.8501493874
 20
30.4056663095
  0
LINE
  5
5F8
330
220
100
AcDbEntity
  8
DEFAULT_2
  6
HIDDEN
 62
     7
100
AcDbLine
 10
54.1509830241
 20
29.8418590041
 30
0.0
 11
37.7265590397
 21
30.4098375108
 31
0.0
  0
LINE
  5
684
330
220
100
AcDbEntity
  8
DEFAULT_2
  6
HIDDEN
 62
     7
100
AcDbLine
 10
26.9012186953
 20
49.1803905021
 30
0.0
 11
23.8951442779
 21
49.3382501494
 31
0.0
  0
LINE
  5
6E1
330
220
100
AcDbEntity
  8
DEFAULT_2
  6
HIDDEN
 62
     7
100
AcDbLine
 10
85.3470298907
 20
49.1803905021
 30
0.0
 11
88.3531043081
 21
49.3382501494
 31
0.0
  0
LINE
  5
746
330
220
100
AcDbEntity
  8
DEFAULT_2
  6
HIDDEN
 62
     7
100
AcDbLine
 10
77.3060525425
 20
33.10893941320001
 30
0.0
 11
77.2985301902
 21
33.0925511744
 31
0.0
  0
LINE
  5
747
330
220
100
AcDbEntity
  8
DEFAULT_2
  6
HIDDEN
 62
     7
100
AcDbLine
 10
77.3148101761
 20
33.1279325004
 30
0.0
 11
77.3060525425
 21
33.10893941320001
 31
0.0
  0
LINE
  5
748
330
220
100
AcDbEntity
  8
DEFAULT_2
  6
HIDDEN
 62
     7
100
AcDbLine
 10
77.32547509319999
 20
33.1509405304
 30
0.0
 11
77.3148101761
 21
33.1279325004
 31
0.0
  0
LINE
  5
749
330
220
100
AcDbEntity
  8
DEFAULT_2
  6
HIDDEN
 62
     7
100
AcDbLine
 10
76.72053497669999
 20
31.8530364322
 30
0.0
 11
77.298530368
 21
33.0925515489
 31
0.0
  0
LINE
  5
74A
330
220
100
AcDbEntity
  8
DEFAULT_2
  6
HIDDEN
 62
     7
100
AcDbLine
 10
77.364564121
 20
33.23416138920001
 30
0.0
 11
84.570251565
 21
48.68680797989999
 31
0.0
  0
LINE
  5
74B
330
220
100
AcDbEntity
  8
DEFAULT_2
  6
HIDDEN
 62
     7
100
AcDbLine
 10
77.3370562261
 20
33.1757766021
 30
0.0
 11
77.32547509319999
 21
33.1509405304
 31
0.0
  0
LINE
  5
74C
330
220
100
AcDbEntity
  8
DEFAULT_2
  6
HIDDEN
 62
     7
100
AcDbLine
 10
77.3478386767
 20
33.1987630862
 30
0.0
 11
77.3370562261
 21
33.1757766021
 31
0.0
  0
LINE
  5
74D
330
220
100
AcDbEntity
  8
DEFAULT_2
  6
HIDDEN
 62
     7
100
AcDbLine
 10
77.3645642936
 20
33.2341617661
 30
0.0
 11
77.3478386767
 21
33.1987630862
 31
0.0
  0
LWPOLYLINE
  5
74E
330
220
100
AcDbEntity
  8
DEFAULT_2
  6
HIDDEN
 62
     7
100
AcDbPolyline
 90
       46
 70
     0
 43
0.0
 10
76.72053497520001
 20
31.8530364329
 10
76.6940203634
 20
31.7979454204
 10
76.6661624422
 20
31.7435110662
 10
76.63698070889999
 20
31.689772006
 10
76.6064944525
 20
31.6367653745
 10
76.5747221364
 20
31.5845223111
 10
76.541682016
 20
31.5330724541
 10
76.50739287819999
 20
31.4824455361
 10
76.4718756483
 20
31.4326716833
 10
76.43515178289999
 20
31.3837811158
 10
76.39724304720001
 20
31.3358036848
 10
76.3581724586
 20
31.2887677894
 10
76.3179633429
 20
31.2427014595
 10
76.2766393663
 20
31.1976324466
 10
76.23422558369999
 20
31.1535874172
 10
76.19074739040001
 20
31.1105927595
 10
76.14623048359999
 20
31.0686745273
 10
76.10070180210001
 20
31.0278574717
 10
76.05418858680001
 20
30.9881660093
 10
76.0067183585
 20
30.9496242089
 10
75.9583198003
 20
30.9122547828
 10
75.90902187560001
 20
30.8760800953
 10
75.8588537992
 20
30.8411221403
 10
75.80784584209999
 20
30.8074014661
 10
75.756028527
 20
30.7749382507
 10
75.70343260029999
 20
30.7437522845
 10
75.65008976119999
 20
30.7138618418
 10
75.5960319332
 20
30.6852848092
 10
75.5412912313
 20
30.6580386703
 10
75.4859006003
 20
30.6321393264
 10
75.4298931772
 20
30.6076022751
 10
75.3733022696
 20
30.5844425981
 10
75.31616193409999
 20
30.5626737394
 10
75.2585063983
 20
30.5423087266
 10
75.20036999520001
 20
30.523360159
 10
75.1417875466
 20
30.5058389454
 10
75.0827939801
 20
30.489755566
 10
75.02342442559999
 20
30.4751200686
 10
74.96371489080001
 20
30.4619407885
 10
74.9037015863
 20
30.4502256282
 10
74.8434204129
 20
30.4399820356
 10
74.78290610080001
 20
30.4312156507
 10
74.72219307100001
 20
30.4239316588
 10
74.66131719439999
 20
30.4181348467
 10
74.60032020629999
 20
30.4138284158
 10
74.5392452919
 20
30.4110151687
  0
LINE
  5
74F
330
220
100
AcDbEntity
  8
DEFAULT_2
  6
HIDDEN
 62
     7
100
AcDbLine
 10
57.5723475977
 20
29.4116884528
 30
0.0
 11
57.9300708034
 21
29.7694116585
 31
0.0
  0
LINE
  5
1577
330
220
100
AcDbEntity
  8
0
  6
Continuous
 62
     7
100
AcDbLine
 10
23.2026803092
 20
48.73636452159999
 30
0.0
 11
23.124124293
 21
47.8384651481
 31
0.0
  0
LINE
  5
1578
330
220
100
AcDbEntity
  8
0
  6
Continuous
 62
     7
100
AcDbLine
 10
26.6348367779
 20
24.2404660446
 30
0.0
 11
26.57779409090001
 21
23.5884651481
 31
0.0
  0
LINE
  5
1579
330
220
100
AcDbEntity
  8
0
  6
Continuous
 62
     7
100
AcDbLine
 10
26.1316682502
 20
43.27263412079999
 30
0.0
 11
26.1341703912
 21
43.266333873
 31
0.0
  0
LWPOLYLINE
  5
157A
330
220
100
AcDbEntity
  8
0
  6
Continuous
 62
     7
100
AcDbPolyline
 90
       17
 70
     0
 43
0.0
 10
29.7471610956
 20
30.91697341070001
 10
29.5894567191
 20
31.7067798993
 10
29.4225510679
 20
32.4946682059
 10
29.2464679275
 20
33.2805228774
 10
29.0612241222
 20
34.0642603544
 10
28.8668398068
 20
34.8457978284
 10
28.6633454091
 20
35.625021508
 10
28.450768345
 20
36.4018299671
 10
28.2291410039
 20
37.1761040019
 10
27.9984972963
 20
37.9477216285
 10
27.7588626091
 20
38.7165904757
 10
27.5102670956
 20
39.4826117545
 10
27.25274509010001
 20
40.2456873821
 10
26.9863255395
 20
41.00573456929999
 10
26.7110587695
 20
41.7626098327
 10
26.426995896
 20
42.51617314079999
 10
26.1341703912
 20
43.266333873
  0
LINE
  5
157B
330
220
100
AcDbEntity
  8
0
  6
Continuous
 62
     7
100
AcDbLine
 10
28.6897814799
 20
27.9035277855
 30
0.0
 11
28.3114975642
 21
26.4917529924
 31
0.0
  0
LWPOLYLINE
  5
157C
330
220
100
AcDbEntity
  8
0
  6
Continuous
 62
     7
100
AcDbPolyline
 90
        7
 70
     0
 43
0.0
 10
24.1494454565
 20
47.78604293899999
 10
24.50210166130001
 20
47.04389257179999
 10
24.8459196412
 20
46.2975397342
 10
25.1808617457
 20
45.54706479439999
 10
25.5068455923
 20
44.79264997229999
 10
25.8237924336
 20
44.03447908859999
 10
26.1316682502
 20
43.27263412079999
  0
LINE
  5
157D
330
220
100
AcDbEntity
  8
0
  6
Continuous
 62
     7
100
AcDbLine
 10
26.57779409090001
 20
23.5884651481
 30
0.0
 11
85.67045449510001
 21
23.5884651481
 31
0.0
  0
LINE
  5
157E
330
220
100
AcDbEntity
  8
0
  6
Continuous
 62
     7
100
AcDbLine
 10
85.43693787699998
 20
24.5268076439
 30
0.0
 11
59.6237662701
 21
24.5268071247
 31
0.0
  0
LINE
  5
157F
330
220
100
AcDbEntity
  8
0
  6
Continuous
 62
     7
100
AcDbLine
 10
26.811310709
 20
24.5268076439
 30
0.0
 11
52.62448231989999
 21
24.5268071304
 31
0.0
  0
LINE
  5
1580
330
220
100
AcDbEntity
  8
0
  6
Continuous
 62
     7
100
AcDbLine
 10
83.93675102180001
 20
26.4917529924
 30
0.0
 11
59.1138665329
 21
26.4917560134
 31
0.0
  0
LINE
  5
1581
330
220
100
AcDbEntity
  8
0
  6
Continuous
 62
     7
100
AcDbLine
 10
28.3114975642
 20
26.4917529924
 30
0.0
 11
53.1343820327
 21
26.491755822
 31
0.0
  0
LINE
  5
1582
330
220
100
AcDbEntity
  8
0
  6
Continuous
 62
     7
100
AcDbLine
 10
83.5584671061
 20
27.9035277855
 30
0.0
 11
58.9603579595
 21
27.9035212273
 31
0.0
  0
LINE
  5
1583
330
220
100
AcDbEntity
  8
0
  6
Continuous
 62
     7
100
AcDbLine
 10
28.6897814799
 20
27.9035277855
 30
0.0
 11
53.2878906534
 21
27.9035214441
 31
0.0
  0
LWPOLYLINE
  5
1584
330
220
100
AcDbEntity
  8
0
  6
Continuous
 62
     7
100
AcDbPolyline
 90
       47
 70
     0
 43
0.0
 10
55.4834688033
 20
29.4744450853
 10
55.4043500757
 20
29.4737712757
 10
55.3252805904
 20
29.4719750027
 10
55.2461686004
 20
29.469039419
 10
55.1673087492
 20
29.4649451285
 10
55.0888936539
 20
29.4596558634
 10
55.0111112409
 20
29.4531504759
 10
54.9341467759
 20
29.4453882009
 10
54.8581747587
 20
29.4363441796
 10
54.78337082479999
 20
29.4259767242
 10
54.7098918104
 20
29.4142608053
 10
54.637920746
 20
29.4011640722
 10
54.5675199679
 20
29.3866485168
 10
54.49878879949999
 20
29.3706754558
 10
54.4317875367
 20
29.3532072305
 10
54.3665738709
 20
29.33419931739999
 10
54.3032493104
 20
29.3136377309
 10
54.2419158347
 20
29.2915042002
 10
54.1826231949
 20
29.2677915407
 10
54.1254886771
 20
29.2425205268
 10
54.0704099356
 20
29.2156260945
 10
54.0173154466
 20
29.1870548876
 10
53.9662404827
 20
29.1568062912
 10
53.91719689550001
 20
29.1248711932
 10
53.8701881729
 20
29.0912568341
 10
53.8252737329
 20
29.0560207344
 10
53.7823029091
 20
29.0190460073
 10
53.7411439917
 20
28.9802325552
 10
53.7018129893
 20
28.9395786322
 10
53.664276039
 20
28.8970421877
 10
53.62855757430001
 20
28.8526670666
 10
53.59469953819999
 20
28.8065264747
 10
53.5626196689
 20
28.7585385209
 10
53.5322471282
 20
28.7086288612
 10
53.503597591
 20
28.6568563994
 10
53.47667492279999
 20
28.6032665393
 10
53.4514484782
 20
28.5478681432
 10
53.4278997834
 20
28.4906908577
 10
53.40600130430001
 20
28.4317515665
 10
53.3857235394
 20
28.3710559853
 10
53.3670587542
 20
28.3086984571
 10
53.3499999901
 20
28.244772626
 10
53.3345190387
 20
28.1793323494
 10
53.3205968824
 20
28.1124742594
 10
53.3082026898
 20
28.0441995021
 10
53.29729713609999
 20
27.9745311691
 10
53.2878905351
 20
27.9035214434
  0
LINE
  5
1585
330
220
100
AcDbEntity
  8
0
  6
Continuous
 62
     7
100
AcDbLine
 10
56.1789685525
 20
28.7469587971
 30
0.0
 11
56.7329278206
 21
28.7469587971
 31
0.0
  0
LINE
  5
1586
330
220
100
AcDbEntity
  8
0
  6
Continuous
 62
     7
100
AcDbLine
 10
56.04912088109999
 20
28.8271991685
 30
0.0
 11
56.5849769355
 21
28.8271991685
 31
0.0
  0
LINE
  5
1587
330
220
100
AcDbEntity
  8
0
  6
Continuous
 62
     7
100
AcDbLine
 10
81.93770905799999
 20
29.5543512735
 30
0.0
 11
30.3105395279
 21
29.5543512735
 31
0.0
  0
LINE
  5
1588
330
220
100
AcDbEntity
  8
0
  6
Continuous
 62
     7
100
AcDbLine
 10
55.4834688033
 20
29.4744450853
 30
0.0
 11
56.23002936909999
 21
29.474930401
 31
0.0
  0
LWPOLYLINE
  5
1589
330
220
100
AcDbEntity
  8
0
  6
Continuous
 62
     7
100
AcDbPolyline
 90
        3
 70
     0
 43
0.0
 10
56.23002936909999
 20
29.474930401
 10
56.657135663
 20
29.4745986954
 10
56.7647797827
 20
29.4744450853
  0
LWPOLYLINE
  5
158A
330
220
100
AcDbEntity
  8
0
  6
Continuous
 62
     7
100
AcDbPolyline
 90
       47
 70
     0
 43
0.0
 10
56.7647797827
 20
29.4744450853
 10
56.8438954188
 20
29.4737712976
 10
56.9229607929
 20
29.4719752121
 10
57.00206712189999
 20
29.4690400119
 10
57.08092142499999
 20
29.4649462274
 10
57.15933281109999
 20
29.4596575278
 10
57.2371124801
 20
29.4531527646
 10
57.3140748786
 20
29.4453911553
 10
57.3900455041
 20
29.436347823
 10
57.4648488406
 20
29.4259810169
 10
57.538327407
 20
29.4142658126
 10
57.6102974537
 20
29.4011699654
 10
57.68069704470001
 20
29.3866554331
 10
57.74942645300001
 20
29.3706837029
 10
57.81642706100001
 20
29.3532166051
 10
57.8816426307
 20
29.3342092164
 10
57.9449717858
 20
29.3136471476
 10
58.0063141147
 20
29.291511222
 10
58.065616972
 20
29.2677950885
 10
58.12276114
 20
29.2425198964
 10
58.17784785029999
 20
29.2156213856
 10
58.2309462114
 20
29.1870475586
 10
58.2820230491
 20
29.1567970171
 10
58.3310683242
 20
29.1248597866
 10
58.37807688729999
 20
29.0912444999
 10
58.4229875828
 20
29.0560103562
 10
58.4659531783
 20
29.0190392589
 10
58.5071061539
 20
28.98023120860001
 10
58.5464326578
 20
28.9395818191
 10
58.5839696797
 20
28.8970455233
 10
58.6196905129
 20
28.8526677189
 10
58.6535528722
 20
28.8065207089
 10
58.68563642609999
 20
28.7585267513
 10
58.71600817979999
 20
28.7086175648
 10
58.74465596939999
 20
28.6568469641
 10
58.7715785611
 20
28.603256237
 10
58.7968052967
 20
28.5478561607
 10
58.8203542406
 20
28.4906769143
 10
58.8422528953
 20
28.4317356352
 10
58.8625304426
 20
28.3710390603
 10
58.88119507989999
 20
28.3086798968
 10
58.89825432439999
 20
28.2447496532
 10
58.91373576100001
 20
28.1793043709
 10
58.927658195
 20
28.1124400929
 10
58.9400518026
 20
28.0441645299
 10
58.9509551063
 20
27.974508213
 10
58.9603580817
 20
27.9035212267
  0
LINE
  5
158B
330
220
100
AcDbEntity
  8
DEFAULT_1
  6
CENTER
 62
     7
100
AcDbLine
 10
50.4509902539
 20
30.0162087836
 30
0.0
 11
48.45295156239999
 21
30.0788088665
 31
0.0
  0
LWPOLYLINE
  5
158C
330
220
100
AcDbEntity
  8
0
  6
Continuous
 62
     7
100
AcDbPolyline
 90
       15
 70
     0
 43
0.0
 10
56.5098604137
 20
28.4699983773
 10
56.5127289483
 20
28.4694428864
 10
56.51562681539999
 20
28.46889795
 10
56.5186068805
 20
28.4683570046
 10
56.5217168563
 20
28.46781616
 10
56.52500430029999
 20
28.4672735897
 10
56.5285230121
 20
28.4667289774
 10
56.5323054863
 20
28.4661880032
 10
56.5363865807
 20
28.4656586946
 10
56.5408142021
 20
28.4651509183
 10
56.5456513785
 20
28.464677746
 10
56.55088674459999
 20
28.4642638372
 10
56.5565256625
 20
28.4639341388
 10
56.5625701131
 20
28.463716069
 10
56.5688639627
 20
28.4636391731
  0
LINE
  5
158D
330
220
100
AcDbEntity
  8
0
  6
Continuous
 62
     7
100
AcDbLine
 10
56.5056604321
 20
28.4708374693
 30
0.0
 11
56.5098604137
 21
28.4699983773
 31
0.0
  0
LWPOLYLINE
  5
158E
330
220
100
AcDbEntity
  8
0
  6
Continuous
 62
     7
100
AcDbPolyline
 90
       13
 70
     0
 43
0.0
 10
48.1309658367
 20
47.8384651481
 10
48.1312522208
 20
47.8369535966
 10
48.1317516065
 20
47.83370581879999
 10
48.1322315608
 20
47.82995210569999
 10
48.13268934359999
 20
47.82571389149999
 10
48.1331223412
 20
47.82101537649999
 10
48.1335280815
 20
47.8158833895
 10
48.13390424819999
 20
47.8103472347
 10
48.1342486936
 20
47.8044385237
 10
48.1345594514
 20
47.7981909957
 10
48.13483474739999
 20
47.7916403246
 10
48.1350730101
 20
47.78482391499999
 10
48.1352728793
 20
47.7777806891
  0
LWPOLYLINE
  5
158F
330
220
100
AcDbEntity
  8
0
  6
Continuous
 62
     7
100
AcDbPolyline
 90
       13
 70
     0
 43
0.0
 10
48.18587386479999
 20
47.8384651481
 10
48.186157208
 20
47.8369593782
 10
48.1866530575
 20
47.833712685
 10
48.18712965999999
 20
47.8299601731
 10
48.1875842958
 20
47.82572326359999
 10
48.1880143709
 20
47.82102614270001
 10
48.18841743130001
 20
47.81589562359999
 10
48.18879117729999
 20
47.8103609939
 10
48.1891334766
 20
47.8044538477
 10
48.1894423763
 20
47.79820790569999
 10
48.1897161142
 20
47.7916588227
 10
48.1899531288
 20
47.78484398369999
 10
48.1901520683
 20
47.77780229109999
  0
LWPOLYLINE
  5
1590
330
220
100
AcDbEntity
  8
0
  6
Continuous
 62
     7
100
AcDbPolyline
 90
       13
 70
     0
 43
0.0
 10
48.1948025109
 20
47.8384651481
 10
48.19508462339999
 20
47.8369650185
 10
48.19558024029999
 20
47.833718313
 10
48.19605668
 20
47.82996580149999
 10
48.1965112229
 20
47.8257289047
 10
48.1969412743
 20
47.8210318083
 10
48.19734437939999
 20
47.81590132469999
 10
48.197718237
 20
47.8103667406
 10
48.19806071310001
 20
47.8044596492
 10
48.1983698528
 20
47.79821377010001
 10
48.1986438913
 20
47.7916647569
 10
48.19888126430001
 20
47.78484999369999
 10
48.1990806169
 20
47.7778083814
  0
LWPOLYLINE
  5
1591
330
220
100
AcDbEntity
  8
0
  6
Continuous
 62
     7
100
AcDbPolyline
 90
       67
 70
     0
 43
0.0
 10
48.199033641
 20
47.77780863199999
 10
48.32076914319999
 20
47.03284396729999
 10
48.440796471
 20
46.2521016881
 10
48.56231711149999
 20
45.42091136709999
 10
48.6796112341
 20
44.5906049092
 10
48.7880733847
 20
43.81136266499999
 10
48.8909128272
 20
43.0749400127
 10
48.9883295413
 20
42.3904536213
 10
49.0821896198
 20
41.75166610719999
 10
49.173530209
 20
41.1557311371
 10
49.2632504253
 20
40.5989993811
 10
49.3519644985
 20
40.0785117528
 10
49.440721293
 20
39.588321628
 10
49.53066116239999
 20
39.1224100585
 10
49.6222912609
 20
38.67850287920001
 10
49.7164740053
 20
38.2528781316
 10
49.81358908109999
 20
37.8443831576
 10
49.9145029836
 20
37.4500856794
 10
50.0188493913
 20
37.0719821359
 10
50.1270340277
 20
36.7088684235
 10
50.2371090226
 20
36.3667510132
 10
50.3463906896
 20
36.0517640218
 10
50.45544728
 20
35.7595974602
 10
50.5639208916
 20
35.4889275561
 10
50.67202243739999
 20
35.2371875446
 10
50.7800123164
 20
35.0020831297
 10
50.8878763801
 20
34.7822048968
 10
50.9958047117
 20
34.5759203819
 10
51.1038078584
 20
34.3821362455
 10
51.21204454279999
 20
34.1996355887
 10
51.32054420100001
 20
34.0275622921
 10
51.4294490328
 20
33.8649870769
 10
51.5388045369
 20
33.7112311872
 10
51.64874812449999
 20
33.5655707911
 10
51.7593358339
 20
33.42746985530001
 10
51.870698746
 20
33.29636321050001
 10
51.9829060721
 20
33.1718239056
 10
52.0960803678
 20
33.05341666050001
 10
52.2103269918
 20
32.9407751902
 10
52.3257951187
 20
32.8335374687
 10
52.4426002884
 20
32.7314168821
 10
52.5609062959
 20
32.6341231568
 10
52.68082389939999
 20
32.5414481407
 10
52.8025037323
 20
32.4531837414
 10
52.92608991399999
 20
32.3691605067
 10
53.0517455551
 20
32.2892259045
 10
53.17966510859999
 20
32.2132367082
 10
53.3100622935
 20
32.1410698873
 10
53.443140221
 20
32.0726380707
 10
53.5791490605
 20
32.00785939380001
 10
53.71825872289999
 20
31.9467177873
 10
53.8611026256
 20
31.8890356085
 10
54.0066122161
 20
31.8353145792
 10
54.1541182743
 20
31.7857789833
 10
54.3026870754
 20
31.7406422111
 10
54.450830933
 20
31.7001510638
 10
54.59911405869999
 20
31.6639199702
 10
54.7475550783
 20
31.6317549768
 10
54.8963941526
 20
31.6034393091
 10
55.0458406126
 20
31.5787937854
 10
55.1960430803
 20
31.5576761169
 10
55.3472034155
 20
31.5399635729
 10
55.49948516579999
 20
31.5255633826
 10
55.6530645582
 20
31.5144029917
 10
55.808191647
 20
31.5064283709
 10
55.96527920999999
 20
31.5016081702
 10
56.12412429009999
 20
31.4999484688
  0
LINE
  5
1592
330
220
100
AcDbEntity
  8
0
  6
Continuous
 62
     7
100
AcDbLine
 10
52.5996842796
 20
23.5884651481
 30
0.0
 11
52.5962387121
 21
24.2404660664
 31
0.0
  0
LINE
  5
1593
330
220
100
AcDbEntity
  8
0
  6
Continuous
 62
     7
100
AcDbLine
 10
53.85647671520001
 20
47.8384651481
 30
0.0
 11
53.8563502493
 21
47.80948215569999
 31
0.0
  0
LINE
  5
1594
330
220
100
AcDbEntity
  8
0
  6
Continuous
 62
     7
100
AcDbLine
 10
53.7888814172
 20
47.7877476868
 30
0.0
 11
53.7887269304
 21
47.7642337383
 31
0.0
  0
LINE
  5
1595
330
220
100
AcDbEntity
  8
0
  6
Continuous
 62
     7
100
AcDbLine
 10
53.7891359408
 20
47.80942173119999
 30
0.0
 11
53.7888814172
 21
47.7877476868
 31
0.0
  0
LINE
  5
1596
330
220
100
AcDbEntity
  8
0
  6
Continuous
 62
     7
100
AcDbLine
 10
53.7893541896
 20
47.8222251068
 30
0.0
 11
53.7891359408
 21
47.80942173119999
 31
0.0
  0
LWPOLYLINE
  5
1597
330
220
100
AcDbEntity
  8
0
  6
Continuous
 62
     7
100
AcDbPolyline
 90
        4
 70
     0
 43
0.0
 10
53.7897511499
 20
47.8384651481
 10
53.78974045939999
 20
47.83814047579999
 10
53.78960490629999
 20
47.8333225345
 10
53.7893541896
 20
47.8222251068
  0
LWPOLYLINE
  5
1598
330
220
100
AcDbEntity
  8
0
  6
Continuous
 62
     7
100
AcDbPolyline
 90
       35
 70
     0
 43
0.0
 10
54.93812881170001
 20
45.784086202
 10
54.9408843185
 20
45.73969631909999
 10
54.9467356074
 20
45.68572571039999
 10
54.9550521691
 20
45.6321361102
 10
54.9658212659
 20
45.5789818705
 10
54.97903432840001
 20
45.52632274149999
 10
54.99465569329999
 20
45.4743168183
 10
55.0126381611
 20
45.4231131616
 10
55.0329534869
 20
45.37278408579999
 10
55.0555725683
 20
45.32340700819999
 10
55.0804388118
 20
45.2751110715
 10
55.10749096439999
 20
45.22801359239999
 10
55.13667340529999
 20
45.1822081683
 10
55.1679184636
 20
45.1377975749
 10
55.2011740617
 20
45.09485452699999
 10
55.2363897953
 20
45.0534488246
 10
55.2734818565
 20
45.0136844142
 10
55.31236779140001
 20
44.9756520875
 10
55.35296280569999
 20
44.93943579839999
 10
55.3952030227
 20
44.9050955803
 10
55.43891731489999
 20
44.8727666555
 10
55.4839319436
 20
44.8425572962
 10
55.530128209
 20
44.81451900289999
 10
55.57740180119999
 20
44.7886871439
 10
55.6255112482
 20
44.7651555231
 10
55.6741845423
 20
44.7439967039
 10
55.7233627131
 20
44.7251702168
 10
55.7729401581
 20
44.7086578574
 10
55.82280665109999
 20
44.69444002979999
 10
55.87282750399999
 20
44.6824985242
 10
55.92299174789999
 20
44.67278515279999
 10
55.9732837762
 20
44.6652649663
 10
56.02361437859999
 20
44.6599198755
 10
56.07392987549999
 20
44.65672759239999
 10
56.124124293
 20
44.6556688251
  0
LWPOLYLINE
  5
1599
330
220
100
AcDbEntity
  8
0
  6
Continuous
 62
     7
100
AcDbPolyline
 90
       37
 70
     0
 43
0.0
 10
54.936624293
 20
45.7839928088
 10
54.9377561414
 20
45.73239196359999
 10
54.94114308899999
 20
45.6808892034
 10
54.9467851194
 20
45.62958298659999
 10
54.9546650863
 20
45.57857027859999
 10
54.9647743594
 20
45.52794916159999
 10
54.9770873743
 20
45.4778147433
 10
54.9915869524
 20
45.42826398329999
 10
55.0082393058
 20
45.3793894079
 10
55.0270188384
 20
45.33128611619999
 10
55.04788379589999
 20
45.28404334869999
 10
55.07080035939999
 20
45.2377536204
 10
55.09571912600001
 20
45.1925022069
 10
55.1225983115
 20
45.1483783347
 10
55.15138124039999
 20
45.1054626656
 10
55.18201848109999
 20
45.0638404589
 10
55.2144465168
 20
45.0235871484
 10
55.24860864479999
 20
44.98478337729999
 10
55.2844349903
 20
44.9474987775
 10
55.3218620112
 20
44.911808762
 10
55.36081400649999
 20
44.8777766312
 10
55.401221078
 20
44.84547199399999
 10
55.44300227479999
 20
44.8149513372
 10
55.48608187479999
 20
44.7862779361
 10
55.530374293
 20
44.75950103399999
 10
55.5757985596
 20
44.7346770908
 10
55.6222651072
 20
44.7118477318
 10
55.6696883343
 20
44.69106217180001
 10
55.7179753728
 20
44.6723541009
 10
55.7670366411
 20
44.6557651148
 10
55.8167766769
 20
44.64132071189999
 10
55.86710260060001
 20
44.6290545518
 10
55.91791708199999
 20
44.6189837475
 10
55.96912465029999
 20
44.6111337663
 10
56.0206268485
 20
44.6055132055
 10
56.07227711100001
 20
44.60214128749999
 10
56.124124293
 20
44.60101160489999
  0
LINE
  5
159A
330
220
100
AcDbEntity
  8
0
  6
Continuous
 62
     7
100
AcDbLine
 10
53.86966377850001
 20
47.8384651481
 30
0.0
 11
53.86966377850001
 21
47.764414193
 31
0.0
  0
LINE
  5
159B
330
220
100
AcDbEntity
  8
0
  6
Continuous
 62
     7
100
AcDbLine
 10
56.1241239073
 20
28.8941864666
 30
0.0
 11
56.1241238772
 21
28.9259651481
 31
0.0
  0
LINE
  5
159C
330
220
100
AcDbEntity
  8
DEFAULT_1
  6
CENTER
 62
     7
100
AcDbLine
 10
56.124124293
 20
55.90513181470001
 30
0.0
 11
56.124124293
 21
29.5543512699
 31
0.0
  0
LINE
  5
159D
330
220
100
AcDbEntity
  8
DEFAULT_1
  6
CENTER
 62
     7
100
AcDbLine
 10
56.1241239073
 20
28.8941864666
 30
0.0
 11
56.124124293
 21
23.7717984814
 31
0.0
  0
LINE
  5
159E
330
220
100
AcDbEntity
  8
DEFAULT_1
  6
CENTER
 62
     7
100
AcDbLine
 10
56.124124293
 20
29.4749438278
 30
0.0
 11
56.1241238772
 21
28.9259651481
 31
0.0
  0
LINE
  5
159F
330
220
100
AcDbEntity
  8
0
  6
Continuous
 62
     7
100
AcDbLine
 10
56.124124293
 20
29.4749438278
 30
0.0
 11
56.124124293
 21
29.5543512699
 31
0.0
  0
LINE
  5
15A0
330
220
100
AcDbEntity
  8
0
  6
Continuous
 62
     7
100
AcDbLine
 10
53.8563502493
 20
47.80948215569999
 30
0.0
 11
53.856245741
 21
47.7643678547
 31
0.0
  0
LWPOLYLINE
  5
15A1
330
220
100
AcDbEntity
  8
0
  6
Continuous
 62
     7
100
AcDbPolyline
 90
       19
 70
     0
 43
0.0
 10
52.7261306
 20
24.8597169139
 10
52.7241700799
 20
24.8376809726
 10
52.72175567529999
 20
24.8158235393
 10
52.71888761100001
 20
24.7941830808
 10
52.7155660168
 20
24.772808166
 10
52.71178965869999
 20
24.7517437542
 10
52.7075633672
 20
24.7310394267
 10
52.70288912649999
 20
24.7107428177
 10
52.6977747792
 20
24.6909016739
 10
52.69222574
 20
24.6715634691
 10
52.6862517816
 20
24.6527708134
 10
52.67986070600001
 20
24.6345666577
 10
52.67306425890001
 20
24.6169905753
 10
52.66587197829999
 20
24.6000809636
 10
52.6582986284
 20
24.5838763921
 10
52.6503566679
 20
24.5684132095
 10
52.64206282489999
 20
24.5537259767
 10
52.633440083
 20
24.5398488458
 10
52.62448231989999
 20
24.5268071304
  0
LWPOLYLINE
  5
15A2
330
220
100
AcDbEntity
  8
0
  6
Continuous
 62
     7
100
AcDbPolyline
 90
       11
 70
     0
 43
0.0
 10
53.1343820327
 20
26.491755822
 10
53.1282008777
 20
26.4309557044
 10
53.1212593716
 20
26.37003490260001
 10
53.11353272329999
 20
26.3090316116
 10
53.1050966132
 20
26.2480831863
 10
53.0959933416
 20
26.1873034525
 10
53.0862987408
 20
26.1268033328
 10
53.0760728578
 20
26.0666928966
 10
53.0654052903
 20
26.0070856373
 10
53.0544189207
 20
25.9481150883
 10
53.04307339859999
 20
25.889821945
  0
LWPOLYLINE
  5
15A3
330
220
100
AcDbEntity
  8
0
  6
Continuous
 62
     7
100
AcDbPolyline
 90
        7
 70
     0
 43
0.0
 10
53.2878906534
 20
27.9035214441
 10
53.2604310302
 20
27.6885458287
 10
53.2336677857
 20
27.4654456385
 10
53.2075394372
 20
27.2342235803
 10
53.1822107867
 20
26.9948715339
 10
53.1578456374
 20
26.7473813788
 10
53.1343819996
 20
26.491755822
  0
LWPOLYLINE
  5
15A4
330
220
100
AcDbEntity
  8
0
  6
Continuous
 62
     7
100
AcDbPolyline
 90
       17
 70
     0
 43
0.0
 10
53.04307339859999
 20
25.889821945
 10
53.03070626060001
 20
25.8296048981
 10
53.0175376908
 20
25.770397114
 10
53.00356616510001
 20
25.71226227
 10
52.9888045488
 20
25.6552807914
 10
52.97326084189999
 20
25.599527028
 10
52.95694897779999
 20
25.545076716
 10
52.9398803179
 20
25.4920035234
 10
52.92207134319999
 20
25.4403789456
 10
52.90353629310001
 20
25.3902731382
 10
52.8842938852
 20
25.3417527845
 10
52.8643605325
 20
25.2948826644
 10
52.8437578683
 20
25.2497262592
 10
52.8225050657
 20
25.2063442144
 10
52.8006262369
 20
25.16479517860001
 10
52.7781540707
 20
25.1251380224
 10
52.7550821489
 20
25.0874160319
  0
LWPOLYLINE
  5
15A5
330
220
100
AcDbEntity
  8
0
  6
Continuous
 62
     7
100
AcDbPolyline
 90
       19
 70
     0
 43
0.0
 10
52.6244827063
 20
24.5268068929
 10
52.6215766567
 20
24.516127383
 10
52.6188043205
 20
24.5046248985
 10
52.6161636412
 20
24.4923329403
 10
52.613663922
 20
24.4792863972
 10
52.6113118764
 20
24.4655219706
 10
52.60911301260001
 20
24.451078538
 10
52.6070735817
 20
24.4359968662
 10
52.6051978346
 20
24.4203177943
 10
52.60349085449999
 20
24.4040840186
 10
52.601956156
 20
24.3873385071
 10
52.60059799229999
 20
24.3701253779
 10
52.5994189858
 20
24.3524901189
 10
52.5984224929
 20
24.3344786299
 10
52.59761030149999
 20
24.3161390498
 10
52.5969849876
 20
24.2975206472
 10
52.5965472522
 20
24.2786702723
 10
52.5962986676
 20
24.2596348903
 10
52.5962389312
 20
24.2404660273
  0
LWPOLYLINE
  5
15A6
330
220
100
AcDbEntity
  8
0
  6
Continuous
 62
     7
100
AcDbPolyline
 90
       17
 70
     0
 43
0.0
 10
59.4931663802
 20
25.0874160214
 10
59.4959891146
 20
25.0777647921
 10
59.49869568729999
 20
25.0673550328
 10
59.5012879408
 20
25.0562144634
 10
59.50375769189999
 20
25.044371471
 10
59.50609909539999
 20
25.0318559442
 10
59.5083071275
 20
25.0186998329
 10
59.5103762221
 20
25.0049365187
 10
59.5123023331
 20
24.9905998408
 10
59.5140807751
 20
24.975724828
 10
59.51570808119999
 20
24.9603481423
 10
59.5171802079
 20
24.9445071785
 10
59.51849440020001
 20
24.9282408892
 10
59.5196472296
 20
24.9115895687
 10
59.5206368935
 20
24.89459184
 10
59.52146028699999
 20
24.877286799
 10
59.5221180932
 20
24.8597168941
  0
LWPOLYLINE
  5
15A7
330
220
100
AcDbEntity
  8
0
  6
Continuous
 62
     7
100
AcDbPolyline
 90
       19
 70
     0
 43
0.0
 10
59.6237658812
 20
24.5268068872
 10
59.6266719328
 20
24.5161273372
 10
59.6294442714
 20
24.5046248188
 10
59.6320849552
 20
24.4923328398
 10
59.6345846766
 20
24.4792862779
 10
59.63693671569999
 20
24.4655218182
 10
59.6391355712
 20
24.4510783462
 10
59.6411749968
 20
24.4359966341
 10
59.6430507416
 20
24.4203175158
 10
59.6447577257
 20
24.4040836802
 10
59.6462924308
 20
24.3873381039
 10
59.6476506017
 20
24.3701249076
 10
59.64882961529999
 20
24.3524895941
 10
59.64982611479999
 20
24.3344780817
 10
59.6506383094
 20
24.3161385052
 10
59.6512636181
 20
24.2975201192
 10
59.6517013455
 20
24.2786698196
 10
59.6519499239
 20
24.2596346183
 10
59.6520096547
 20
24.2404660273
  0
LINE
  5
15A8
330
220
100
AcDbEntity
  8
0
  6
Continuous
 62
     7
100
AcDbLine
 10
53.8696637776
 20
47.764414193
 30
0.0
 11
54.24393391529999
 21
45.64999650659999
 31
0.0
  0
LWPOLYLINE
  5
15A9
330
220
100
AcDbEntity
  8
0
  6
Continuous
 62
     7
100
AcDbPolyline
 90
       39
 70
     0
 43
0.0
 10
54.24393391529999
 20
45.64999650659999
 10
54.2578975254
 20
45.5698719168
 10
54.2713926659
 20
45.4945281867
 10
54.2844775584
 20
45.42453638749999
 10
54.2987422522
 20
45.3572174662
 10
54.3157783237
 20
45.29026039709999
 10
54.3356394134
 20
45.2231321697
 10
54.3591296761
 20
45.1537953565
 10
54.38558914489999
 20
45.0844521832
 10
54.41458289029999
 20
45.0167960399
 10
54.4462399551
 20
44.95031600539999
 10
54.4805781927
 20
44.88500326199999
 10
54.5174962415
 20
44.8210448884
 10
54.5569105651
 20
44.75860769819999
 10
54.59878554189999
 20
44.6977436686
 10
54.6430858332
 20
44.6385230646
 10
54.6897270538
 20
44.58105783579999
 10
54.73864473859999
 20
44.5254521863
 10
54.789743788
 20
44.4717996167
 10
54.8429383908
 20
44.4202006609
 10
54.8981362181
 20
44.37073842199999
 10
54.95524194979999
 20
44.3235127587
 10
55.0141787491
 20
44.2785739385
 10
55.07487814600001
 20
44.2359791771
 10
55.13721972029999
 20
44.1958074888
 10
55.2010865407
 20
44.15814465039999
 10
55.2663996707
 20
44.1230275895
 10
55.3330865001
 20
44.0905021518
 10
55.4010111179
 20
44.06062736019999
 10
55.4700402916
 20
44.0334691443
 10
55.5400933765
 20
44.00905262939999
 10
55.6110942187
 20
43.98741323189999
 10
55.6828961141
 20
43.96858600829999
 10
55.7553561413
 20
43.9526131314
 10
55.8283867985
 20
43.9395086694
 10
55.9018907481
 20
43.92929803609999
 10
55.9757545767
 20
43.92198936799999
 10
56.0498141926
 20
43.91760134850001
 10
56.124124293
 20
43.9161277499
  0
LWPOLYLINE
  5
15AA
330
220
100
AcDbEntity
  8
0
  6
Continuous
 62
     7
100
AcDbPolyline
 90
       11
 70
     0
 43
0.0
 10
59.1138665329
 20
26.4917560134
 10
59.12004728399999
 20
26.4309592137
 10
59.1269887245
 20
26.3700389716
 10
59.13471570310001
 20
26.3090329796
 10
59.1431523786
 20
26.248080389
 10
59.15225635979999
 20
26.187296365
 10
59.1619516515
 20
26.1267924725
 10
59.17217814979999
 20
26.0666791426
 10
59.182845841
 20
26.0070718056
 10
59.19383135069999
 20
25.9481061774
 10
59.20517518729999
 20
25.889821945
  0
LWPOLYLINE
  5
15AB
330
220
100
AcDbEntity
  8
0
  6
Continuous
 62
     7
100
AcDbPolyline
 90
       19
 70
     0
 43
0.0
 10
59.522117987
 20
24.8597169026
 10
59.524078803
 20
24.8376780811
 10
59.5264935592
 20
24.8158181802
 10
59.529362042
 20
24.7941756623
 10
59.532684085
 20
24.7727991037
 10
59.5364608986
 20
24.7517334534
 10
59.54068762430001
 20
24.7310283149
 10
59.54536224569999
 20
24.7107313535
 10
59.55047690829999
 20
24.6908902416
 10
59.5560261767
 20
24.6715524054
 10
59.5620002732
 20
24.6527603975
 10
59.5683913891
 20
24.6345571039
 10
59.5751877647
 20
24.6169820759
 10
59.5823798512
 20
24.6000736721
 10
59.5899528696
 20
24.5838704379
 10
59.5978943436
 20
24.5684086935
 10
59.60618754350001
 20
24.553722958
 10
59.61480947720001
 20
24.5398473424
 10
59.6237662701
 20
24.5268071247
  0
LINE
  5
15AC
330
220
100
AcDbEntity
  8
0
  6
Continuous
 62
     7
100
AcDbLine
 10
58.4584895546
 20
47.8384651481
 30
0.0
 11
58.4585004095
 21
47.83813620270001
 31
0.0
  0
LINE
  5
15AD
330
220
100
AcDbEntity
  8
0
  6
Continuous
 62
     7
100
AcDbLine
 10
58.4585004095
 20
47.83813620270001
 30
0.0
 11
58.4587658708
 21
47.8280020127
 31
0.0
  0
LWPOLYLINE
  5
15AE
330
220
100
AcDbEntity
  8
0
  6
Continuous
 62
     7
100
AcDbPolyline
 90
       73
 70
     0
 43
0.0
 10
57.311624293
 20
45.7839928088
 10
57.3104902951
 20
45.8356426967
 10
57.30710549699999
 20
45.8870964143
 10
57.30146346659999
 20
45.93840263109999
 10
57.2935834997
 20
45.98941533909999
 10
57.2834742266
 20
46.04003645609999
 10
57.27116121169999
 20
46.09017087439999
 10
57.25666163359999
 20
46.13972163439999
 10
57.2400092802
 20
46.18859620979999
 10
57.2212297475
 20
46.2366995015
 10
57.2003647901
 20
46.28394226890001
 10
57.1774482265
 20
46.3302319973
 10
57.15252945999999
 20
46.3754834108
 10
57.1256502744
 20
46.419607283
 10
57.0968673456
 20
46.4625229521
 10
57.0662301048
 20
46.5041451588
 10
57.0338020692
 20
46.5443984693
 10
56.99963994109999
 20
46.58320224039999
 10
56.9638135956
 20
46.6204868402
 10
56.9263865747
 20
46.6561768556
 10
56.8874345795
 20
46.69020898649999
 10
56.8470275079
 20
46.72251362359999
 10
56.80524631109999
 20
46.7530342804
 10
56.76216671119999
 20
46.7817076816
 10
56.717874293
 20
46.80848458369999
 10
56.6724500264
 20
46.8333085268
 10
56.6259834788
 20
46.8561378859
 10
56.5785602516
 20
46.8769234459
 10
56.53027321319999
 20
46.8956315168
 10
56.48121194479999
 20
46.9122205029
 10
56.43147190899999
 20
46.9266649058
 10
56.38114598539999
 20
46.9389310659
 10
56.33033150399999
 20
46.9490018702
 10
56.27912393569999
 20
46.9568518514
 10
56.2276217375
 20
46.9624724122
 10
56.1759222451
 20
46.9658464714
 10
56.124124293
 20
46.96697401279999
 10
56.07232634079999
 20
46.9658464714
 10
56.0206268485
 20
46.9624724122
 10
55.96912465029999
 20
46.9568518514
 10
55.91791708199999
 20
46.9490018702
 10
55.86710260060001
 20
46.9389310659
 10
55.8167766769
 20
46.9266649058
 10
55.7670366411
 20
46.9122205029
 10
55.7179753728
 20
46.8956315168
 10
55.6696883343
 20
46.8769234459
 10
55.6222651072
 20
46.8561378859
 10
55.5757985596
 20
46.8333085268
 10
55.530374293
 20
46.80848458369999
 10
55.48608187479999
 20
46.7817076816
 10
55.44300227479999
 20
46.7530342804
 10
55.401221078
 20
46.72251362359999
 10
55.36081400649999
 20
46.69020898649999
 10
55.3218620112
 20
46.6561768556
 10
55.2844349903
 20
46.6204868402
 10
55.24860864479999
 20
46.58320224039999
 10
55.2144465168
 20
46.5443984693
 10
55.18201848109999
 20
46.5041451588
 10
55.15138124039999
 20
46.4625229521
 10
55.1225983115
 20
46.419607283
 10
55.09571912600001
 20
46.3754834108
 10
55.07080035939999
 20
46.3302319973
 10
55.04788379589999
 20
46.28394226890001
 10
55.0270188384
 20
46.2366995015
 10
55.0082393058
 20
46.18859620979999
 10
54.9915869524
 20
46.13972163439999
 10
54.9770873743
 20
46.09017087439999
 10
54.9647743594
 20
46.04003645609999
 10
54.9546650863
 20
45.98941533909999
 10
54.9467851194
 20
45.93840263109999
 10
54.94114308899999
 20
45.8870964143
 10
54.9377561414
 20
45.8355936541
 10
54.936624293
 20
45.7839928088
  0
LINE
  5
15AF
330
220
100
AcDbEntity
  8
0
  6
Continuous
 62
     7
100
AcDbLine
 10
58.4587658708
 20
47.8280020127
 30
0.0
 11
58.4590022919
 21
47.8160133563
 31
0.0
  0
LINE
  5
15B0
330
220
100
AcDbEntity
  8
0
  6
Continuous
 62
     7
100
AcDbLine
 10
58.4590022919
 20
47.8160133563
 30
0.0
 11
58.4592893937
 21
47.7952382754
 31
0.0
  0
LWPOLYLINE
  5
15B1
330
220
100
AcDbEntity
  8
0
  6
Continuous
 62
     7
100
AcDbPolyline
 90
        3
 70
     0
 43
0.0
 10
58.4592893937
 20
47.7952382754
 10
58.4594810583
 20
47.7721911369
 10
58.4595216468
 20
47.7642312313
  0
LINE
  5
15B2
330
220
100
AcDbEntity
  8
0
  6
Continuous
 62
     7
100
AcDbLine
 10
58.39177187069999
 20
47.8384651481
 30
0.0
 11
58.3919749721
 21
47.7801631652
 31
0.0
  0
LINE
  5
15B3
330
220
100
AcDbEntity
  8
0
  6
Continuous
 62
     7
100
AcDbLine
 10
58.3919749721
 20
47.7801631652
 30
0.0
 11
58.392002845
 21
47.7643678547
 31
0.0
  0
LINE
  5
15B4
330
220
100
AcDbEntity
  8
0
  6
Continuous
 62
     7
100
AcDbLine
 10
58.37858480739999
 20
47.8384651481
 30
0.0
 11
58.37858480739999
 21
47.764414193
 31
0.0
  0
LWPOLYLINE
  5
15B5
330
220
100
AcDbEntity
  8
0
  6
Continuous
 62
     7
100
AcDbPolyline
 90
       36
 70
     0
 43
0.0
 10
57.3107492368
 20
45.78400983659999
 10
57.3107309941
 20
45.78307234189999
 10
57.30737374010001
 20
45.7289121689
 10
57.3015298764
 20
45.67495863989999
 10
57.2932230631
 20
45.62138981909999
 10
57.2824655867
 20
45.5682554221
 10
57.2692645048
 20
45.5156098448
 10
57.2536566742
 20
45.4636174359
 10
57.2356880737
 20
45.4124237731
 10
57.21539633209999
 20
45.36212397779999
 10
57.1928380842
 20
45.3128452481
 10
57.1680318049
 20
45.26462398729999
 10
57.1409875905
 20
45.21749848089999
 10
57.1117683009
 20
45.17160141859999
 10
57.08041700859999
 20
45.1270201388
 10
57.0470377423
 20
45.0839141292
 10
57.0117529535
 20
45.042434979
 10
56.9746225424
 20
45.0026417855
 10
56.9357284487
 20
44.96461481709999
 10
56.89514579529999
 20
44.9284216376
 10
56.85292511260001
 20
44.89410726729999
 10
56.80923457310001
 20
44.8618036472
 10
56.7642367766
 20
44.8316114701
 10
56.7180559358
 20
44.80358706789999
 10
56.6707991213
 20
44.7777677127
 10
56.6227064294
 20
44.7542465141
 10
56.5740510785
 20
44.7330966896
 10
56.5248869892
 20
44.714275921
 10
56.47531278899999
 20
44.6977645306
 10
56.42544459189999
 20
44.6835460696
 10
56.3754215663
 20
44.6716039889
 10
56.32525329619999
 20
44.6618899185
 10
56.27495329600001
 20
44.6543688787
 10
56.22461753039999
 20
44.6490238524
 10
56.1743066178
 20
44.6458324757
 10
56.124124293
 20
44.6447742208
  0
LWPOLYLINE
  5
15B6
330
220
100
AcDbEntity
  8
0
  6
Continuous
 62
     7
100
AcDbPolyline
 90
       37
 70
     0
 43
0.0
 10
57.311385215
 20
45.7839980579
 10
57.3104902951
 20
45.7432373889
 10
57.30710549699999
 20
45.6917836712
 10
57.30146346659999
 20
45.64047745439999
 10
57.2935834997
 20
45.5894647464
 10
57.2834742266
 20
45.53884362939999
 10
57.27116121169999
 20
45.48870921109999
 10
57.25666163359999
 20
45.43915845119999
 10
57.2400092802
 20
45.3902838757
 10
57.2212297475
 20
45.3421805841
 10
57.2003647901
 20
45.2949378166
 10
57.1774482265
 20
45.2486480883
 10
57.15252945999999
 20
45.2033966747
 10
57.1256502744
 20
45.15927280249999
 10
57.0968673456
 20
45.1163571334
 10
57.0662301048
 20
45.0747349267
 10
57.0338020692
 20
45.03448161629999
 10
56.99963994109999
 20
44.9956778451
 10
56.9638135956
 20
44.95839324529999
 10
56.9263865747
 20
44.92270322989999
 10
56.8874345795
 20
44.8886710991
 10
56.8470275079
 20
44.85636646189999
 10
56.80524631109999
 20
44.8258458051
 10
56.76216671119999
 20
44.79717240399999
 10
56.717874293
 20
44.7703955018
 10
56.6724500264
 20
44.7455715587
 10
56.6259834788
 20
44.7227421996
 10
56.5785602516
 20
44.7019566396
 10
56.53027321319999
 20
44.6832485688
 10
56.48121194479999
 20
44.66665958260001
 10
56.43147190899999
 20
44.65221517969999
 10
56.38114598539999
 20
44.6399490196
 10
56.33033150399999
 20
44.62987821529999
 10
56.27912393569999
 20
44.6220282341
 10
56.2276217375
 20
44.61640767329999
 10
56.17597147499999
 20
44.61303575529999
 10
56.124124293
 20
44.6119060727
  0
LWPOLYLINE
  5
15B7
330
220
100
AcDbEntity
  8
0
  6
Continuous
 62
     7
100
AcDbPolyline
 90
       37
 70
     0
 43
0.0
 10
57.311624293
 20
45.7839928088
 10
57.3104902951
 20
45.732342921
 10
57.30710549699999
 20
45.6808892034
 10
57.30146346659999
 20
45.62958298659999
 10
57.2935834997
 20
45.57857027859999
 10
57.2834742266
 20
45.52794916159999
 10
57.27116121169999
 20
45.4778147433
 10
57.25666163359999
 20
45.42826398329999
 10
57.2400092802
 20
45.3793894079
 10
57.2212297475
 20
45.33128611619999
 10
57.2003647901
 20
45.28404334869999
 10
57.1774482265
 20
45.2377536204
 10
57.15252945999999
 20
45.1925022069
 10
57.1256502744
 20
45.1483783347
 10
57.0968673456
 20
45.1054626656
 10
57.0662301048
 20
45.0638404589
 10
57.0338020692
 20
45.0235871484
 10
56.99963994109999
 20
44.98478337729999
 10
56.9638135956
 20
44.9474987775
 10
56.9263865747
 20
44.911808762
 10
56.8874345795
 20
44.8777766312
 10
56.8470275079
 20
44.84547199399999
 10
56.80524631109999
 20
44.8149513372
 10
56.76216671119999
 20
44.7862779361
 10
56.717874293
 20
44.75950103399999
 10
56.6724500264
 20
44.7346770908
 10
56.6259834788
 20
44.7118477318
 10
56.5785602516
 20
44.69106217180001
 10
56.53027321319999
 20
44.6723541009
 10
56.48121194479999
 20
44.6557651148
 10
56.43147190899999
 20
44.64132071189999
 10
56.38114598539999
 20
44.6290545518
 10
56.33033150399999
 20
44.6189837475
 10
56.27912393569999
 20
44.6111337663
 10
56.2276217375
 20
44.6055132055
 10
56.17597147499999
 20
44.60214128749999
 10
56.124124293
 20
44.60101160489999
  0
LWPOLYLINE
  5
15B8
330
220
100
AcDbEntity
  8
0
  6
Continuous
 62
     7
100
AcDbPolyline
 90
       40
 70
     0
 43
0.0
 10
58.3785848085
 20
47.764414193
 10
58.0043146707
 20
45.64999650659999
 10
57.9903510605
 20
45.5698719169
 10
57.9768559201
 20
45.4945281867
 10
57.96377102760001
 20
45.42453638749999
 10
57.9495063338
 20
45.3572174663
 10
57.93247026220001
 20
45.29026039709999
 10
57.9126091726
 20
45.2231321697
 10
57.8891189099
 20
45.1537953565
 10
57.86265944100001
 20
45.0844521832
 10
57.8336656956
 20
45.0167960399
 10
57.80200863090001
 20
44.95031600539999
 10
57.7676703933
 20
44.88500326199999
 10
57.7307523444
 20
44.8210448884
 10
57.69133802089999
 20
44.75860769819999
 10
57.64946304409999
 20
44.6977436686
 10
57.6051627527
 20
44.6385230646
 10
57.5585215321
 20
44.58105783579999
 10
57.5096038474
 20
44.5254521863
 10
57.4585047979
 20
44.4717996167
 10
57.4053101952
 20
44.4202006609
 10
57.3501123678
 20
44.37073842199999
 10
57.2930066362
 20
44.3235127587
 10
57.2340698369
 20
44.2785739385
 10
57.17337044
 20
44.2359791771
 10
57.11102886569999
 20
44.1958074888
 10
57.0471620452
 20
44.15814465039999
 10
56.9818489153
 20
44.1230275895
 10
56.9151620859
 20
44.0905021518
 10
56.847237468
 20
44.06062736019999
 10
56.77820829439999
 20
44.0334691443
 10
56.7081552095
 20
44.00905262939999
 10
56.63715436729999
 20
43.98741323189999
 10
56.5653524718
 20
43.96858600829999
 10
56.49289244470001
 20
43.9526131314
 10
56.41986178749999
 20
43.9395086694
 10
56.3463578379
 20
43.92929803609999
 10
56.2724940092
 20
43.92198936799999
 10
56.1984343934
 20
43.91760134850001
 10
56.124124293
 20
43.9161277499
  0
LWPOLYLINE
  5
15B9
330
220
100
AcDbEntity
  8
0
  6
Continuous
 62
     7
100
AcDbPolyline
 90
       17
 70
     0
 43
0.0
 10
52.7550822051
 20
25.0874160193
 10
52.7522594652
 20
25.0777647964
 10
52.74955289020001
 20
25.0673550446
 10
52.74696063949999
 20
25.0562144795
 10
52.7444908912
 20
25.0443715013
 10
52.7421494842
 20
25.0318560183
 10
52.7399414484
 20
25.0186999681
 10
52.7378723544
 20
25.0049367258
 10
52.7359462471
 20
24.9906001242
 10
52.73416781409999
 20
24.97572518530001
 10
52.7325405183
 20
24.9603485577
 10
52.7310684014
 20
24.9445076139
 10
52.72975421489999
 20
24.9282413185
 10
52.728601381
 20
24.9115899844
 10
52.72761170859999
 20
24.894592198
 10
52.7267883075
 20
24.8772870194
 10
52.7261304932
 20
24.8597169055
  0
LWPOLYLINE
  5
15BA
330
220
100
AcDbEntity
  8
0
  6
Continuous
 62
     7
100
AcDbPolyline
 90
       12
 70
     0
 43
0.0
 10
88.1605268178
 20
47.8384651481
 10
88.16000945209998
 20
47.8383323171
 10
88.15218496419999
 20
47.8356157543
 10
88.14461212559999
 20
47.8322609905
 10
88.1373428878
 20
47.82829104029999
 10
88.13042711940001
 20
47.82373313819999
 10
88.1239122642
 20
47.8186185527
 10
88.11784301559999
 20
47.8129823709
 10
88.11226101009999
 20
47.8068632584
 10
88.10720454149999
 20
47.80030319369999
 10
88.10270829830001
 20
47.7933471804
 10
88.09880312590001
 20
47.78604293839999
  0
LWPOLYLINE
  5
15BB
330
220
100
AcDbEntity
  8
0
  6
Continuous
 62
     7
100
AcDbPolyline
 90
       12
 70
     0
 43
0.0
 10
24.0877217542
 20
47.8384651481
 10
24.088239134
 20
47.8383323135
 10
24.0960636221
 20
47.83561575140001
 10
24.1036364609
 20
47.8322609884
 10
24.1109056991
 20
47.8282910388
 10
24.1178214678
 20
47.82373313739999
 10
24.1243363235
 20
47.81861855249999
 10
24.1304055726
 20
47.8129823713
 10
24.1359875787
 20
47.80686325939999
 10
24.1410440479
 20
47.8003031952
 10
24.1455402916
 20
47.7933471824
 10
24.1494454647
 20
47.78604294069999
  0
LWPOLYLINE
  5
15BC
330
220
100
AcDbEntity
  8
0
  6
Continuous
 62
     7
100
AcDbPolyline
 90
       17
 70
     0
 43
0.0
 10
59.20517518729999
 20
25.889821945
 10
59.2175426212
 20
25.8296035007
 10
59.23071156439999
 20
25.7703942236
 10
59.24468355560001
 20
25.7122577517
 10
59.2594456863
 20
25.6552746861
 10
59.2749899444
 20
25.5995194461
 10
59.2913023186
 20
25.54506799
 10
59.3083713782
 20
25.49199419260001
 10
59.3261806033
 20
25.4403695401
 10
59.34471568020001
 20
25.3902642897
 10
59.36395792819999
 20
25.3417449241
 10
59.3838909237
 20
25.2948761377
 10
59.4044931021
 20
25.2497212098
 10
59.4257453485
 20
25.2063406082
 10
59.4476235733
 20
25.1647929365
 10
59.4700951348
 20
25.1251369723
 10
59.4931664358
 20
25.087416034
  0
LWPOLYLINE
  5
15BD
330
220
100
AcDbEntity
  8
0
  6
Continuous
 62
     7
100
AcDbPolyline
 90
        7
 70
     0
 43
0.0
 10
58.9603579595
 20
27.9035212273
 10
58.98779367270001
 20
27.6887454677
 10
59.0145435253
 20
27.4657652419
 10
59.0406697868
 20
27.2345832791
 10
59.0660050876
 20
26.9951913922
 10
59.0903830794
 20
26.7475813939
 10
59.11386656819999
 20
26.4917560134
  0
LINE
  5
15BE
330
220
100
AcDbEntity
  8
0
  6
Continuous
 62
     7
100
AcDbLine
 10
59.65200987390001
 20
24.2404660664
 30
0.0
 11
59.6485643063
 21
23.5884651481
 31
0.0
  0
LWPOLYLINE
  5
15BF
330
220
100
AcDbEntity
  8
0
  6
Continuous
 62
     7
100
AcDbPolyline
 90
       67
 70
     0
 43
0.0
 10
64.0492140658
 20
47.77780341209999
 10
63.9274790479
 20
47.03284146509999
 10
63.8074519876
 20
46.25210083649999
 10
63.6859313875
 20
45.4209107614
 10
63.56863722539999
 20
44.5906040043
 10
63.4601750825
 20
43.8113618109
 10
63.3573356488
 20
43.0749392316
 10
63.2599189409
 20
42.390452903
 10
63.1660588675
 20
41.751665449
 10
63.0747182822
 20
41.1557305334
 10
62.9849980688
 20
40.59899882639999
 10
62.8962839975
 20
40.0785112406
 10
62.8075272042
 20
39.5883211528
 10
62.7175873351
 20
39.12240961510001
 10
62.6259572363
 20
38.6785024635
 10
62.53177449089999
 20
38.2528777405
 10
62.4346594139
 20
37.8443827891
 10
62.33374551
 20
37.4500853321
 10
62.2293991013
 20
37.0719818102
 10
62.121214465
 20
36.7088681222
 10
62.01113947100001
 20
36.3667507371
 10
61.9018578059
 20
36.0517637707
 10
61.7928012179
 20
35.7595972328
 10
61.6843276087
 20
35.4889273496
 10
61.5762260651
 20
35.2371873567
 10
61.4682361882
 20
35.0020829584
 10
61.36037212649999
 20
34.7822047402
 10
61.25244379689999
 20
34.5759202386
 10
61.1444406521
 20
34.3821361142
 10
61.0362039695
 20
34.1996354683
 10
60.9277043131
 20
34.0275621815
 10
60.818799483
 20
33.8649869753
 10
60.7094439806
 20
33.7112310937
 10
60.5995003946
 20
33.5655707052
 10
60.48891268680001
 20
33.4274697763
 10
60.3775497763
 20
33.2963631378
 10
60.2653424518
 20
33.1718238387
 10
60.1521681576
 20
33.053416599
 10
60.0379215351
 20
32.9407751337
 10
59.92245340970001
 20
32.8335374169
 10
59.8056482415
 20
32.7314168345
 10
59.6873422354
 20
32.63412311320001
 10
59.5674246333
 20
32.5414481009
 10
59.4457448019
 20
32.45318370510001
 10
59.3221586217
 20
32.36916047360001
 10
59.196502982
 20
32.2892258745
 10
59.06858342999999
 20
32.213236681
 10
58.93818624649999
 20
32.1410698628
 10
58.8051083205
 20
32.0726380487
 10
58.6690994826
 20
32.0078593741
 10
58.52998982169999
 20
31.9467177698
 10
58.3871459208
 20
31.8890355932
 10
58.2416363323
 20
31.835314566
 10
58.09413027649999
 20
31.7857789721
 10
57.9455614779
 20
31.7406422017
 10
57.797417623
 20
31.7001510561
 10
57.64913449999999
 20
31.6639199639
 10
57.5006934831
 20
31.6317549718
 10
57.3518544114
 20
31.6034393052
 10
57.20240795409999
 20
31.5787937825
 10
57.05220548899999
 20
31.5576761148
 10
56.90104515659999
 20
31.5399635714
 10
56.7487634089
 20
31.5255633817
 10
56.59518401959999
 20
31.5144029911
 10
56.4400569332
 20
31.5064283706
 10
56.2829693709
 20
31.50160817010001
 10
56.12412429009999
 20
31.4999484688
  0
LWPOLYLINE
  5
15C0
330
220
100
AcDbEntity
  8
0
  6
Continuous
 62
     7
100
AcDbPolyline
 90
       13
 70
     0
 43
0.0
 10
64.05344698669999
 20
47.8384651481
 10
64.0531638742
 20
47.83695984939999
 10
64.0526682009
 20
47.8337131354
 10
64.05219170069999
 20
47.8299606147
 10
64.05173709359999
 20
47.8257237081
 10
64.05130697469999
 20
47.82102660119999
 10
64.05090379909999
 20
47.8158961069
 10
64.05052986840001
 20
47.8103615116
 10
64.0501873171
 20
47.80445440899999
 10
64.04987810059999
 20
47.7982085186
 10
64.0496039841
 20
47.79165949430001
 10
64.0493665322
 20
47.78484472
 10
64.0491671004
 20
47.77780309709999
  0
LWPOLYLINE
  5
15C1
330
220
100
AcDbEntity
  8
0
  6
Continuous
 62
     7
100
AcDbPolyline
 90
       13
 70
     0
 43
0.0
 10
64.06237921829999
 20
47.8384651481
 10
64.0620957281
 20
47.8369593783
 10
64.06159955879999
 20
47.8337126851
 10
64.0611225863
 20
47.8299601733
 10
64.0606675344
 20
47.8257232638
 10
64.0602370016
 20
47.82102614279999
 10
64.0598334464
 20
47.8158956239
 10
64.0594591735
 20
47.8103609942
 10
64.0591163202
 20
47.804453848
 10
64.0588068447
 20
47.79820790609999
 10
64.05853251439999
 20
47.7916588231
 10
64.0582948962
 20
47.7848439842
 10
64.0580953475
 20
47.7778022917
  0
LWPOLYLINE
  5
15C2
330
220
100
AcDbEntity
  8
0
  6
Continuous
 62
     7
100
AcDbPolyline
 90
       13
 70
     0
 43
0.0
 10
64.11748281140001
 20
47.8384651481
 10
64.1171972626
 20
47.8369581901
 10
64.11669776869999
 20
47.8337102481
 10
64.1162176918
 20
47.82995636189999
 10
64.11575977359999
 20
47.825717967
 10
64.1153266292
 20
47.82101926569999
 10
64.11492073249999
 20
47.81588708850001
 10
64.11454440139999
 20
47.8103507414
 10
64.1141997854
 20
47.804441838
 10
64.1138888525
 20
47.7981941196
 10
64.11361337859999
 20
47.7916432619
 10
64.1133749371
 20
47.784826672
 10
64.11317488989999
 20
47.7777832739
  0
LWPOLYLINE
  5
15C3
330
220
100
AcDbEntity
  8
0
  6
Continuous
 62
     7
100
AcDbPolyline
 90
       35
 70
     0
 43
0.0
 10
56.124124293
 20
44.6556688251
 10
56.1745388809
 20
44.6567369038
 10
56.2250916872
 20
44.6599587321
 10
56.2756809509
 20
44.66535667859999
 10
56.3262343005
 20
44.6729531544
 10
56.3766477399
 20
44.6827641632
 10
56.4268990842
 20
44.6948223448
 10
56.4769703296
 20
44.70917244169999
 10
56.52671560569999
 20
44.72582630469999
 10
56.576011381
 20
44.74479406069999
 10
56.6247564783
 20
44.766089673
 10
56.6728920551
 20
44.78974779579999
 10
56.7201488745
 20
44.8156905693
 10
56.7662868912
 20
44.84381802909999
 10
56.81120900979999
 20
44.8740926588
 10
56.8547980708
 20
44.90645741979999
 10
56.8968992641
 20
44.94081263899999
 10
56.9373575681
 20
44.97703400499999
 10
56.9761105358
 20
45.0150626327
 10
57.0130796237
 20
45.0548214454
 10
57.0481796408
 20
45.0962180056
 10
57.0813279936
 20
45.1391510151
 10
57.11246870850001
 20
45.18354410999999
 10
57.1415438147
 20
45.2293143031
 10
57.1684932724
 20
45.2763687045
 10
57.1932663769
 20
45.3246230947
 10
57.2157985095
 20
45.3739549284
 10
57.2360327067
 20
45.4242344073
 10
57.2539380478
 20
45.4753785606
 10
57.26948694109999
 20
45.5273142367
 10
57.2826296016
 20
45.57987607229999
 10
57.2933298751
 20
45.6328839121
 10
57.3015875124
 20
45.6862925085
 10
57.3073944868
 20
45.7400516392
 10
57.3101188846
 20
45.78408594829999
  0
LWPOLYLINE
  5
15C4
330
220
100
AcDbEntity
  8
0
  6
Continuous
 62
     7
100
AcDbPolyline
 90
       35
 70
     0
 43
0.0
 10
56.124124293
 20
44.6447742208
 10
56.07371443479999
 20
44.6458420984
 10
56.0231754208
 20
44.64906254539999
 10
55.97261104859999
 20
44.6544564887
 10
55.9220868746
 20
44.662046022
 10
55.8717001703
 20
44.6718479634
 10
55.82147514369999
 20
44.6838946462
 10
55.7714311715
 20
44.6982303077
 10
55.7217093074
 20
44.7148682362
 10
55.6724268868
 20
44.7338214972
 10
55.62369181560001
 20
44.75510232819999
 10
55.57556775430001
 20
44.7787432502
 10
55.5283221879
 20
44.80466701140001
 10
55.4821964352
 20
44.8327726971
 10
55.4372832858
 20
44.8630253788
 10
55.3936954425
 20
44.89537186869999
 10
55.3515915326
 20
44.9297106915
 10
55.3111377044
 20
44.9659078551
 10
55.2723691098
 20
45.0039303214
 10
55.2353436143
 20
45.0437297639
 10
55.2001575177
 20
45.08521348489999
 10
55.1668779501
 20
45.128313818
 10
55.1356251725
 20
45.17288065459999
 10
55.106503595
 20
45.218752552
 10
55.0795546113
 20
45.26584346249999
 10
55.05484145189999
 20
45.3140183137
 10
55.0323689868
 20
45.36324857479999
 10
55.01214972279999
 20
45.41351507449999
 10
54.9942502695
 20
45.4646689792
 10
54.978712205
 20
45.5165990201
 10
54.965579558
 20
45.5691553737
 10
54.9548876889
 20
45.6221627599
 10
54.9466383417
 20
45.6755704129
 10
54.940839958
 20
45.7293229562
 10
54.9375102389
 20
45.7832615886
  0
LWPOLYLINE
  5
15C5
330
220
100
AcDbEntity
  8
0
  6
Continuous
 62
     7
100
AcDbPolyline
 90
       37
 70
     0
 43
0.0
 10
56.124124293
 20
44.6119060727
 10
56.07227711100001
 20
44.61303575529999
 10
56.0206268485
 20
44.61640767329999
 10
55.96912465029999
 20
44.6220282341
 10
55.91791708199999
 20
44.62987821529999
 10
55.86710260060001
 20
44.6399490196
 10
55.8167766769
 20
44.65221517969999
 10
55.7670366411
 20
44.66665958260001
 10
55.7179753728
 20
44.6832485688
 10
55.6696883343
 20
44.7019566396
 10
55.6222651072
 20
44.7227421996
 10
55.5757985596
 20
44.7455715587
 10
55.530374293
 20
44.7703955018
 10
55.48608187479999
 20
44.79717240399999
 10
55.44300227479999
 20
44.8258458051
 10
55.401221078
 20
44.85636646189999
 10
55.36081400649999
 20
44.8886710991
 10
55.3218620112
 20
44.92270322989999
 10
55.2844349903
 20
44.95839324529999
 10
55.24860864479999
 20
44.9956778451
 10
55.2144465168
 20
45.03448161629999
 10
55.18201848109999
 20
45.0747349267
 10
55.15138124039999
 20
45.1163571334
 10
55.1225983115
 20
45.15927280249999
 10
55.09571912600001
 20
45.2033966747
 10
55.07080035939999
 20
45.2486480883
 10
55.04788379589999
 20
45.2949378166
 10
55.0270188384
 20
45.3421805841
 10
55.0082393058
 20
45.3902838757
 10
54.9915869524
 20
45.43915845119999
 10
54.9770873743
 20
45.48870921109999
 10
54.9647743594
 20
45.53884362939999
 10
54.9546650863
 20
45.5894647464
 10
54.9467851194
 20
45.64047745439999
 10
54.94114308899999
 20
45.6917836712
 10
54.9377561414
 20
45.7432864314
 10
54.93686314479999
 20
45.783998048
  0
LINE
  5
15C6
330
220
100
AcDbEntity
  8
0
  6
Continuous
 62
     7
100
AcDbLine
 10
63.2375824237
 20
47.774723338
 30
0.0
 11
62.5571654164
 21
47.7672436554
 31
0.0
  0
LINE
  5
15C7
330
220
100
AcDbEntity
  8
0
  6
Continuous
 62
     7
100
AcDbLine
 10
62.5571654164
 20
47.7672436554
 30
0.0
 11
62.41414503489999
 21
47.76608304829999
 31
0.0
  0
LINE
  5
15C8
330
220
100
AcDbEntity
  8
0
  6
Continuous
 62
     7
100
AcDbLine
 10
63.4558926976
 20
47.7763275088
 30
0.0
 11
63.2375824237
 21
47.774723338
 31
0.0
  0
LINE
  5
15C9
330
220
100
AcDbEntity
  8
0
  6
Continuous
 62
     7
100
AcDbLine
 10
62.41414503489999
 20
47.76608304829999
 30
0.0
 11
62.25777172489999
 21
47.7651771152
 31
0.0
  0
LINE
  5
15CA
330
220
100
AcDbEntity
  8
0
  6
Continuous
 62
     7
100
AcDbLine
 10
63.6284355852
 20
47.77716053579999
 30
0.0
 11
63.4558926976
 21
47.7763275088
 31
0.0
  0
LINE
  5
15CB
330
220
100
AcDbEntity
  8
0
  6
Continuous
 62
     7
100
AcDbLine
 10
62.25777172489999
 20
47.7651771152
 30
0.0
 11
62.0870196554
 21
47.7644962237
 31
0.0
  0
LINE
  5
15CC
330
220
100
AcDbEntity
  8
0
  6
Continuous
 62
     7
100
AcDbLine
 10
63.8262737404
 20
47.77769169479999
 30
0.0
 11
63.6284355852
 21
47.77716053579999
 31
0.0
  0
LINE
  5
15CD
330
220
100
AcDbEntity
  8
0
  6
Continuous
 62
     7
100
AcDbLine
 10
62.0870196554
 20
47.7644962237
 30
0.0
 11
61.8029550022
 21
47.7638320764
 31
0.0
  0
LINE
  5
15CE
330
220
100
AcDbEntity
  8
0
  6
Continuous
 62
     7
100
AcDbLine
 10
61.8029550022
 20
47.7638320764
 30
0.0
 11
61.3512403274
 21
47.76339497979999
 31
0.0
  0
LINE
  5
15CF
330
220
100
AcDbEntity
  8
0
  6
Continuous
 62
     7
100
AcDbLine
 10
53.8696637776
 20
47.764414193
 30
0.0
 11
53.1612358438
 21
47.7636397667
 31
0.0
  0
LINE
  5
15D0
330
220
100
AcDbEntity
  8
0
  6
Continuous
 62
     7
100
AcDbLine
 10
23.124124293
 20
47.8384651481
 30
0.0
 11
89.12412429299999
 21
47.8384651481
 31
0.0
  0
LINE
  5
15D1
330
220
100
AcDbEntity
  8
0
  6
Continuous
 62
     7
100
AcDbLine
 10
23.3345773853
 20
48.8771796053
 30
0.0
 11
88.91367120059999
 21
48.8771796053
 31
0.0
  0
LINE
  5
15D2
330
220
100
AcDbEntity
  8
0
  6
Continuous
 62
     7
100
AcDbLine
 10
88.36128848459999
 20
49.33846514779999
 30
0.0
 11
23.8869602757
 21
49.3384651477
 31
0.0
  0
LINE
  5
15D3
330
220
100
AcDbEntity
  8
0
  6
Continuous
 62
     7
100
AcDbLine
 10
64.11317488989999
 20
47.7777832739
 30
0.0
 11
63.8262737404
 21
47.77769169479999
 31
0.0
  0
LINE
  5
15D4
330
220
100
AcDbEntity
  8
0
  6
Continuous
 62
     7
100
AcDbLine
 10
53.1612358438
 20
47.7636397667
 30
0.0
 11
51.02706836100001
 21
47.7633555315
 31
0.0
  0
LINE
  5
15D5
330
220
100
AcDbEntity
  8
0
  6
Continuous
 62
     7
100
AcDbLine
 10
51.02706836100001
 20
47.7633555315
 30
0.0
 11
50.6428589846
 21
47.7635935805
 31
0.0
  0
LINE
  5
15D6
330
220
100
AcDbEntity
  8
0
  6
Continuous
 62
     7
100
AcDbLine
 10
61.3512403274
 20
47.76339497979999
 30
0.0
 11
58.7167734368
 21
47.76392880249999
 31
0.0
  0
LINE
  5
15D7
330
220
100
AcDbEntity
  8
0
  6
Continuous
 62
     7
100
AcDbLine
 10
50.6428589846
 20
47.7635935805
 30
0.0
 11
50.3295423613
 21
47.764053106
 31
0.0
  0
LINE
  5
15D8
330
220
100
AcDbEntity
  8
0
  6
Continuous
 62
     7
100
AcDbLine
 10
48.5238790267
 20
47.7774690724
 30
0.0
 11
48.1352728793
 21
47.7777806891
 31
0.0
  0
LINE
  5
15D9
330
220
100
AcDbEntity
  8
0
  6
Continuous
 62
     7
100
AcDbLine
 10
58.7167734368
 20
47.76392880249999
 30
0.0
 11
58.392002845
 21
47.7643678547
 31
0.0
  0
LINE
  5
15DA
330
220
100
AcDbEntity
  8
0
  6
Continuous
 62
     7
100
AcDbLine
 10
58.392002845
 20
47.7643678547
 30
0.0
 11
53.8696637776
 21
47.764414193
 31
0.0
  0
LINE
  5
15DB
330
220
100
AcDbEntity
  8
0
  6
Continuous
 62
     7
100
AcDbLine
 10
50.3295423613
 20
47.764053106
 30
0.0
 11
50.0620634383
 21
47.76486113439999
 31
0.0
  0
LINE
  5
15DC
330
220
100
AcDbEntity
  8
0
  6
Continuous
 62
     7
100
AcDbLine
 10
48.70882477560001
 20
47.7767837268
 30
0.0
 11
48.5238790267
 21
47.7774690724
 31
0.0
  0
LINE
  5
15DD
330
220
100
AcDbEntity
  8
0
  6
Continuous
 62
     7
100
AcDbLine
 10
50.0620634383
 20
47.76486113439999
 30
0.0
 11
49.90238135520001
 21
47.76565024649999
 31
0.0
  0
LINE
  5
15DE
330
220
100
AcDbEntity
  8
0
  6
Continuous
 62
     7
100
AcDbLine
 10
48.9417738029
 20
47.7753009322
 30
0.0
 11
48.70882477560001
 21
47.7767837268
 31
0.0
  0
LINE
  5
15DF
330
220
100
AcDbEntity
  8
0
  6
Continuous
 62
     7
100
AcDbLine
 10
49.90238135520001
 20
47.76565024649999
 30
0.0
 11
49.7561699858
 21
47.76667764789999
 31
0.0
  0
LINE
  5
15E0
330
220
100
AcDbEntity
  8
0
  6
Continuous
 62
     7
100
AcDbLine
 10
49.7561699858
 20
47.76667764789999
 30
0.0
 11
49.6231328525
 21
47.7679884902
 31
0.0
  0
LINE
  5
15E1
330
220
100
AcDbEntity
  8
0
  6
Continuous
 62
     7
100
AcDbLine
 10
49.2615935006
 20
47.77218842629999
 30
0.0
 11
48.9417738029
 21
47.7753009322
 31
0.0
  0
LINE
  5
15E2
330
220
100
AcDbEntity
  8
0
  6
Continuous
 62
     7
100
AcDbLine
 10
49.6231328525
 20
47.7679884902
 30
0.0
 11
49.2615935006
 21
47.77218842629999
 31
0.0
  0
LINE
  5
15E3
330
220
100
AcDbEntity
  8
0
  6
Continuous
 62
     7
100
AcDbLine
 10
23.8951442779
 20
49.3382501494
 30
0.0
 11
23.886960276
 21
49.3384651477
 31
0.0
  0
LINE
  5
15E4
330
220
100
AcDbEntity
  8
0
  6
Continuous
 62
     7
100
AcDbLine
 10
83.5584671061
 20
27.9035277855
 30
0.0
 11
83.93675102180001
 21
26.4917529924
 31
0.0
  0
LINE
  5
15E5
330
220
100
AcDbEntity
  8
0
  6
Continuous
 62
     7
100
AcDbLine
 10
86.11658033579999
 20
43.27263412079999
 30
0.0
 11
86.1140781948
 21
43.266333873
 31
0.0
  0
LWPOLYLINE
  5
15E6
330
220
100
AcDbEntity
  8
0
  6
Continuous
 62
     7
100
AcDbPolyline
 90
        7
 70
     0
 43
0.0
 10
88.0988031286
 20
47.78604293709999
 10
87.7461522926
 20
47.04390404419999
 10
87.4023365538
 20
46.2975565141
 10
87.0673930915
 20
45.5470790281
 10
86.7414065974
 20
44.7926584506
 10
86.4244579036
 20
44.034483349
 10
86.11658033579999
 20
43.27263412079999
  0
LINE
  5
15E7
330
220
100
AcDbEntity
  8
0
  6
Continuous
 62
     7
100
AcDbLine
 10
85.61341180799999
 20
24.2404660446
 30
0.0
 11
85.67045449510001
 21
23.5884651481
 31
0.0
  0
LWPOLYLINE
  5
15E8
330
220
100
AcDbEntity
  8
0
  6
Continuous
 62
     7
100
AcDbPolyline
 90
       17
 70
     0
 43
0.0
 10
82.5010874904
 20
30.91697341070001
 10
82.65879186680001
 20
31.7067798993
 10
82.82569751809999
 20
32.4946682059
 10
83.00178065850001
 20
33.2805228774
 10
83.18702446379999
 20
34.0642603544
 10
83.38140877909999
 20
34.8457978284
 10
83.58490317679999
 20
35.625021508
 10
83.79748024100001
 20
36.4018299671
 10
84.0191075821
 20
37.1761040019
 10
84.2497512897
 20
37.9477216285
 10
84.48938597680001
 20
38.7165904757
 10
84.73798149030001
 20
39.4826117545
 10
84.9955034959
 20
40.2456873821
 10
85.2619230464
 20
41.00573456929999
 10
85.53718981640001
 20
41.7626098327
 10
85.82125269
 20
42.51617314079999
 10
86.1140781948
 20
43.266333873
  0
LINE
  5
15E9
330
220
100
AcDbEntity
  8
0
  6
Continuous
 62
     7
100
AcDbLine
 10
89.0455682768
 20
48.73636452159999
 30
0.0
 11
89.12412429299999
 21
47.8384651481
 31
0.0
  0
ARC
  5
182C
330
220
100
AcDbEntity
  8
DEFAULT_2
  6
HIDDEN
 62
     7
100
AcDbCircle
 10
84.74912429300001
 20
49.27596514810001
 30
0.0
 40
0.5
100
AcDbArc
 50
266.7449723050999
 51
337.4552328933
  0
ARC
  5
182D
330
220
100
AcDbEntity
  8
DEFAULT_2
  6
HIDDEN
 62
     7
100
AcDbCircle
 10
27.499124293
 20
49.27596514810001
 30
0.0
 40
0.5
100
AcDbArc
 50
202.5447671067
 51
273.2550276949
  0
ARC
  5
1830
330
220
100
AcDbEntity
  8
DEFAULT_2
  6
HIDDEN
 62
     7
100
AcDbCircle
 10
57.39557090239999
 20
29.5884651481
 30
0.0
 40
0.25
100
AcDbArc
 50
270.0
 51
315.0
  0
ARC
  5
1831
330
220
100
AcDbEntity
  8
DEFAULT_2
  6
HIDDEN
 62
     7
100
AcDbCircle
 10
54.85267768359999
 20
29.5884651481
 30
0.0
 40
0.25
100
AcDbArc
 50
225.0
 51
270.0
  0
ARC
  5
1834
330
220
100
AcDbEntity
  8
DEFAULT_2
  6
HIDDEN
 62
     7
100
AcDbCircle
 10
85.3552238312
 20
49.02435549959999
 30
0.0
 40
0.1562500003
100
AcDbArc
 50
93.00603939709999
 51
157.4552318949
  0
ARC
  5
1835
330
220
100
AcDbEntity
  8
DEFAULT_2
  6
HIDDEN
 62
     7
100
AcDbCircle
 10
84.7118621635
 20
48.6207738837
 30
0.0
 40
0.1562500003
100
AcDbArc
 50
86.74497421759999
 51
155.0000034215
  0
ARC
  5
1836
330
220
100
AcDbEntity
  8
DEFAULT_2
  6
HIDDEN
 62
     7
100
AcDbCircle
 10
27.5363864225
 20
48.6207738837
 30
0.0
 40
0.1562500003
100
AcDbArc
 50
24.9999965785
 51
93.2550257824
  0
ARC
  5
1837
330
220
100
AcDbEntity
  8
DEFAULT_2
  6
HIDDEN
 62
     7
100
AcDbCircle
 10
26.8930247548
 20
49.02435549959999
 30
0.0
 40
0.1562500003
100
AcDbArc
 50
22.5447681051
 51
86.9939606029
  0
ARC
  5
183C
330
220
100
AcDbEntity
  8
0
  6
Continuous
 62
     7
100
AcDbCircle
 10
79.67850502320001
 20
31.4634651481
 30
0.0
 40
2.875
100
AcDbArc
 50
318.3837531003
 51
349.0423088067
  0
ARC
  5
183D
330
220
100
AcDbEntity
  8
0
  6
Continuous
 62
     7
100
AcDbCircle
 10
32.5697435628
 20
31.4634651481
 30
0.0
 40
2.875
100
AcDbArc
 50
190.9576911933
 51
221.6162468997
  0
ARC
  5
183E
330
220
100
AcDbEntity
  8
0
  6
Continuous
 62
     7
100
AcDbCircle
 10
30.9838553173
 20
27.2888325534
 30
0.0
 40
2.375
100
AcDbArc
 50
108.4718563611
 51
165.0
  0
ARC
  5
183F
330
220
100
AcDbEntity
  8
0
  6
Continuous
 62
     7
100
AcDbCircle
 10
81.26439326859999
 20
27.2888325534
 30
0.0
 40
2.375
100
AcDbArc
 50
15.0
 51
71.52814363890001
  0
ARC
  5
1840
330
220
100
AcDbEntity
  8
0
  6
Continuous
 62
     7
100
AcDbCircle
 10
26.0777940909
 20
27.0902720342
 30
0.0
 40
2.3125
100
AcDbArc
 50
299.9914776441
 51
345.0
  0
ARC
  5
1841
330
220
100
AcDbEntity
  8
0
  6
Continuous
 62
     7
100
AcDbCircle
 10
86.17045449509999
 20
27.0902720342
 30
0.0
 40
2.3125
100
AcDbArc
 50
195.0
 51
240.0085223559
  0
CIRCLE
  5
1842
330
220
100
AcDbEntity
  8
0
  6
Continuous
 62
     7
100
AcDbCircle
 10
56.124124293
 20
27.8009651481
 30
0.0
 40
1.125
  0
ARC
  5
1843
330
220
100
AcDbEntity
  8
0
  6
Continuous
 62
     7
100
AcDbCircle
 10
26.5156620879
 20
25.0053451481
 30
0.0
 40
0.5625
100
AcDbArc
 50
301.7084786424
 51
344.9953570931
  0
ARC
  5
1844
330
220
100
AcDbEntity
  8
0
  6
Continuous
 62
     7
100
AcDbCircle
 10
85.73258649800001
 20
25.0053451481
 30
0.0
 40
0.5625
100
AcDbArc
 50
195.0046429069
 51
238.2915213576
  0
ARC
  5
1845
330
220
100
AcDbEntity
  8
0
  6
Continuous
 62
     7
100
AcDbCircle
 10
23.2585506801
 20
49.3713657444
 30
0.0
 40
0.5
100
AcDbArc
 50
278.7459434942
 51
343.2480127681
  0
ARC
  5
1846
330
220
100
AcDbEntity
  8
0
  6
Continuous
 62
     7
100
AcDbCircle
 10
88.9896979058
 20
49.3713657444
 30
0.0
 40
0.5
100
AcDbArc
 50
196.7519872319
 51
261.2540565058
  0
ARC
  5
1847
330
220
100
AcDbEntity
  8
0
  6
Continuous
 62
     7
100
AcDbCircle
 10
27.0084097899
 20
24.2077826412
 30
0.0
 40
0.375
100
AcDbArc
 50
121.7084786699
 51
175.0000000212
  0
ARC
  5
1848
330
220
100
AcDbEntity
  8
0
  6
Continuous
 62
     7
100
AcDbCircle
 10
27.4211978874
 20
24.7626289138
 30
0.0
 40
0.375
100
AcDbArc
 50
119.9914780154
 51
164.99535728
  0
ARC
  5
1849
330
220
100
AcDbEntity
  8
0
  6
Continuous
 62
     7
100
AcDbCircle
 10
85.2398387961
 20
24.2077826412
 30
0.0
 40
0.375
100
AcDbArc
 50
4.9999999788
 51
58.29152133010001
  0
ARC
  5
184A
330
220
100
AcDbEntity
  8
0
  6
Continuous
 62
     7
100
AcDbCircle
 10
84.82705069859999
 20
24.7626289138
 30
0.0
 40
0.375
100
AcDbArc
 50
15.00464272
 51
60.0085219846
  0
ARC
  5
184B
330
220
100
AcDbEntity
  8
0
  6
Continuous
 62
     7
100
AcDbCircle
 10
30.3105728545
 20
29.3043512757
 30
0.0
 40
0.25
100
AcDbArc
 50
90.0078275149
 51
108.4718543748
  0
ARC
  5
184C
330
220
100
AcDbEntity
  8
0
  6
Continuous
 62
     7
100
AcDbCircle
 10
81.93767573149999
 20
29.3043512757
 30
0.0
 40
0.25
100
AcDbArc
 50
71.52814562520001
 51
89.9921724908
  0
ARC
  5
184D
330
220
100
AcDbEntity
  8
0
  6
Continuous
 62
     7
100
AcDbCircle
 10
23.3583357307
 20
48.7227464368
 30
0.0
 40
0.15625
100
AcDbArc
 50
98.7459434942
 51
175.0
  0
ARC
  5
184E
330
220
100
AcDbEntity
  8
0
  6
Continuous
 62
     7
100
AcDbCircle
 10
88.88991285520001
 20
48.7227464368
 30
0.0
 40
0.15625
100
AcDbArc
 50
5.0
 51
81.25405650579999
  0
ARC
  5
184F
330
220
100
AcDbEntity
  8
0
  6
Continuous
 62
     7
100
AcDbCircle
 10
23.8869503256
 20
49.1822151481
 30
0.0
 40
0.15625
100
AcDbArc
 50
89.9964151864
 51
163.2480127681
  0
ARC
  5
1850
330
220
100
AcDbEntity
  8
0
  6
Continuous
 62
     7
100
AcDbCircle
 10
88.3612982604
 20
49.1822151481
 30
0.0
 40
0.15625
100
AcDbArc
 50
16.7519872319
 51
90.00358481360001
  0
ENDSEC
  0
SECTION
  2
OBJECTS
  0
DICTIONARY
  5
C
330
0
100
AcDbDictionary
281
     1
  3
ACAD_COLOR
350
189E
  3
ACAD_GROUP
350
D
  3
ACAD_LAYOUT
350
1A
  3
ACAD_MATERIAL
350
1871
  3
ACAD_MLEADERSTYLE
350
18C3
  3
ACAD_MLINESTYLE
350
17
  3
ACAD_PLOTSETTINGS
350
19
  3
ACAD_PLOTSTYLENAME
350
E
  3
ACAD_SCALELIST
350
18A1
  3
ACAD_TABLESTYLE
350
189F
  3
ACAD_VISUALSTYLE
350
188A
  3
ACDB_RECOMPOSE_DATA
350
18C9
  3
AcDbVariableDictionary
350
18FB
  3
DWGPROPS
350
195F
  0
DICTIONARY
  5
18CA
330
8
100
AcDbDictionary
280
     1
281
     1
  0
DICTIONARY
  5
190A
330
10
100
AcDbDictionary
280
     1
281
     1
  3
ADSK_XREC_LAYER_RECONCILED
360
190B
  0
DICTIONARY
  5
190C
330
1FA
100
AcDbDictionary
280
     1
281
     1
  3
ADSK_XREC_LAYER_RECONCILED
360
190D
  0
DICTIONARY
  5
190E
330
1FB
100
AcDbDictionary
280
     1
281
     1
  3
ADSK_XREC_LAYER_RECONCILED
360
190F
  0
DICTIONARY
  5
1910
330
1FC
100
AcDbDictionary
280
     1
281
     1
  3
ADSK_XREC_LAYER_RECONCILED
360
1911
  0
DICTIONARY
  5
1912
330
1FD
100
AcDbDictionary
280
     1
281
     1
  3
ADSK_XREC_LAYER_RECONCILED
360
1913
  0
DICTIONARY
  5
1914
330
1FE
100
AcDbDictionary
280
     1
281
     1
  3
ADSK_XREC_LAYER_RECONCILED
360
1915
  0
DICTIONARY
  5
1916
330
1FF
100
AcDbDictionary
280
     1
281
     1
  3
ADSK_XREC_LAYER_RECONCILED
360
1917
  0
DICTIONARY
  5
1918
330
200
100
AcDbDictionary
280
     1
281
     1
  3
ADSK_XREC_LAYER_RECONCILED
360
1919
  0
DICTIONARY
  5
191A
330
201
100
AcDbDictionary
280
     1
281
     1
  3
ADSK_XREC_LAYER_RECONCILED
360
191B
  0
DICTIONARY
  5
191C
330
202
100
AcDbDictionary
280
     1
281
     1
  3
ADSK_XREC_LAYER_RECONCILED
360
191D
  0
DICTIONARY
  5
191E
330
203
100
AcDbDictionary
280
     1
281
     1
  3
ADSK_XREC_LAYER_RECONCILED
360
191F
  0
DICTIONARY
  5
1920
330
204
100
AcDbDictionary
280
     1
281
     1
  3
ADSK_XREC_LAYER_RECONCILED
360
1921
  0
DICTIONARY
  5
1922
330
205
100
AcDbDictionary
280
     1
281
     1
  3
ADSK_XREC_LAYER_RECONCILED
360
1923
  0
DICTIONARY
  5
1924
330
206
100
AcDbDictionary
280
     1
281
     1
  3
ADSK_XREC_LAYER_RECONCILED
360
1925
  0
DICTIONARY
  5
1926
330
207
100
AcDbDictionary
280
     1
281
     1
  3
ADSK_XREC_LAYER_RECONCILED
360
1927
  0
DICTIONARY
  5
1928
330
208
100
AcDbDictionary
280
     1
281
     1
  3
ADSK_XREC_LAYER_RECONCILED
360
1929
  0
DICTIONARY
  5
192A
330
209
100
AcDbDictionary
280
     1
281
     1
  3
ADSK_XREC_LAYER_RECONCILED
360
192B
  0
DICTIONARY
  5
192C
330
20A
100
AcDbDictionary
280
     1
281
     1
  3
ADSK_XREC_LAYER_RECONCILED
360
192D
  0
DICTIONARY
  5
192E
330
20B
100
AcDbDictionary
280
     1
281
     1
  3
ADSK_XREC_LAYER_RECONCILED
360
192F
  0
DICTIONARY
  5
1930
330
20C
100
AcDbDictionary
280
     1
281
     1
  3
ADSK_XREC_LAYER_RECONCILED
360
1931
  0
DICTIONARY
  5
1932
330
20D
100
AcDbDictionary
280
     1
281
     1
  3
ADSK_XREC_LAYER_RECONCILED
360
1933
  0
DICTIONARY
  5
1934
330
20E
100
AcDbDictionary
280
     1
281
     1
  3
ADSK_XREC_LAYER_RECONCILED
360
1935
  0
DICTIONARY
  5
1936
330
20F
100
AcDbDictionary
280
     1
281
     1
  3
ADSK_XREC_LAYER_RECONCILED
360
1937
  0
DICTIONARY
  5
1938
330
210
100
AcDbDictionary
280
     1
281
     1
  3
ADSK_XREC_LAYER_RECONCILED
360
1939
  0
DICTIONARY
  5
193A
330
211
100
AcDbDictionary
280
     1
281
     1
  3
ADSK_XREC_LAYER_RECONCILED
360
193B
  0
DICTIONARY
  5
193C
330
212
100
AcDbDictionary
280
     1
281
     1
  3
ADSK_XREC_LAYER_RECONCILED
360
193D
  0
DICTIONARY
  5
193E
330
213
100
AcDbDictionary
280
     1
281
     1
  3
ADSK_XREC_LAYER_RECONCILED
360
193F
  0
DICTIONARY
  5
1940
330
214
100
AcDbDictionary
280
     1
281
     1
  3
ADSK_XREC_LAYER_RECONCILED
360
1941
  0
DICTIONARY
  5
1942
330
215
100
AcDbDictionary
280
     1
281
     1
  3
ADSK_XREC_LAYER_RECONCILED
360
1943
  0
DICTIONARY
  5
1944
330
216
100
AcDbDictionary
280
     1
281
     1
  3
ADSK_XREC_LAYER_RECONCILED
360
1945
  0
DICTIONARY
  5
1946
330
217
100
AcDbDictionary
280
     1
281
     1
  3
ADSK_XREC_LAYER_RECONCILED
360
1947
  0
DICTIONARY
  5
189E
102
{ACAD_REACTORS
330
C
102
}
330
C
100
AcDbDictionary
281
     1
  0
DICTIONARY
  5
D
102
{ACAD_REACTORS
330
C
102
}
330
C
100
AcDbDictionary
281
     1
  0
DICTIONARY
  5
1A
102
{ACAD_REACTORS
330
C
102
}
330
C
100
AcDbDictionary
281
     1
  3
Layout1
350
186D
  3
Model
350
186C
  0
DICTIONARY
  5
1871
102
{ACAD_REACTORS
330
C
102
}
330
C
100
AcDbDictionary
281
     1
  3
ByBlock
350
187A
  3
ByLayer
350
1872
  3
Global
350
1882
  0
DICTIONARY
  5
18C3
102
{ACAD_REACTORS
330
C
102
}
330
C
100
AcDbDictionary
281
     1
  3
Standard
350
18C4
  0
DICTIONARY
  5
17
102
{ACAD_REACTORS
330
C
102
}
330
C
100
AcDbDictionary
281
     1
  3
Standard
350
18
  0
DICTIONARY
  5
19
102
{ACAD_REACTORS
330
C
102
}
330
C
100
AcDbDictionary
281
     1
  0
ACDBDICTIONARYWDFLT
  5
E
102
{ACAD_REACTORS
330
C
102
}
330
C
100
AcDbDictionary
281
     1
  3
Normal
350
F
100
AcDbDictionaryWithDefault
340
F
  0
DICTIONARY
  5
18A1
102
{ACAD_REACTORS
330
C
102
}
330
C
100
AcDbDictionary
281
     1
  3
A0
350
18A2
  3
A1
350
18A3
  3
A2
350
18A4
  3
A3
350
18A5
  3
A4
350
18A6
  3
A5
350
18A7
  3
A6
350
18A8
  3
A7
350
18A9
  3
A8
350
18AA
  3
A9
350
18AB
  3
B0
350
18AC
  3
B1
350
18AD
  3
B2
350
18AE
  3
B3
350
18AF
  3
B4
350
18B0
  3
B5
350
18B1
  3
B6
350
18B2
  3
B7
350
18B3
  3
B8
350
18B4
  3
B9
350
18B5
  3
C0
350
18B6
  3
C1
350
18B7
  3
C2
350
18B8
  3
C3
350
18B9
  3
C4
350
18BA
  3
C5
350
18BB
  3
C6
350
18BC
  3
C7
350
18BD
  3
C8
350
18BE
  3
C9
350
18BF
  3
D0
350
18C0
  3
D1
350
18C1
  3
D2
350
18C2
  0
DICTIONARY
  5
189F
102
{ACAD_REACTORS
330
C
102
}
330
C
100
AcDbDictionary
281
     1
  3
Standard
350
18A0
  0
DICTIONARY
  5
188A
102
{ACAD_REACTORS
330
C
102
}
330
C
100
AcDbDictionary
281
     1
  3
2dWireframe
350
1890
  3
3D Hidden
350
1892
  3
3dWireframe
350
1891
  3
Basic
350
188F
  3
Brighten
350
1896
  3
ColorChange
350
189A
  3
Conceptual
350
1893
  3
Dim
350
1895
  3
EdgeColorOff
350
189D
  3
Facepattern
350
1899
  3
Flat
350
188B
  3
FlatWithEdges
350
188C
  3
Gouraud
350
188D
  3
GouraudWithEdges
350
188E
  3
JitterOff
350
189B
  3
Linepattern
350
1898
  3
OverhangOff
350
189C
  3
Realistic
350
1894
  3
Thicken
350
1897
  0
XRECORD
  5
18C9
102
{ACAD_REACTORS
330
C
102
}
330
C
100
AcDbXrecord
280
     1
 90
        1
330
18A0
  0
DICTIONARY
  5
18FB
102
{ACAD_REACTORS
330
C
102
}
330
C
100
AcDbDictionary
281
     1
  3
CANNOSCALE
350
18FE
  3
CMLEADERSTYLE
350
18FD
  3
CTABLESTYLE
350
18FC
  3
DIMASSOC
350
1901
  3
INDEXCTL
350
1900
  3
LAYEREVAL
350
194B
  3
LAYERNOTIFY
350
194C
  3
LIGHTINGUNITS
350
194A
  3
MSLTSCALE
350
1949
  3
SORTENTS
350
18FF
  3
XCLIPFRAME
350
1902
  0
XRECORD
  5
195F
102
{ACAD_REACTORS
330
C
102
}
330
C
100
AcDbXrecord
280
     1
  1
DWGPROPS COOKIE
  2

  3

  4

  6

  7

  8
francoisbu
  9

300
=
301
=
302
=
303
=
304
=
305
=
306
=
307
=
308
=
309
=
 40
0.0012524305555556
 41
2456087.442917835
 42
2456087.460942963
  1

 90
        0
  0
XRECORD
  5
190B
102
{ACAD_REACTORS
330
190A
102
}
330
190A
100
AcDbXrecord
280
     1
290
     1
  0
XRECORD
  5
190D
102
{ACAD_REACTORS
330
190C
102
}
330
190C
100
AcDbXrecord
280
     1
290
     1
  0
XRECORD
  5
190F
102
{ACAD_REACTORS
330
190E
102
}
330
190E
100
AcDbXrecord
280
     1
290
     1
  0
XRECORD
  5
1911
102
{ACAD_REACTORS
330
1910
102
}
330
1910
100
AcDbXrecord
280
     1
290
     1
  0
XRECORD
  5
1913
102
{ACAD_REACTORS
330
1912
102
}
330
1912
100
AcDbXrecord
280
     1
290
     1
  0
XRECORD
  5
1915
102
{ACAD_REACTORS
330
1914
102
}
330
1914
100
AcDbXrecord
280
     1
290
     1
  0
XRECORD
  5
1917
102
{ACAD_REACTORS
330
1916
102
}
330
1916
100
AcDbXrecord
280
     1
290
     1
  0
XRECORD
  5
1919
102
{ACAD_REACTORS
330
1918
102
}
330
1918
100
AcDbXrecord
280
     1
290
     1
  0
XRECORD
  5
191B
102
{ACAD_REACTORS
330
191A
102
}
330
191A
100
AcDbXrecord
280
     1
290
     1
  0
XRECORD
  5
191D
102
{ACAD_REACTORS
330
191C
102
}
330
191C
100
AcDbXrecord
280
     1
290
     1
  0
XRECORD
  5
191F
102
{ACAD_REACTORS
330
191E
102
}
330
191E
100
AcDbXrecord
280
     1
290
     1
  0
XRECORD
  5
1921
102
{ACAD_REACTORS
330
1920
102
}
330
1920
100
AcDbXrecord
280
     1
290
     1
  0
XRECORD
  5
1923
102
{ACAD_REACTORS
330
1922
102
}
330
1922
100
AcDbXrecord
280
     1
290
     1
  0
XRECORD
  5
1925
102
{ACAD_REACTORS
330
1924
102
}
330
1924
100
AcDbXrecord
280
     1
290
     1
  0
XRECORD
  5
1927
102
{ACAD_REACTORS
330
1926
102
}
330
1926
100
AcDbXrecord
280
     1
290
     1
  0
XRECORD
  5
1929
102
{ACAD_REACTORS
330
1928
102
}
330
1928
100
AcDbXrecord
280
     1
290
     1
  0
XRECORD
  5
192B
102
{ACAD_REACTORS
330
192A
102
}
330
192A
100
AcDbXrecord
280
     1
290
     1
  0
XRECORD
  5
192D
102
{ACAD_REACTORS
330
192C
102
}
330
192C
100
AcDbXrecord
280
     1
290
     1
  0
XRECORD
  5
192F
102
{ACAD_REACTORS
330
192E
102
}
330
192E
100
AcDbXrecord
280
     1
290
     1
  0
XRECORD
  5
1931
102
{ACAD_REACTORS
330
1930
102
}
330
1930
100
AcDbXrecord
280
     1
290
     1
  0
XRECORD
  5
1933
102
{ACAD_REACTORS
330
1932
102
}
330
1932
100
AcDbXrecord
280
     1
290
     1
  0
XRECORD
  5
1935
102
{ACAD_REACTORS
330
1934
102
}
330
1934
100
AcDbXrecord
280
     1
290
     1
  0
XRECORD
  5
1937
102
{ACAD_REACTORS
330
1936
102
}
330
1936
100
AcDbXrecord
280
     1
290
     1
  0
XRECORD
  5
1939
102
{ACAD_REACTORS
330
1938
102
}
330
1938
100
AcDbXrecord
280
     1
290
     1
  0
XRECORD
  5
193B
102
{ACAD_REACTORS
330
193A
102
}
330
193A
100
AcDbXrecord
280
     1
290
     1
  0
XRECORD
  5
193D
102
{ACAD_REACTORS
330
193C
102
}
330
193C
100
AcDbXrecord
280
     1
290
     1
  0
XRECORD
  5
193F
102
{ACAD_REACTORS
330
193E
102
}
330
193E
100
AcDbXrecord
280
     1
290
     1
  0
XRECORD
  5
1941
102
{ACAD_REACTORS
330
1940
102
}
330
1940
100
AcDbXrecord
280
     1
290
     1
  0
XRECORD
  5
1943
102
{ACAD_REACTORS
330
1942
102
}
330
1942
100
AcDbXrecord
280
     1
290
     1
  0
XRECORD
  5
1945
102
{ACAD_REACTORS
330
1944
102
}
330
1944
100
AcDbXrecord
280
     1
290
     1
  0
XRECORD
  5
1947
102
{ACAD_REACTORS
330
1946
102
}
330
1946
100
AcDbXrecord
280
     1
290
     1
  0
LAYOUT
  5
186D
102
{ACAD_XDICTIONARY
360
1962
102
}
102
{ACAD_REACTORS
330
1A
102
}
330
1A
100
AcDbPlotSettings
  1

  2
none_device
  4
ANSI_B_(17.00_x_11.00_Inches)
  6

 40
0.0
 41
0.0
 42
0.0
 43
0.0
 44
431.8
 45
279.4
 46
0.0
 47
0.0
 48
0.0
 49
0.0
140
0.0
141
0.0
142
1.0
143
1.0
 70
     0
 72
     0
 73
     0
 74
     0
  7

 75
     0
147
1.0
148
0.0
149
0.0
100
AcDbLayout
  1
Layout1
 70
     1
 71
     1
 10
0.0
 20
0.0
 11
12.0
 21
9.0
 12
0.0
 22
0.0
 32
0.0
 14
1.000000000000000E+20
 24
1.000000000000000E+20
 34
1.000000000000000E+20
 15
-1.000000000000000E+20
 25
-1.000000000000000E+20
 35
-1.000000000000000E+20
146
0.0
 13
0.0
 23
0.0
 33
0.0
 16
1.0
 26
0.0
 36
0.0
 17
0.0
 27
1.0
 37
0.0
 76
     0
330
221
  0
LAYOUT
  5
186C
102
{ACAD_XDICTIONARY
360
1960
102
}
102
{ACAD_REACTORS
330
1A
102
}
330
1A
100
AcDbPlotSettings
  1

  2
none_device
  4
ANSI_B_(17.00_x_11.00_Inches)
  6

 40
0.0
 41
0.0
 42
0.0
 43
0.0
 44
431.8
 45
279.4
 46
0.0
 47
0.0
 48
0.0
 49
0.0
140
0.0
141
0.0
142
1.0
143
1.0
 70
  1024
 72
     0
 73
     0
 74
     0
  7

 75
     0
147
1.0
148
0.0
149
0.0
100
AcDbLayout
  1
Model
 70
     0
 71
     0
 10
0.0
 20
0.0
 11
17.0
 21
11.0
 12
0.0
 22
0.0
 32
0.0
 14
0.0
 24
0.0
 34
0.0
 15
0.0
 25
0.0
 35
0.0
146
0.0
 13
0.0
 23
0.0
 33
0.0
 16
1.0
 26
0.0
 36
0.0
 17
0.0
 27
1.0
 37
0.0
 76
     0
330
220
331
1F4
  0
MATERIAL
  5
187A
102
{ACAD_XDICTIONARY
360
187B
102
}
102
{ACAD_REACTORS
330
1871
102
}
330
1871
100
AcDbMaterial
  1
ByBlock
 72
     0
 43
0.0208333333333333
 43
0.0
 43
0.0
 43
0.0
 43
0.0
 43
0.0208333333333333
 43
0.0
 43
0.0
 43
0.0
 43
0.0
 43
1.0
 43
0.0
 43
0.0
 43
0.0
 43
0.0
 43
1.0
 77
     0
 47
0.0208333333333333
 47
0.0
 47
0.0
 47
0.0
 47
0.0
 47
0.0208333333333333
 47
0.0
 47
0.0
 47
0.0
 47
0.0
 47
1.0
 47
0.0
 47
0.0
 47
0.0
 47
0.0
 47
1.0
171
     0
 49
0.0208333333333333
 49
0.0
 49
0.0
 49
0.0
 49
0.0
 49
0.0208333333333333
 49
0.0
 49
0.0
 49
0.0
 49
0.0
 49
1.0
 49
0.0
 49
0.0
 49
0.0
 49
0.0
 49
1.0
175
     0
142
0.0208333333333333
142
0.0
142
0.0
142
0.0
142
0.0
142
0.0208333333333333
142
0.0
142
0.0
142
0.0
142
0.0
142
1.0
142
0.0
142
0.0
142
0.0
142
0.0
142
1.0
179
     0
144
0.0208333333333333
144
0.0
144
0.0
144
0.0
144
0.0
144
0.0208333333333333
144
0.0
144
0.0
144
0.0
144
0.0
144
1.0
144
0.0
144
0.0
144
0.0
144
0.0
144
1.0
147
0.0208333333333333
147
0.0
147
0.0
147
0.0
147
0.0
147
0.0208333333333333
147
0.0
147
0.0
147
0.0
147
0.0
147
1.0
147
0.0
147
0.0
147
0.0
147
0.0
147
1.0
  0
MATERIAL
  5
1872
102
{ACAD_XDICTIONARY
360
1873
102
}
102
{ACAD_REACTORS
330
1871
102
}
330
1871
100
AcDbMaterial
  1
ByLayer
 72
     0
 43
0.0208333333333333
 43
0.0
 43
0.0
 43
0.0
 43
0.0
 43
0.0208333333333333
 43
0.0
 43
0.0
 43
0.0
 43
0.0
 43
1.0
 43
0.0
 43
0.0
 43
0.0
 43
0.0
 43
1.0
 77
     0
 47
0.0208333333333333
 47
0.0
 47
0.0
 47
0.0
 47
0.0
 47
0.0208333333333333
 47
0.0
 47
0.0
 47
0.0
 47
0.0
 47
1.0
 47
0.0
 47
0.0
 47
0.0
 47
0.0
 47
1.0
171
     0
 49
0.0208333333333333
 49
0.0
 49
0.0
 49
0.0
 49
0.0
 49
0.0208333333333333
 49
0.0
 49
0.0
 49
0.0
 49
0.0
 49
1.0
 49
0.0
 49
0.0
 49
0.0
 49
0.0
 49
1.0
175
     0
142
0.0208333333333333
142
0.0
142
0.0
142
0.0
142
0.0
142
0.0208333333333333
142
0.0
142
0.0
142
0.0
142
0.0
142
1.0
142
0.0
142
0.0
142
0.0
142
0.0
142
1.0
179
     0
144
0.0208333333333333
144
0.0
144
0.0
144
0.0
144
0.0
144
0.0208333333333333
144
0.0
144
0.0
144
0.0
144
0.0
144
1.0
144
0.0
144
0.0
144
0.0
144
0.0
144
1.0
147
0.0208333333333333
147
0.0
147
0.0
147
0.0
147
0.0
147
0.0208333333333333
147
0.0
147
0.0
147
0.0
147
0.0
147
1.0
147
0.0
147
0.0
147
0.0
147
0.0
147
1.0
  0
MATERIAL
  5
1882
102
{ACAD_XDICTIONARY
360
1883
102
}
102
{ACAD_REACTORS
330
1871
102
}
330
1871
100
AcDbMaterial
  1
Global
 72
     0
 43
0.0208333333333333
 43
0.0
 43
0.0
 43
0.0
 43
0.0
 43
0.0208333333333333
 43
0.0
 43
0.0
 43
0.0
 43
0.0
 43
1.0
 43
0.0
 43
0.0
 43
0.0
 43
0.0
 43
1.0
 77
     0
 47
0.0208333333333333
 47
0.0
 47
0.0
 47
0.0
 47
0.0
 47
0.0208333333333333
 47
0.0
 47
0.0
 47
0.0
 47
0.0
 47
1.0
 47
0.0
 47
0.0
 47
0.0
 47
0.0
 47
1.0
171
     0
 49
0.0208333333333333
 49
0.0
 49
0.0
 49
0.0
 49
0.0
 49
0.0208333333333333
 49
0.0
 49
0.0
 49
0.0
 49
0.0
 49
1.0
 49
0.0
 49
0.0
 49
0.0
 49
0.0
 49
1.0
175
     0
142
0.0208333333333333
142
0.0
142
0.0
142
0.0
142
0.0
142
0.0208333333333333
142
0.0
142
0.0
142
0.0
142
0.0
142
1.0
142
0.0
142
0.0
142
0.0
142
0.0
142
1.0
179
     0
144
0.0208333333333333
144
0.0
144
0.0
144
0.0
144
0.0
144
0.0208333333333333
144
0.0
144
0.0
144
0.0
144
0.0
144
1.0
144
0.0
144
0.0
144
0.0
144
0.0
144
1.0
147
0.0208333333333333
147
0.0
147
0.0
147
0.0
147
0.0
147
0.0208333333333333
147
0.0
147
0.0
147
0.0
147
0.0
147
1.0
147
0.0
147
0.0
147
0.0
147
0.0
147
1.0
  0
MLEADERSTYLE
  5
18C4
102
{ACAD_REACTORS
330
18C3
102
}
330
18C3
100
AcDbMLeaderStyle
170
     2
171
     1
172
     0
 90
        2
 40
0.0
 41
0.0
173
     1
 91
-1056964608
340
14
 92
       -2
290
     1
 42
0.09
291
     1
 43
0.36
  3
Standard
 44
0.18
300

342
11
174
     1
178
     6
175
     1
176
     0
 93
-1056964608
 45
0.18
292
     0
297
     0
 46
0.18
 94
-1056964608
 47
1.0
 49
1.0
140
1.0
293
     1
141
0.0
294
     1
177
     0
142
1.0
295
     0
296
     0
143
0.125
1001
ACAD_MLEADERVER
1070
     2
  0
MLINESTYLE
  5
18
102
{ACAD_REACTORS
330
17
102
}
330
17
100
AcDbMlineStyle
  2
STANDARD
 70
     0
  3

 62
   256
 51
90.0
 52
90.0
 71
     2
 49
0.5
 62
   256
  6
BYLAYER
 49
-0.5
 62
   256
  6
BYLAYER
  0
ACDBPLACEHOLDER
  5
F
102
{ACAD_REACTORS
330
E
102
}
330
E
  0
SCALE
  5
18A2
102
{ACAD_REACTORS
330
18A1
102
}
330
18A1
100
AcDbScale
 70
     0
300
1:1
140
1.0
141
1.0
290
     1
  0
SCALE
  5
18A3
102
{ACAD_REACTORS
330
18A1
102
}
330
18A1
100
AcDbScale
 70
     0
300
1:2
140
1.0
141
2.0
290
     0
  0
SCALE
  5
18A4
102
{ACAD_REACTORS
330
18A1
102
}
330
18A1
100
AcDbScale
 70
     0
300
1:4
140
1.0
141
4.0
290
     0
  0
SCALE
  5
18A5
102
{ACAD_REACTORS
330
18A1
102
}
330
18A1
100
AcDbScale
 70
     0
300
1:5
140
1.0
141
5.0
290
     0
  0
SCALE
  5
18A6
102
{ACAD_REACTORS
330
18A1
102
}
330
18A1
100
AcDbScale
 70
     0
300
1:8
140
1.0
141
8.0
290
     0
  0
SCALE
  5
18A7
102
{ACAD_REACTORS
330
18A1
102
}
330
18A1
100
AcDbScale
 70
     0
300
1:10
140
1.0
141
10.0
290
     0
  0
SCALE
  5
18A8
102
{ACAD_REACTORS
330
18A1
102
}
330
18A1
100
AcDbScale
 70
     0
300
1:16
140
1.0
141
16.0
290
     0
  0
SCALE
  5
18A9
102
{ACAD_REACTORS
330
18A1
102
}
330
18A1
100
AcDbScale
 70
     0
300
1:20
140
1.0
141
20.0
290
     0
  0
SCALE
  5
18AA
102
{ACAD_REACTORS
330
18A1
102
}
330
18A1
100
AcDbScale
 70
     0
300
1:30
140
1.0
141
30.0
290
     0
  0
SCALE
  5
18AB
102
{ACAD_REACTORS
330
18A1
102
}
330
18A1
100
AcDbScale
 70
     0
300
1:40
140
1.0
141
40.0
290
     0
  0
SCALE
  5
18AC
102
{ACAD_REACTORS
330
18A1
102
}
330
18A1
100
AcDbScale
 70
     0
300
1:50
140
1.0
141
50.0
290
     0
  0
SCALE
  5
18AD
102
{ACAD_REACTORS
330
18A1
102
}
330
18A1
100
AcDbScale
 70
     0
300
1:100
140
1.0
141
100.0
290
     0
  0
SCALE
  5
18AE
102
{ACAD_REACTORS
330
18A1
102
}
330
18A1
100
AcDbScale
 70
     0
300
2:1
140
2.0
141
1.0
290
     0
  0
SCALE
  5
18AF
102
{ACAD_REACTORS
330
18A1
102
}
330
18A1
100
AcDbScale
 70
     0
300
4:1
140
4.0
141
1.0
290
     0
  0
SCALE
  5
18B0
102
{ACAD_REACTORS
330
18A1
102
}
330
18A1
100
AcDbScale
 70
     0
300
8:1
140
8.0
141
1.0
290
     0
  0
SCALE
  5
18B1
102
{ACAD_REACTORS
330
18A1
102
}
330
18A1
100
AcDbScale
 70
     0
300
10:1
140
10.0
141
1.0
290
     0
  0
SCALE
  5
18B2
102
{ACAD_REACTORS
330
18A1
102
}
330
18A1
100
AcDbScale
 70
     0
300
100:1
140
100.0
141
1.0
290
     0
  0
SCALE
  5
18B3
102
{ACAD_REACTORS
330
18A1
102
}
330
18A1
100
AcDbScale
 70
     0
300
1/128" = 1'-0"
140
0.0078125
141
12.0
290
     0
  0
SCALE
  5
18B4
102
{ACAD_REACTORS
330
18A1
102
}
330
18A1
100
AcDbScale
 70
     0
300
1/64" = 1'-0"
140
0.015625
141
12.0
290
     0
  0
SCALE
  5
18B5
102
{ACAD_REACTORS
330
18A1
102
}
330
18A1
100
AcDbScale
 70
     0
300
1/32" = 1'-0"
140
0.03125
141
12.0
290
     0
  0
SCALE
  5
18B6
102
{ACAD_REACTORS
330
18A1
102
}
330
18A1
100
AcDbScale
 70
     0
300
1/16" = 1'-0"
140
0.0625
141
12.0
290
     0
  0
SCALE
  5
18B7
102
{ACAD_REACTORS
330
18A1
102
}
330
18A1
100
AcDbScale
 70
     0
300
3/32" = 1'-0"
140
0.09375
141
12.0
290
     0
  0
SCALE
  5
18B8
102
{ACAD_REACTORS
330
18A1
102
}
330
18A1
100
AcDbScale
 70
     0
300
1/8" = 1'-0"
140
0.125
141
12.0
290
     0
  0
SCALE
  5
18B9
102
{ACAD_REACTORS
330
18A1
102
}
330
18A1
100
AcDbScale
 70
     0
300
3/16" = 1'-0"
140
0.1875
141
12.0
290
     0
  0
SCALE
  5
18BA
102
{ACAD_REACTORS
330
18A1
102
}
330
18A1
100
AcDbScale
 70
     0
300
1/4" = 1'-0"
140
0.25
141
12.0
290
     0
  0
SCALE
  5
18BB
102
{ACAD_REACTORS
330
18A1
102
}
330
18A1
100
AcDbScale
 70
     0
300
3/8" = 1'-0"
140
0.375
141
12.0
290
     0
  0
SCALE
  5
18BC
102
{ACAD_REACTORS
330
18A1
102
}
330
18A1
100
AcDbScale
 70
     0
300
1/2" = 1'-0"
140
0.5
141
12.0
290
     0
  0
SCALE
  5
18BD
102
{ACAD_REACTORS
330
18A1
102
}
330
18A1
100
AcDbScale
 70
     0
300
3/4" = 1'-0"
140
0.75
141
12.0
290
     0
  0
SCALE
  5
18BE
102
{ACAD_REACTORS
330
18A1
102
}
330
18A1
100
AcDbScale
 70
     0
300
1" = 1'-0"
140
1.0
141
12.0
290
     0
  0
SCALE
  5
18BF
102
{ACAD_REACTORS
330
18A1
102
}
330
18A1
100
AcDbScale
 70
     0
300
1-1/2" = 1'-0"
140
1.5
141
12.0
290
     0
  0
SCALE
  5
18C0
102
{ACAD_REACTORS
330
18A1
102
}
330
18A1
100
AcDbScale
 70
     0
300
3" = 1'-0"
140
3.0
141
12.0
290
     0
  0
SCALE
  5
18C1
102
{ACAD_REACTORS
330
18A1
102
}
330
18A1
100
AcDbScale
 70
     0
300
6" = 1'-0"
140
6.0
141
12.0
290
     0
  0
SCALE
  5
18C2
102
{ACAD_REACTORS
330
18A1
102
}
330
18A1
100
AcDbScale
 70
     0
300
1'-0" = 1'-0"
140
12.0
141
12.0
290
     0
  0
TABLESTYLE
  5
18A0
102
{ACAD_XDICTIONARY
360
18C7
102
}
102
{ACAD_REACTORS
330
189F
102
}
330
189F
100
AcDbTableStyle
  3
Standard
 70
     0
 71
     0
 40
0.06
 41
0.06
280
     0
281
     0
  7
STANDARD
140
0.18
170
     2
 62
     0
 63
     7
283
     0
274
    -2
284
     1
 64
     0
275
    -2
285
     1
 65
     0
276
    -2
286
     1
 66
     0
277
    -2
287
     1
 67
     0
278
    -2
288
     1
 68
     0
279
    -2
289
     1
 69
     0
  7
STANDARD
140
0.25
170
     5
 62
     0
 63
     7
283
     0
274
    -2
284
     1
 64
     0
275
    -2
285
     1
 65
     0
276
    -2
286
     1
 66
     0
277
    -2
287
     1
 67
     0
278
    -2
288
     1
 68
     0
279
    -2
289
     1
 69
     0
  7
STANDARD
140
0.18
170
     5
 62
     0
 63
     7
283
     0
274
    -2
284
     1
 64
     0
275
    -2
285
     1
 65
     0
276
    -2
286
     1
 66
     0
277
    -2
287
     1
 67
     0
278
    -2
288
     1
 68
     0
279
    -2
289
     1
 69
     0
  0
VISUALSTYLE
  5
1890
102
{ACAD_XDICTIONARY
360
18DD
102
}
102
{ACAD_REACTORS
330
188A
102
}
330
188A
100
AcDbVisualStyle
  2
2dWireframe
 70
     4
 71
     0
 72
     2
 73
     0
 90
        0
 40
-0.6
 41
-30.0
 62
     5
 63
     7
 74
     1
 91
        4
 64
     7
 65
   257
 75
     1
175
     1
 42
1.0
 92
        0
 66
   257
 43
1.0
 76
     1
 77
     6
 78
     2
 67
     7
 79
     5
170
     0
171
     0
290
     0
174
     0
 93
        1
 44
0.0
173
     0
291
     0
 45
0.0
1001
ACAD
1000
AcDbSavedByObjectVersion
1070
     0
  0
VISUALSTYLE
  5
1892
102
{ACAD_XDICTIONARY
360
18E1
102
}
102
{ACAD_REACTORS
330
188A
102
}
330
188A
100
AcDbVisualStyle
  2
3D Hidden
 70
     6
 71
     1
 72
     2
 73
     2
 90
        0
 40
-0.6
 41
-30.0
 62
     5
 63
     7
 74
     2
 91
        2
 64
     7
 65
   257
 75
     2
175
     1
 42
179.0
 92
        0
 66
   257
 43
1.0
 76
     1
 77
     6
 78
     2
 67
     7
 79
     3
170
     0
171
     0
290
     0
174
     0
 93
        1
 44
0.0
173
     0
291
     0
 45
0.0
1001
ACAD
1000
AcDbSavedByObjectVersion
1070
     0
  0
VISUALSTYLE
  5
1891
102
{ACAD_XDICTIONARY
360
18DF
102
}
102
{ACAD_REACTORS
330
188A
102
}
330
188A
100
AcDbVisualStyle
  2
3dWireframe
 70
     5
 71
     0
 72
     2
 73
     0
 90
        0
 40
-0.6
 41
-30.0
 62
     5
 63
     7
 74
     1
 91
        4
 64
     7
 65
   257
 75
     1
175
     1
 42
1.0
 92
        0
 66
   257
 43
1.0
 76
     1
 77
     6
 78
     2
 67
     7
 79
     5
170
     0
171
     0
290
     0
174
     0
 93
        1
 44
0.0
173
     0
291
     0
 45
0.0
1001
ACAD
1000
AcDbSavedByObjectVersion
1070
     0
  0
VISUALSTYLE
  5
188F
102
{ACAD_XDICTIONARY
360
18DB
102
}
102
{ACAD_REACTORS
330
188A
102
}
330
188A
100
AcDbVisualStyle
  2
Basic
 70
     7
 71
     1
 72
     0
 73
     1
 90
        0
 40
-0.6
 41
-30.0
 62
     5
 63
     7
 74
     0
 91
        4
 64
     7
 65
   257
 75
     1
175
     1
 42
1.0
 92
        8
 66
     7
 43
1.0
 76
     1
 77
     6
 78
     2
 67
     7
 79
     5
170
     0
171
     0
290
     0
174
     0
 93
        1
 44
0.0
173
     0
291
     1
 45
0.0
1001
ACAD
1000
AcDbSavedByObjectVersion
1070
     0
  0
VISUALSTYLE
  5
1896
102
{ACAD_XDICTIONARY
360
18E9
102
}
102
{ACAD_REACTORS
330
188A
102
}
330
188A
100
AcDbVisualStyle
  2
Brighten
 70
    12
 71
     2
 72
     2
 73
     0
 90
        0
 40
-0.6
 41
-30.0
 62
     5
 63
     7
 74
     1
 91
        4
 64
     7
 65
   257
 75
     1
175
     1
 42
1.0
 92
        8
 66
     7
 43
1.0
 76
     1
 77
     6
 78
     2
 67
     7
 79
     5
170
     0
171
     0
290
     0
174
     0
 93
        1
 44
50.0
173
     0
291
     1
 45
0.0
1001
ACAD
1000
AcDbSavedByObjectVersion
1070
     0
  0
VISUALSTYLE
  5
189A
102
{ACAD_XDICTIONARY
360
18F1
102
}
102
{ACAD_REACTORS
330
188A
102
}
330
188A
100
AcDbVisualStyle
  2
ColorChange
 70
    16
 71
     2
 72
     2
 73
     3
 90
        0
 40
-0.6
 41
-30.0
 62
     5
 63
     8
 74
     1
 91
        4
 64
     7
 65
   257
 75
     1
175
     1
 42
1.0
 92
        8
 66
     8
 43
1.0
 76
     1
 77
     6
 78
     2
 67
     7
 79
     5
170
     0
171
     0
290
     0
174
     0
 93
        1
 44
0.0
173
     0
291
     1
 45
0.0
1001
ACAD
1000
AcDbSavedByObjectVersion
1070
     0
  0
VISUALSTYLE
  5
1893
102
{ACAD_XDICTIONARY
360
18E3
102
}
102
{ACAD_REACTORS
330
188A
102
}
330
188A
100
AcDbVisualStyle
  2
Conceptual
 70
     9
 71
     3
 72
     2
 73
     0
 90
        0
 40
-0.6
 41
-30.0
 62
     5
 63
     7
 74
     2
 91
        2
 64
     7
 65
   257
 75
     1
175
     1
 42
179.0
 92
        8
 66
     7
 43
1.0
 76
     1
 77
     6
 78
     2
 67
     7
 79
     3
170
     0
171
     0
290
     0
174
     0
 93
        1
 44
0.0
173
     0
291
     0
 45
0.0
1001
ACAD
1000
AcDbSavedByObjectVersion
1070
     0
  0
VISUALSTYLE
  5
1895
102
{ACAD_XDICTIONARY
360
18E7
102
}
102
{ACAD_REACTORS
330
188A
102
}
330
188A
100
AcDbVisualStyle
  2
Dim
 70
    11
 71
     2
 72
     2
 73
     0
 90
        0
 40
-0.6
 41
-30.0
 62
     5
 63
     7
 74
     1
 91
        4
 64
     7
 65
   257
 75
     1
175
     1
 42
1.0
 92
        8
 66
     7
 43
1.0
 76
     1
 77
     6
 78
     2
 67
     7
 79
     5
170
     0
171
     0
290
     0
174
     0
 93
        1
 44
-50.0
173
     0
291
     1
 45
0.0
1001
ACAD
1000
AcDbSavedByObjectVersion
1070
     0
  0
VISUALSTYLE
  5
189D
102
{ACAD_XDICTIONARY
360
18F7
102
}
102
{ACAD_REACTORS
330
188A
102
}
330
188A
100
AcDbVisualStyle
  2
EdgeColorOff
 70
    22
 71
     2
 72
     2
 73
     0
 90
        0
 40
-0.6
 41
-30.0
 62
     5
 63
     7
 74
     1
 91
        4
 64
     7
 65
   257
 75
     1
175
     1
 42
1.0
 92
        8
 66
     7
 43
1.0
 76
     1
 77
     6
 78
     2
 67
     7
 79
     5
170
     0
171
     0
290
     0
174
     0
 93
        1
 44
0.0
173
     0
291
     1
 45
0.0
1001
ACAD
1000
AcDbSavedByObjectVersion
1070
     0
  0
VISUALSTYLE
  5
1899
102
{ACAD_XDICTIONARY
360
18EF
102
}
102
{ACAD_REACTORS
330
188A
102
}
330
188A
100
AcDbVisualStyle
  2
Facepattern
 70
    15
 71
     2
 72
     2
 73
     0
 90
        0
 40
-0.6
 41
-30.0
 62
     5
 63
     7
 74
     1
 91
        4
 64
     7
 65
   257
 75
     1
175
     1
 42
1.0
 92
        8
 66
     7
 43
1.0
 76
     1
 77
     6
 78
     2
 67
     7
 79
     5
170
     0
171
     0
290
     0
174
     0
 93
        1
 44
0.0
173
     0
291
     1
 45
0.0
1001
ACAD
1000
AcDbSavedByObjectVersion
1070
     0
  0
VISUALSTYLE
  5
188B
102
{ACAD_XDICTIONARY
360
18D3
102
}
102
{ACAD_REACTORS
330
188A
102
}
330
188A
100
AcDbVisualStyle
  2
Flat
 70
     0
 71
     2
 72
     1
 73
     1
 90
        2
 40
-0.6
 41
30.0
 62
     5
 63
     7
 74
     0
 91
        4
 64
     7
 65
   257
 75
     1
175
     1
 42
1.0
 92
        8
 66
     7
 43
1.0
 76
     1
 77
     6
 78
     2
 67
     7
 79
     5
170
     0
171
     0
290
     0
174
     0
 93
       13
 44
0.0
173
     0
291
     1
 45
0.0
1001
ACAD
1000
AcDbSavedByObjectVersion
1070
     0
  0
VISUALSTYLE
  5
188C
102
{ACAD_XDICTIONARY
360
18D5
102
}
102
{ACAD_REACTORS
330
188A
102
}
330
188A
100
AcDbVisualStyle
  2
FlatWithEdges
 70
     1
 71
     2
 72
     1
 73
     1
 90
        2
 40
-0.6
 41
30.0
 62
     5
 63
     7
 74
     1
 91
        4
 64
     7
 65
   257
 75
     1
175
     1
 42
1.0
 92
        0
 66
   257
 43
1.0
 76
     1
 77
     6
 78
     2
 67
     7
 79
     5
170
     0
171
     0
290
     0
174
     0
 93
       13
 44
0.0
173
     0
291
     1
 45
0.0
1001
ACAD
1000
AcDbSavedByObjectVersion
1070
     0
  0
VISUALSTYLE
  5
188D
102
{ACAD_XDICTIONARY
360
18D7
102
}
102
{ACAD_REACTORS
330
188A
102
}
330
188A
100
AcDbVisualStyle
  2
Gouraud
 70
     2
 71
     2
 72
     2
 73
     1
 90
        2
 40
-0.6
 41
30.0
 62
     5
 63
     7
 74
     0
 91
        4
 64
     7
 65
   257
 75
     1
175
     1
 42
1.0
 92
        0
 66
     7
 43
1.0
 76
     1
 77
     6
 78
     2
 67
     7
 79
     5
170
     0
171
     0
290
     0
174
     0
 93
       13
 44
0.0
173
     0
291
     1
 45
0.0
1001
ACAD
1000
AcDbSavedByObjectVersion
1070
     0
  0
VISUALSTYLE
  5
188E
102
{ACAD_XDICTIONARY
360
18D9
102
}
102
{ACAD_REACTORS
330
188A
102
}
330
188A
100
AcDbVisualStyle
  2
GouraudWithEdges
 70
     3
 71
     2
 72
     2
 73
     1
 90
        2
 40
-0.6
 41
30.0
 62
     5
 63
     7
 74
     1
 91
        4
 64
     7
 65
   257
 75
     1
175
     1
 42
1.0
 92
        0
 66
   257
 43
1.0
 76
     1
 77
     6
 78
     2
 67
     7
 79
     5
170
     0
171
     0
290
     0
174
     0
 93
       13
 44
0.0
173
     0
291
     1
 45
0.0
1001
ACAD
1000
AcDbSavedByObjectVersion
1070
     0
  0
VISUALSTYLE
  5
189B
102
{ACAD_XDICTIONARY
360
18F3
102
}
102
{ACAD_REACTORS
330
188A
102
}
330
188A
100
AcDbVisualStyle
  2
JitterOff
 70
    20
 71
     2
 72
     2
 73
     0
 90
        0
 40
-0.6
 41
-30.0
 62
     5
 63
     7
 74
     1
 91
        4
 64
     7
 65
   257
 75
     1
175
     1
 42
1.0
 92
       10
 66
     7
 43
1.0
 76
     1
 77
     6
 78
     2
 67
     7
 79
     5
170
     0
171
     0
290
     0
174
     0
 93
        1
 44
0.0
173
     0
291
     1
 45
0.0
1001
ACAD
1000
AcDbSavedByObjectVersion
1070
     0
  0
VISUALSTYLE
  5
1898
102
{ACAD_XDICTIONARY
360
18ED
102
}
102
{ACAD_REACTORS
330
188A
102
}
330
188A
100
AcDbVisualStyle
  2
Linepattern
 70
    14
 71
     2
 72
     2
 73
     0
 90
        0
 40
-0.6
 41
-30.0
 62
     5
 63
     7
 74
     1
 91
        4
 64
     7
 65
   257
 75
     7
175
     7
 42
1.0
 92
        8
 66
     7
 43
1.0
 76
     1
 77
     6
 78
     2
 67
     7
 79
     5
170
     0
171
     0
290
     0
174
     0
 93
        1
 44
0.0
173
     0
291
     1
 45
0.0
1001
ACAD
1000
AcDbSavedByObjectVersion
1070
     0
  0
VISUALSTYLE
  5
189C
102
{ACAD_XDICTIONARY
360
18F5
102
}
102
{ACAD_REACTORS
330
188A
102
}
330
188A
100
AcDbVisualStyle
  2
OverhangOff
 70
    21
 71
     2
 72
     2
 73
     0
 90
        0
 40
-0.6
 41
-30.0
 62
     5
 63
     7
 74
     1
 91
        4
 64
     7
 65
   257
 75
     1
175
     1
 42
1.0
 92
        9
 66
     7
 43
1.0
 76
     1
 77
     6
 78
     2
 67
     7
 79
     5
170
     0
171
     0
290
     0
174
     0
 93
        1
 44
0.0
173
     0
291
     1
 45
0.0
1001
ACAD
1000
AcDbSavedByObjectVersion
1070
     0
  0
VISUALSTYLE
  5
1894
102
{ACAD_XDICTIONARY
360
18E5
102
}
102
{ACAD_REACTORS
330
188A
102
}
330
188A
100
AcDbVisualStyle
  2
Realistic
 70
     8
 71
     2
 72
     2
 73
     0
 90
        0
 40
-0.6
 41
-30.0
 62
     5
 63
     7
 74
     1
 91
        0
 64
     7
 65
   257
 75
     1
175
     1
 42
1.0
 92
        8
 66
     8
 43
1.0
 76
     1
 77
     6
 78
     2
 67
     7
 79
     5
170
     0
171
     0
290
     0
174
     0
 93
       13
 44
0.0
173
     0
291
     0
 45
0.0
1001
ACAD
1000
AcDbSavedByObjectVersion
1070
     0
  0
VISUALSTYLE
  5
1897
102
{ACAD_XDICTIONARY
360
18EB
102
}
102
{ACAD_REACTORS
330
188A
102
}
330
188A
100
AcDbVisualStyle
  2
Thicken
 70
    13
 71
     2
 72
     2
 73
     0
 90
        0
 40
-0.6
 41
-30.0
 62
     5
 63
     7
 74
     1
 91
        4
 64
     7
 65
   257
 75
     1
175
     1
 42
1.0
 92
       12
 66
     7
 43
1.0
 76
     1
 77
     6
 78
     2
 67
     7
 79
     5
170
     0
171
     0
290
     0
174
     0
 93
        1
 44
0.0
173
     0
291
     1
 45
0.0
1001
ACAD
1000
AcDbSavedByObjectVersion
1070
     0
  0
DICTIONARYVAR
  5
18FE
102
{ACAD_REACTORS
330
18FB
102
}
330
18FB
100
DictionaryVariables
280
     0
  1
1:1
  0
DICTIONARYVAR
  5
18FD
102
{ACAD_REACTORS
330
18FB
102
}
330
18FB
100
DictionaryVariables
280
     0
  1
STANDARD
  0
DICTIONARYVAR
  5
18FC
102
{ACAD_REACTORS
330
18FB
102
}
330
18FB
100
DictionaryVariables
280
     0
  1
STANDARD
  0
DICTIONARYVAR
  5
1901
102
{ACAD_REACTORS
330
18FB
102
}
330
18FB
100
DictionaryVariables
280
     0
  1
1
  0
DICTIONARYVAR
  5
1900
102
{ACAD_REACTORS
330
18FB
102
}
330
18FB
100
DictionaryVariables
280
     0
  1
0
  0
DICTIONARYVAR
  5
194B
102
{ACAD_REACTORS
330
18FB
102
}
330
18FB
100
DictionaryVariables
280
     0
  1
1
  0
DICTIONARYVAR
  5
194C
102
{ACAD_REACTORS
330
18FB
102
}
330
18FB
100
DictionaryVariables
280
     0
  1
15
  0
DICTIONARYVAR
  5
194A
102
{ACAD_REACTORS
330
18FB
102
}
330
18FB
100
DictionaryVariables
280
     0
  1
0
  0
DICTIONARYVAR
  5
1949
102
{ACAD_REACTORS
330
18FB
102
}
330
18FB
100
DictionaryVariables
280
     0
  1
0
  0
DICTIONARYVAR
  5
18FF
102
{ACAD_REACTORS
330
18FB
102
}
330
18FB
100
DictionaryVariables
280
     0
  1
127
  0
DICTIONARYVAR
  5
1902
102
{ACAD_REACTORS
330
18FB
102
}
330
18FB
100
DictionaryVariables
280
     0
  1
0
  0
DICTIONARY
  5
1962
330
186D
100
AcDbDictionary
280
     1
281
     1
  3
ACAD_XREC_ROUNDTRIP
360
1963
  0
DICTIONARY
  5
1960
330
186C
100
AcDbDictionary
280
     1
281
     1
  3
ACAD_XREC_ROUNDTRIP
360
1961
  0
DICTIONARY
  5
187B
330
187A
100
AcDbDictionary
280
     1
281
     1
  3
ACAD_XREC_ROUNDTRIP
360
1965
  3
BUMPTILE
360
187D
  3
DIFFUSETILE
360
187C
  3
OPACITYTILE
360
1880
  3
REFLECTIONTILE
360
187F
  3
REFRACTIONTILE
360
1881
  3
SPECULARTILE
360
187E
  0
DICTIONARY
  5
1873
330
1872
100
AcDbDictionary
280
     1
281
     1
  3
ACAD_XREC_ROUNDTRIP
360
1964
  3
BUMPTILE
360
1875
  3
DIFFUSETILE
360
1874
  3
OPACITYTILE
360
1878
  3
REFLECTIONTILE
360
1877
  3
REFRACTIONTILE
360
1879
  3
SPECULARTILE
360
1876
  0
DICTIONARY
  5
1883
330
1882
100
AcDbDictionary
280
     1
281
     1
  3
ACAD_XREC_ROUNDTRIP
360
1966
  3
BUMPTILE
360
1885
  3
DIFFUSETILE
360
1884
  3
OPACITYTILE
360
1888
  3
REFLECTIONTILE
360
1887
  3
REFRACTIONTILE
360
1889
  3
SPECULARTILE
360
1886
  0
DICTIONARY
  5
18C7
330
18A0
100
AcDbDictionary
280
     1
281
     1
  3
ACAD_ROUNDTRIP_2008_TABLESTYLE_CELLSTYLEMAP
360
195E
  3
ACAD_XREC_ROUNDTRIP
360
1967
  0
DICTIONARY
  5
18DD
330
1890
100
AcDbDictionary
280
     1
281
     1
  3
ACAD_XREC_ROUNDTRIP
360
18DE
  0
DICTIONARY
  5
18E1
330
1892
100
AcDbDictionary
280
     1
281
     1
  3
ACAD_XREC_ROUNDTRIP
360
18E2
  0
DICTIONARY
  5
18DF
330
1891
100
AcDbDictionary
280
     1
281
     1
  3
ACAD_XREC_ROUNDTRIP
360
18E0
  0
DICTIONARY
  5
18DB
330
188F
100
AcDbDictionary
280
     1
281
     1
  3
ACAD_XREC_ROUNDTRIP
360
18DC
  0
DICTIONARY
  5
18E9
330
1896
100
AcDbDictionary
280
     1
281
     1
  3
ACAD_XREC_ROUNDTRIP
360
18EA
  0
DICTIONARY
  5
18F1
330
189A
100
AcDbDictionary
280
     1
281
     1
  3
ACAD_XREC_ROUNDTRIP
360
18F2
  0
DICTIONARY
  5
18E3
330
1893
100
AcDbDictionary
280
     1
281
     1
  3
ACAD_XREC_ROUNDTRIP
360
18E4
  0
DICTIONARY
  5
18E7
330
1895
100
AcDbDictionary
280
     1
281
     1
  3
ACAD_XREC_ROUNDTRIP
360
18E8
  0
DICTIONARY
  5
18F7
330
189D
100
AcDbDictionary
280
     1
281
     1
  3
ACAD_XREC_ROUNDTRIP
360
18F8
  0
DICTIONARY
  5
18EF
330
1899
100
AcDbDictionary
280
     1
281
     1
  3
ACAD_XREC_ROUNDTRIP
360
18F0
  0
DICTIONARY
  5
18D3
330
188B
100
AcDbDictionary
280
     1
281
     1
  3
ACAD_XREC_ROUNDTRIP
360
18D4
  0
DICTIONARY
  5
18D5
330
188C
100
AcDbDictionary
280
     1
281
     1
  3
ACAD_XREC_ROUNDTRIP
360
18D6
  0
DICTIONARY
  5
18D7
330
188D
100
AcDbDictionary
280
     1
281
     1
  3
ACAD_XREC_ROUNDTRIP
360
18D8
  0
DICTIONARY
  5
18D9
330
188E
100
AcDbDictionary
280
     1
281
     1
  3
ACAD_XREC_ROUNDTRIP
360
18DA
  0
DICTIONARY
  5
18F3
330
189B
100
AcDbDictionary
280
     1
281
     1
  3
ACAD_XREC_ROUNDTRIP
360
18F4
  0
DICTIONARY
  5
18ED
330
1898
100
AcDbDictionary
280
     1
281
     1
  3
ACAD_XREC_ROUNDTRIP
360
18EE
  0
DICTIONARY
  5
18F5
330
189C
100
AcDbDictionary
280
     1
281
     1
  3
ACAD_XREC_ROUNDTRIP
360
18F6
  0
DICTIONARY
  5
18E5
330
1894
100
AcDbDictionary
280
     1
281
     1
  3
ACAD_XREC_ROUNDTRIP
360
18E6
  0
DICTIONARY
  5
18EB
330
1897
100
AcDbDictionary
280
     1
281
     1
  3
ACAD_XREC_ROUNDTRIP
360
18EC
  0
XRECORD
  5
1963
102
{ACAD_REACTORS
330
1962
102
}
330
1962
100
AcDbXrecord
280
     1
102
SHADEPLOT
 70
     0
102
SHADEPLOTRESLEVEL
 70
     2
102
SHADEPLOTCUSTOMDPI
 70
   300
  0
XRECORD
  5
1961
102
{ACAD_REACTORS
330
1960
102
}
330
1960
100
AcDbXrecord
280
     1
102
SHADEPLOT
 70
     0
102
SHADEPLOTRESLEVEL
 70
     2
102
SHADEPLOTCUSTOMDPI
 70
   300
  0
XRECORD
  5
1965
102
{ACAD_REACTORS
330
187B
102
}
330
187B
100
AcDbXrecord
280
     1
102
MATERIAL
148
0.0
149
0.0
149
0.0
 93
        0
 94
      127
282
     0
 72
     0
 77
     0
171
     0
175
     0
179
     0
273
     0
  0
XRECORD
  5
187D
102
{ACAD_REACTORS
330
187B
102
}
330
187B
100
AcDbXrecord
280
     1
270
     1
271
     1
  0
XRECORD
  5
187C
102
{ACAD_REACTORS
330
187B
102
}
330
187B
100
AcDbXrecord
280
     1
270
     1
271
     1
  0
XRECORD
  5
1880
102
{ACAD_REACTORS
330
187B
102
}
330
187B
100
AcDbXrecord
280
     1
270
     1
271
     1
  0
XRECORD
  5
187F
102
{ACAD_REACTORS
330
187B
102
}
330
187B
100
AcDbXrecord
280
     1
270
     1
271
     1
  0
XRECORD
  5
1881
102
{ACAD_REACTORS
330
187B
102
}
330
187B
100
AcDbXrecord
280
     1
270
     1
271
     1
  0
XRECORD
  5
187E
102
{ACAD_REACTORS
330
187B
102
}
330
187B
100
AcDbXrecord
280
     1
270
     1
271
     1
  0
XRECORD
  5
1964
102
{ACAD_REACTORS
330
1873
102
}
330
1873
100
AcDbXrecord
280
     1
102
MATERIAL
148
0.0
149
0.0
149
0.0
 93
        0
 94
      127
282
     0
 72
     0
 77
     0
171
     0
175
     0
179
     0
273
     0
  0
XRECORD
  5
1875
102
{ACAD_REACTORS
330
1873
102
}
330
1873
100
AcDbXrecord
280
     1
270
     1
271
     1
  0
XRECORD
  5
1874
102
{ACAD_REACTORS
330
1873
102
}
330
1873
100
AcDbXrecord
280
     1
270
     1
271
     1
  0
XRECORD
  5
1878
102
{ACAD_REACTORS
330
1873
102
}
330
1873
100
AcDbXrecord
280
     1
270
     1
271
     1
  0
XRECORD
  5
1877
102
{ACAD_REACTORS
330
1873
102
}
330
1873
100
AcDbXrecord
280
     1
270
     1
271
     1
  0
XRECORD
  5
1879
102
{ACAD_REACTORS
330
1873
102
}
330
1873
100
AcDbXrecord
280
     1
270
     1
271
     1
  0
XRECORD
  5
1876
102
{ACAD_REACTORS
330
1873
102
}
330
1873
100
AcDbXrecord
280
     1
270
     1
271
     1
  0
XRECORD
  5
1966
102
{ACAD_REACTORS
330
1883
102
}
330
1883
100
AcDbXrecord
280
     1
102
MATERIAL
148
0.0
149
0.0
149
0.0
 93
        0
 94
      127
282
     0
 72
     0
 77
     0
171
     0
175
     0
179
     0
273
     0
  0
XRECORD
  5
1885
102
{ACAD_REACTORS
330
1883
102
}
330
1883
100
AcDbXrecord
280
     1
270
     1
271
     1
  0
XRECORD
  5
1884
102
{ACAD_REACTORS
330
1883
102
}
330
1883
100
AcDbXrecord
280
     1
270
     1
271
     1
  0
XRECORD
  5
1888
102
{ACAD_REACTORS
330
1883
102
}
330
1883
100
AcDbXrecord
280
     1
270
     1
271
     1
  0
XRECORD
  5
1887
102
{ACAD_REACTORS
330
1883
102
}
330
1883
100
AcDbXrecord
280
     1
270
     1
271
     1
  0
XRECORD
  5
1889
102
{ACAD_REACTORS
330
1883
102
}
330
1883
100
AcDbXrecord
280
     1
270
     1
271
     1
  0
XRECORD
  5
1886
102
{ACAD_REACTORS
330
1883
102
}
330
1883
100
AcDbXrecord
280
     1
270
     1
271
     1
  0
CELLSTYLEMAP
  5
195E
102
{ACAD_REACTORS
330
18C7
102
}
330
18C7
100
AcDbCellStyleMap
 90
        3
300
CELLSTYLE
  1
TABLEFORMAT_BEGIN
 90
        5
170
     1
 91
        0
 92
    32768
 62
   257
 93
        1
300
CONTENTFORMAT
  1
CONTENTFORMAT_BEGIN
 90
        0
 91
        0
 92
      512
 93
        0
300

 40
0.0
140
1.0
 94
        5
 62
     0
340
11
144
0.25
309
CONTENTFORMAT_END
171
     0
 94
        0
309
TABLEFORMAT_END
  1
CELLSTYLE_BEGIN
 90
        1
 91
        1
300
_TITLE
309
CELLSTYLE_END
300
CELLSTYLE
  1
TABLEFORMAT_BEGIN
 90
        5
170
     1
 91
        0
 92
        0
 62
   257
 93
        1
300
CONTENTFORMAT
  1
CONTENTFORMAT_BEGIN
 90
        0
 91
        0
 92
      512
 93
        0
300

 40
0.0
140
1.0
 94
        5
 62
     0
340
11
144
0.18
309
CONTENTFORMAT_END
171
     0
 94
        0
309
TABLEFORMAT_END
  1
CELLSTYLE_BEGIN
 90
        2
 91
        1
300
_HEADER
309
CELLSTYLE_END
300
CELLSTYLE
  1
TABLEFORMAT_BEGIN
 90
        5
170
     1
 91
        0
 92
        0
 62
   257
 93
        1
300
CONTENTFORMAT
  1
CONTENTFORMAT_BEGIN
 90
        0
 91
        0
 92
      512
 93
        0
300

 40
0.0
140
1.0
 94
        2
 62
     0
340
11
144
0.18
309
CONTENTFORMAT_END
171
     0
 94
        0
309
TABLEFORMAT_END
  1
CELLSTYLE_BEGIN
 90
        3
 91
        2
300
_DATA
309
CELLSTYLE_END
  0
XRECORD
  5
1967
102
{ACAD_REACTORS
330
18C7
102
}
330
18C7
100
AcDbXrecord
280
     1
102
ACAD_ROUNDTRIP_PRE2007_TABLESTYLE
 90
      512
 91
        0
  1

 92
      512
 93
        0
  2

 94
      512
 95
        0
  3

  0
XRECORD
  5
18DE
102
{ACAD_REACTORS
330
18DD
102
}
330
18DD
100
AcDbXrecord
280
     1
102
RTVSPropertyOp0
 70
     1
102
RTVSPropertyOp1
 70
     1
102
RTVSPropertyOp2
 70
     1
102
RTVSPropertyOp3
 70
     1
102
RTVSPropertyOp4
 70
     1
102
RTVSPropertyOp5
 70
     1
102
RTVSPropertyOp6
 70
     1
102
RTVSPropertyOp7
 70
     1
102
RTVSPropertyOp8
 70
     1
102
RTVSPropertyOp9
 70
     1
102
RTVSPropertyOp10
 70
     1
102
RTVSPropertyOp11
 70
     1
102
RTVSPropertyOp12
 70
     1
102
RTVSPropertyOp13
 70
     1
102
RTVSPropertyOp14
 70
     1
102
RTVSPropertyOp15
 70
     1
102
RTVSPropertyOp16
 70
     1
102
RTVSPropertyOp17
 70
     1
102
RTVSPropertyOp18
 70
     1
102
RTVSPropertyOp19
 70
     1
102
RTVSPropertyOp20
 70
     1
102
RTVSPropertyOp21
 70
     1
102
RTVSPropertyOp22
 70
     1
102
RTVSPropertyOp23
 70
     1
102
RTVSPropertyOp24
 70
     1
102
RTVSPropertyOp25
 70
     1
102
RTVSPropertyOp26
 70
     1
102
RTVSPropertyOp27
 70
     1
  0
XRECORD
  5
18E2
102
{ACAD_REACTORS
330
18E1
102
}
330
18E1
100
AcDbXrecord
280
     1
102
RTVSPropertyOp0
 70
     1
102
RTVSPropertyOp1
 70
     1
102
RTVSPropertyOp2
 70
     1
102
RTVSPropertyOp3
 70
     1
102
RTVSPropertyOp4
 70
     1
102
RTVSPropertyOp5
 70
     1
102
RTVSPropertyOp6
 70
     1
102
RTVSPropertyOp7
 70
     1
102
RTVSPropertyOp8
 70
     1
102
RTVSPropertyOp9
 70
     1
102
RTVSPropertyOp10
 70
     1
102
RTVSPropertyOp11
 70
     1
102
RTVSPropertyOp12
 70
     1
102
RTVSPropertyOp13
 70
     1
102
RTVSPropertyOp14
 70
     1
102
RTVSPropertyOp15
 70
     1
102
RTVSPropertyOp16
 70
     1
102
RTVSPropertyOp17
 70
     1
102
RTVSPropertyOp18
 70
     1
102
RTVSPropertyOp19
 70
     1
102
RTVSPropertyOp20
 70
     1
102
RTVSPropertyOp21
 70
     1
102
RTVSPropertyOp22
 70
     1
102
RTVSPropertyOp23
 70
     1
102
RTVSPropertyOp24
 70
     1
102
RTVSPropertyOp25
 70
     1
102
RTVSPropertyOp26
 70
     1
102
RTVSPropertyOp27
 70
     1
  0
XRECORD
  5
18E0
102
{ACAD_REACTORS
330
18DF
102
}
330
18DF
100
AcDbXrecord
280
     1
102
RTVSPropertyOp0
 70
     1
102
RTVSPropertyOp1
 70
     1
102
RTVSPropertyOp2
 70
     1
102
RTVSPropertyOp3
 70
     1
102
RTVSPropertyOp4
 70
     1
102
RTVSPropertyOp5
 70
     1
102
RTVSPropertyOp6
 70
     1
102
RTVSPropertyOp7
 70
     1
102
RTVSPropertyOp8
 70
     1
102
RTVSPropertyOp9
 70
     1
102
RTVSPropertyOp10
 70
     1
102
RTVSPropertyOp11
 70
     1
102
RTVSPropertyOp12
 70
     1
102
RTVSPropertyOp13
 70
     1
102
RTVSPropertyOp14
 70
     1
102
RTVSPropertyOp15
 70
     1
102
RTVSPropertyOp16
 70
     1
102
RTVSPropertyOp17
 70
     1
102
RTVSPropertyOp18
 70
     1
102
RTVSPropertyOp19
 70
     1
102
RTVSPropertyOp20
 70
     1
102
RTVSPropertyOp21
 70
     1
102
RTVSPropertyOp22
 70
     1
102
RTVSPropertyOp23
 70
     1
102
RTVSPropertyOp24
 70
     1
102
RTVSPropertyOp25
 70
     1
102
RTVSPropertyOp26
 70
     1
102
RTVSPropertyOp27
 70
     1
  0
XRECORD
  5
18DC
102
{ACAD_REACTORS
330
18DB
102
}
330
18DB
100
AcDbXrecord
280
     1
102
RTVSPropertyOp0
 70
     1
102
RTVSPropertyOp1
 70
     1
102
RTVSPropertyOp2
 70
     1
102
RTVSPropertyOp3
 70
     1
102
RTVSPropertyOp4
 70
     1
102
RTVSPropertyOp5
 70
     1
102
RTVSPropertyOp6
 70
     1
102
RTVSPropertyOp7
 70
     1
102
RTVSPropertyOp8
 70
     1
102
RTVSPropertyOp9
 70
     1
102
RTVSPropertyOp10
 70
     1
102
RTVSPropertyOp11
 70
     1
102
RTVSPropertyOp12
 70
     1
102
RTVSPropertyOp13
 70
     1
102
RTVSPropertyOp14
 70
     1
102
RTVSPropertyOp15
 70
     1
102
RTVSPropertyOp16
 70
     1
102
RTVSPropertyOp17
 70
     1
102
RTVSPropertyOp18
 70
     1
102
RTVSPropertyOp19
 70
     1
102
RTVSPropertyOp20
 70
     1
102
RTVSPropertyOp21
 70
     1
102
RTVSPropertyOp22
 70
     1
102
RTVSPropertyOp23
 70
     1
102
RTVSPropertyOp24
 70
     1
102
RTVSPropertyOp25
 70
     1
102
RTVSPropertyOp26
 70
     1
102
RTVSPropertyOp27
 70
     1
  0
XRECORD
  5
18EA
102
{ACAD_REACTORS
330
18E9
102
}
330
18E9
100
AcDbXrecord
280
     1
102
RTVSPropertyOp0
 70
     1
102
RTVSPropertyOp1
 70
     1
102
RTVSPropertyOp2
 70
     1
102
RTVSPropertyOp3
 70
     1
102
RTVSPropertyOp4
 70
     1
102
RTVSPropertyOp5
 70
     1
102
RTVSPropertyOp6
 70
     1
102
RTVSPropertyOp7
 70
     1
102
RTVSPropertyOp8
 70
     1
102
RTVSPropertyOp9
 70
     1
102
RTVSPropertyOp10
 70
     1
102
RTVSPropertyOp11
 70
     1
102
RTVSPropertyOp12
 70
     1
102
RTVSPropertyOp13
 70
     1
102
RTVSPropertyOp14
 70
     1
102
RTVSPropertyOp15
 70
     1
102
RTVSPropertyOp16
 70
     1
102
RTVSPropertyOp17
 70
     1
102
RTVSPropertyOp18
 70
     1
102
RTVSPropertyOp19
 70
     1
102
RTVSPropertyOp20
 70
     1
102
RTVSPropertyOp21
 70
     1
102
RTVSPropertyOp22
 70
     1
102
RTVSPropertyOp23
 70
     1
102
RTVSPropertyOp24
 70
     1
102
RTVSPropertyOp25
 70
     1
102
RTVSPropertyOp26
 70
     1
102
RTVSPropertyOp27
 70
     1
  0
XRECORD
  5
18F2
102
{ACAD_REACTORS
330
18F1
102
}
330
18F1
100
AcDbXrecord
280
     1
102
RTVSPropertyOp0
 70
     1
102
RTVSPropertyOp1
 70
     1
102
RTVSPropertyOp2
 70
     1
102
RTVSPropertyOp3
 70
     1
102
RTVSPropertyOp4
 70
     1
102
RTVSPropertyOp5
 70
     1
102
RTVSPropertyOp6
 70
     1
102
RTVSPropertyOp7
 70
     1
102
RTVSPropertyOp8
 70
     1
102
RTVSPropertyOp9
 70
     1
102
RTVSPropertyOp10
 70
     1
102
RTVSPropertyOp11
 70
     1
102
RTVSPropertyOp12
 70
     1
102
RTVSPropertyOp13
 70
     1
102
RTVSPropertyOp14
 70
     1
102
RTVSPropertyOp15
 70
     1
102
RTVSPropertyOp16
 70
     1
102
RTVSPropertyOp17
 70
     1
102
RTVSPropertyOp18
 70
     1
102
RTVSPropertyOp19
 70
     1
102
RTVSPropertyOp20
 70
     1
102
RTVSPropertyOp21
 70
     1
102
RTVSPropertyOp22
 70
     1
102
RTVSPropertyOp23
 70
     1
102
RTVSPropertyOp24
 70
     1
102
RTVSPropertyOp25
 70
     1
102
RTVSPropertyOp26
 70
     1
102
RTVSPropertyOp27
 70
     1
  0
XRECORD
  5
18E4
102
{ACAD_REACTORS
330
18E3
102
}
330
18E3
100
AcDbXrecord
280
     1
102
RTVSPropertyOp0
 70
     1
102
RTVSPropertyOp1
 70
     1
102
RTVSPropertyOp2
 70
     1
102
RTVSPropertyOp3
 70
     1
102
RTVSPropertyOp4
 70
     1
102
RTVSPropertyOp5
 70
     1
102
RTVSPropertyOp6
 70
     1
102
RTVSPropertyOp7
 70
     1
102
RTVSPropertyOp8
 70
     1
102
RTVSPropertyOp9
 70
     1
102
RTVSPropertyOp10
 70
     1
102
RTVSPropertyOp11
 70
     1
102
RTVSPropertyOp12
 70
     1
102
RTVSPropertyOp13
 70
     1
102
RTVSPropertyOp14
 70
     1
102
RTVSPropertyOp15
 70
     1
102
RTVSPropertyOp16
 70
     1
102
RTVSPropertyOp17
 70
     1
102
RTVSPropertyOp18
 70
     1
102
RTVSPropertyOp19
 70
     1
102
RTVSPropertyOp20
 70
     1
102
RTVSPropertyOp21
 70
     1
102
RTVSPropertyOp22
 70
     1
102
RTVSPropertyOp23
 70
     1
102
RTVSPropertyOp24
 70
     1
102
RTVSPropertyOp25
 70
     1
102
RTVSPropertyOp26
 70
     1
102
RTVSPropertyOp27
 70
     1
  0
XRECORD
  5
18E8
102
{ACAD_REACTORS
330
18E7
102
}
330
18E7
100
AcDbXrecord
280
     1
102
RTVSPropertyOp0
 70
     1
102
RTVSPropertyOp1
 70
     1
102
RTVSPropertyOp2
 70
     1
102
RTVSPropertyOp3
 70
     1
102
RTVSPropertyOp4
 70
     1
102
RTVSPropertyOp5
 70
     1
102
RTVSPropertyOp6
 70
     1
102
RTVSPropertyOp7
 70
     1
102
RTVSPropertyOp8
 70
     1
102
RTVSPropertyOp9
 70
     1
102
RTVSPropertyOp10
 70
     1
102
RTVSPropertyOp11
 70
     1
102
RTVSPropertyOp12
 70
     1
102
RTVSPropertyOp13
 70
     1
102
RTVSPropertyOp14
 70
     1
102
RTVSPropertyOp15
 70
     1
102
RTVSPropertyOp16
 70
     1
102
RTVSPropertyOp17
 70
     1
102
RTVSPropertyOp18
 70
     1
102
RTVSPropertyOp19
 70
     1
102
RTVSPropertyOp20
 70
     1
102
RTVSPropertyOp21
 70
     1
102
RTVSPropertyOp22
 70
     1
102
RTVSPropertyOp23
 70
     1
102
RTVSPropertyOp24
 70
     1
102
RTVSPropertyOp25
 70
     1
102
RTVSPropertyOp26
 70
     1
102
RTVSPropertyOp27
 70
     1
  0
XRECORD
  5
18F8
102
{ACAD_REACTORS
330
18F7
102
}
330
18F7
100
AcDbXrecord
280
     1
102
RTVSPropertyOp0
 70
     0
102
RTVSPropertyOp1
 70
     0
102
RTVSPropertyOp2
 70
     0
102
RTVSPropertyOp3
 70
     0
102
RTVSPropertyOp4
 70
     0
102
RTVSPropertyOp5
 70
     0
102
RTVSPropertyOp6
 70
     0
102
RTVSPropertyOp7
 70
     0
102
RTVSPropertyOp8
 70
     0
102
RTVSPropertyOp9
 70
     0
102
RTVSPropertyOp10
 70
     0
102
RTVSPropertyOp11
 70
     0
102
RTVSPropertyOp12
 70
     0
102
RTVSPropertyOp13
 70
     0
102
RTVSPropertyOp14
 70
     2
102
RTVSPropertyOp15
 70
     0
102
RTVSPropertyOp16
 70
     0
102
RTVSPropertyOp17
 70
     0
102
RTVSPropertyOp18
 70
     0
102
RTVSPropertyOp19
 70
     0
102
RTVSPropertyOp20
 70
     0
102
RTVSPropertyOp21
 70
     0
102
RTVSPropertyOp22
 70
     0
102
RTVSPropertyOp23
 70
     0
102
RTVSPropertyOp24
 70
     0
102
RTVSPropertyOp25
 70
     0
102
RTVSPropertyOp26
 70
     0
102
RTVSPropertyOp27
 70
     0
  0
XRECORD
  5
18F0
102
{ACAD_REACTORS
330
18EF
102
}
330
18EF
100
AcDbXrecord
280
     1
102
RTVSPropertyOp0
 70
     1
102
RTVSPropertyOp1
 70
     1
102
RTVSPropertyOp2
 70
     1
102
RTVSPropertyOp3
 70
     1
102
RTVSPropertyOp4
 70
     1
102
RTVSPropertyOp5
 70
     1
102
RTVSPropertyOp6
 70
     1
102
RTVSPropertyOp7
 70
     1
102
RTVSPropertyOp8
 70
     1
102
RTVSPropertyOp9
 70
     1
102
RTVSPropertyOp10
 70
     1
102
RTVSPropertyOp11
 70
     1
102
RTVSPropertyOp12
 70
     1
102
RTVSPropertyOp13
 70
     1
102
RTVSPropertyOp14
 70
     1
102
RTVSPropertyOp15
 70
     1
102
RTVSPropertyOp16
 70
     1
102
RTVSPropertyOp17
 70
     1
102
RTVSPropertyOp18
 70
     1
102
RTVSPropertyOp19
 70
     1
102
RTVSPropertyOp20
 70
     1
102
RTVSPropertyOp21
 70
     1
102
RTVSPropertyOp22
 70
     1
102
RTVSPropertyOp23
 70
     1
102
RTVSPropertyOp24
 70
     1
102
RTVSPropertyOp25
 70
     1
102
RTVSPropertyOp26
 70
     1
102
RTVSPropertyOp27
 70
     1
  0
XRECORD
  5
18D4
102
{ACAD_REACTORS
330
18D3
102
}
330
18D3
100
AcDbXrecord
280
     1
102
RTVSPropertyOp0
 70
     1
102
RTVSPropertyOp1
 70
     1
102
RTVSPropertyOp2
 70
     1
102
RTVSPropertyOp3
 70
     1
102
RTVSPropertyOp4
 70
     1
102
RTVSPropertyOp5
 70
     1
102
RTVSPropertyOp6
 70
     1
102
RTVSPropertyOp7
 70
     1
102
RTVSPropertyOp8
 70
     1
102
RTVSPropertyOp9
 70
     1
102
RTVSPropertyOp10
 70
     1
102
RTVSPropertyOp11
 70
     1
102
RTVSPropertyOp12
 70
     1
102
RTVSPropertyOp13
 70
     1
102
RTVSPropertyOp14
 70
     1
102
RTVSPropertyOp15
 70
     1
102
RTVSPropertyOp16
 70
     1
102
RTVSPropertyOp17
 70
     1
102
RTVSPropertyOp18
 70
     1
102
RTVSPropertyOp19
 70
     1
102
RTVSPropertyOp20
 70
     1
102
RTVSPropertyOp21
 70
     1
102
RTVSPropertyOp22
 70
     1
102
RTVSPropertyOp23
 70
     1
102
RTVSPropertyOp24
 70
     1
102
RTVSPropertyOp25
 70
     1
102
RTVSPropertyOp26
 70
     1
102
RTVSPropertyOp27
 70
     1
  0
XRECORD
  5
18D6
102
{ACAD_REACTORS
330
18D5
102
}
330
18D5
100
AcDbXrecord
280
     1
102
RTVSPropertyOp0
 70
     1
102
RTVSPropertyOp1
 70
     1
102
RTVSPropertyOp2
 70
     1
102
RTVSPropertyOp3
 70
     1
102
RTVSPropertyOp4
 70
     1
102
RTVSPropertyOp5
 70
     1
102
RTVSPropertyOp6
 70
     1
102
RTVSPropertyOp7
 70
     1
102
RTVSPropertyOp8
 70
     1
102
RTVSPropertyOp9
 70
     1
102
RTVSPropertyOp10
 70
     1
102
RTVSPropertyOp11
 70
     1
102
RTVSPropertyOp12
 70
     1
102
RTVSPropertyOp13
 70
     1
102
RTVSPropertyOp14
 70
     1
102
RTVSPropertyOp15
 70
     1
102
RTVSPropertyOp16
 70
     1
102
RTVSPropertyOp17
 70
     1
102
RTVSPropertyOp18
 70
     1
102
RTVSPropertyOp19
 70
     1
102
RTVSPropertyOp20
 70
     1
102
RTVSPropertyOp21
 70
     1
102
RTVSPropertyOp22
 70
     1
102
RTVSPropertyOp23
 70
     1
102
RTVSPropertyOp24
 70
     1
102
RTVSPropertyOp25
 70
     1
102
RTVSPropertyOp26
 70
     1
102
RTVSPropertyOp27
 70
     1
  0
XRECORD
  5
18D8
102
{ACAD_REACTORS
330
18D7
102
}
330
18D7
100
AcDbXrecord
280
     1
102
RTVSPropertyOp0
 70
     1
102
RTVSPropertyOp1
 70
     1
102
RTVSPropertyOp2
 70
     1
102
RTVSPropertyOp3
 70
     1
102
RTVSPropertyOp4
 70
     1
102
RTVSPropertyOp5
 70
     1
102
RTVSPropertyOp6
 70
     1
102
RTVSPropertyOp7
 70
     1
102
RTVSPropertyOp8
 70
     1
102
RTVSPropertyOp9
 70
     1
102
RTVSPropertyOp10
 70
     1
102
RTVSPropertyOp11
 70
     1
102
RTVSPropertyOp12
 70
     1
102
RTVSPropertyOp13
 70
     1
102
RTVSPropertyOp14
 70
     1
102
RTVSPropertyOp15
 70
     1
102
RTVSPropertyOp16
 70
     1
102
RTVSPropertyOp17
 70
     1
102
RTVSPropertyOp18
 70
     1
102
RTVSPropertyOp19
 70
     1
102
RTVSPropertyOp20
 70
     1
102
RTVSPropertyOp21
 70
     1
102
RTVSPropertyOp22
 70
     1
102
RTVSPropertyOp23
 70
     1
102
RTVSPropertyOp24
 70
     1
102
RTVSPropertyOp25
 70
     1
102
RTVSPropertyOp26
 70
     1
102
RTVSPropertyOp27
 70
     1
  0
XRECORD
  5
18DA
102
{ACAD_REACTORS
330
18D9
102
}
330
18D9
100
AcDbXrecord
280
     1
102
RTVSPropertyOp0
 70
     1
102
RTVSPropertyOp1
 70
     1
102
RTVSPropertyOp2
 70
     1
102
RTVSPropertyOp3
 70
     1
102
RTVSPropertyOp4
 70
     1
102
RTVSPropertyOp5
 70
     1
102
RTVSPropertyOp6
 70
     1
102
RTVSPropertyOp7
 70
     1
102
RTVSPropertyOp8
 70
     1
102
RTVSPropertyOp9
 70
     1
102
RTVSPropertyOp10
 70
     1
102
RTVSPropertyOp11
 70
     1
102
RTVSPropertyOp12
 70
     1
102
RTVSPropertyOp13
 70
     1
102
RTVSPropertyOp14
 70
     1
102
RTVSPropertyOp15
 70
     1
102
RTVSPropertyOp16
 70
     1
102
RTVSPropertyOp17
 70
     1
102
RTVSPropertyOp18
 70
     1
102
RTVSPropertyOp19
 70
     1
102
RTVSPropertyOp20
 70
     1
102
RTVSPropertyOp21
 70
     1
102
RTVSPropertyOp22
 70
     1
102
RTVSPropertyOp23
 70
     1
102
RTVSPropertyOp24
 70
     1
102
RTVSPropertyOp25
 70
     1
102
RTVSPropertyOp26
 70
     1
102
RTVSPropertyOp27
 70
     1
  0
XRECORD
  5
18F4
102
{ACAD_REACTORS
330
18F3
102
}
330
18F3
100
AcDbXrecord
280
     1
102
RTVSPropertyOp0
 70
     0
102
RTVSPropertyOp1
 70
     0
102
RTVSPropertyOp2
 70
     0
102
RTVSPropertyOp3
 70
     0
102
RTVSPropertyOp4
 70
     0
102
RTVSPropertyOp5
 70
     0
102
RTVSPropertyOp6
 70
     0
102
RTVSPropertyOp7
 70
     0
102
RTVSPropertyOp8
 70
     0
102
RTVSPropertyOp9
 70
     0
102
RTVSPropertyOp10
 70
     0
102
RTVSPropertyOp11
 70
     0
102
RTVSPropertyOp12
 70
     0
102
RTVSPropertyOp13
 70
     0
102
RTVSPropertyOp14
 70
     2
102
RTVSPropertyOp15
 70
     0
102
RTVSPropertyOp16
 70
     0
102
RTVSPropertyOp17
 70
     0
102
RTVSPropertyOp18
 70
     0
102
RTVSPropertyOp19
 70
     0
102
RTVSPropertyOp20
 70
     0
102
RTVSPropertyOp21
 70
     0
102
RTVSPropertyOp22
 70
     0
102
RTVSPropertyOp23
 70
     0
102
RTVSPropertyOp24
 70
     0
102
RTVSPropertyOp25
 70
     0
102
RTVSPropertyOp26
 70
     0
102
RTVSPropertyOp27
 70
     0
  0
XRECORD
  5
18EE
102
{ACAD_REACTORS
330
18ED
102
}
330
18ED
100
AcDbXrecord
280
     1
102
RTVSPropertyOp0
 70
     1
102
RTVSPropertyOp1
 70
     1
102
RTVSPropertyOp2
 70
     1
102
RTVSPropertyOp3
 70
     1
102
RTVSPropertyOp4
 70
     1
102
RTVSPropertyOp5
 70
     1
102
RTVSPropertyOp6
 70
     1
102
RTVSPropertyOp7
 70
     1
102
RTVSPropertyOp8
 70
     1
102
RTVSPropertyOp9
 70
     1
102
RTVSPropertyOp10
 70
     1
102
RTVSPropertyOp11
 70
     1
102
RTVSPropertyOp12
 70
     1
102
RTVSPropertyOp13
 70
     1
102
RTVSPropertyOp14
 70
     1
102
RTVSPropertyOp15
 70
     1
102
RTVSPropertyOp16
 70
     1
102
RTVSPropertyOp17
 70
     1
102
RTVSPropertyOp18
 70
     1
102
RTVSPropertyOp19
 70
     1
102
RTVSPropertyOp20
 70
     1
102
RTVSPropertyOp21
 70
     1
102
RTVSPropertyOp22
 70
     1
102
RTVSPropertyOp23
 70
     1
102
RTVSPropertyOp24
 70
     1
102
RTVSPropertyOp25
 70
     1
102
RTVSPropertyOp26
 70
     1
102
RTVSPropertyOp27
 70
     1
  0
XRECORD
  5
18F6
102
{ACAD_REACTORS
330
18F5
102
}
330
18F5
100
AcDbXrecord
280
     1
102
RTVSPropertyOp0
 70
     0
102
RTVSPropertyOp1
 70
     0
102
RTVSPropertyOp2
 70
     0
102
RTVSPropertyOp3
 70
     0
102
RTVSPropertyOp4
 70
     0
102
RTVSPropertyOp5
 70
     0
102
RTVSPropertyOp6
 70
     0
102
RTVSPropertyOp7
 70
     0
102
RTVSPropertyOp8
 70
     0
102
RTVSPropertyOp9
 70
     0
102
RTVSPropertyOp10
 70
     0
102
RTVSPropertyOp11
 70
     0
102
RTVSPropertyOp12
 70
     0
102
RTVSPropertyOp13
 70
     0
102
RTVSPropertyOp14
 70
     2
102
RTVSPropertyOp15
 70
     0
102
RTVSPropertyOp16
 70
     0
102
RTVSPropertyOp17
 70
     0
102
RTVSPropertyOp18
 70
     0
102
RTVSPropertyOp19
 70
     0
102
RTVSPropertyOp20
 70
     0
102
RTVSPropertyOp21
 70
     0
102
RTVSPropertyOp22
 70
     0
102
RTVSPropertyOp23
 70
     0
102
RTVSPropertyOp24
 70
     0
102
RTVSPropertyOp25
 70
     0
102
RTVSPropertyOp26
 70
     0
102
RTVSPropertyOp27
 70
     0
  0
XRECORD
  5
18E6
102
{ACAD_REACTORS
330
18E5
102
}
330
18E5
100
AcDbXrecord
280
     1
102
RTVSPropertyOp0
 70
     1
102
RTVSPropertyOp1
 70
     1
102
RTVSPropertyOp2
 70
     1
102
RTVSPropertyOp3
 70
     1
102
RTVSPropertyOp4
 70
     1
102
RTVSPropertyOp5
 70
     1
102
RTVSPropertyOp6
 70
     1
102
RTVSPropertyOp7
 70
     1
102
RTVSPropertyOp8
 70
     1
102
RTVSPropertyOp9
 70
     1
102
RTVSPropertyOp10
 70
     1
102
RTVSPropertyOp11
 70
     1
102
RTVSPropertyOp12
 70
     1
102
RTVSPropertyOp13
 70
     1
102
RTVSPropertyOp14
 70
     1
102
RTVSPropertyOp15
 70
     1
102
RTVSPropertyOp16
 70
     1
102
RTVSPropertyOp17
 70
     1
102
RTVSPropertyOp18
 70
     1
102
RTVSPropertyOp19
 70
     1
102
RTVSPropertyOp20
 70
     1
102
RTVSPropertyOp21
 70
     1
102
RTVSPropertyOp22
 70
     1
102
RTVSPropertyOp23
 70
     1
102
RTVSPropertyOp24
 70
     1
102
RTVSPropertyOp25
 70
     1
102
RTVSPropertyOp26
 70
     1
102
RTVSPropertyOp27
 70
     1
  0
XRECORD
  5
18EC
102
{ACAD_REACTORS
330
18EB
102
}
330
18EB
100
AcDbXrecord
280
     1
102
RTVSPropertyOp0
 70
     1
102
RTVSPropertyOp1
 70
     1
102
RTVSPropertyOp2
 70
     1
102
RTVSPropertyOp3
 70
     1
102
RTVSPropertyOp4
 70
     1
102
RTVSPropertyOp5
 70
     1
102
RTVSPropertyOp6
 70
     1
102
RTVSPropertyOp7
 70
     1
102
RTVSPropertyOp8
 70
     1
102
RTVSPropertyOp9
 70
     1
102
RTVSPropertyOp10
 70
     1
102
RTVSPropertyOp11
 70
     1
102
RTVSPropertyOp12
 70
     1
102
RTVSPropertyOp13
 70
     1
102
RTVSPropertyOp14
 70
     1
102
RTVSPropertyOp15
 70
     1
102
RTVSPropertyOp16
 70
     1
102
RTVSPropertyOp17
 70
     1
102
RTVSPropertyOp18
 70
     1
102
RTVSPropertyOp19
 70
     1
102
RTVSPropertyOp20
 70
     1
102
RTVSPropertyOp21
 70
     1
102
RTVSPropertyOp22
 70
     1
102
RTVSPropertyOp23
 70
     1
102
RTVSPropertyOp24
 70
     1
102
RTVSPropertyOp25
 70
     1
102
RTVSPropertyOp26
 70
     1
102
RTVSPropertyOp27
 70
     1
  0
ENDSEC
  0
EOF
