  0
SECTION
  2
HEADER
  9
$ACADVER
  1
AC1032
  9
$ACADMAINTVER
 90
       55
  9
$DWGCODEPAGE
  3
ANSI_1252
  9
$LASTSAVEDBY
  1
mariehp
  9
$REQUIREDVERSIONS
160
                 0
  9
$INSBASE
 10
0.0
 20
0.0
 30
0.0
  9
$EXTMIN
 10
14.9621763754
 20
15.2438689665
 30
0.0
  9
$EXTMAX
 10
77.9621763754
 20
43.24017365329999
 30
0.0
  9
$LIMMIN
 10
0.0
 20
0.0
  9
$LIMMAX
 10
181.3333333333
 20
117.3333333333
  9
$ORTHOMODE
 70
     0
  9
$REGENMODE
 70
     1
  9
$FILLMODE
 70
     1
  9
$QTEXTMODE
 70
     0
  9
$MIRRTEXT
 70
     0
  9
$LTSCALE
 40
9.973333333300001
  9
$ATTMODE
 70
     1
  9
$TEXTSIZE
 40
0.2
  9
$TRACEWID
 40
0.05
  9
$TEXTSTYLE
  7
STANDARD
  9
$CLAYER
  8
0
  9
$CELTYPE
  6
BYLAYER
  9
$CECOLOR
 62
   256
  9
$CELTSCALE
 40
1.0
  9
$DISPSILH
 70
     0
  9
$DIMSCALE
 40
1.0
  9
$DIMASZ
 40
2.0
  9
$DIMEXO
 40
0.0625
  9
$DIMDLI
 40
6.890666666699999
  9
$DIMRND
 40
0.0
  9
$DIMDLE
 40
0.0
  9
$DIMEXE
 40
0.125
  9
$DIMTP
 40
0.001
  9
$DIMTM
 40
0.001
  9
$DIMTXT
 40
1.333333333299999
  9
$DIMCEN
 40
1.631999999999999
  9
$DIMTSZ
 40
0.0
  9
$DIMTOL
 70
     1
  9
$DIMLIM
 70
     0
  9
$DIMTIH
 70
     1
  9
$DIMTOH
 70
     1
  9
$DIMSE1
 70
     0
  9
$DIMSE2
 70
     0
  9
$DIMTAD
 70
     0
  9
$DIMZIN
 70
     0
  9
$DIMBLK
  1
_FILLED
  9
$DIMASO
 70
     1
  9
$DIMSHO
 70
     1
  9
$DIMPOST
  1

  9
$DIMAPOST
  1

  9
$DIMALT
 70
     1
  9
$DIMALTD
 70
     2
  9
$DIMALTF
 40
25.4
  9
$DIMLFAC
 40
1.0
  9
$DIMTOFL
 70
     0
  9
$DIMTVP
 40
0.0
  9
$DIMTIX
 70
     0
  9
$DIMSOXD
 70
     0
  9
$DIMSAH
 70
     0
  9
$DIMBLK1
  1

  9
$DIMBLK2
  1

  9
$DIMSTYLE
  2
STANDARD
  9
$DIMCLRD
 70
     0
  9
$DIMCLRE
 70
     0
  9
$DIMCLRT
 70
     0
  9
$DIMTFAC
 40
1.0
  9
$DIMGAP
 40
0.09
  9
$DIMJUST
 70
     0
  9
$DIMSD1
 70
     0
  9
$DIMSD2
 70
     0
  9
$DIMTOLJ
 70
     1
  9
$DIMTZIN
 70
     0
  9
$DIMALTZ
 70
     0
  9
$DIMALTTZ
 70
     0
  9
$DIMUPT
 70
     0
  9
$DIMDEC
 70
     4
  9
$DIMTDEC
 70
     4
  9
$DIMALTU
 70
     2
  9
$DIMALTTD
 70
     2
  9
$DIMTXSTY
  7
STANDARD
  9
$DIMAUNIT
 70
     0
  9
$DIMADEC
 70
     0
  9
$DIMALTRND
 40
0.0
  9
$DIMAZIN
 70
     0
  9
$DIMDSEP
 70
    46
  9
$DIMATFIT
 70
     3
  9
$DIMFRAC
 70
     0
  9
$DIMLDRBLK
  1

  9
$DIMLUNIT
 70
     2
  9
$DIMLWD
 70
    -2
  9
$DIMLWE
 70
    -2
  9
$DIMTMOVE
 70
     0
  9
$DIMFXL
 40
1.0
  9
$DIMFXLON
 70
     0
  9
$DIMJOGANG
 40
0.7853981633974483
  9
$DIMTFILL
 70
     0
  9
$DIMTFILLCLR
 70
     0
  9
$DIMARCSYM
 70
     0
  9
$DIMLTYPE
  6

  9
$DIMLTEX1
  6

  9
$DIMLTEX2
  6

  9
$DIMTXTDIRECTION
 70
     0
  9
$LUNITS
 70
     2
  9
$LUPREC
 70
     4
  9
$SKETCHINC
 40
0.1
  9
$FILLETRAD
 40
0.0
  9
$AUNITS
 70
     0
  9
$AUPREC
 70
     0
  9
$MENU
  1
.
  9
$ELEVATION
 40
0.0
  9
$PELEVATION
 40
0.0
  9
$THICKNESS
 40
0.0
  9
$LIMCHECK
 70
     0
  9
$CHAMFERA
 40
0.0
  9
$CHAMFERB
 40
0.0
  9
$CHAMFERC
 40
0.0
  9
$CHAMFERD
 40
0.0
  9
$SKPOLY
 70
     0
  9
$TDCREATE
 40
2459690.364965278
  9
$TDUCREATE
 40
2459690.531631944
  9
$TDUPDATE
 40
2459766.428229167
  9
$TDUUPDATE
 40
2459766.594895834
  9
$TDINDWG
 40
0.0043055556
  9
$TDUSRTIMER
 40
0.0043055556
  9
$USRTIMER
 70
     1
  9
$ANGBASE
 50
0.0
  9
$ANGDIR
 70
     0
  9
$PDMODE
 70
     3
  9
$PDSIZE
 40
0.03125
  9
$PLINEWID
 40
0.0
  9
$SPLFRAME
 70
     0
  9
$SPLINETYPE
 70
     6
  9
$SPLINESEGS
 70
     8
  9
$HANDSEED
  5
69E5
  9
$SURFTAB1
 70
     6
  9
$SURFTAB2
 70
     6
  9
$SURFTYPE
 70
     6
  9
$SURFU
 70
     6
  9
$SURFV
 70
     6
  9
$UCSBASE
  2

  9
$UCSNAME
  2

  9
$UCSORG
 10
0.0
 20
0.0
 30
0.0
  9
$UCSXDIR
 10
1.0
 20
0.0
 30
0.0
  9
$UCSYDIR
 10
0.0
 20
1.0
 30
0.0
  9
$UCSORTHOREF
  2

  9
$UCSORTHOVIEW
 70
     0
  9
$UCSORGTOP
 10
0.0
 20
0.0
 30
0.0
  9
$UCSORGBOTTOM
 10
0.0
 20
0.0
 30
0.0
  9
$UCSORGLEFT
 10
0.0
 20
0.0
 30
0.0
  9
$UCSORGRIGHT
 10
0.0
 20
0.0
 30
0.0
  9
$UCSORGFRONT
 10
0.0
 20
0.0
 30
0.0
  9
$UCSORGBACK
 10
0.0
 20
0.0
 30
0.0
  9
$PUCSBASE
  2

  9
$PUCSNAME
  2

  9
$PUCSORG
 10
0.0
 20
0.0
 30
0.0
  9
$PUCSXDIR
 10
1.0
 20
0.0
 30
0.0
  9
$PUCSYDIR
 10
0.0
 20
1.0
 30
0.0
  9
$PUCSORTHOREF
  2

  9
$PUCSORTHOVIEW
 70
     0
  9
$PUCSORGTOP
 10
0.0
 20
0.0
 30
0.0
  9
$PUCSORGBOTTOM
 10
0.0
 20
0.0
 30
0.0
  9
$PUCSORGLEFT
 10
0.0
 20
0.0
 30
0.0
  9
$PUCSORGRIGHT
 10
0.0
 20
0.0
 30
0.0
  9
$PUCSORGFRONT
 10
0.0
 20
0.0
 30
0.0
  9
$PUCSORGBACK
 10
0.0
 20
0.0
 30
0.0
  9
$USERI1
 70
     0
  9
$USERI2
 70
     0
  9
$USERI3
 70
     0
  9
$USERI4
 70
     0
  9
$USERI5
 70
     0
  9
$USERR1
 40
0.0
  9
$USERR2
 40
0.0
  9
$USERR3
 40
0.0
  9
$USERR4
 40
0.0
  9
$USERR5
 40
0.0
  9
$WORLDVIEW
 70
     1
  9
$SHADEDGE
 70
     3
  9
$SHADEDIF
 70
    70
  9
$TILEMODE
 70
     1
  9
$MAXACTVP
 70
    64
  9
$PINSBASE
 10
0.0
 20
0.0
 30
0.0
  9
$PLIMCHECK
 70
     0
  9
$PEXTMIN
 10
1.000000000000000E+20
 20
1.000000000000000E+20
 30
1.000000000000000E+20
  9
$PEXTMAX
 10
-1.000000000000000E+20
 20
-1.000000000000000E+20
 30
-1.000000000000000E+20
  9
$PLIMMIN
 10
0.0
 20
0.0
  9
$PLIMMAX
 10
12.0
 20
9.0
  9
$UNITMODE
 70
     0
  9
$VISRETAIN
 70
     1
  9
$PLINEGEN
 70
     0
  9
$PSLTSCALE
 70
     1
  9
$TREEDEPTH
 70
  3020
  9
$CMLSTYLE
  2
Standard
  9
$CMLJUST
 70
     0
  9
$CMLSCALE
 40
1.0
  9
$PROXYGRAPHICS
 70
     1
  9
$MEASUREMENT
 70
     0
  9
$CELWEIGHT
370
    -1
  9
$ENDCAPS
280
     0
  9
$JOINSTYLE
280
     0
  9
$LWDISPLAY
290
     0
  9
$INSUNITS
 70
     1
  9
$HYPERLINKBASE
  1

  9
$STYLESHEET
  1

  9
$XEDIT
290
     1
  9
$CEPSNTYPE
380
     0
  9
$PSTYLEMODE
290
     1
  9
$FINGERPRINTGUID
  2
{356A01AF-3562-BA45-B3BE-C9BD5CA13709}
  9
$VERSIONGUID
  2
{54640858-BC2E-5643-BCFB-F4FB55B373AF}
  9
$EXTNAMES
290
     1
  9
$PSVPSCALE
 40
0.0
  9
$OLESTARTUP
290
     0
  9
$SORTENTS
280
   127
  9
$INDEXCTL
280
     0
  9
$HIDETEXT
280
     0
  9
$XCLIPFRAME
280
     2
  9
$HALOGAP
280
     0
  9
$OBSCOLOR
 70
   257
  9
$OBSLTYPE
280
     0
  9
$INTERSECTIONDISPLAY
280
     0
  9
$INTERSECTIONCOLOR
 70
   257
  9
$DIMASSOC
280
     1
  9
$PROJECTNAME
  1

  9
$CAMERADISPLAY
290
     0
  9
$LENSLENGTH
 40
50.0
  9
$CAMERAHEIGHT
 40
0.0
  9
$STEPSPERSEC
 40
2.0
  9
$STEPSIZE
 40
6.0
  9
$3DDWFPREC
 40
2.0
  9
$PSOLWIDTH
 40
0.25
  9
$PSOLHEIGHT
 40
4.0
  9
$LOFTANG1
 40
1.570796326794896
  9
$LOFTANG2
 40
1.570796326794896
  9
$LOFTMAG1
 40
0.0
  9
$LOFTMAG2
 40
0.0
  9
$LOFTPARAM
 70
     7
  9
$LOFTNORMALS
280
     1
  9
$LATITUDE
 40
37.795
  9
$LONGITUDE
 40
-122.394
  9
$NORTHDIRECTION
 40
0.0
  9
$TIMEZONE
 70
 -8000
  9
$LIGHTGLYPHDISPLAY
280
     1
  9
$TILEMODELIGHTSYNCH
280
     1
  9
$CMATERIAL
347
67EF
  9
$SOLIDHIST
280
     0
  9
$SHOWHIST
280
     1
  9
$DWFFRAME
280
     2
  9
$DGNFRAME
280
     0
  9
$REALWORLDSCALE
290
     1
  9
$INTERFERECOLOR
 62
     1
  9
$INTERFEREOBJVS
345
6811
  9
$INTERFEREVPVS
346
680E
  9
$CSHADOW
280
     0
  9
$SHADOWPLANELOCATION
 40
0.0
  0
ENDSEC
  0
SECTION
  2
CLASSES
  0
CLASS
  1
ACDBDICTIONARYWDFLT
  2
AcDbDictionaryWithDefault
  3
ObjectDBX Classes
 90
        0
 91
        1
280
     0
281
     0
  0
CLASS
  1
MATERIAL
  2
AcDbMaterial
  3
ObjectDBX Classes
 90
     1153
 91
        3
280
     0
281
     0
  0
CLASS
  1
VISUALSTYLE
  2
AcDbVisualStyle
  3
ObjectDBX Classes
 90
     4095
 91
       24
280
     0
281
     0
  0
CLASS
  1
TABLESTYLE
  2
AcDbTableStyle
  3
ObjectDBX Classes
 90
     4095
 91
        1
280
     0
281
     0
  0
CLASS
  1
SCALE
  2
AcDbScale
  3
ObjectDBX Classes
 90
     1153
 91
       17
280
     0
281
     0
  0
CLASS
  1
MLEADERSTYLE
  2
AcDbMLeaderStyle
  3
ACDB_MLEADERSTYLE_CLASS
 90
     4095
 91
        1
280
     0
281
     0
  0
CLASS
  1
ACDBSECTIONVIEWSTYLE
  2
AcDbSectionViewStyle
  3
ObjectDBX Classes
 90
     1025
 91
        1
280
     0
281
     0
  0
CLASS
  1
ACDBDETAILVIEWSTYLE
  2
AcDbDetailViewStyle
  3
ObjectDBX Classes
 90
     1025
 91
        1
280
     0
281
     0
  0
CLASS
  1
CELLSTYLEMAP
  2
AcDbCellStyleMap
  3
ObjectDBX Classes
 90
     1152
 91
        1
280
     0
281
     0
  0
CLASS
  1
DICTIONARYVAR
  2
AcDbDictionaryVar
  3
ObjectDBX Classes
 90
        0
 91
       12
280
     0
281
     0
  0
ENDSEC
  0
SECTION
  2
TABLES
  0
TABLE
  2
VPORT
  5
8
102
{ACAD_XDICTIONARY
360
683F
102
}
330
0
100
AcDbSymbolTable
 70
     1
  0
VPORT
  5
1F4
330
8
100
AcDbSymbolTableRecord
100
AcDbViewportTableRecord
  2
*ACTIVE
 70
     0
 10
0.0
 20
0.0
 11
1.0
 21
1.0
 12
45.69101418758998
 22
26.41962087802989
 13
0.0
 23
0.0
 14
1.0
 24
1.0
 15
0.0
 25
0.0
 16
0.0
 26
0.0
 36
1.0
 17
0.0
 27
0.0
 37
0.0
 40
42.73015306255001
 41
2.20813953488372
 42
50.0
 43
0.0
 44
0.0
 50
0.0
 51
0.0
 71
     0
 72
   100
 73
     1
 74
     1
 75
     0
 76
     0
 77
     0
 78
     0
281
     0
 65
     1
110
0.0
120
0.0
130
0.0
111
1.0
121
0.0
131
0.0
112
0.0
122
1.0
132
0.0
 79
     0
146
0.0
348
680D
 60
     3
 61
     5
292
     1
282
     1
141
0.0
142
0.0
 63
   250
421
  3355443
1001
ACAD_NAV_VCDISPLAY
1070
     3
  0
ENDTAB
  0
TABLE
  2
LTYPE
  5
5
330
0
100
AcDbSymbolTable
 70
     6
  0
LTYPE
  5
14
330
5
100
AcDbSymbolTableRecord
100
AcDbLinetypeTableRecord
  2
BYBLOCK
 70
     0
  3

 72
    65
 73
     0
 40
0.0
  0
LTYPE
  5
15
330
5
100
AcDbSymbolTableRecord
100
AcDbLinetypeTableRecord
  2
BYLAYER
 70
     0
  3

 72
    65
 73
     0
 40
0.0
  0
LTYPE
  5
16
330
5
100
AcDbSymbolTableRecord
100
AcDbLinetypeTableRecord
  2
CONTINUOUS
 70
     0
  3
Solid line
 72
    65
 73
     0
 40
0.0
  0
LTYPE
  5
1F5
330
5
100
AcDbSymbolTableRecord
100
AcDbLinetypeTableRecord
  2
CENTER
 70
     0
  3
____ _ ____ _ ____ _ ____ _ ____ _ ____ _ ____
 72
    65
 73
     4
 40
0.6
 49
0.375
 74
     0
 49
-0.075
 74
     0
 49
0.075
 74
     0
 49
-0.075
 74
     0
  0
LTYPE
  5
1F6
330
5
100
AcDbSymbolTableRecord
100
AcDbLinetypeTableRecord
  2
HIDDEN
 70
     0
  3
- - - - - - - - - - - - - - - - - - - -
 72
    65
 73
     2
 40
0.2
 49
0.1
 74
     0
 49
-0.1
 74
     0
  0
LTYPE
  5
1F7
330
5
100
AcDbSymbolTableRecord
100
AcDbLinetypeTableRecord
  2
PHANTOM
 70
     0
  3
_____ _ _ _____ _ _ _____ _ _ _____
 72
    65
 73
     6
 40
0.8
 49
0.45
 74
     0
 49
-0.05
 74
     0
 49
0.1
 74
     0
 49
-0.05
 74
     0
 49
0.1
 74
     0
 49
-0.05
 74
     0
  0
LTYPE
  5
1F8
330
5
100
AcDbSymbolTableRecord
100
AcDbLinetypeTableRecord
  2
DOT
 70
     0
  3
. . . . . . . . . . . . . . . . . . . .
 72
    65
 73
     2
 40
0.2
 49
0.1
 74
     0
 49
-0.1
 74
     0
  0
LTYPE
  5
1F9
330
5
100
AcDbSymbolTableRecord
100
AcDbLinetypeTableRecord
  2
DASHED
 70
     0
  3
- - - - - - - - - - - - - - - - - - - -
 72
    65
 73
     2
 40
0.2
 49
0.1
 74
     0
 49
-0.1
 74
     0
  0
ENDTAB
  0
TABLE
  2
LAYER
  5
2
102
{ACAD_XDICTIONARY
360
69DD
102
}
330
0
100
AcDbSymbolTable
 70
    32
  0
LAYER
  5
10
102
{ACAD_XDICTIONARY
360
68AA
102
}
330
2
100
AcDbSymbolTableRecord
100
AcDbLayerTableRecord
  2
0
 70
     0
 62
     7
  6
CONTINUOUS
370
    -3
390
F
347
67FF
348
0
  0
LAYER
  5
1FA
102
{ACAD_XDICTIONARY
360
68AC
102
}
330
2
100
AcDbSymbolTableRecord
100
AcDbLayerTableRecord
  2
DEFAULT_1
 70
     0
 62
     7
  6
CENTER
370
    -3
390
F
347
67FF
348
0
  0
LAYER
  5
1FB
102
{ACAD_XDICTIONARY
360
68AE
102
}
330
2
100
AcDbSymbolTableRecord
100
AcDbLayerTableRecord
  2
DEFAULT_2
 70
     0
 62
     8
  6
HIDDEN
370
    -3
390
F
347
67FF
348
0
  0
LAYER
  5
1FC
102
{ACAD_XDICTIONARY
360
68B0
102
}
330
2
100
AcDbSymbolTableRecord
100
AcDbLayerTableRecord
  2
DEFAULT_3
 70
     0
 62
     7
  6
PHANTOM
370
    -3
390
F
347
67FF
348
0
  0
LAYER
  5
1FD
102
{ACAD_XDICTIONARY
360
68B2
102
}
330
2
100
AcDbSymbolTableRecord
100
AcDbLayerTableRecord
  2
0_DEFAULT
 70
     0
 62
     7
  6
CONTINUOUS
370
    -3
390
F
347
67FF
348
0
  0
LAYER
  5
1FE
102
{ACAD_XDICTIONARY
360
68B4
102
}
330
2
100
AcDbSymbolTableRecord
100
AcDbLayerTableRecord
  2
1_CURVES
 70
     0
 62
     7
  6
CONTINUOUS
370
    -3
390
F
347
67FF
348
0
  0
LAYER
  5
1FF
102
{ACAD_XDICTIONARY
360
68B6
102
}
330
2
100
AcDbSymbolTableRecord
100
AcDbLayerTableRecord
  2
1_CURVES_DECOUPE
 70
     0
 62
     7
  6
CONTINUOUS
370
    -3
390
F
347
67FF
348
0
  0
LAYER
  5
200
102
{ACAD_XDICTIONARY
360
68B8
102
}
330
2
100
AcDbSymbolTableRecord
100
AcDbLayerTableRecord
  2
1_CURVES_FOND
 70
     0
 62
     7
  6
CONTINUOUS
370
    -3
390
F
347
67FF
348
0
  0
LAYER
  5
201
102
{ACAD_XDICTIONARY
360
68BA
102
}
330
2
100
AcDbSymbolTableRecord
100
AcDbLayerTableRecord
  2
1_CURVES_ILLUSIO
 70
     0
 62
     7
  6
CONTINUOUS
370
    -3
390
F
347
67FF
348
0
  0
LAYER
  5
202
102
{ACAD_XDICTIONARY
360
68BC
102
}
330
2
100
AcDbSymbolTableRecord
100
AcDbLayerTableRecord
  2
1_CURVES_JETS
 70
     0
 62
     7
  6
CONTINUOUS
370
    -3
390
F
347
67FF
348
0
  0
LAYER
  5
203
102
{ACAD_XDICTIONARY
360
68BE
102
}
330
2
100
AcDbSymbolTableRecord
100
AcDbLayerTableRecord
  2
1_CURVES_PLAGE
 70
     0
 62
     7
  6
CONTINUOUS
370
    -3
390
F
347
67FF
348
0
  0
LAYER
  5
204
102
{ACAD_XDICTIONARY
360
68C0
102
}
330
2
100
AcDbSymbolTableRecord
100
AcDbLayerTableRecord
  2
1_CURVES_POSITION_DOT
 70
     0
 62
     7
  6
CONTINUOUS
370
    -3
390
F
347
67FF
348
0
  0
LAYER
  5
205
102
{ACAD_XDICTIONARY
360
68C2
102
}
330
2
100
AcDbSymbolTableRecord
100
AcDbLayerTableRecord
  2
1_CURVES_SPEC_FRONT
 70
     0
 62
     7
  6
CONTINUOUS
370
    -3
390
F
347
67FF
348
0
  0
LAYER
  5
206
102
{ACAD_XDICTIONARY
360
68C4
102
}
330
2
100
AcDbSymbolTableRecord
100
AcDbLayerTableRecord
  2
1_CURVES_SPEC_RIGHT
 70
     0
 62
     7
  6
CONTINUOUS
370
    -3
390
F
347
67FF
348
0
  0
LAYER
  5
207
102
{ACAD_XDICTIONARY
360
68C6
102
}
330
2
100
AcDbSymbolTableRecord
100
AcDbLayerTableRecord
  2
2_PLANES
 70
     0
 62
     7
  6
CONTINUOUS
370
    -3
390
F
347
67FF
348
0
  0
LAYER
  5
208
102
{ACAD_XDICTIONARY
360
68C8
102
}
330
2
100
AcDbSymbolTableRecord
100
AcDbLayerTableRecord
  2
2_PLANES_ILLUSIO
 70
     0
 62
     7
  6
CONTINUOUS
370
    -3
390
F
347
67FF
348
0
  0
LAYER
  5
209
102
{ACAD_XDICTIONARY
360
68CA
102
}
330
2
100
AcDbSymbolTableRecord
100
AcDbLayerTableRecord
  2
3_POINTS
 70
     0
 62
     7
  6
CONTINUOUS
370
    -3
390
F
347
67FF
348
0
  0
LAYER
  5
20A
102
{ACAD_XDICTIONARY
360
68CC
102
}
330
2
100
AcDbSymbolTableRecord
100
AcDbLayerTableRecord
  2
3_POINTS_JETS
 70
     0
 62
     7
  6
CONTINUOUS
370
    -3
390
F
347
67FF
348
0
  0
LAYER
  5
20B
102
{ACAD_XDICTIONARY
360
68CE
102
}
330
2
100
AcDbSymbolTableRecord
100
AcDbLayerTableRecord
  2
4_CSYS
 70
     0
 62
     7
  6
CONTINUOUS
370
    -3
390
F
347
67FF
348
0
  0
LAYER
  5
20C
102
{ACAD_XDICTIONARY
360
68D0
102
}
330
2
100
AcDbSymbolTableRecord
100
AcDbLayerTableRecord
  2
5_AXIS
 70
     0
 62
     7
  6
CONTINUOUS
370
    -3
390
F
347
67FF
348
0
  0
LAYER
  5
20D
102
{ACAD_XDICTIONARY
360
68D2
102
}
330
2
100
AcDbSymbolTableRecord
100
AcDbLayerTableRecord
  2
5_AXIS_ILLUSIO
 70
     0
 62
     7
  6
CONTINUOUS
370
    -3
390
F
347
67FF
348
0
  0
LAYER
  5
20E
102
{ACAD_XDICTIONARY
360
68D4
102
}
330
2
100
AcDbSymbolTableRecord
100
AcDbLayerTableRecord
  2
5_AXIS_JETS
 70
     0
 62
     7
  6
CONTINUOUS
370
    -3
390
F
347
67FF
348
0
  0
LAYER
  5
20F
102
{ACAD_XDICTIONARY
360
68D6
102
}
330
2
100
AcDbSymbolTableRecord
100
AcDbLayerTableRecord
  2
6_RATIO_ETIREMENT
 70
     0
 62
     7
  6
CONTINUOUS
370
    -3
390
F
347
67FF
348
0
  0
LAYER
  5
210
102
{ACAD_XDICTIONARY
360
68D8
102
}
330
2
100
AcDbSymbolTableRecord
100
AcDbLayerTableRecord
  2
6_SURFACES
 70
     0
 62
     7
  6
CONTINUOUS
370
    -3
390
F
347
67FF
348
0
  0
LAYER
  5
211
102
{ACAD_XDICTIONARY
360
68DA
102
}
330
2
100
AcDbSymbolTableRecord
100
AcDbLayerTableRecord
  2
6_SURFACES_OFFSET_FIBRE
 70
     0
 62
     7
  6
CONTINUOUS
370
    -3
390
F
347
67FF
348
0
  0
LAYER
  5
212
102
{ACAD_XDICTIONARY
360
68DC
102
}
330
2
100
AcDbSymbolTableRecord
100
AcDbLayerTableRecord
  2
6_SURFACES_TOOLING
 70
     0
 62
     7
  6
CONTINUOUS
370
    -3
390
F
347
67FF
348
0
  0
LAYER
  5
213
102
{ACAD_XDICTIONARY
360
68DE
102
}
330
2
100
AcDbSymbolTableRecord
100
AcDbLayerTableRecord
  2
7_NOTES
 70
     0
 62
     7
  6
CONTINUOUS
370
    -3
390
F
347
67FF
348
0
  0
LAYER
  5
214
102
{ACAD_XDICTIONARY
360
68E0
102
}
330
2
100
AcDbSymbolTableRecord
100
AcDbLayerTableRecord
  2
CURVE_ZONE_ROBINETTERIE
 70
     0
 62
     7
  6
CONTINUOUS
370
    -3
390
F
347
67FF
348
0
  0
LAYER
  5
215
102
{ACAD_XDICTIONARY
360
68E2
102
}
330
2
100
AcDbSymbolTableRecord
100
AcDbLayerTableRecord
  2
MIA_PLUS_TROU
 70
     0
 62
     7
  6
CONTINUOUS
370
    -3
390
F
347
67FF
348
0
  0
LAYER
  5
216
102
{ACAD_XDICTIONARY
360
68E4
102
}
330
2
100
AcDbSymbolTableRecord
100
AcDbLayerTableRecord
  2
MIA_TROU
 70
     0
 62
     7
  6
CONTINUOUS
370
    -3
390
F
347
67FF
348
0
  0
LAYER
  5
217
102
{ACAD_XDICTIONARY
360
68E6
102
}
330
2
100
AcDbSymbolTableRecord
100
AcDbLayerTableRecord
  2
XSEC_DATUMS
 70
     0
 62
     7
  6
CONTINUOUS
370
    -3
390
F
347
67FF
348
0
  0
LAYER
  5
69C3
330
2
100
AcDbSymbolTableRecord
100
AcDbLayerTableRecord
  2
Defpoints
 70
     0
 62
     7
  6
CONTINUOUS
290
     0
370
    -3
390
F
347
67FF
348
0
  0
ENDTAB
  0
TABLE
  2
STYLE
  5
3
330
0
100
AcDbSymbolTable
 70
     8
  0
STYLE
  5
11
330
3
100
AcDbSymbolTableRecord
100
AcDbTextStyleTableRecord
  2
STANDARD
 70
     0
 40
0.0
 41
0.8
 50
0.0
 71
     0
 42
0.2
  3
txt
  4

  0
STYLE
  5
218
330
3
100
AcDbSymbolTableRecord
100
AcDbTextStyleTableRecord
  2
TEXTSTYLE_1
 70
     0
 40
0.0
 41
0.8
 50
0.0
 71
     0
 42
0.2
  3
gdt
  4

  0
STYLE
  5
219
330
3
100
AcDbSymbolTableRecord
100
AcDbTextStyleTableRecord
  2
TEXTSTYLE_2
 70
     0
 40
0.0
 41
1.0
 50
0.0
 71
     0
 42
0.2
  3

  4

1001
ACAD
1000
CG Triumvirate
1071
       34
  0
STYLE
  5
21A
330
3
100
AcDbSymbolTableRecord
100
AcDbTextStyleTableRecord
  2
TEXTSTYLE_3
 70
     0
 40
0.0
 41
1.0
 50
0.0
 71
     0
 42
0.2
  3

  4

1001
ACAD
1000
CG Triumvirate
1071
       34
  0
STYLE
  5
21B
330
3
100
AcDbSymbolTableRecord
100
AcDbTextStyleTableRecord
  2
TEXTSTYLE_4
 70
     0
 40
0.0
 41
1.0
 50
0.0
 71
     0
 42
0.2
  3
txt
  4

  0
STYLE
  5
21C
330
3
100
AcDbSymbolTableRecord
100
AcDbTextStyleTableRecord
  2
TEXTSTYLE_5
 70
     0
 40
0.0
 41
1.0
 50
0.0
 71
     0
 42
0.2
  3
txt
  4

  0
STYLE
  5
21D
330
3
100
AcDbSymbolTableRecord
100
AcDbTextStyleTableRecord
  2
TEXTSTYLE_6
 70
     0
 40
0.0
 41
1.0
 50
0.0
 71
     0
 42
0.2
  3

  4

1001
ACAD
1000
CG Triumvirate
1071
       34
  0
STYLE
  5
21E
330
3
100
AcDbSymbolTableRecord
100
AcDbTextStyleTableRecord
  2
TEXTSTYLE_7
 70
     0
 40
0.0
 41
0.8
 50
0.0
 71
     0
 42
0.2
  3
txt
  4

  0
ENDTAB
  0
TABLE
  2
VIEW
  5
6
330
0
100
AcDbSymbolTable
 70
     1
  0
ENDTAB
  0
TABLE
  2
UCS
  5
7
330
0
100
AcDbSymbolTable
 70
     0
  0
ENDTAB
  0
TABLE
  2
APPID
  5
9
330
0
100
AcDbSymbolTable
 70
     3
  0
APPID
  5
21F
330
9
100
AcDbSymbolTableRecord
100
AcDbRegAppTableRecord
  2
ACAD
 70
     0
  0
APPID
  5
6895
330
9
100
AcDbSymbolTableRecord
100
AcDbRegAppTableRecord
  2
ACAD_MLEADERVER
 70
     0
  0
APPID
  5
68E8
330
9
100
AcDbSymbolTableRecord
100
AcDbRegAppTableRecord
  2
ACAD_NAV_VCDISPLAY
 70
     0
  0
ENDTAB
  0
TABLE
  2
DIMSTYLE
  5
A
330
0
100
AcDbSymbolTable
 70
     2
100
AcDbDimStyleTable
 71
     1
340
228
  0
DIMSTYLE
105
228
330
A
100
AcDbSymbolTableRecord
100
AcDbDimStyleTableRecord
  2
STANDARD
 70
     0
 41
2.0
 44
0.125
 47
0.001
 48
0.001
 71
     1
 78
     4
 79
     1
140
1.333333333299999
143
2.54
170
     1
179
     3
271
     3
272
     3
284
     4
340
11
341
222
342
222
343
222
344
222
  0
DIMSTYLE
105
229
330
A
100
AcDbSymbolTableRecord
100
AcDbDimStyleTableRecord
  2
DIMSTYLE_1
 70
     0
 41
2.0
 44
0.125
 47
0.001
 48
0.001
 78
     4
 79
     1
140
1.333333333299999
143
2.54
147
0.0625
170
     1
171
     0
179
     3
272
    16
274
     0
284
     4
340
11
341
222
342
222
343
222
344
222
  0
ENDTAB
  0
TABLE
  2
BLOCK_RECORD
  5
1
330
0
100
AcDbSymbolTable
 70
     5
  0
BLOCK_RECORD
  5
220
330
1
100
AcDbSymbolTableRecord
100
AcDbBlockTableRecord
  2
*Model_Space
340
67E8
 70
     0
280
     1
281
     0
  0
BLOCK_RECORD
  5
221
330
1
100
AcDbSymbolTableRecord
100
AcDbBlockTableRecord
  2
*Paper_Space
340
67E9
 70
     0
280
     1
281
     0
  0
BLOCK_RECORD
  5
222
330
1
100
AcDbSymbolTableRecord
100
AcDbBlockTableRecord
  2
_FILLED
340
0
102
{BLKREFS
102
}
 70
     0
280
     1
281
     0
  0
BLOCK_RECORD
  5
225
330
1
100
AcDbSymbolTableRecord
100
AcDbBlockTableRecord
  2
L03-USAGE_INTERNE_SEULEM_BL2
340
0
 70
     0
280
     1
281
     0
  0
BLOCK_RECORD
  5
226
330
1
100
AcDbSymbolTableRecord
100
AcDbBlockTableRecord
  2
L03-MOTEUR-CONTROLE-LED_BL1
340
0
 70
     0
280
     1
281
     0
  0
BLOCK_RECORD
  5
227
330
1
100
AcDbSymbolTableRecord
100
AcDbBlockTableRecord
  2
L03-NOTE_SPECS_BAINS_BL0
340
0
 70
     0
280
     1
281
     0
  0
ENDTAB
  0
ENDSEC
  0
SECTION
  2
BLOCKS
  0
BLOCK
  5
20
330
220
100
AcDbEntity
  8
0
100
AcDbBlockBegin
  2
*Model_Space
 70
     0
 10
0.0
 20
0.0
 30
0.0
  3
*Model_Space
  1

  0
ENDBLK
  5
21
330
220
100
AcDbEntity
  8
0
100
AcDbBlockEnd
  0
BLOCK
  5
1C
330
221
100
AcDbEntity
 67
     1
  8
0
100
AcDbBlockBegin
  2
*Paper_Space
 70
     0
 10
0.0
 20
0.0
 30
0.0
  3
*Paper_Space
  1

  0
ENDBLK
  5
1D
330
221
100
AcDbEntity
 67
     1
  8
0
100
AcDbBlockEnd
  0
BLOCK
  5
2F9
330
222
100
AcDbEntity
  8
0
100
AcDbBlockBegin
  2
_FILLED
 70
     0
 10
0.0
 20
0.0
 30
0.0
  3
_FILLED
  1

  0
SOLID
  5
2FA
330
222
100
AcDbEntity
  8
0
  6
ByBlock
 62
     0
100
AcDbTrace
 10
0.0
 20
0.0
 30
0.0
 11
-1.0
 21
0.1666666667
 31
0.0
 12
-1.0
 22
-0.1666666667
 32
0.0
 13
-1.0
 23
-0.1666666667
 33
0.0
  0
ENDBLK
  5
2FB
330
222
100
AcDbEntity
  8
0
  6
ByBlock
 62
     0
100
AcDbBlockEnd
  0
BLOCK
  5
22A
330
225
100
AcDbEntity
  8
0
  6
Continuous
 62
     2
100
AcDbBlockBegin
  2
L03-USAGE_INTERNE_SEULEM_BL2
 70
     0
 10
118.5494982453
 20
50.4006314105
 30
0.0
  3
L03-USAGE_INTERNE_SEULEM_BL2
  1

  0
TEXT
  5
22B
330
225
100
AcDbEntity
  8
0
  6
Continuous
 62
     7
100
AcDbText
 10
112.2354379435
 20
52.6456653963
 30
0.0
 40
1.1626666667
  1
INTERNAL USE 
 50
10.0
  7
TEXTSTYLE_3
100
AcDbText
  0
TEXT
  5
22C
330
225
100
AcDbEntity
  8
0
  6
Continuous
 62
     7
100
AcDbText
 10
111.4917537395
 20
50.6441442186
 30
0.0
 40
1.1626666667
  1
DOCUMENT ONLY
 50
10.0
  7
TEXTSTYLE_3
100
AcDbText
  0
TEXT
  5
22D
330
225
100
AcDbEntity
  8
0
  6
Continuous
 62
     7
100
AcDbText
 10
117.2764813027
 20
50.39571616799999
 30
0.0
 40
1.1626666667
  1
 
 50
10.0
  7
TEXTSTYLE_5
100
AcDbText
  0
TEXT
  5
22E
330
225
100
AcDbEntity
  8
0
  6
Continuous
 62
     7
100
AcDbText
 10
108.8318334197
 20
46.2186217617
 30
0.0
 40
1.1626666667
  1
DOCUMENT POUR USAGE
 50
10.0
  7
TEXTSTYLE_3
100
AcDbText
  0
TEXT
  5
22F
330
225
100
AcDbEntity
  8
0
  6
Continuous
 62
     7
100
AcDbText
 10
109.2609328657
 20
44.2018733014
 30
0.0
 40
1.1626666667
  1
A L'INTERNE SEULEMENT
 50
10.0
  7
TEXTSTYLE_3
100
AcDbText
  0
LINE
  5
230
330
225
100
AcDbEntity
  8
0
  6
Continuous
 62
     1
100
AcDbLine
 10
132.4060499686
 20
46.0570977925
 30
0.0
 11
132.4128089012
 21
46.0638567251
 31
0.0
  0
LINE
  5
231
330
225
100
AcDbEntity
  8
0
  6
Continuous
 62
     1
100
AcDbLine
 10
131.6734804022
 20
45.92792601270001
 30
0.0
 11
132.3223618473
 21
46.57680745779999
 31
0.0
  0
LINE
  5
232
330
225
100
AcDbEntity
  8
0
  6
Continuous
 62
     1
100
AcDbLine
 10
130.9409108358
 20
45.7987542329
 30
0.0
 11
132.2319147933
 21
47.08975819049999
 31
0.0
  0
LINE
  5
233
330
225
100
AcDbEntity
  8
0
  6
Continuous
 62
     1
100
AcDbLine
 10
130.2083412693
 20
45.6695824531
 30
0.0
 11
132.1414677394
 21
47.6027089232
 31
0.0
  0
LINE
  5
234
330
225
100
AcDbEntity
  8
0
  6
Continuous
 62
     1
100
AcDbLine
 10
129.4757717029
 20
45.5404106733
 30
0.0
 11
132.0510206855
 21
48.1156596558
 31
0.0
  0
LINE
  5
235
330
225
100
AcDbEntity
  8
0
  6
Continuous
 62
     1
100
AcDbLine
 10
128.7432021365
 20
45.4112388935
 30
0.0
 11
130.2842059513
 21
46.95224270819999
 31
0.0
  0
LINE
  5
236
330
225
100
AcDbEntity
  8
0
  6
Continuous
 62
     1
100
AcDbLine
 10
130.881551144
 20
47.549587901
 30
0.0
 11
131.9605736314999
 21
48.6286103885
 31
0.0
  0
LINE
  5
237
330
225
100
AcDbEntity
  8
0
  6
Continuous
 62
     1
100
AcDbLine
 10
128.0106325701
 20
45.2820671137
 30
0.0
 11
129.5516363849
 21
46.8230709284
 31
0.0
  0
LINE
  5
238
330
225
100
AcDbEntity
  8
0
  6
Continuous
 62
     1
100
AcDbLine
 10
130.7911040901
 20
48.0625386336
 30
0.0
 11
131.8701265776
 21
49.1415611212
 31
0.0
  0
LINE
  5
239
330
225
100
AcDbEntity
  8
0
  6
Continuous
 62
     1
100
AcDbLine
 10
127.2780630037
 20
45.1528953339
 30
0.0
 11
128.8190668184
 21
46.69389914859999
 31
0.0
  0
LINE
  5
23A
330
225
100
AcDbEntity
  8
0
  6
Continuous
 62
     1
100
AcDbLine
 10
130.7006570361
 20
48.5754893663
 30
0.0
 11
131.7796795236
 21
49.6545118538
 31
0.0
  0
LINE
  5
23B
330
225
100
AcDbEntity
  8
0
  6
Continuous
 62
     1
100
AcDbLine
 10
126.5454934372
 20
45.0237235541
 30
0.0
 11
128.086497252
 21
46.5647273688
 31
0.0
  0
LINE
  5
23C
330
225
100
AcDbEntity
  8
0
  6
Continuous
 62
     1
100
AcDbLine
 10
130.6102099822
 20
49.088440099
 30
0.0
 11
131.6892324697
 21
50.16746258649999
 31
0.0
  0
LINE
  5
23D
330
225
100
AcDbEntity
  8
0
  6
Continuous
 62
     1
100
AcDbLine
 10
125.8129238708
 20
44.8945517743
 30
0.0
 11
127.3539276856
 21
46.435555589
 31
0.0
  0
LINE
  5
23E
330
225
100
AcDbEntity
  8
0
  6
Continuous
 62
     1
100
AcDbLine
 10
130.5197629282
 20
49.6013908316
 30
0.0
 11
131.5987854157
 21
50.68041331919999
 31
0.0
  0
LINE
  5
23F
330
225
100
AcDbEntity
  8
0
  6
Continuous
 62
     1
100
AcDbLine
 10
125.0803543044
 20
44.76537999439999
 30
0.0
 11
126.6213581192
 21
46.30638380919999
 31
0.0
  0
LINE
  5
240
330
225
100
AcDbEntity
  8
0
  6
Continuous
 62
     1
100
AcDbLine
 10
130.4293158743
 20
50.1143415643
 30
0.0
 11
131.5083383618
 21
51.1933640518
 31
0.0
  0
LINE
  5
241
330
225
100
AcDbEntity
  8
0
  6
Continuous
 62
     1
100
AcDbLine
 10
124.347784738
 20
44.6362082146
 30
0.0
 11
125.8887885528
 21
46.17721202939999
 31
0.0
  0
LINE
  5
242
330
225
100
AcDbEntity
  8
0
  6
Continuous
 62
     1
100
AcDbLine
 10
130.3388688203
 20
50.627292297
 30
0.0
 11
131.4178913079
 21
51.70631478449999
 31
0.0
  0
LINE
  5
243
330
225
100
AcDbEntity
  8
0
  6
Continuous
 62
     1
100
AcDbLine
 10
123.6152151716
 20
44.50703643479999
 30
0.0
 11
125.1562189864
 21
46.04804024959999
 31
0.0
  0
LINE
  5
244
330
225
100
AcDbEntity
  8
0
  6
Continuous
 62
     1
100
AcDbLine
 10
130.2484217664
 20
51.1402430297
 30
0.0
 11
131.3274442539
 21
52.2192655172
 31
0.0
  0
LINE
  5
245
330
225
100
AcDbEntity
  8
0
  6
Continuous
 62
     1
100
AcDbLine
 10
122.8826456052
 20
44.377864655
 30
0.0
 11
124.4236494199
 21
45.91886846979999
 31
0.0
  0
LINE
  5
246
330
225
100
AcDbEntity
  8
0
  6
Continuous
 62
     1
100
AcDbLine
 10
130.1579747125
 20
51.65319376229999
 30
0.0
 11
131.2369972
 21
52.73221624979999
 31
0.0
  0
LINE
  5
247
330
225
100
AcDbEntity
  8
0
  6
Continuous
 62
     1
100
AcDbLine
 10
122.1500760387
 20
44.2486928752
 30
0.0
 11
123.6910798535
 21
45.78969669
 31
0.0
  0
LINE
  5
248
330
225
100
AcDbEntity
  8
0
  6
Continuous
 62
     1
100
AcDbLine
 10
129.8550951126
 20
51.95371194909999
 30
0.0
 11
131.146550146
 21
53.2451669825
 31
0.0
  0
LINE
  5
249
330
225
100
AcDbEntity
  8
0
  6
Continuous
 62
     1
100
AcDbLine
 10
121.4175064723
 20
44.11952109539999
 30
0.0
 11
122.9585102871
 21
45.6605249102
 31
0.0
  0
LINE
  5
24A
330
225
100
AcDbEntity
  8
0
  6
Continuous
 62
     1
100
AcDbLine
 10
129.1225255462
 20
51.8245401693
 30
0.0
 11
131.0561030921
 21
53.75811771520001
 31
0.0
  0
LINE
  5
24B
330
225
100
AcDbEntity
  8
0
  6
Continuous
 62
     1
100
AcDbLine
 10
120.6849369059
 20
43.99034931560001
 30
0.0
 11
122.2259407207
 21
45.5313531304
 31
0.0
  0
LINE
  5
24C
330
225
100
AcDbEntity
  8
0
  6
Continuous
 62
     1
100
AcDbLine
 10
128.3899559798
 20
51.6953683895
 30
0.0
 11
129.417298278
 21
52.7227106878
 31
0.0
  0
LINE
  5
24D
330
225
100
AcDbEntity
  8
0
  6
Continuous
 62
     1
100
AcDbLine
 10
129.8866335506
 20
53.1920459603
 30
0.0
 11
130.9656560381
 21
54.27106844779999
 31
0.0
  0
LINE
  5
24E
330
225
100
AcDbEntity
  8
0
  6
Continuous
 62
     1
100
AcDbLine
 10
119.9523673395
 20
43.86117753579999
 30
0.0
 11
121.4933711543
 21
45.4021813506
 31
0.0
  0
LINE
  5
24F
330
225
100
AcDbEntity
  8
0
  6
Continuous
 62
     1
100
AcDbLine
 10
127.6573864134
 20
51.5661966097
 30
0.0
 11
128.684728502
 21
52.5935386983
 31
0.0
  0
LINE
  5
250
330
225
100
AcDbEntity
  8
0
  6
Continuous
 62
     1
100
AcDbLine
 10
129.7961864967
 20
53.704996693
 30
0.0
 11
130.8752089842
 21
54.7840191805
 31
0.0
  0
LINE
  5
251
330
225
100
AcDbEntity
  8
0
  6
Continuous
 62
     1
100
AcDbLine
 10
119.2197977731
 20
43.73200575600001
 30
0.0
 11
120.7608015878
 21
45.2730095708
 31
0.0
  0
LINE
  5
252
330
225
100
AcDbEntity
  8
0
  6
Continuous
 62
     1
100
AcDbLine
 10
126.924816847
 20
51.4370248299
 30
0.0
 11
127.952158726
 21
52.4643667089
 31
0.0
  0
LINE
  5
253
330
225
100
AcDbEntity
  8
0
  6
Continuous
 62
     1
100
AcDbLine
 10
129.7057394427
 20
54.2179474257
 30
0.0
 11
130.7847619302
 21
55.29696991319999
 31
0.0
  0
LINE
  5
254
330
225
100
AcDbEntity
  8
0
  6
Continuous
 62
     1
100
AcDbLine
 10
118.4872282066
 20
43.60283397619999
 30
0.0
 11
120.0282320214
 21
45.143837791
 31
0.0
  0
LINE
  5
255
330
225
100
AcDbEntity
  8
0
  6
Continuous
 62
     1
100
AcDbLine
 10
126.1922472805
 20
51.3078530501
 30
0.0
 11
127.21958895
 21
52.3351947195
 31
0.0
  0
LINE
  5
256
330
225
100
AcDbEntity
  8
0
  6
Continuous
 62
     1
100
AcDbLine
 10
129.6152923888
 20
54.7308981583
 30
0.0
 11
130.6943148763
 21
55.8099206459
 31
0.0
  0
LINE
  5
257
330
225
100
AcDbEntity
  8
0
  6
Continuous
 62
     1
100
AcDbLine
 10
117.7546586402
 20
43.4736621964
 30
0.0
 11
119.295662455
 21
45.01466601119999
 31
0.0
  0
LINE
  5
258
330
225
100
AcDbEntity
  8
0
  6
Continuous
 62
     1
100
AcDbLine
 10
125.4596777141
 20
51.1786812703
 30
0.0
 11
126.4870191739
 21
52.2060227301
 31
0.0
  0
LINE
  5
259
330
225
100
AcDbEntity
  8
0
  6
Continuous
 62
     1
100
AcDbLine
 10
129.5248453348
 20
55.24384889100001
 30
0.0
 11
130.6038678224
 21
56.3228713785
 31
0.0
  0
LINE
  5
25A
330
225
100
AcDbEntity
  8
0
  6
Continuous
 62
     1
100
AcDbLine
 10
117.0220890738
 20
43.3444904166
 30
0.0
 11
118.5630928886
 21
44.8854942314
 31
0.0
  0
LINE
  5
25B
330
225
100
AcDbEntity
  8
0
  6
Continuous
 62
     1
100
AcDbLine
 10
124.7271081477
 20
51.0495094905
 30
0.0
 11
125.7544493979
 21
52.07685074069999
 31
0.0
  0
LINE
  5
25C
330
225
100
AcDbEntity
  8
0
  6
Continuous
 62
     1
100
AcDbLine
 10
129.4343982809
 20
55.75679962369999
 30
0.0
 11
130.5134207684
 21
56.8358221112
 31
0.0
  0
LINE
  5
25D
330
225
100
AcDbEntity
  8
0
  6
Continuous
 62
     1
100
AcDbLine
 10
116.2895195074
 20
43.2153186368
 30
0.0
 11
117.8305233222
 21
44.75632245159999
 31
0.0
  0
LINE
  5
25E
330
225
100
AcDbEntity
  8
0
  6
Continuous
 62
     1
100
AcDbLine
 10
123.9945385813
 20
50.92033771069999
 30
0.0
 11
125.0218796219
 21
51.94767875130001
 31
0.0
  0
LINE
  5
25F
330
225
100
AcDbEntity
  8
0
  6
Continuous
 62
     1
100
AcDbLine
 10
129.343951227
 20
56.2697503563
 30
0.0
 11
130.4229737145
 21
57.3487728439
 31
0.0
  0
LINE
  5
260
330
225
100
AcDbEntity
  8
0
  6
Continuous
 62
     1
100
AcDbLine
 10
115.556949941
 20
43.08614685699999
 30
0.0
 11
117.0979537558
 21
44.6271506718
 31
0.0
  0
LINE
  5
261
330
225
100
AcDbEntity
  8
0
  6
Continuous
 62
     1
100
AcDbLine
 10
123.2619690149
 20
50.7911659309
 30
0.0
 11
124.2893098458
 21
51.8185067618
 31
0.0
  0
LINE
  5
262
330
225
100
AcDbEntity
  8
0
  6
Continuous
 62
     1
100
AcDbLine
 10
129.253504173
 20
56.782701089
 30
0.0
 11
130.3325266605
 21
57.86172357649999
 31
0.0
  0
LINE
  5
263
330
225
100
AcDbEntity
  8
0
  6
Continuous
 62
     1
100
AcDbLine
 10
114.8243803746
 20
42.95697507719999
 30
0.0
 11
116.3653841893
 21
44.4979788919
 31
0.0
  0
LINE
  5
264
330
225
100
AcDbEntity
  8
0
  6
Continuous
 62
     1
100
AcDbLine
 10
122.5293994484
 20
50.66199415109999
 30
0.0
 11
123.5567400698
 21
51.68933477239999
 31
0.0
  0
LINE
  5
265
330
225
100
AcDbEntity
  8
0
  6
Continuous
 62
     1
100
AcDbLine
 10
129.1630571191
 20
57.29565182169999
 30
0.0
 11
130.2420796066
 21
58.3746743092
 31
0.0
  0
LINE
  5
266
330
225
100
AcDbEntity
  8
0
  6
Continuous
 62
     1
100
AcDbLine
 10
114.0918108081
 20
42.82780329739999
 30
0.0
 11
115.6328146229
 21
44.3688071121
 31
0.0
  0
LINE
  5
267
330
225
100
AcDbEntity
  8
0
  6
Continuous
 62
     1
100
AcDbLine
 10
121.796829882
 20
50.5328223713
 30
0.0
 11
122.8241702938
 21
51.560162783
 31
0.0
  0
LINE
  5
268
330
225
100
AcDbEntity
  8
0
  6
Continuous
 62
     1
100
AcDbLine
 10
128.9881810177
 20
57.72417350689999
 30
0.0
 11
130.1516325526
 21
58.88762504189999
 31
0.0
  0
LINE
  5
269
330
225
100
AcDbEntity
  8
0
  6
Continuous
 62
     1
100
AcDbLine
 10
113.3592412417
 20
42.6986315176
 30
0.0
 11
114.9002450565
 21
44.2396353323
 31
0.0
  0
LINE
  5
26A
330
225
100
AcDbEntity
  8
0
  6
Continuous
 62
     1
100
AcDbLine
 10
121.0642603156
 20
50.4036505914
 30
0.0
 11
122.0916005178
 21
51.43099079359999
 31
0.0
  0
LINE
  5
26B
330
225
100
AcDbEntity
  8
0
  6
Continuous
 62
     1
100
AcDbLine
 10
128.2556114512
 20
57.5950017271
 30
0.0
 11
129.796615266
 21
59.1360055418
 31
0.0
  0
LINE
  5
26C
330
225
100
AcDbEntity
  8
0
  6
Continuous
 62
     1
100
AcDbLine
 10
112.6266716753
 20
42.5694597378
 30
0.0
 11
114.1676754901
 21
44.11046355249999
 31
0.0
  0
LINE
  5
26D
330
225
100
AcDbEntity
  8
0
  6
Continuous
 62
     1
100
AcDbLine
 10
120.3316907492
 20
50.2744788116
 30
0.0
 11
121.3590307417
 21
51.3018188042
 31
0.0
  0
LINE
  5
26E
330
225
100
AcDbEntity
  8
0
  6
Continuous
 62
     1
100
AcDbLine
 10
127.5230418848
 20
57.46582994729999
 30
0.0
 11
129.0640456996
 21
59.00683376199999
 31
0.0
  0
LINE
  5
26F
330
225
100
AcDbEntity
  8
0
  6
Continuous
 62
     1
100
AcDbLine
 10
111.8941021089
 20
42.4402879579
 30
0.0
 11
113.4351059237
 21
43.9812917727
 31
0.0
  0
LINE
  5
270
330
225
100
AcDbEntity
  8
0
  6
Continuous
 62
     1
100
AcDbLine
 10
119.5991211828
 20
50.1453070318
 30
0.0
 11
120.6264609657
 21
51.1726468148
 31
0.0
  0
LINE
  5
271
330
225
100
AcDbEntity
  8
0
  6
Continuous
 62
     1
100
AcDbLine
 10
126.7904723184
 20
57.3366581675
 30
0.0
 11
128.3314761332
 21
58.8776619822
 31
0.0
  0
LINE
  5
272
330
225
100
AcDbEntity
  8
0
  6
Continuous
 62
     1
100
AcDbLine
 10
111.1615325425
 20
42.31111617809999
 30
0.0
 11
112.7025363572
 21
43.8521199929
 31
0.0
  0
LINE
  5
273
330
225
100
AcDbEntity
  8
0
  6
Continuous
 62
     1
100
AcDbLine
 10
118.8665516164
 20
50.01613525199999
 30
0.0
 11
119.8938911897
 21
51.04347482539999
 31
0.0
  0
LINE
  5
274
330
225
100
AcDbEntity
  8
0
  6
Continuous
 62
     1
100
AcDbLine
 10
126.057902752
 20
57.2074863877
 30
0.0
 11
127.5989065668
 21
58.7484902024
 31
0.0
  0
LINE
  5
275
330
225
100
AcDbEntity
  8
0
  6
Continuous
 62
     1
100
AcDbLine
 10
110.4289629761
 20
42.18194439829999
 30
0.0
 11
111.9699667908
 21
43.7229482131
 31
0.0
  0
LINE
  5
276
330
225
100
AcDbEntity
  8
0
  6
Continuous
 62
     1
100
AcDbLine
 10
118.1339820499
 20
49.8869634722
 30
0.0
 11
119.1613214136
 21
50.9143028359
 31
0.0
  0
LINE
  5
277
330
225
100
AcDbEntity
  8
0
  6
Continuous
 62
     1
100
AcDbLine
 10
125.3253331856
 20
57.07831460779999
 30
0.0
 11
126.8663370003
 21
58.6193184226
 31
0.0
  0
LINE
  5
278
330
225
100
AcDbEntity
  8
0
  6
Continuous
 62
     1
100
AcDbLine
 10
109.6963934096
 20
42.0527726185
 30
0.0
 11
111.2373972244
 21
43.5937764333
 31
0.0
  0
LINE
  5
279
330
225
100
AcDbEntity
  8
0
  6
Continuous
 62
     1
100
AcDbLine
 10
117.4014124835
 20
49.75779169239999
 30
0.0
 11
118.4287516376
 21
50.78513084649999
 31
0.0
  0
LINE
  5
27A
330
225
100
AcDbEntity
  8
0
  6
Continuous
 62
     1
100
AcDbLine
 10
124.5927636191
 20
56.949142828
 30
0.0
 11
126.1337674339
 21
58.4901466428
 31
0.0
  0
LINE
  5
27B
330
225
100
AcDbEntity
  8
0
  6
Continuous
 62
     1
100
AcDbLine
 10
108.9638238432
 20
41.92360083869999
 30
0.0
 11
110.504827658
 21
43.4646046535
 31
0.0
  0
LINE
  5
27C
330
225
100
AcDbEntity
  8
0
  6
Continuous
 62
     1
100
AcDbLine
 10
116.6688429171
 20
49.6286199126
 30
0.0
 11
117.6961818616
 21
50.6559588571
 31
0.0
  0
LINE
  5
27D
330
225
100
AcDbEntity
  8
0
  6
Continuous
 62
     1
100
AcDbLine
 10
123.8601940527
 20
56.81997104819999
 30
0.0
 11
125.4011978675
 21
58.360974863
 31
0.0
  0
LINE
  5
27E
330
225
100
AcDbEntity
  8
0
  6
Continuous
 62
     1
100
AcDbLine
 10
108.2312542768
 20
41.7944290589
 30
0.0
 11
109.7722580916
 21
43.3354328737
 31
0.0
  0
LINE
  5
27F
330
225
100
AcDbEntity
  8
0
  6
Continuous
 62
     1
100
AcDbLine
 10
115.9362733507
 20
49.4994481328
 30
0.0
 11
116.9636120856
 21
50.52678686770001
 31
0.0
  0
LINE
  5
280
330
225
100
AcDbEntity
  8
0
  6
Continuous
 62
     1
100
AcDbLine
 10
123.1276244863
 20
56.6907992684
 30
0.0
 11
124.6686283011
 21
58.2318030832
 31
0.0
  0
LINE
  5
281
330
225
100
AcDbEntity
  8
0
  6
Continuous
 62
     1
100
AcDbLine
 10
107.4986847104
 20
41.66525727909999
 30
0.0
 11
109.0396885252
 21
43.2062610939
 31
0.0
  0
LINE
  5
282
330
225
100
AcDbEntity
  8
0
  6
Continuous
 62
     1
100
AcDbLine
 10
115.2037037843
 20
49.370276353
 30
0.0
 11
116.2310423095
 21
50.39761487829999
 31
0.0
  0
LINE
  5
283
330
225
100
AcDbEntity
  8
0
  6
Continuous
 62
     1
100
AcDbLine
 10
122.3950549199
 20
56.56162748859999
 30
0.0
 11
123.9360587347
 21
58.1026313034
 31
0.0
  0
LINE
  5
284
330
225
100
AcDbEntity
  8
0
  6
Continuous
 62
     1
100
AcDbLine
 10
106.9473639379
 20
41.7173342932
 30
0.0
 11
108.3071189587
 21
43.0770893141
 31
0.0
  0
LINE
  5
285
330
225
100
AcDbEntity
  8
0
  6
Continuous
 62
     1
100
AcDbLine
 10
114.4711342178
 20
49.2411045732
 30
0.0
 11
115.4984725335
 21
50.2684428889
 31
0.0
  0
LINE
  5
286
330
225
100
AcDbEntity
  8
0
  6
Continuous
 62
     1
100
AcDbLine
 10
121.6624853535
 20
56.4324557088
 30
0.0
 11
123.2034891682
 21
57.9734595236
 31
0.0
  0
LINE
  5
287
330
225
100
AcDbEntity
  8
0
  6
Continuous
 62
     1
100
AcDbLine
 10
106.8569168839
 20
42.2302850259
 30
0.0
 11
107.9359393714
 21
43.3093075134
 31
0.0
  0
LINE
  5
288
330
225
100
AcDbEntity
  8
0
  6
Continuous
 62
     1
100
AcDbLine
 10
113.7385646514
 20
49.1119327934
 30
0.0
 11
114.7659027575
 21
50.1392708994
 31
0.0
  0
LINE
  5
289
330
225
100
AcDbEntity
  8
0
  6
Continuous
 62
     1
100
AcDbLine
 10
120.9299157871
 20
56.303283929
 30
0.0
 11
122.4709196018
 21
57.8442877438
 31
0.0
  0
LINE
  5
28A
330
225
100
AcDbEntity
  8
0
  6
Continuous
 62
     1
100
AcDbLine
 10
106.76646983
 20
42.7432357585
 30
0.0
 11
107.8454923175
 21
43.82225824609999
 31
0.0
  0
LINE
  5
28B
330
225
100
AcDbEntity
  8
0
  6
Continuous
 62
     1
100
AcDbLine
 10
113.005995085
 20
48.9827610136
 30
0.0
 11
114.0333329814
 21
50.01009891
 31
0.0
  0
LINE
  5
28C
330
225
100
AcDbEntity
  8
0
  6
Continuous
 62
     1
100
AcDbLine
 10
120.1973462206
 20
56.1741121492
 30
0.0
 11
121.7383500354
 21
57.71511596399999
 31
0.0
  0
LINE
  5
28D
330
225
100
AcDbEntity
  8
0
  6
Continuous
 62
     1
100
AcDbLine
 10
106.676022776
 20
43.25618649119999
 30
0.0
 11
107.7550452635
 21
44.33520897869999
 31
0.0
  0
LINE
  5
28E
330
225
100
AcDbEntity
  8
0
  6
Continuous
 62
     1
100
AcDbLine
 10
112.2734255186
 20
48.8535892338
 30
0.0
 11
113.3007632054
 21
49.8809269206
 31
0.0
  0
LINE
  5
28F
330
225
100
AcDbEntity
  8
0
  6
Continuous
 62
     1
100
AcDbLine
 10
119.4647766542
 20
56.0449403694
 30
0.0
 11
121.005780469
 21
57.5859441842
 31
0.0
  0
LINE
  5
290
330
225
100
AcDbEntity
  8
0
  6
Continuous
 62
     1
100
AcDbLine
 10
106.5855757221
 20
43.7691372239
 30
0.0
 11
107.6645982096
 21
44.8481597114
 31
0.0
  0
LINE
  5
291
330
225
100
AcDbEntity
  8
0
  6
Continuous
 62
     1
100
AcDbLine
 10
111.5408559522
 20
48.72441745399999
 30
0.0
 11
112.5681934294
 21
49.7517549312
 31
0.0
  0
LINE
  5
292
330
225
100
AcDbEntity
  8
0
  6
Continuous
 62
     1
100
AcDbLine
 10
118.7322070878
 20
55.91576858959999
 30
0.0
 11
120.2732109026
 21
57.4567724044
 31
0.0
  0
LINE
  5
293
330
225
100
AcDbEntity
  8
0
  6
Continuous
 62
     1
100
AcDbLine
 10
106.4951286681
 20
44.2820879566
 30
0.0
 11
107.5741511557
 21
45.3611104441
 31
0.0
  0
LINE
  5
294
330
225
100
AcDbEntity
  8
0
  6
Continuous
 62
     1
100
AcDbLine
 10
110.8082863858
 20
48.5952456742
 30
0.0
 11
111.8356236534
 21
49.6225829418
 31
0.0
  0
LINE
  5
295
330
225
100
AcDbEntity
  8
0
  6
Continuous
 62
     1
100
AcDbLine
 10
117.9996375214
 20
55.78659680979999
 30
0.0
 11
119.5406413362
 21
57.3276006246
 31
0.0
  0
LINE
  5
296
330
225
100
AcDbEntity
  8
0
  6
Continuous
 62
     1
100
AcDbLine
 10
106.4046816142
 20
44.7950386892
 30
0.0
 11
107.4837041017
 21
45.8740611767
 31
0.0
  0
LINE
  5
297
330
225
100
AcDbEntity
  8
0
  6
Continuous
 62
     1
100
AcDbLine
 10
110.0757168193
 20
48.46607389439999
 30
0.0
 11
111.1030538773
 21
49.4934109524
 31
0.0
  0
LINE
  5
298
330
225
100
AcDbEntity
  8
0
  6
Continuous
 62
     1
100
AcDbLine
 10
117.267067955
 20
55.65742503
 30
0.0
 11
118.8080717697
 21
57.1984288448
 31
0.0
  0
LINE
  5
299
330
225
100
AcDbEntity
  8
0
  6
Continuous
 62
     1
100
AcDbLine
 10
106.3142345603
 20
45.30798942189999
 30
0.0
 11
107.3932570478
 21
46.38701190939999
 31
0.0
  0
LINE
  5
29A
330
225
100
AcDbEntity
  8
0
  6
Continuous
 62
     1
100
AcDbLine
 10
109.3431472529
 20
48.3369021146
 30
0.0
 11
110.3704841013
 21
49.3642389629
 31
0.0
  0
LINE
  5
29B
330
225
100
AcDbEntity
  8
0
  6
Continuous
 62
     1
100
AcDbLine
 10
116.5344983885
 20
55.5282532502
 30
0.0
 11
118.0755022033
 21
57.069257065
 31
0.0
  0
LINE
  5
29C
330
225
100
AcDbEntity
  8
0
  6
Continuous
 62
     1
100
AcDbLine
 10
106.2237875063
 20
45.8209401546
 30
0.0
 11
107.3028099938
 21
46.8999626421
 31
0.0
  0
LINE
  5
29D
330
225
100
AcDbEntity
  8
0
  6
Continuous
 62
     1
100
AcDbLine
 10
108.6105776865
 20
48.2077303348
 30
0.0
 11
109.6379143253
 21
49.2350669735
 31
0.0
  0
LINE
  5
29E
330
225
100
AcDbEntity
  8
0
  6
Continuous
 62
     1
100
AcDbLine
 10
115.8019288221
 20
55.3990814704
 30
0.0
 11
117.3429326369
 21
56.94008528520001
 31
0.0
  0
LINE
  5
29F
330
225
100
AcDbEntity
  8
0
  6
Continuous
 62
     1
100
AcDbLine
 10
106.1333404524
 20
46.3338908872
 30
0.0
 11
107.2123629399
 21
47.4129133747
 31
0.0
  0
LINE
  5
2A0
330
225
100
AcDbEntity
  8
0
  6
Continuous
 62
     1
100
AcDbLine
 10
107.8780081201
 20
48.0785585549
 30
0.0
 11
108.9053445493
 21
49.1058949841
 31
0.0
  0
LINE
  5
2A1
330
225
100
AcDbEntity
  8
0
  6
Continuous
 62
     1
100
AcDbLine
 10
115.0693592557
 20
55.2699096906
 30
0.0
 11
116.6103630705
 21
56.8109135054
 31
0.0
  0
LINE
  5
2A2
330
225
100
AcDbEntity
  8
0
  6
Continuous
 62
     1
100
AcDbLine
 10
106.0428933984
 20
46.84684161989999
 30
0.0
 11
107.1219158859
 21
47.92586410739999
 31
0.0
  0
LINE
  5
2A3
330
225
100
AcDbEntity
  8
0
  6
Continuous
 62
     1
100
AcDbLine
 10
107.1454385537
 20
47.9493867751
 30
0.0
 11
108.1727747732
 21
48.9767229947
 31
0.0
  0
LINE
  5
2A4
330
225
100
AcDbEntity
  8
0
  6
Continuous
 62
     1
100
AcDbLine
 10
114.3367896893
 20
55.1407379108
 30
0.0
 11
115.8777935041
 21
56.6817417255
 31
0.0
  0
LINE
  5
2A5
330
225
100
AcDbEntity
  8
0
  6
Continuous
 62
     1
100
AcDbLine
 10
105.9524463445
 20
47.3597923526
 30
0.0
 11
107.4402049972
 21
48.8475510053
 31
0.0
  0
LINE
  5
2A6
330
225
100
AcDbEntity
  8
0
  6
Continuous
 62
     1
100
AcDbLine
 10
113.6042201229
 20
55.011566131
 30
0.0
 11
115.1452239377
 21
56.5525699457
 31
0.0
  0
LINE
  5
2A7
330
225
100
AcDbEntity
  8
0
  6
Continuous
 62
     1
100
AcDbLine
 10
105.8619992905
 20
47.8727430852
 30
0.0
 11
106.9410217781
 21
48.9517655728
 31
0.0
  0
LINE
  5
2A8
330
225
100
AcDbEntity
  8
0
  6
Continuous
 62
     1
100
AcDbLine
 10
112.8716505565
 20
54.8823943512
 30
0.0
 11
114.4126543712
 21
56.4233981659
 31
0.0
  0
LINE
  5
2A9
330
225
100
AcDbEntity
  8
0
  6
Continuous
 62
     1
100
AcDbLine
 10
105.7715522366
 20
48.3856938179
 30
0.0
 11
106.8505747241
 21
49.46471630539999
 31
0.0
  0
LINE
  5
2AA
330
225
100
AcDbEntity
  8
0
  6
Continuous
 62
     1
100
AcDbLine
 10
112.13908099
 20
54.7532225714
 30
0.0
 11
113.6800848048
 21
56.2942263861
 31
0.0
  0
LINE
  5
2AB
330
225
100
AcDbEntity
  8
0
  6
Continuous
 62
     1
100
AcDbLine
 10
105.6811051826
 20
48.8986445506
 30
0.0
 11
106.7601276702
 21
49.9776670381
 31
0.0
  0
LINE
  5
2AC
330
225
100
AcDbEntity
  8
0
  6
Continuous
 62
     1
100
AcDbLine
 10
111.4065114236
 20
54.62405079149999
 30
0.0
 11
112.9475152384
 21
56.1650546063
 31
0.0
  0
LINE
  5
2AD
330
225
100
AcDbEntity
  8
0
  6
Continuous
 62
     1
100
AcDbLine
 10
105.5906581287
 20
49.4115952832
 30
0.0
 11
106.6696806162
 21
50.4906177708
 31
0.0
  0
LINE
  5
2AE
330
225
100
AcDbEntity
  8
0
  6
Continuous
 62
     1
100
AcDbLine
 10
110.6739418572
 20
54.4948790117
 30
0.0
 11
112.214945672
 21
56.03588282649999
 31
0.0
  0
LINE
  5
2AF
330
225
100
AcDbEntity
  8
0
  6
Continuous
 62
     1
100
AcDbLine
 10
105.5002110748
 20
49.9245460159
 30
0.0
 11
106.5792335623
 21
51.0035685034
 31
0.0
  0
LINE
  5
2B0
330
225
100
AcDbEntity
  8
0
  6
Continuous
 62
     1
100
AcDbLine
 10
109.9413722908
 20
54.3657072319
 30
0.0
 11
111.4823761056
 21
55.90671104670001
 31
0.0
  0
LINE
  5
2B1
330
225
100
AcDbEntity
  8
0
  6
Continuous
 62
     1
100
AcDbLine
 10
105.4097640208
 20
50.43749674859999
 30
0.0
 11
106.4887865083
 21
51.5165192361
 31
0.0
  0
LINE
  5
2B2
330
225
100
AcDbEntity
  8
0
  6
Continuous
 62
     1
100
AcDbLine
 10
109.2088027244
 20
54.2365354521
 30
0.0
 11
110.7498065391
 21
55.77753926689999
 31
0.0
  0
LINE
  5
2B3
330
225
100
AcDbEntity
  8
0
  6
Continuous
 62
     1
100
AcDbLine
 10
105.3193169669
 20
50.9504474812
 30
0.0
 11
106.3983394544
 21
52.0294699688
 31
0.0
  0
LINE
  5
2B4
330
225
100
AcDbEntity
  8
0
  6
Continuous
 62
     1
100
AcDbLine
 10
108.476233158
 20
54.1073636723
 30
0.0
 11
110.0172369727
 21
55.6483674871
 31
0.0
  0
LINE
  5
2B5
330
225
100
AcDbEntity
  8
0
  6
Continuous
 62
     1
100
AcDbLine
 10
105.2288699129
 20
51.4633982139
 30
0.0
 11
106.3078924004
 21
52.5424207014
 31
0.0
  0
LINE
  5
2B6
330
225
100
AcDbEntity
  8
0
  6
Continuous
 62
     1
100
AcDbLine
 10
107.7436635915
 20
53.9781918925
 30
0.0
 11
109.2846674063
 21
55.51919570729999
 31
0.0
  0
LINE
  5
2B7
330
225
100
AcDbEntity
  8
0
  6
Continuous
 62
     1
100
AcDbLine
 10
105.138422859
 20
51.9763489466
 30
0.0
 11
106.2174453465
 21
53.05537143409999
 31
0.0
  0
LINE
  5
2B8
330
225
100
AcDbEntity
  8
0
  6
Continuous
 62
     1
100
AcDbLine
 10
107.0110940251
 20
53.8490201127
 30
0.0
 11
108.5520978399
 21
55.3900239275
 31
0.0
  0
LINE
  5
2B9
330
225
100
AcDbEntity
  8
0
  6
Continuous
 62
     1
100
AcDbLine
 10
105.047975805
 20
52.4892996793
 30
0.0
 11
106.1269982926
 21
53.5683221668
 31
0.0
  0
LINE
  5
2BA
330
225
100
AcDbEntity
  8
0
  6
Continuous
 62
     1
100
AcDbLine
 10
106.2785244587
 20
53.71984833289999
 30
0.0
 11
107.8195282735
 21
55.26085214770001
 31
0.0
  0
LINE
  5
2BB
330
225
100
AcDbEntity
  8
0
  6
Continuous
 62
     1
100
AcDbLine
 10
104.9575287511
 20
53.0022504119
 30
0.0
 11
107.0869587071
 21
55.1316803679
 31
0.0
  0
LINE
  5
2BC
330
225
100
AcDbEntity
  8
0
  6
Continuous
 62
     1
100
AcDbLine
 10
104.8670816972
 20
53.5152011446
 30
0.0
 11
106.3543891406
 21
55.00250858810001
 31
0.0
  0
LINE
  5
2BD
330
225
100
AcDbEntity
  8
0
  6
Continuous
 62
     1
100
AcDbLine
 10
104.7766346432
 20
54.02815187729999
 30
0.0
 11
105.6218195742
 21
54.87333680829999
 31
0.0
  0
LINE
  5
2BE
330
225
100
AcDbEntity
  8
0
  6
Continuous
 62
     1
100
AcDbLine
 10
104.6861875893
 20
54.5411026099
 30
0.0
 11
104.8892500078
 21
54.74416502850001
 31
0.0
  0
ENDBLK
  5
2BF
330
225
100
AcDbEntity
  8
0
  6
ByBlock
 62
     0
100
AcDbBlockEnd
  0
BLOCK
  5
2C0
330
226
100
AcDbEntity
  8
0
  6
Continuous
 62
     2
100
AcDbBlockBegin
  2
L03-MOTEUR-CONTROLE-LED_BL1
 70
     0
 10
21.1888048956
 20
79.65046796260001
 30
0.0
  3
L03-MOTEUR-CONTROLE-LED_BL1
  1

  0
TEXT
  5
2C1
330
226
100
AcDbEntity
  8
0
  6
Continuous
 62
     2
100
AcDbText
 10
20.6258417136
 20
78.9838010365
 30
0.0
 40
1.333333852099999
  1
T
  7
TEXTSTYLE_2
100
AcDbText
  0
ELLIPSE
  5
2C2
330
226
100
AcDbEntity
  8
0
  6
Continuous
 62
     7
100
AcDbEllipse
 10
21.1888048956
 20
79.65046796260001
 30
0.0
 11
-1.942887567899999
 21
0.0
 31
0.0
210
0.0
220
0.0
230
1.0
 40
0.6606458385
 41
0.0
 42
6.283185307179586
  0
ENDBLK
  5
2C3
330
226
100
AcDbEntity
  8
0
  6
ByBlock
 62
     0
100
AcDbBlockEnd
  0
BLOCK
  5
2C4
330
227
100
AcDbEntity
  8
0
  6
Continuous
 62
     2
100
AcDbBlockBegin
  2
L03-NOTE_SPECS_BAINS_BL0
 70
     0
 10
160.6669177978
 20
55.3336830668
 30
0.0
  3
L03-NOTE_SPECS_BAINS_BL0
  1

  0
TEXT
  5
2C5
330
227
100
AcDbEntity
  8
0
  6
Continuous
 62
     2
100
AcDbText
 10
144.4191327217
 20
63.1071164579
 30
0.0
 40
0.5
  1
Infomations Techniques/Technical Infomations
  7
TEXTSTYLE_2
100
AcDbText
  0
TEXT
  5
2C6
330
227
100
AcDbEntity
  8
0
  6
Continuous
 62
     2
100
AcDbText
 10
144.6669177978
 20
61.6670164001
 30
0.0
 40
0.6666666667
  1
NOMBRE DE JETS:     
  7
TEXTSTYLE_2
100
AcDbText
  0
TEXT
  5
2C7
330
227
100
AcDbEntity
  8
0
  6
Continuous
 62
     2
100
AcDbText
 10
154.5113622423
 20
61.6670164001
 30
0.0
 40
0.6666666667
  1
40
  7
TEXTSTYLE_2
100
AcDbText
  0
TEXT
  5
2C8
330
227
100
AcDbEntity
  8
0
  6
Continuous
 62
     2
100
AcDbText
 10
144.6669177978
 20
60.6670164001
 30
0.0
 40
0.6666666667
  1
 
  7
TEXTSTYLE_2
100
AcDbText
  0
TEXT
  5
2C9
330
227
100
AcDbEntity
  8
0
  6
Continuous
 62
     2
100
AcDbText
 10
144.6669177978
 20
59.66701640010001
 30
0.0
 40
0.6666666667
  1
NIVEAU D'EAU              GALLONS(US)        LITRES        GALLONS(UK)
  7
TEXTSTYLE_2
100
AcDbText
  0
TEXT
  5
2CA
330
227
100
AcDbEntity
  8
0
  6
Continuous
 62
     2
100
AcDbText
 10
144.6669177978
 20
58.6670164001
 30
0.0
 40
0.6666666667
  1
PLEIN
  7
TEXTSTYLE_2
100
AcDbText
  0
TEXT
  5
2CB
330
227
100
AcDbEntity
  8
0
  6
Continuous
 62
     2
100
AcDbText
 10
144.6669177978
 20
57.6670164001
 30
0.0
 40
0.6666666667
  1
HAUT T.PLEIN
  7
TEXTSTYLE_2
100
AcDbText
  0
TEXT
  5
2CC
330
227
100
AcDbEntity
  8
0
  6
Continuous
 62
     2
100
AcDbText
 10
144.6669177978
 20
56.6670164001
 30
0.0
 40
0.6666666667
  1
MILIEU T.PLEIN
  7
TEXTSTYLE_2
100
AcDbText
  0
TEXT
  5
2CD
330
227
100
AcDbEntity
  8
0
  6
Continuous
 62
     2
100
AcDbText
 10
144.6669177978
 20
55.6670164001
 30
0.0
 40
0.6666666667
  1
BAS T.PLEIN
  7
TEXTSTYLE_2
100
AcDbText
  0
TEXT
  5
2CE
330
227
100
AcDbEntity
  8
0
  6
Continuous
 62
     2
100
AcDbText
 10
144.6669177978
 20
54.66701640010001
 30
0.0
 40
0.6666666667
  1
3" EN BAS T.PLEIN
  7
TEXTSTYLE_2
100
AcDbText
  0
TEXT
  5
2CF
330
227
100
AcDbEntity
  8
0
  6
Continuous
 62
     2
100
AcDbText
 10
144.6669177978
 20
53.6670164001
 30
0.0
 40
0.6666666667
  1
 
  7
TEXTSTYLE_2
100
AcDbText
  0
TEXT
  5
2D0
330
227
100
AcDbEntity
  8
0
  6
Continuous
 62
     2
100
AcDbText
 10
144.4667562922
 20
53.1202294753
 30
0.0
 40
0.5
  1
Legende/Legend
  7
TEXTSTYLE_2
100
AcDbText
  0
TEXT
  5
2D1
330
227
100
AcDbEntity
  8
0
  6
Continuous
 62
     2
100
AcDbText
 10
150.9955912363
 20
51.6089644976
 30
0.0
 40
0.6666666667
  1
ZONE DE ROBINETTERIE
  7
TEXTSTYLE_2
100
AcDbText
  0
TEXT
  5
2D2
330
227
100
AcDbEntity
  8
0
  6
Continuous
 62
     2
100
AcDbText
 10
145.9158666693
 20
50.1137199832
 30
0.0
 40
0.6666666667
  1
L   :  SYSTEME LED       DC   :  DOUBLE DOSSIER CHAUFFANT
  7
TEXTSTYLE_2
100
AcDbText
  0
TEXT
  5
2D3
330
227
100
AcDbEntity
  8
0
  6
Continuous
 62
     2
100
AcDbText
 10
145.9158666693
 20
48.7803866499
 30
0.0
 40
0.6666666667
  1
C   :  CONTROLE
  7
TEXTSTYLE_2
100
AcDbText
  0
TEXT
  5
2D4
330
227
100
AcDbEntity
  8
0
  6
Continuous
 62
     2
100
AcDbText
 10
145.9158666693
 20
47.44705331649999
 30
0.0
 40
0.6666666667
  1
T   :  MOTEUR
  7
TEXTSTYLE_2
100
AcDbText
  0
TEXT
  5
2D5
330
227
100
AcDbEntity
  8
0
  6
Continuous
 62
     2
100
AcDbText
 10
157.2440589416
 20
58.6670164001
 30
0.0
 40
0.6666666667
  1
112
  7
TEXTSTYLE_2
100
AcDbText
  0
TEXT
  5
2D6
330
227
100
AcDbEntity
  8
0
  6
Continuous
 62
     2
100
AcDbText
 10
157.4996144971
 20
57.6670164001
 30
0.0
 40
0.6666666667
  1
87
  7
TEXTSTYLE_2
100
AcDbText
  0
TEXT
  5
2D7
330
227
100
AcDbEntity
  8
0
  6
Continuous
 62
     2
100
AcDbText
 10
157.4996144971
 20
56.6670164001
 30
0.0
 40
0.6666666667
  1
86
  7
TEXTSTYLE_2
100
AcDbText
  0
TEXT
  5
2D8
330
227
100
AcDbEntity
  8
0
  6
Continuous
 62
     2
100
AcDbText
 10
157.4996144971
 20
55.6670164001
 30
0.0
 40
0.6666666667
  1
85
  7
TEXTSTYLE_2
100
AcDbText
  0
TEXT
  5
2D9
330
227
100
AcDbEntity
  8
0
  6
Continuous
 62
     2
100
AcDbText
 10
157.4996144971
 20
54.66701640010001
 30
0.0
 40
0.6666666667
  1
68
  7
TEXTSTYLE_2
100
AcDbText
  0
TEXT
  5
2DA
330
227
100
AcDbEntity
  8
0
  6
Continuous
 62
     2
100
AcDbText
 10
164.4198204409
 20
58.68409580229999
 30
0.0
 40
0.6666666667
  1
424
  7
TEXTSTYLE_2
100
AcDbText
  0
TEXT
  5
2DB
330
227
100
AcDbEntity
  8
0
  6
Continuous
 62
     2
100
AcDbText
 10
164.4198204409
 20
57.68409580229999
 30
0.0
 40
0.6666666667
  1
329
  7
TEXTSTYLE_2
100
AcDbText
  0
TEXT
  5
2DC
330
227
100
AcDbEntity
  8
0
  6
Continuous
 62
     2
100
AcDbText
 10
164.4198204409
 20
56.68409580229999
 30
0.0
 40
0.6666666667
  1
325
  7
TEXTSTYLE_2
100
AcDbText
  0
TEXT
  5
2DD
330
227
100
AcDbEntity
  8
0
  6
Continuous
 62
     2
100
AcDbText
 10
164.4198204409
 20
55.68409580229999
 30
0.0
 40
0.6666666667
  1
320
  7
TEXTSTYLE_2
100
AcDbText
  0
TEXT
  5
2DE
330
227
100
AcDbEntity
  8
0
  6
Continuous
 62
     2
100
AcDbText
 10
164.4198204409
 20
54.68409580229999
 30
0.0
 40
0.6666666667
  1
256
  7
TEXTSTYLE_2
100
AcDbText
  0
TEXT
  5
2DF
330
227
100
AcDbEntity
  8
0
  6
Continuous
 62
     2
100
AcDbText
 10
171.3644593783
 20
58.6670164001
 30
0.0
 40
0.6666666667
  1
93
  7
TEXTSTYLE_2
100
AcDbText
  0
TEXT
  5
2E0
330
227
100
AcDbEntity
  8
0
  6
Continuous
 62
     2
100
AcDbText
 10
171.3644593783
 20
57.6670164001
 30
0.0
 40
0.6666666667
  1
72
  7
TEXTSTYLE_2
100
AcDbText
  0
TEXT
  5
2E1
330
227
100
AcDbEntity
  8
0
  6
Continuous
 62
     2
100
AcDbText
 10
171.3644593783
 20
56.6670164001
 30
0.0
 40
0.6666666667
  1
71
  7
TEXTSTYLE_2
100
AcDbText
  0
TEXT
  5
2E2
330
227
100
AcDbEntity
  8
0
  6
Continuous
 62
     2
100
AcDbText
 10
171.3644593783
 20
55.6670164001
 30
0.0
 40
0.6666666667
  1
70
  7
TEXTSTYLE_2
100
AcDbText
  0
TEXT
  5
2E3
330
227
100
AcDbEntity
  8
0
  6
Continuous
 62
     2
100
AcDbText
 10
171.3644593783
 20
54.66701640010001
 30
0.0
 40
0.6666666667
  1
56
  7
TEXTSTYLE_2
100
AcDbText
  0
LINE
  5
2E4
330
227
100
AcDbEntity
  8
0
  6
Continuous
 62
     7
100
AcDbLine
 10
144.0002511312
 20
64.0003497335
 30
0.0
 11
144.0002511312
 21
46.6670164001
 31
0.0
  0
LINE
  5
2E5
330
227
100
AcDbEntity
  8
0
  6
Continuous
 62
     7
100
AcDbLine
 10
144.0002511312
 20
64.0003497335
 30
0.0
 11
177.3335844645
 21
64.0003497335
 31
0.0
  0
LINE
  5
2E6
330
227
100
AcDbEntity
  8
0
  6
Continuous
 62
     7
100
AcDbLine
 10
177.3335844645
 20
64.0003497335
 30
0.0
 11
177.3335844645
 21
46.6670164001
 31
0.0
  0
LINE
  5
2E7
330
227
100
AcDbEntity
  8
0
  6
Continuous
 62
     7
100
AcDbLine
 10
144.0002511312
 20
46.6670164001
 30
0.0
 11
177.3335844645
 21
46.6670164001
 31
0.0
  0
LINE
  5
2E8
330
227
100
AcDbEntity
  8
0
  6
Continuous
 62
     7
100
AcDbLine
 10
145.3335844645
 20
54.0003497335
 30
0.0
 11
176.0002511312
 21
54.0003497335
 31
0.0
  0
LINE
  5
2E9
330
227
100
AcDbEntity
  8
0
  6
Continuous
 62
     7
100
AcDbLine
 10
145.3335844645
 20
61.0003497335
 30
0.0
 11
176.0002511312
 21
61.0003497335
 31
0.0
  0
LINE
  5
2EA
330
227
100
AcDbEntity
  8
0
  6
Continuous
 62
     7
100
AcDbLine
 10
144.8091576904
 20
52.3785142378
 30
0.0
 11
144.4401369481
 21
52.0094934955
 31
0.0
  0
LINE
  5
2EB
330
227
100
AcDbEntity
  8
0
  6
Continuous
 62
     7
100
AcDbLine
 10
145.4758243570999
 20
52.3785142378
 30
0.0
 11
144.6778085667
 21
51.58049844739999
 31
0.0
  0
LINE
  5
2EC
330
227
100
AcDbEntity
  8
0
  6
Continuous
 62
     7
100
AcDbLine
 10
146.1424910238
 20
52.3785142378
 30
0.0
 11
145.3444752334
 21
51.58049844739999
 31
0.0
  0
LINE
  5
2ED
330
227
100
AcDbEntity
  8
0
  6
Continuous
 62
     7
100
AcDbLine
 10
146.8091576904
 20
52.3785142378
 30
0.0
 11
146.0111419
 21
51.58049844739999
 31
0.0
  0
LINE
  5
2EE
330
227
100
AcDbEntity
  8
0
  6
Continuous
 62
     7
100
AcDbLine
 10
147.4758243571
 20
52.3785142378
 30
0.0
 11
146.6778085667
 21
51.58049844739999
 31
0.0
  0
LINE
  5
2EF
330
227
100
AcDbEntity
  8
0
  6
Continuous
 62
     7
100
AcDbLine
 10
148.1424910238
 20
52.3785142378
 30
0.0
 11
147.3444752334
 21
51.58049844739999
 31
0.0
  0
LINE
  5
2F0
330
227
100
AcDbEntity
  8
0
  6
Continuous
 62
     7
100
AcDbLine
 10
148.8091576904
 20
52.3785142378
 30
0.0
 11
148.0111419
 21
51.58049844739999
 31
0.0
  0
LINE
  5
2F1
330
227
100
AcDbEntity
  8
0
  6
Continuous
 62
     7
100
AcDbLine
 10
149.4758243571
 20
52.3785142378
 30
0.0
 11
148.6778085667
 21
51.58049844739999
 31
0.0
  0
LINE
  5
2F2
330
227
100
AcDbEntity
  8
0
  6
Continuous
 62
     7
100
AcDbLine
 10
150.1424910238
 20
52.3785142378
 30
0.0
 11
149.3444752334
 21
51.58049844739999
 31
0.0
  0
LINE
  5
2F3
330
227
100
AcDbEntity
  8
0
  6
Continuous
 62
     7
100
AcDbLine
 10
150.5859784579
 20
52.1553350053
 30
0.0
 11
150.0111419
 21
51.58049844739999
 31
0.0
  0
ELLIPSE
  5
2F4
330
227
100
AcDbEntity
  8
0
  6
Continuous
 62
     7
100
AcDbEllipse
 10
146.1456536134
 20
50.4312974404
 30
0.0
 11
1.0473539356
 21
0.0
 31
0.0
210
0.0
220
0.0
230
1.0
 40
0.4938647983
 41
0.0
 42
6.283185307179586
  0
ELLIPSE
  5
2F5
330
227
100
AcDbEntity
  8
0
  6
Continuous
 62
     7
100
AcDbEllipse
 10
146.1456536134
 20
49.0979641071
 30
0.0
 11
1.0473539356
 21
0.0
 31
0.0
210
0.0
220
0.0
230
1.0
 40
0.4938647983
 41
0.0
 42
6.283185307179586
  0
ELLIPSE
  5
2F6
330
227
100
AcDbEntity
  8
0
  6
Continuous
 62
     7
100
AcDbEllipse
 10
146.1456536134
 20
47.76463077369999
 30
0.0
 11
1.0473539356
 21
0.0
 31
0.0
210
0.0
220
0.0
230
1.0
 40
0.4938647983
 41
0.0
 42
6.283185307179586
  0
ELLIPSE
  5
2F7
330
227
100
AcDbEntity
  8
0
  6
Continuous
 62
     7
100
AcDbEllipse
 10
157.1642891945
 20
50.4508187975
 30
0.0
 11
1.0473539356
 21
0.0
 31
0.0
210
0.0
220
0.0
230
1.0
 40
0.4938647983
 41
0.0
 42
6.283185307179586
  0
ENDBLK
  5
2F8
330
227
100
AcDbEntity
  8
0
  6
ByBlock
 62
     0
100
AcDbBlockEnd
  0
ENDSEC
  0
SECTION
  2
ENTITIES
  0
LINE
  5
13E5
330
220
100
AcDbEntity
  8
0
  6
Continuous
 62
     7
100
AcDbLine
 10
14.9621763754
 20
19.2485841424
 30
0.0
 11
14.9621763754
 21
43.24017365329999
 31
0.0
  0
LINE
  5
13E6
330
220
100
AcDbEntity
  8
0
  6
Continuous
 62
     7
100
AcDbLine
 10
19.3371763754
 20
19.2485841424
 30
0.0
 11
19.3371763754
 21
19.1235841424
 31
0.0
  0
LINE
  5
13E7
330
220
100
AcDbEntity
  8
0
  6
Continuous
 62
     7
100
AcDbLine
 10
22.3371763754
 20
19.2485841424
 30
0.0
 11
22.3371763754
 21
19.1235841424
 31
0.0
  0
LINE
  5
13E8
330
220
100
AcDbEntity
  8
0
  6
Continuous
 62
     7
100
AcDbLine
 10
30.3371763754
 20
19.2485841424
 30
0.0
 11
30.3371763754
 21
19.1235841424
 31
0.0
  0
LINE
  5
13E9
330
220
100
AcDbEntity
  8
DEFAULT_2
  6
HIDDEN
 62
     8
100
AcDbLine
 10
37.3996763754
 20
31.267372511
 30
0.0
 11
37.3996763754
 21
31.26598078
 31
0.0
  0
LINE
  5
13EA
330
220
100
AcDbEntity
  8
0
  6
Continuous
 62
     7
100
AcDbLine
 10
73.5871763754
 20
19.1235841424
 30
0.0
 11
70.5871763754
 21
19.1235841424
 31
0.0
  0
LINE
  5
13EB
330
220
100
AcDbEntity
  8
0
  6
Continuous
 62
     7
100
AcDbLine
 10
66.0871763754
 20
19.1235841424
 30
0.0
 11
53.0871763754
 21
19.1235841424
 31
0.0
  0
LINE
  5
13EC
330
220
100
AcDbEntity
  8
0
  6
Continuous
 62
     7
100
AcDbLine
 10
43.3371763754
 20
19.1235841424
 30
0.0
 11
30.3371763754
 21
19.1235841424
 31
0.0
  0
LINE
  5
13ED
330
220
100
AcDbEntity
  8
0
  6
Continuous
 62
     7
100
AcDbLine
 10
22.3371763754
 20
19.1235841424
 30
0.0
 11
19.3371763754
 21
19.1235841424
 31
0.0
  0
LINE
  5
13EE
330
220
100
AcDbEntity
  8
0
  6
Continuous
 62
     7
100
AcDbLine
 10
14.9621763754
 20
19.2485841424
 30
0.0
 11
77.9621763754
 21
19.2485841424
 31
0.0
  0
LINE
  5
175A
330
220
100
AcDbEntity
  8
0
  6
Continuous
 62
     7
100
AcDbLine
 10
43.3371763754
 20
19.2485841424
 30
0.0
 11
43.3371763754
 21
19.1235841424
 31
0.0
  0
LINE
  5
18AA
330
220
100
AcDbEntity
  8
DEFAULT_2
  6
HIDDEN
 62
     8
100
AcDbLine
 10
69.2228996801
 20
21.7485841424
 30
0.0
 11
66.5764530707
 21
21.7485841424
 31
0.0
  0
LINE
  5
18AB
330
220
100
AcDbEntity
  8
DEFAULT_1
  6
CENTER
 62
     7
100
AcDbLine
 10
57.4153919161
 20
22.4402656088
 30
0.0
 11
57.1022816359
 21
22.4459901232
 31
0.0
  0
LINE
  5
1BCA
330
220
100
AcDbEntity
  8
0
  6
Continuous
 62
     7
100
AcDbLine
 10
53.0871763754
 20
19.2485841424
 30
0.0
 11
53.0871763754
 21
19.1235841424
 31
0.0
  0
LINE
  5
1F38
330
220
100
AcDbEntity
  8
DEFAULT_2
  6
HIDDEN
 62
     8
100
AcDbLine
 10
66.48806472310001
 20
21.7851957947
 30
0.0
 11
66.0723805613
 21
22.2008799565
 31
0.0
  0
LINE
  5
2337
330
220
100
AcDbEntity
  8
DEFAULT_2
  6
HIDDEN
 62
     8
100
AcDbLine
 10
16.4852546718
 20
43.1780725851
 30
0.0
 11
16.5125631122
 21
43.1768192776
 31
0.0
  0
LWPOLYLINE
  5
241D
330
220
100
AcDbEntity
  8
DEFAULT_2
  6
HIDDEN
 62
     8
100
AcDbPolyline
 90
       56
 70
     0
 43
0.0
 10
76.0711203956
 20
42.94003049159999
 10
76.0740667819
 20
42.9438542753
 10
76.0779627563
 20
42.94879578239999
 10
76.08196200329999
 20
42.95373837
 10
76.08606703079999
 20
42.95868111989999
 10
76.09028020529999
 20
42.9636227788
 10
76.0946045492
 20
42.9685626827
 10
76.0990429415
 20
42.9734997862
 10
76.10359851310001
 20
42.9784331112
 10
76.1082744027
 20
42.9833614621
 10
76.1130738025
 20
42.98828347569999
 10
76.1179999596
 20
42.99319761979999
 10
76.1230561469
 20
42.9981021614
 10
76.12824629949999
 20
43.0029957584
 10
76.1335719276
 20
43.0078745867
 10
76.13903632439999
 20
43.0127363513
 10
76.14463787930001
 20
43.01757436169999
 10
76.15037614239999
 20
43.0223831635
 10
76.156249927
 20
43.02715685829999
 10
76.1622579994
 20
43.031889718
 10
76.16839893889999
 20
43.03657607199999
 10
76.1746711366
 20
43.0412103154
 10
76.18107279510001
 20
43.0457869171
 10
76.1876019277
 20
43.0503004287
 10
76.1942563595
 20
43.0547454926
 10
76.2010337283
 20
43.0591168505
 10
76.2079314852
 20
43.06340935189999
 10
76.2149468974
 20
43.06761796239999
 10
76.2220770501
 20
43.0717377721
 10
76.2293185022
 20
43.0757638143
 10
76.236669026
 20
43.07969202029999
 10
76.2441246188
 20
43.0835175754
 10
76.25168627810001
 20
43.08723835859999
 10
76.2593533812
 20
43.0908513595
 10
76.2671264329
 20
43.0943540532
 10
76.2750055978
 20
43.0977436638
 10
76.28299098779999
 20
43.10101731029999
 10
76.29108265720001
 20
43.1041720055
 10
76.2992805977
 20
43.10720465520001
 10
76.3075847323
 20
43.1101120576
 10
76.3159949105
 20
43.11289090239999
 10
76.3245109022
 20
43.1155377705
 10
76.33313239199999
 20
43.1180491338
 10
76.3418589728
 20
43.12042135449999
 10
76.35069013989999
 20
43.12265068579999
 10
76.3596252845
 20
43.1247332719
 10
76.36866368699999
 20
43.1266651479
 10
76.3778045103
 20
43.1284422413
 10
76.3870467927
 20
43.13006037229999
 10
76.3963894411
 20
43.13151525489999
 10
76.40583122329999
 20
43.1328024984
 10
76.4153707608
 20
43.1339176092
 10
76.425006521
 20
43.13485599249999
 10
76.4347368092
 20
43.13561295439999
 10
76.44455976100001
 20
43.13618370479999
 10
76.4530786789
 20
43.13652185419999
  0
LINE
  5
241E
330
220
100
AcDbEntity
  8
DEFAULT_2
  6
HIDDEN
 62
     8
100
AcDbLine
 10
76.4530785572
 20
43.13652180890001
 30
0.0
 11
77.9621763754
 21
43.1835416297
 31
0.0
  0
LINE
  5
241F
330
220
100
AcDbEntity
  8
DEFAULT_2
  6
HIDDEN
 62
     8
100
AcDbLine
 10
76.45311349249999
 20
43.1366473074
 30
0.0
 11
77.9621763754
 21
43.18361369399999
 31
0.0
  0
LINE
  5
2420
330
220
100
AcDbEntity
  8
DEFAULT_2
  6
HIDDEN
 62
     8
100
AcDbLine
 10
77.9621763754
 20
43.1836336067
 30
0.0
 11
76.4531228843
 21
43.1366818924
 31
0.0
  0
LINE
  5
2421
330
220
100
AcDbEntity
  8
DEFAULT_2
  6
HIDDEN
 62
     8
100
AcDbLine
 10
77.9621763754
 20
43.1836467885
 30
0.0
 11
76.45312945729999
 21
43.13670480869999
 31
0.0
  0
LINE
  5
2422
330
220
100
AcDbEntity
  8
0
  6
Continuous
 62
     7
100
AcDbLine
 10
66.0871763754
 20
19.2485841424
 30
0.0
 11
66.0871763754
 21
19.1235841424
 31
0.0
  0
LINE
  5
2423
330
220
100
AcDbEntity
  8
DEFAULT_2
  6
HIDDEN
 62
     8
100
AcDbLine
 10
67.89748925949999
 20
22.09756927
 30
0.0
 11
67.89741951149999
 21
22.0978184214
 31
0.0
  0
LINE
  5
2424
330
220
100
AcDbEntity
  8
DEFAULT_2
  6
HIDDEN
 62
     8
100
AcDbLine
 10
67.89774039560001
 20
22.1287956601
 30
0.0
 11
67.8976644903
 21
22.1290674601
 31
0.0
  0
LINE
  5
2425
330
220
100
AcDbEntity
  8
DEFAULT_2
  6
HIDDEN
 62
     8
100
AcDbLine
 10
67.8975471156
 20
22.0911230877
 30
0.0
 11
67.8974935904
 21
22.0975691938
 31
0.0
  0
LINE
  5
2426
330
220
100
AcDbEntity
  8
DEFAULT_2
  6
HIDDEN
 62
     8
100
AcDbLine
 10
67.89779037079999
 20
22.1223501955
 30
0.0
 11
67.8977469366
 21
22.128795564
 31
0.0
  0
LINE
  5
2427
330
220
100
AcDbEntity
  8
DEFAULT_2
  6
HIDDEN
 62
     8
100
AcDbLine
 10
67.8970500245
 20
22.1944160997
 30
0.0
 11
67.89702229159999
 21
22.1994527064
 31
0.0
  0
LINE
  5
2428
330
220
100
AcDbEntity
  8
DEFAULT_2
  6
HIDDEN
 62
     8
100
AcDbLine
 10
67.8992878187
 20
22.144183095
 30
0.0
 11
67.8984092013
 21
22.4396686714
 31
0.0
  0
LINE
  5
2429
330
220
100
AcDbEntity
  8
DEFAULT_2
  6
HIDDEN
 62
     8
100
AcDbLine
 10
67.8973457605
 20
22.2256389103
 30
0.0
 11
67.8973327952
 21
22.2306755205
 31
0.0
  0
LINE
  5
242A
330
220
100
AcDbEntity
  8
DEFAULT_1
  6
CENTER
 62
     7
100
AcDbLine
 10
67.89967637540001
 20
22.7559528902
 30
0.0
 11
67.89967637540001
 21
22.5645946097
 31
0.0
  0
LINE
  5
242B
330
220
100
AcDbEntity
  8
DEFAULT_1
  6
CENTER
 62
     7
100
AcDbLine
 10
67.89967637540001
 20
22.2691584504
 30
0.0
 11
67.89967637540001
 21
15.2438689665
 31
0.0
  0
LINE
  5
242C
330
220
100
AcDbEntity
  8
DEFAULT_2
  6
HIDDEN
 62
     8
100
AcDbLine
 10
67.89967637540001
 20
22.5645946097
 30
0.0
 11
67.89967637540001
 21
22.2691584504
 31
0.0
  0
LINE
  5
242D
330
220
100
AcDbEntity
  8
0
  6
Continuous
 62
     7
100
AcDbLine
 10
70.5871763754
 20
19.2485841424
 30
0.0
 11
70.5871763754
 21
19.1235841424
 31
0.0
  0
LINE
  5
242E
330
220
100
AcDbEntity
  8
DEFAULT_2
  6
HIDDEN
 62
     8
100
AcDbLine
 10
67.89779037079999
 20
22.1223501955
 30
0.0
 11
67.8975471161
 21
22.0911231503
 31
0.0
  0
LINE
  5
242F
330
220
100
AcDbEntity
  8
DEFAULT_2
  6
HIDDEN
 62
     8
100
AcDbLine
 10
67.89779037159999
 20
22.1223501992
 30
0.0
 11
67.897544358
 21
22.0911231086
 31
0.0
  0
LINE
  5
2430
330
220
100
AcDbEntity
  8
DEFAULT_2
  6
HIDDEN
 62
     8
100
AcDbLine
 10
67.89733275430001
 20
22.2306713278
 30
0.0
 11
67.89702897979999
 21
22.1994526416
 31
0.0
  0
LINE
  5
2431
330
220
100
AcDbEntity
  8
DEFAULT_2
  6
HIDDEN
 62
     8
100
AcDbLine
 10
69.3112880278
 20
21.7851957947
 30
0.0
 11
69.75609824270001
 21
22.2300060097
 31
0.0
  0
LINE
  5
2432
330
220
100
AcDbEntity
  8
0
  6
Continuous
 62
     7
100
AcDbLine
 10
73.5871763754
 20
19.2485841424
 30
0.0
 11
73.5871763754
 21
19.1235841424
 31
0.0
  0
LWPOLYLINE
  5
2433
330
220
100
AcDbEntity
  8
DEFAULT_2
  6
HIDDEN
 62
     8
100
AcDbPolyline
 90
       95
 70
     0
 43
0.0
 10
73.1909132624
 20
22.9071049915
 10
75.97383389699999
 20
42.70858181429999
 10
75.9744676352
 20
42.71282767939999
 10
75.9753137645
 20
42.7181436934
 10
75.9761846452
 20
42.7232655811
 10
75.97714461969999
 20
42.72857094079999
 10
75.9781923473
 20
42.734020303
 10
75.97933053979999
 20
42.73960098269999
 10
75.98055989729999
 20
42.7452930019
 10
75.9818809259
 20
42.7510789255
 10
75.98329220390001
 20
42.7569364018
 10
75.9847958631
 20
42.7628606053
 10
75.9863921804
 20
42.7688404026
 10
75.98808318430001
 20
42.7748724143
 10
75.989870248
 20
42.7809513121
 10
75.9917545355
 20
42.7870716692
 10
75.9937370235
 20
42.79322806809999
 10
75.9958184913
 20
42.7994150871
 10
75.9979994249
 20
42.8056270504
 10
76.0002804727
 20
42.8118593175
 10
76.00266162369999
 20
42.81810598479999
 10
76.00514425490001
 20
42.8243652033
 10
76.00772919579999
 20
42.83063382869999
 10
76.01041761489999
 20
42.83690968699999
 10
76.0132105294
 20
42.84319031849999
 10
76.0161089022
 20
42.84947323109999
 10
76.01911363959999
 20
42.8557559007
 10
76.02222559090001
 20
42.862035773
 10
76.02544554649999
 20
42.868310264
 10
76.02877423649999
 20
42.87457676209999
 10
76.03221233010001
 20
42.88083262909999
 10
76.03576043370001
 20
42.8870752015
 10
76.0394190901
 20
42.8933017922
 10
76.0431887772
 20
42.8995096919
 10
76.0470699074
 20
42.9056961707
 10
76.0510628257
 20
42.9118584798
 10
76.05516780939999
 20
42.9179938529
 10
76.0593850671
 20
42.9240995082
 10
76.06371473750001
 20
42.93017265
 10
76.06815688890001
 20
42.9362104704
 10
76.0727115181
 20
42.94221015149999
 10
76.07737855
 20
42.9481688667
 10
76.08215783680001
 20
42.9540837832
 10
76.0870491574
 20
42.9599520633
 10
76.0920522169
 20
42.9657708672
 10
76.0971666459
 20
42.9715373541
 10
76.1023920005
 20
42.977248685
 10
76.10772776180001
 20
42.98290202399999
 10
76.1131733353
 20
42.98849454119999
 10
76.11872805109999
 20
42.9940234141
 10
76.1243911637
 20
42.99948583029999
 10
76.1301618517
 20
43.0048789892
 10
76.13603921790001
 20
43.0102001042
 10
76.1420222895
 20
43.0154464052
 10
76.1481100182
 20
43.0206151404
 10
76.1543012801
 20
43.02570357879999
 10
76.1605948765
 20
43.03070901199999
 10
76.166989534
 20
43.03562875679999
 10
76.17348390460001
 20
43.0404601571
 10
76.1800765669
 20
43.0452005864
 10
76.1867660261
 20
43.04984744939999
 10
76.1935507151
 20
43.0543981851
 10
76.2004289947
 20
43.05885026779999
 10
76.2073991549
 20
43.0632012103
 10
76.21445941569999
 20
43.06744856539999
 10
76.2216079275
 20
43.0715899284
 10
76.22884277299999
 20
43.0756229387
 10
76.23616196749999
 20
43.07954528249999
 10
76.2435634607
 20
43.08335469409999
 10
76.2510451375
 20
43.0870489588
 10
76.25860481939999
 20
43.09062591399999
 10
76.266240266
 20
43.0940834517
 10
76.27394917640001
 20
43.0974195203
 10
76.2817291905
 20
43.10063212609999
 10
76.28957789100001
 20
43.1037193359
 10
76.2974928046
 20
43.10667927799999
 10
76.305471404
 20
43.1095101441
 10
76.31351110939999
 20
43.11221019149999
 10
76.32160929060001
 20
43.11477774399999
 10
76.32976326859999
 20
43.117211194
 10
76.3379703179
 20
43.11950900369999
 10
76.3462276681
 20
43.12166970689999
 10
76.3545325061
 20
43.1236919099
 10
76.36288197819999
 20
43.12557429329999
 10
76.37127319220001
 20
43.1273156131
 10
76.37970321960001
 20
43.12891470180001
 10
76.3881690979
 20
43.1303704696
 10
76.3966678326
 20
43.13168190569999
 10
76.40519639989999
 20
43.13284807899999
 10
76.41375174859999
 20
43.13386813899999
 10
76.42233080279999
 20
43.13474131689999
 10
76.430930464
 20
43.13546692609999
 10
76.43954761409999
 20
43.1360443634
 10
76.44817911689999
 20
43.1364731087
 10
76.45311452039999
 20
43.1366511095
  0
LINE
  5
2434
330
220
100
AcDbEntity
  8
0
  6
Continuous
 62
     7
100
AcDbLine
 10
77.9621763754
 20
19.2485841424
 30
0.0
 11
77.9621763754
 21
43.19436978859999
 31
0.0
  0
ARC
  5
33DB
330
220
100
AcDbEntity
  8
DEFAULT_2
  6
HIDDEN
 62
     8
100
AcDbCircle
 10
-54.5136528032
 20
-1.5065028278
 30
0.0
 40
85.0
100
AcDbArc
 50
17.9555245759
 51
30.7539922807
  0
ARC
  5
33E4
330
220
100
AcDbEntity
  8
DEFAULT_2
  6
HIDDEN
 62
     8
100
AcDbCircle
 10
16.3833768209
 20
40.6596405595
 30
0.0
 40
2.520491278499999
100
AcDbArc
 50
86.29983435280001
 51
87.06322189219999
  0
ARC
  5
33E5
330
220
100
AcDbEntity
  8
DEFAULT_2
  6
HIDDEN
 62
     8
100
AcDbCircle
 10
16.3837293402
 20
40.66576784929999
 30
0.0
 40
2.514353975
100
AcDbArc
 50
85.89842530570001
 51
87.0640951494
  0
ARC
  5
33E6
330
220
100
AcDbEntity
  8
DEFAULT_2
  6
HIDDEN
 62
     8
100
AcDbCircle
 10
16.3842996162
 20
40.6741286075
 30
0.0
 40
2.505973878999999
100
AcDbArc
 50
86.0538764954
 51
86.29951157870001
  0
ARC
  5
33E7
330
220
100
AcDbEntity
  8
DEFAULT_2
  6
HIDDEN
 62
     8
100
AcDbCircle
 10
16.3841559987
 20
40.678272017
 30
0.0
 40
2.501861855
100
AcDbArc
 50
80.57612219140001
 51
81.9341683256
  0
ARC
  5
33E8
330
220
100
AcDbEntity
  8
DEFAULT_2
  6
HIDDEN
 62
     8
100
AcDbCircle
 10
16.3843484405
 20
40.67948655539999
 30
0.0
 40
2.500632198099999
100
AcDbArc
 50
79.8734766923
 51
80.57591551100001
  0
ARC
  5
33E9
330
220
100
AcDbEntity
  8
DEFAULT_2
  6
HIDDEN
 62
     8
100
AcDbCircle
 10
16.3843326039
 20
40.6796617312
 30
0.0
 40
2.5004667127
100
AcDbArc
 50
73.5213576808
 51
74.6292940271
  0
ARC
  5
33EA
330
220
100
AcDbEntity
  8
DEFAULT_2
  6
HIDDEN
 62
     8
100
AcDbCircle
 10
16.3843685739
 20
40.6796826572
 30
0.0
 40
2.5004354732
100
AcDbArc
 50
72.181385654
 51
83.17798833350002
  0
ARC
  5
33EB
330
220
100
AcDbEntity
  8
DEFAULT_2
  6
HIDDEN
 62
     8
100
AcDbCircle
 10
16.384459387
 20
40.6800103044
 30
0.0
 40
2.500097101299999
100
AcDbArc
 50
74.834984204
 51
79.87386929839999
  0
ARC
  5
33EC
330
220
100
AcDbEntity
  8
DEFAULT_2
  6
HIDDEN
 62
     8
100
AcDbCircle
 10
16.384448676
 20
40.68013644359999
 30
0.0
 40
2.499978944099999
100
AcDbArc
 50
30.7539909849
 51
72.17995092859999
  0
ARC
  5
33ED
330
220
100
AcDbEntity
  8
DEFAULT_2
  6
HIDDEN
 62
     8
100
AcDbCircle
 10
16.3845717513
 20
40.6805271258
 30
0.0
 40
2.499568883099999
100
AcDbArc
 50
74.6293217435
 51
74.8343710547
  0
ARC
  5
33EE
330
220
100
AcDbEntity
  8
DEFAULT_2
  6
HIDDEN
 62
     8
100
AcDbCircle
 10
16.3847267235
 20
40.6809870249
 30
0.0
 40
2.499084081299999
100
AcDbArc
 50
72.1800519298
 51
73.52134866819999
  0
ARC
  5
33EF
330
220
100
AcDbEntity
  8
DEFAULT_2
  6
HIDDEN
 62
     8
100
AcDbCircle
 10
16.3846367328
 20
40.68178138909999
 30
0.0
 40
2.4983197471
100
AcDbArc
 50
81.9337916531
 51
83.1783757556
  0
ARC
  5
33F0
330
220
100
AcDbEntity
  8
DEFAULT_2
  6
HIDDEN
 62
     8
100
AcDbCircle
 10
16.3847404982
 20
40.6825158038
 30
0.0
 40
2.4975782065
100
AcDbArc
 50
83.17873816939998
 51
83.94299998479999
  0
ARC
  5
33F1
330
220
100
AcDbEntity
  8
DEFAULT_2
  6
HIDDEN
 62
     8
100
AcDbCircle
 10
16.3847600423
 20
40.6827578461
 30
0.0
 40
2.497335453099999
100
AcDbArc
 50
83.94285992470001
 51
84.36340652330001
  0
ARC
  5
33F2
330
220
100
AcDbEntity
  8
DEFAULT_2
  6
HIDDEN
 62
     8
100
AcDbCircle
 10
16.3850153275
 20
40.6850333259
 30
0.0
 40
2.4950458627
100
AcDbArc
 50
83.17813973579999
 51
85.8962376172
  0
ARC
  5
33F3
330
220
100
AcDbEntity
  8
DEFAULT_2
  6
HIDDEN
 62
     8
100
AcDbCircle
 10
16.3850642053
 20
40.6858201553
 30
0.0
 40
2.494258076199999
100
AcDbArc
 50
84.3634505554
 51
84.6396746751
  0
ARC
  5
33F4
330
220
100
AcDbEntity
  8
DEFAULT_2
  6
HIDDEN
 62
     8
100
AcDbCircle
 10
16.3852174631
 20
40.6874510326
 30
0.0
 40
2.492620013699999
100
AcDbArc
 50
84.6396800255
 51
84.93961926199999
  0
ARC
  5
33F5
330
220
100
AcDbEntity
  8
DEFAULT_2
  6
HIDDEN
 62
     8
100
AcDbCircle
 10
16.3852595212
 20
40.68786960759999
 30
0.0
 40
2.492199378
100
AcDbArc
 50
85.23943738719999
 51
85.8971708956
  0
ARC
  5
3414
330
220
100
AcDbEntity
  8
DEFAULT_2
  6
HIDDEN
 62
     8
100
AcDbCircle
 10
28.7256823916
 20
25.4650206057
 30
0.0
 40
2.499999997499999
100
AcDbArc
 50
197.9532436352
 51
268.9433575681
  0
ARC
  5
3FFB
330
220
100
AcDbEntity
  8
DEFAULT_2
  6
HIDDEN
 62
     8
100
AcDbCircle
 10
72.6957633831
 20
22.9765787997
 30
0.0
 40
0.5
100
AcDbArc
 50
273.1833989274
 51
352.0086978129
  0
ARC
  5
3FFC
330
220
100
AcDbEntity
  8
DEFAULT_2
  6
HIDDEN
 62
     8
100
AcDbCircle
 10
65.89560701939999
 20
22.0241033171
 30
0.0
 40
0.2499997982
100
AcDbArc
 50
45.0005019843
 51
89.09395392689999
  0
ARC
  5
3FFD
330
220
100
AcDbEntity
  8
DEFAULT_2
  6
HIDDEN
 62
     8
100
AcDbCircle
 10
69.9328599729
 20
22.0532283085
 30
0.0
 40
0.2499991999
100
AcDbArc
 50
92.91882120850001
 51
134.9974116801
  0
ARC
  5
3FFE
330
220
100
AcDbEntity
  8
DEFAULT_2
  6
HIDDEN
 62
     8
100
AcDbCircle
 10
69.2228996801
 20
21.8735841424
 30
0.0
 40
0.125
100
AcDbArc
 50
269.9999999997
 51
314.9999984116
  0
ARC
  5
3FFF
330
220
100
AcDbEntity
  8
DEFAULT_2
  6
HIDDEN
 62
     8
100
AcDbCircle
 10
66.5764530707
 20
21.8735841424
 30
0.0
 40
0.125
100
AcDbArc
 50
225.0000019193
 51
270.0000000004
  0
ARC
  5
400A
330
220
100
AcDbEntity
  8
DEFAULT_2
  6
HIDDEN
 62
     8
100
AcDbCircle
 10
76.4950243615
 20
42.5992481476
 30
0.0
 40
0.5465172538000001
100
AcDbArc
 50
94.45263816280002
 51
113.1956252421
  0
ARC
  5
400B
330
220
100
AcDbEntity
  8
DEFAULT_2
  6
HIDDEN
 62
     8
100
AcDbCircle
 10
76.49457975989999
 20
42.60122631979999
 30
0.0
 40
0.5445106124
100
AcDbArc
 50
93.3969345702
 51
94.42215631180001
  0
ARC
  5
400C
330
220
100
AcDbEntity
  8
DEFAULT_2
  6
HIDDEN
 62
     8
100
AcDbCircle
 10
76.48862061009999
 20
42.61352012719999
 30
0.0
 40
0.5308767531000001
100
AcDbArc
 50
113.1670486775
 51
123.4027361129999
  0
ARC
  5
400D
330
220
100
AcDbEntity
  8
DEFAULT_2
  6
HIDDEN
 62
     8
100
AcDbCircle
 10
76.4780373162
 20
42.62867328499999
 30
0.0
 40
0.5124004859000002
100
AcDbArc
 50
123.3476055792
 51
138.8988777842
  0
ARC
  5
400E
330
220
100
AcDbEntity
  8
DEFAULT_2
  6
HIDDEN
 62
     8
100
AcDbCircle
 10
76.4707792479
 20
42.63514986699999
 30
0.0
 40
0.5026735715
100
AcDbArc
 50
138.8874459304999
 51
142.6618223303
  0
ARC
  5
400F
330
220
100
AcDbEntity
  8
DEFAULT_2
  6
HIDDEN
 62
     8
100
AcDbCircle
 10
76.4707590327
 20
42.63516566879999
 30
0.0
 40
0.5026479149
100
AcDbArc
 50
138.9111506638
 51
142.6618568186
  0
ARC
  5
4010
330
220
100
AcDbEntity
  8
DEFAULT_2
  6
HIDDEN
 62
     8
100
AcDbCircle
 10
76.4686674024
 20
42.6368892901
 30
0.0
 40
0.5
100
AcDbArc
 50
91.78263438290001
 51
132.497553802
  0
ARC
  5
4011
330
220
100
AcDbEntity
  8
DEFAULT_2
  6
HIDDEN
 62
     8
100
AcDbCircle
 10
76.468672243
 20
42.6369237326
 30
0.0
 40
0.5
100
AcDbArc
 50
91.78211254799998
 51
172.0000006464
  0
ARC
  5
4012
330
220
100
AcDbEntity
  8
DEFAULT_2
  6
HIDDEN
 62
     8
100
AcDbCircle
 10
76.4686754491
 20
42.636946545
 30
0.0
 40
0.5
100
AcDbArc
 50
91.78172831149998
 51
171.7754156923
  0
ARC
  5
4013
330
220
100
AcDbEntity
  8
DEFAULT_2
  6
HIDDEN
 62
     8
100
AcDbCircle
 10
76.46806767200001
 20
42.6370104152
 30
0.0
 40
0.4993892509000001
100
AcDbArc
 50
142.6428508273
 51
172.0012745174
  0
ARC
  5
4014
330
220
100
AcDbEntity
  8
0
  6
Continuous
 62
     7
100
AcDbCircle
 10
18.1104065198
 20
124.5681002626
 30
0.0
 40
81.51383802499999
100
AcDbArc
 50
267.7865699972
 51
268.0205134279
  0
SPLINE
  5
40D5
330
220
100
AcDbEntity
  8
DEFAULT_2
  6
HIDDEN
 62
     8
100
AcDbSpline
210
0.0
220
0.0
230
1.0
 70
     8
 71
     3
 72
    11
 73
     7
 74
     0
 42
0.0000001
 43
0.0000000001
 40
0.0
 40
0.0
 40
0.0
 40
0.0
 40
0.4153931759000001
 40
0.7276656445000001
 40
0.9248178499999999
 40
1.0
 40
1.0
 40
1.0
 40
1.0
 10
67.89910524479999
 20
22.195983906
 30
0.0
 10
67.89914559659999
 20
22.206116218
 30
0.0
 10
67.8992652412
 20
22.2238623298
 30
0.0
 10
67.89924741739999
 20
22.2464305018
 30
0.0
 10
67.89960737840001
 20
22.2606715035
 30
0.0
 10
67.89939953050001
 20
22.2673348684
 30
0.0
 10
67.89959185339999
 20
22.2691586208
 30
0.0
  0
SPLINE
  5
40D6
330
220
100
AcDbEntity
  8
DEFAULT_2
  6
HIDDEN
 62
     8
100
AcDbSpline
210
0.0
220
0.0
230
1.0
 70
     8
 71
     3
 72
    16
 73
    12
 74
     0
 42
0.0000001
 43
0.0000000001
 40
0.0
 40
0.0
 40
0.0
 40
0.0
 40
0.0111415146
 40
0.0412208876
 40
0.0856537834
 40
0.1399741752
 40
0.2626710395
 40
0.3970893008
 40
0.543356877
 40
0.6991529682
 40
1.0
 40
1.0
 40
1.0
 40
1.0
 10
72.73047101479999
 20
22.3525432441
 30
0.0
 10
72.7305340356
 20
22.3527535536
 30
0.0
 10
72.73006148819999
 20
22.3535454078
 30
0.0
 10
72.72980558810001
 20
22.3551561837
 30
0.0
 10
72.72886867869999
 20
22.3575610679
 30
0.0
 10
72.7273062964
 20
22.3616165158
 30
0.0
 10
72.7243198284
 20
22.3670267974
 30
0.0
 10
72.719623931
 20
22.3734438102
 30
0.0
 10
72.71422678260001
 20
22.3801427246
 30
0.0
 10
72.7068521006
 20
22.3894545853
 30
0.0
 10
72.70141975299999
 20
22.3966419077
 30
0.0
 10
72.69812176960001
 20
22.4015682108
 30
0.0
  0
LINE
  5
40D7
330
220
100
AcDbEntity
  8
DEFAULT_2
  6
HIDDEN
 62
     8
100
AcDbLine
 10
67.8993634336
 20
22.1441827571
 30
0.0
 11
67.8990775444
 21
22.1075954591
 31
0.0
  0
SPLINE
  5
40D8
330
220
100
AcDbEntity
  8
DEFAULT_2
  6
HIDDEN
 62
     8
100
AcDbSpline
210
0.0
220
0.0
230
1.0
 70
     8
 71
     3
 72
     9
 73
     5
 74
     0
 42
0.0000001
 43
0.0000000001
 40
0.0
 40
0.0
 40
0.0
 40
0.0
 40
0.5367146072
 40
1.0
 40
1.0
 40
1.0
 40
1.0
 10
76.09205525909999
 20
42.9656780197
 30
0.0
 10
76.1413819678
 20
43.0222167479
 30
0.0
 10
76.2586406674
 20
43.1075684526
 30
0.0
 10
76.3976632832
 20
43.14094250479999
 30
0.0
 10
76.46231589119999
 20
43.1447802268
 30
0.0
  0
SPLINE
  5
576A
330
220
100
AcDbEntity
  8
DEFAULT_2
  6
HIDDEN
 62
     8
100
AcDbSpline
210
0.0
220
0.0
230
1.0
 70
     8
 71
     3
 72
    13
 73
     9
 74
     0
 42
0.0000001
 43
0.0000000001
 40
0.0
 40
0.0
 40
0.0
 40
0.0
 40
0.0257582894
 40
0.0837296203
 40
0.1727071237
 40
0.2909878782
 40
0.6054209783
 40
1.0
 40
1.0
 40
1.0
 40
1.0
 10
67.89729924159999
 20
22.2256393479
 30
0.0
 10
67.8970844177
 20
22.2236235776
 30
0.0
 10
67.89701864209999
 20
22.2170221503
 30
0.0
 10
67.8965853755
 20
22.2034457589
 30
0.0
 10
67.89626211579999
 20
22.1825694615
 30
0.0
 10
67.8955752783
 20
22.1415207599
 30
0.0
 10
67.89472374289999
 20
22.0764160127
 30
0.0
 10
67.8940538246
 20
22.0206212464
 30
0.0
 10
67.8937039833
 20
21.9895697304
 30
0.0
  0
SPLINE
  5
576B
330
220
100
AcDbEntity
  8
DEFAULT_2
  6
HIDDEN
 62
     8
100
AcDbSpline
210
0.0
220
0.0
230
1.0
 70
     8
 71
     3
 72
    18
 73
    14
 74
     0
 42
0.0000001
 43
0.0000000001
 40
0.0
 40
0.0
 40
0.0
 40
0.0
 40
0.0043685417
 40
0.0170862225
 40
0.0381206346
 40
0.067408678
 40
0.1048837259
 40
0.1504483084
 40
0.2650727138
 40
0.4096474826
 40
0.5823780695
 40
0.7803260654999999
 40
1.0
 40
1.0
 40
1.0
 40
1.0
 10
67.89766397850001
 20
22.129063082
 30
0.0
 10
67.8974321357
 20
22.1290409653
 30
0.0
 10
67.8976931803
 20
22.1276541683
 30
0.0
 10
67.8972343903
 20
22.1260809278
 30
0.0
 10
67.89728433260001
 20
22.1224660039
 30
0.0
 10
67.897047446
 20
22.117900592
 30
0.0
 10
67.89691617779999
 20
22.1118710145
 30
0.0
 10
67.89665217220001
 20
22.1013565491
 30
0.0
 10
67.89634321289999
 20
22.085098883
 30
0.0
 10
67.8959523045
 20
22.062080755
 30
0.0
 10
67.89554783639999
 20
22.0346126266
 30
0.0
 10
67.8951279706
 20
22.00314325969999
 30
0.0
 10
67.89485722970001
 20
21.9808805147
 30
0.0
 10
67.8947202657
 20
21.9691700799
 30
0.0
  0
SPLINE
  5
576C
330
220
100
AcDbEntity
  8
DEFAULT_2
  6
HIDDEN
 62
     8
100
AcDbSpline
210
0.0
220
0.0
230
1.0
 70
     8
 71
     3
 72
    18
 73
    14
 74
     0
 42
0.0000001
 43
0.0000000001
 40
0.0
 40
0.0
 40
0.0
 40
0.0
 40
0.004368832
 40
0.0170865933
 40
0.0381210385
 40
0.0674090913
 40
0.1048841335
 40
0.1504486994
 40
0.2650730505999999
 40
0.4096477493
 40
0.5823782568000001
 40
0.7803261639
 40
1.0
 40
1.0
 40
1.0
 40
1.0
 10
67.8974190401
 20
22.0978144081
 30
0.0
 10
67.8972064987
 20
22.097794182
 30
0.0
 10
67.89744527359999
 20
22.0965229057
 30
0.0
 10
67.8970248941
 20
22.0950807831
 30
0.0
 10
67.8970703307
 20
22.0917670893
 30
0.0
 10
67.8968531608
 20
22.0875821333
 30
0.0
 10
67.8967327334
 20
22.0820550186
 30
0.0
 10
67.8964907221
 20
22.0724167597
 30
0.0
 10
67.89620757939999
 20
22.0575138974
 30
0.0
 10
67.8958493904
 20
22.0364139456
 30
0.0
 10
67.8954787246
 20
22.0112348273
 30
0.0
 10
67.89509391760001
 20
21.9823879075
 30
0.0
 10
67.8948457866
 20
21.9619803911
 30
0.0
 10
67.8947202658
 20
21.9512458258
 30
0.0
  0
SPLINE
  5
576D
330
220
100
AcDbEntity
  8
DEFAULT_2
  6
HIDDEN
 62
     8
100
AcDbSpline
210
0.0
220
0.0
230
1.0
 70
     8
 71
     3
 72
    13
 73
     9
 74
     0
 42
0.0000001
 43
0.0000000001
 40
0.0
 40
0.0
 40
0.0
 40
0.0
 40
0.0257588791
 40
0.0837303443
 40
0.1727078257
 40
0.2909884814
 40
0.6054213006
 40
1.0
 40
1.0
 40
1.0
 40
1.0
 10
67.8970035138
 20
22.1944165398
 30
0.0
 10
67.8968026525
 20
22.1925691302
 30
0.0
 10
67.8967430821
 20
22.1865172273
 30
0.0
 10
67.89634133869999
 20
22.1740726726
 30
0.0
 10
67.8960455679
 20
22.1549358165
 30
0.0
 10
67.8954161341
 20
22.117307961
 30
0.0
 10
67.8946380271
 20
22.0576284936
 30
0.0
 10
67.8940241809
 20
22.0064833217
 30
0.0
 10
67.8937039847
 20
21.9780194277
 30
0.0
  0
SPLINE
  5
576E
330
220
100
AcDbEntity
  8
DEFAULT_2
  6
HIDDEN
 62
     8
100
AcDbSpline
210
0.0
220
0.0
230
1.0
 70
     8
 71
     3
 72
    13
 73
     9
 74
     0
 42
0.0000001
 43
0.0000000001
 40
0.0
 40
0.0
 40
0.0
 40
0.0
 40
0.2685711514
 40
0.5574928863000001
 40
0.6942423859
 40
0.8176681344
 40
0.9216330231
 40
1.0
 40
1.0
 40
1.0
 40
1.0
 10
28.6795802681
 20
22.9654456797
 30
0.0
 10
32.01165752730001
 20
22.9038627641
 30
0.0
 10
38.9282437581
 20
22.7732551496
 30
0.0
 10
47.54140205299999
 20
22.6094180214
 30
0.0
 10
54.3538283009
 20
22.4810368183
 30
0.0
 10
58.8715909493
 20
22.3970529514
 30
0.0
 10
62.6650560099
 20
22.3284409554
 30
0.0
 10
64.92724168869999
 20
22.2894612448
 30
0.0
 10
65.8995602248
 20
22.2740719537
 30
0.0
  0
SPLINE
  5
576F
330
220
100
AcDbEntity
  8
DEFAULT_2
  6
HIDDEN
 62
     8
100
AcDbSpline
210
0.0
220
0.0
230
1.0
 70
     8
 71
     3
 72
     9
 73
     5
 74
     0
 42
0.0000001
 43
0.0000000001
 40
0.0
 40
0.0
 40
0.0
 40
0.0
 40
0.2532699751
 40
1.0
 40
1.0
 40
1.0
 40
1.0
 10
69.92012965829999
 20
22.3029042187
 30
0.0
 10
70.156952441
 20
22.3149933819
 30
0.0
 10
71.09167500229999
 20
22.3692765131
 30
0.0
 10
72.02545934069999
 20
22.4385574481
 30
0.0
 10
72.7235294619
 20
22.4773470446
 30
0.0
  0
SPLINE
  5
5770
330
220
100
AcDbEntity
  8
DEFAULT_2
  6
HIDDEN
 62
     8
100
AcDbSpline
210
0.0
220
0.0
230
1.0
 70
     8
 71
     3
 72
    11
 73
     7
 74
     0
 42
0.0000001
 43
0.0000000001
 40
0.0
 40
0.0
 40
0.0
 40
0.0
 40
0.2493733022
 40
0.4991879206000001
 40
0.7494506979000001
 40
1.0
 40
1.0
 40
1.0
 40
1.0
 10
26.3465158556
 20
24.6971824877
 30
0.0
 10
26.4257599088
 20
24.45264630940001
 30
0.0
 10
26.662147773
 20
23.9846495912
 30
0.0
 10
27.2132083415
 20
23.4261253466
 30
0.0
 10
27.9093477764
 20
23.0614258146
 30
0.0
 10
28.4278277758
 20
22.9721178625
 30
0.0
 10
28.6860646073
 20
22.9681190186
 30
0.0
  0
LINE
  5
5771
330
220
100
AcDbEntity
  8
DEFAULT_2
  6
HIDDEN
 62
     8
100
AcDbLine
 10
16.5567567575
 20
43.1741613306
 30
0.0
 11
16.5635681501
 21
43.17368210509999
 31
0.0
  0
LINE
  5
5772
330
220
100
AcDbEntity
  8
DEFAULT_2
  6
HIDDEN
 62
     8
100
AcDbLine
 10
16.5920919458
 20
43.1714714452
 30
0.0
 11
16.5973519171
 21
43.17102778379999
 31
0.0
  0
LINE
  5
5773
330
220
100
AcDbEntity
  8
DEFAULT_2
  6
HIDDEN
 62
     8
100
AcDbLine
 10
16.5973519171
 20
43.17102778379999
 30
0.0
 11
16.6050803241
 21
43.1703555525
 31
0.0
  0
SPLINE
  5
5774
330
220
100
AcDbEntity
  8
DEFAULT_2
  6
HIDDEN
 62
     8
100
AcDbSpline
210
0.0
220
0.0
230
1.0
 70
     8
 71
     3
 72
    13
 73
     9
 74
     0
 42
0.0000001
 43
0.0000000001
 40
0.0
 40
0.0
 40
0.0
 40
0.0
 40
0.0248847198
 40
0.0842141184
 40
0.1757192467
 40
0.2971302873
 40
0.6157664491000001
 40
1.0
 40
1.0
 40
1.0
 40
1.0
 10
67.8984042381
 20
22.43967854760001
 30
0.0
 10
67.8986378621
 20
22.4441323889
 30
0.0
 10
67.8987025484
 20
22.4592323804
 30
0.0
 10
67.8993206759
 20
22.4907149857
 30
0.0
 10
67.8998640721
 20
22.5395079714
 30
0.0
 10
67.90105870720001
 20
22.6347664527
 30
0.0
 10
67.9026835232
 20
22.7824903371
 30
0.0
 10
67.90403789369999
 20
22.9084545529
 30
0.0
 10
67.90475519479999
 20
22.9773150832
 30
0.0
  0
SPLINE
  5
5775
330
220
100
AcDbEntity
  8
DEFAULT_2
  6
HIDDEN
 62
     8
100
AcDbSpline
210
0.0
220
0.0
230
1.0
 70
     8
 71
     3
 72
    11
 73
     7
 74
     0
 42
0.0000001
 43
0.0000000001
 40
0.0
 40
0.0
 40
0.0
 40
0.0
 40
0.4153890386
 40
0.7276594390000001
 40
0.9248121762999998
 40
1.0
 40
1.0
 40
1.0
 40
1.0
 10
67.89910524479999
 20
22.1959838394
 30
0.0
 10
67.89916191029999
 20
22.2061161394
 30
0.0
 10
67.8993209324
 20
22.2238607634
 30
0.0
 10
67.89932166779999
 20
22.2464335644
 30
0.0
 10
67.8997692817
 20
22.2606659618
 30
0.0
 10
67.89952770939999
 20
22.2673390357
 30
0.0
 10
67.8997610645
 20
22.2691581632
 30
0.0
  0
SPLINE
  5
5776
330
220
100
AcDbEntity
  8
DEFAULT_2
  6
HIDDEN
 62
     8
100
AcDbSpline
210
0.0
220
0.0
230
1.0
 70
     8
 71
     3
 72
    11
 73
     7
 74
     0
 42
0.0000001
 43
0.0000000001
 40
0.0
 40
0.0
 40
0.0
 40
0.0
 40
0.075231274
 40
0.2723742544
 40
0.5846290065
 40
1.0
 40
1.0
 40
1.0
 40
1.0
 10
67.8993628189
 20
22.1441827913
 30
0.0
 10
67.89909827229999
 20
22.1433041741
 30
0.0
 10
67.89943277439999
 20
22.1399002602
 30
0.0
 10
67.89903224639999
 20
22.1328425447
 30
0.0
 10
67.8991887978
 20
22.1215238994
 30
0.0
 10
67.8990930711
 20
22.1126616813
 30
0.0
 10
67.8990775445
 20
22.1075955123
 30
0.0
  0
SPLINE
  5
5777
330
220
100
AcDbEntity
  8
DEFAULT_2
  6
HIDDEN
 62
     8
100
AcDbSpline
210
0.0
220
0.0
230
1.0
 70
     8
 71
     3
 72
    13
 73
     9
 74
     0
 42
0.0000001
 43
0.0000000001
 40
0.0
 40
0.0
 40
0.0
 40
0.0
 40
0.3844541251
 40
0.7028378523000001
 40
0.824704801
 40
0.9166398079
 40
0.9756185373999999
 40
1.0
 40
1.0
 40
1.0
 40
1.0
 10
67.9047511565
 20
22.9947117621
 30
0.0
 10
67.9041774541
 20
22.939590703
 30
0.0
 10
67.90309571520001
 20
22.8388220598
 30
0.0
 10
67.90179606489999
 20
22.7205799315
 30
0.0
 10
67.9008388679
 20
22.6442810424
 30
0.0
 10
67.9004081751
 20
22.6051690001
 30
0.0
 10
67.89990986779999
 20
22.5800435717
 30
0.0
 10
67.89986346229999
 20
22.5680854893
 30
0.0
 10
67.89967637550001
 20
22.5645946207
 30
0.0
  0
SPLINE
  5
5778
330
220
100
AcDbEntity
  8
DEFAULT_2
  6
HIDDEN
 62
     8
100
AcDbSpline
210
0.0
220
0.0
230
1.0
 70
     8
 71
     3
 72
    16
 73
    12
 74
     0
 42
0.0000001
 43
0.0000000001
 40
0.0
 40
0.0
 40
0.0
 40
0.0
 40
0.0111494116
 40
0.0412262952
 40
0.0856469041
 40
0.1399477016
 40
0.2626100099
 40
0.3970385667
 40
0.5433377888000001
 40
0.6991500420000002
 40
1.0
 40
1.0
 40
1.0
 40
1.0
 10
72.73044850229999
 20
22.3525420103
 30
0.0
 10
72.730512082
 20
22.3527522902
 30
0.0
 10
72.7300425497
 20
22.3535456171
 30
0.0
 10
72.7297900948
 20
22.355156601
 30
0.0
 10
72.7288590543
 20
22.3575627314
 30
0.0
 10
72.7273041184
 20
22.3616192061
 30
0.0
 10
72.7243219217
 20
22.3670306236
 30
0.0
 10
72.71962510600001
 20
22.3734462174
 30
0.0
 10
72.71422569409999
 20
22.3801436085
 30
0.0
 10
72.70685050149999
 20
22.3894547952
 30
0.0
 10
72.70141944229999
 20
22.3966423716
 30
0.0
 10
72.69812176960001
 20
22.4015682108
 30
0.0
  0
SPLINE
  5
5779
330
220
100
AcDbEntity
  8
0
  6
Continuous
 62
     7
100
AcDbSpline
210
0.0
220
0.0
230
1.0
 70
     8
 71
     3
 72
    22
 73
    18
 74
     0
 42
0.0000001
 43
0.0000000001
 40
0.0
 40
0.0
 40
0.0
 40
0.0
 40
0.1250000304
 40
0.2500000608
 40
0.3750000912
 40
0.5000001216
 40
0.6250001520000001
 40
0.6875001672
 40
0.7500001824
 40
0.8125001976
 40
0.8750002128
 40
0.9062502204000001
 40
0.9218752242
 40
0.937500228
 40
0.9531252312999999
 40
0.9687502179
 40
1.0
 40
1.0
 40
1.0
 40
1.0
 10
47.39968350109999
 20
43.1816890221
 30
0.0
 10
48.6731241983
 20
43.1816890221
 30
0.0
 10
51.2200055926
 20
43.1816890259
 30
0.0
 10
55.0403276842
 20
43.1816890171
 30
0.0
 10
58.8606497758
 20
43.18168899229999
 30
0.0
 10
62.6809718675
 20
43.1816891471
 30
0.0
 10
65.86457360999999
 20
43.1816888625
 30
0.0
 10
68.4114550054
 20
43.18168909439999
 30
0.0
 10
70.3216160482
 20
43.181689773
 30
0.0
 10
72.231777105
 20
43.18168587779999
 30
0.0
 10
73.82357794239999
 20
43.1816942339
 30
0.0
 10
74.9378386134
 20
43.18168514279999
 30
0.0
 10
75.5745588641
 20
43.18168583899999
 30
0.0
 10
76.05209942020001
 20
43.18167976509999
 30
0.0
 10
76.529638374
 20
43.1817402792
 30
0.0
 10
77.1663618539
 20
43.1814071374
 30
0.0
 10
77.6438702208
 20
43.18863132609999
 30
0.0
 10
77.9621763754
 20
43.19436978859999
 30
0.0
  0
SPLINE
  5
577A
330
220
100
AcDbEntity
  8
0
  6
Continuous
 62
     7
100
AcDbSpline
210
0.0
220
0.0
230
1.0
 70
     8
 71
     3
 72
    25
 73
    21
 74
     0
 42
0.0000001
 43
0.0000000001
 40
0.0
 40
0.0
 40
0.0
 40
0.0
 40
0.0156249844
 40
0.0312499647
 40
0.0468749528
 40
0.062499931
 40
0.0781248895
 40
0.093749879
 40
0.1093748811
 40
0.1249998832
 40
0.1562498874
 40
0.1874998915
 40
0.2499998999
 40
0.3124999082
 40
0.3749999166
 40
0.4999999333
 40
0.6249999499000002
 40
0.7499999666
 40
0.8749999833
 40
1.0
 40
1.0
 40
1.0
 40
1.0
 10
14.9621763754
 20
43.24017365329999
 30
0.0
 10
15.1309996542
 20
43.23365298859999
 30
0.0
 10
15.468684489
 20
43.22156082409999
 30
0.0
 10
15.97533122849999
 20
43.20715130449999
 30
0.0
 10
16.4820518293
 20
43.1957461617
 30
0.0
 10
16.9888135699
 20
43.1863143394
 30
0.0
 10
17.4956463557
 20
43.18125183350001
 30
0.0
 10
18.0024972588
 20
43.181796503
 30
0.0
 10
18.5093442559
 20
43.1816617549
 30
0.0
 10
19.1851419619
 20
43.1816973032
 30
0.0
 10
20.029888571
 20
43.18168675329999
 30
0.0
 10
21.3814834383
 20
43.18169147819999
 30
0.0
 10
23.0709769219
 20
43.1816869842
 30
0.0
 10
25.0983691453
 20
43.1816898878
 30
0.0
 10
27.8015587614
 20
43.1816885212
 30
0.0
 10
31.1805457868
 20
43.1816892441
 30
0.0
 10
35.235330215
 20
43.18168897899999
 30
0.0
 10
39.2901146438
 20
43.1816890189
 30
0.0
 10
43.3448990724
 20
43.1816890254
 30
0.0
 10
46.0480886915
 20
43.1816890221
 30
0.0
 10
47.39968350109999
 20
43.1816890221
 30
0.0
  0
LINE
  5
577B
330
220
100
AcDbEntity
  8
0
  6
Continuous
 62
     7
100
AcDbLine
 10
77.9621763754
 20
43.06933701819999
 30
0.0
 11
77.78461576319999
 21
43.0662096658
 31
0.0
  0
SPLINE
  5
577C
330
220
100
AcDbEntity
  8
0
  6
Continuous
 62
     7
100
AcDbSpline
210
0.0
220
0.0
230
1.0
 70
     8
 71
     3
 72
    21
 73
    17
 74
     0
 42
0.0000001
 43
0.0000000001
 40
0.0
 40
0.0
 40
0.0
 40
0.0
 40
0.0312498479
 40
0.0468748338
 40
0.0624998365
 40
0.093749842
 40
0.1249998474
 40
0.1874998583
 40
0.2499998692
 40
0.3124998801
 40
0.374999891
 40
0.4999999128
 40
0.6249999346
 40
0.7499999564000001
 40
0.8749999781999999
 40
1.0
 40
1.0
 40
1.0
 40
1.0
 10
77.78461576319999
 20
43.0662096658
 30
0.0
 10
77.52631390419999
 20
43.06182472689999
 30
0.0
 10
77.13882165930001
 20
43.0568079954
 30
0.0
 10
76.6221398227
 20
43.0565683077
 30
0.0
 10
76.1054598255
 20
43.0566692689
 30
0.0
 10
75.45960857819999
 20
43.0566080502
 30
0.0
 10
74.42624718430001
 20
43.05663926949999
 30
0.0
 10
73.13454523529999
 20
43.05662518600001
 30
0.0
 10
71.5845029852
 20
43.0566282281
 30
0.0
 10
70.03446071129999
 20
43.05662871729999
 30
0.0
 10
67.96773768779999
 20
43.0566287289
 30
0.0
 10
65.3843339055
 20
43.0566283827
 30
0.0
 10
62.284249368
 20
43.0566286402
 30
0.0
 10
59.1841648301
 20
43.0566285174
 30
0.0
 10
56.08408029239999
 20
43.0566285217
 30
0.0
 10
54.01735726720001
 20
43.0566285312
 30
0.0
 10
52.9839957546
 20
43.0566285339
 30
0.0
  0
LINE
  5
577D
330
220
100
AcDbEntity
  8
0
  6
Continuous
 62
     7
100
AcDbLine
 10
52.9839957546
 20
43.0566285339
 30
0.0
 11
47.3996793991
 21
43.0566285342
 31
0.0
  0
LINE
  5
577E
330
220
100
AcDbEntity
  8
0
  6
Continuous
 62
     7
100
AcDbLine
 10
47.3996793991
 20
43.0566285342
 30
0.0
 11
41.74715102919999
 21
43.0566285338
 31
0.0
  0
SPLINE
  5
577F
330
220
100
AcDbEntity
  8
0
  6
Continuous
 62
     7
100
AcDbSpline
210
0.0
220
0.0
230
1.0
 70
     8
 71
     3
 72
    24
 73
    20
 74
     0
 42
0.0000001
 43
0.0000000001
 40
0.0
 40
0.0
 40
0.0
 40
0.0
 40
0.1250000268
 40
0.2500000537
 40
0.3750000804999999
 40
0.5000001074
 40
0.6250001342
 40
0.6875001477
 40
0.7500001611
 40
0.8125001745
 40
0.8437501812
 40
0.8750001879
 40
0.8906251913
 40
0.9062501948999999
 40
0.9218751611
 40
0.9375001445
 40
0.9531251339
 40
0.9687501289
 40
1.0
 40
1.0
 40
1.0
 40
1.0
 10
41.74715102919999
 20
43.0566285338
 30
0.0
 10
40.64494629699999
 20
43.05662853109999
 30
0.0
 10
38.4405368326
 20
43.056628524
 30
0.0
 10
35.13392263610001
 20
43.0566285095
 30
0.0
 10
31.8273084394
 20
43.0566286981
 30
0.0
 10
28.5206942431
 20
43.05662814589999
 30
0.0
 10
25.7651824118
 20
43.05662932439999
 30
0.0
 10
23.5607729491
 20
43.05662784259999
 30
0.0
 10
21.9074658456
 20
43.05662856109999
 30
0.0
 10
20.5297099466
 20
43.0566258914
 30
0.0
 10
19.4275051813
 20
43.0566363632
 30
0.0
 10
18.7386273078
 20
43.0565887884
 30
0.0
 10
18.1875247663
 20
43.05669373649999
 30
0.0
 10
17.7741988453
 20
43.056388855
 30
0.0
 10
17.3608705942
 20
43.0573683364
 30
0.0
 10
16.9475658779
 20
43.06210251439999
 30
0.0
 10
16.5343092346
 20
43.06977899319999
 30
0.0
 10
15.9833365728
 20
43.08166655279999
 30
0.0
 10
15.5701674155
 20
43.0934077179
 30
0.0
 10
15.2947811453
 20
43.1029049746
 30
0.0
  0
SPLINE
  5
5780
330
220
100
AcDbEntity
  8
0
  6
Continuous
 62
     7
100
AcDbSpline
210
0.0
220
0.0
230
1.0
 70
     8
 71
     3
 72
    33
 73
    29
 74
     0
 42
0.0000001
 43
0.0000000001
 40
0.0
 40
0.0
 40
0.0
 40
0.0
 40
0.1250000013
 40
0.2500000026
 40
0.3750000039
 40
0.4375000045000001
 40
0.5000000052
 40
0.5625000058000001
 40
0.6250000064
 40
0.6875000070999999
 40
0.7500000077
 40
0.8125000083999999
 40
0.8437500087
 40
0.875000009
 40
0.8906250092
 40
0.9062500093
 40
0.9218750095
 40
0.9375000097
 40
0.9453125097
 40
0.9531250098000001
 40
0.9609375098999999
 40
0.9648437597
 40
0.9687500087
 40
0.9726562579999999
 40
0.9765625074999999
 40
0.9843750044
 40
0.9921875010999999
 40
1.0
 40
1.0
 40
1.0
 40
1.0
 10
47.3996832274
 20
43.0566285342
 30
0.0
 10
48.6706193168
 20
43.0566285342
 30
0.0
 10
51.2124914956
 20
43.0566285388
 30
0.0
 10
55.02529976379999
 20
43.0566285261
 30
0.0
 10
58.20263998739999
 20
43.0566285178
 30
0.0
 10
60.74451216619999
 20
43.0566285656
 30
0.0
 10
62.65091630029999
 20
43.05662858389999
 30
0.0
 10
64.5573204345
 20
43.05662855729999
 30
0.0
 10
66.46372456859999
 20
43.0566283895
 30
0.0
 10
68.3701287027
 20
43.0566287081
 30
0.0
 10
70.2765328368
 20
43.05662888799999
 30
0.0
 10
71.8652029486
 20
43.05662730249999
 30
0.0
 10
73.136139038
 20
43.056628187
 30
0.0
 10
73.9304740939
 20
43.0566303219
 30
0.0
 10
74.56594213859999
 20
43.0566290372
 30
0.0
 10
75.0425431722
 20
43.0566252811
 30
0.0
 10
75.5191442054
 20
43.0566236834
 30
0.0
 10
75.91631173420001
 20
43.05662527439999
 30
0.0
 10
76.23404575470001
 20
43.0566360463
 30
0.0
 10
76.4723462769
 20
43.05661915589999
 30
0.0
 10
76.6709300202
 20
43.05661462929999
 30
0.0
 10
76.8297970564
 20
43.0566312942
 30
0.0
 10
76.94894708699999
 20
43.0569366393
 30
0.0
 10
77.06809559689999
 20
43.05760221659999
 30
0.0
 10
77.2269580426
 20
43.05881053399999
 30
0.0
 10
77.42553159349999
 20
43.0608547861
 30
0.0
 10
77.6638107886
 20
43.0640787229
 30
0.0
 10
77.82265377029999
 20
43.0668527682
 30
0.0
 10
77.9020747559
 20
43.0682623754
 30
0.0
  0
LINE
  5
5781
330
220
100
AcDbEntity
  8
0
  6
Continuous
 62
     7
100
AcDbLine
 10
77.9020747559
 20
43.0682623754
 30
0.0
 11
77.9621763754
 21
43.0693370233
 31
0.0
  0
SPLINE
  5
5782
330
220
100
AcDbEntity
  8
0
  6
Continuous
 62
     7
100
AcDbSpline
210
0.0
220
0.0
230
1.0
 70
     8
 71
     3
 72
    40
 73
    36
 74
     0
 42
0.0000001
 43
0.0000000001
 40
0.0
 40
0.0
 40
0.0
 40
0.0
 40
0.1250000055
 40
0.250000011
 40
0.3750000165
 40
0.4375000192
 40
0.5000000219
 40
0.5625000247
 40
0.6250000274000001
 40
0.6875000302
 40
0.7187500315000001
 40
0.7500000329000001
 40
0.7812500343000001
 40
0.8125000356999999
 40
0.843750037
 40
0.8593750376999999
 40
0.8750000383999999
 40
0.8906250391
 40
0.8984375393999998
 40
0.9062500398
 40
0.9140625401000001
 40
0.9179687898999999
 40
0.9218750385999999
 40
0.9257812878999999
 40
0.9296875374999999
 40
0.9375000331
 40
0.9414062829999998
 40
0.9453125328
 40
0.9492187829999998
 40
0.9531250331
 40
0.9609375317000001
 40
0.9687500302
 40
0.9765625281999998
 40
0.9843750255999999
 40
1.0
 40
1.0
 40
1.0
 40
1.0
 10
47.3996832274
 20
43.0566285342
 30
0.0
 10
46.0480884621
 20
43.0566285342
 30
0.0
 10
43.34489893149999
 20
43.0566285401
 30
0.0
 10
39.2901146356
 20
43.0566285213
 30
0.0
 10
35.9111277223
 20
43.0566285261
 30
0.0
 10
33.2079381917
 20
43.05662857479999
 30
0.0
 10
31.1805460437
 20
43.05662858659999
 30
0.0
 10
29.1531538958
 20
43.0566284834
 30
0.0
 10
27.12576174780001
 20
43.0566284379
 30
0.0
 10
25.4362682912
 20
43.0566289013
 30
0.0
 10
24.0846735259
 20
43.0566285228
 30
0.0
 10
23.0709774519
 20
43.05662780939999
 30
0.0
 10
22.057281378
 20
43.05662751129999
 30
0.0
 10
21.043585304
 20
43.0566290585
 30
0.0
 10
20.1988385758
 20
43.05663066109999
 30
0.0
 10
19.5230411929
 20
43.0566258837
 30
0.0
 10
19.0161931566
 20
43.0566236552
 30
0.0
 10
18.5938197903
 20
43.05662495079999
 30
0.0
 10
18.2559211035
 20
43.05663554489999
 30
0.0
 10
18.0024970716
 20
43.05662103289999
 30
0.0
 10
17.7913104373
 20
43.0566074434
 30
0.0
 10
17.6223610223
 20
43.05665056489999
 30
0.0
 10
17.4956495237
 20
43.0570799952
 30
0.0
 10
17.3689400029
 20
43.05789203229999
 30
0.0
 10
17.1999969618
 20
43.05935391659999
 30
0.0
 10
17.0310586983
 20
43.06133320949999
 30
0.0
 10
16.8621281407
 20
43.0638592418
 30
0.0
 10
16.735435811
 20
43.0660984751
 30
0.0
 10
16.6087469033
 20
43.06851793209999
 30
0.0
 10
16.43983024869999
 20
43.0718412909
 30
0.0
 10
16.2286922991
 20
43.0763877759
 30
0.0
 10
15.9753414737
 20
43.0824861684
 30
0.0
 10
15.7220082469
 20
43.08928300379999
 30
0.0
 10
15.3842645466
 20
43.09952484399999
 30
0.0
 10
15.1309998724
 20
43.1085679847
 30
0.0
 10
14.9621763754
 20
43.1150804504
 30
0.0
  0
ENDSEC
  0
SECTION
  2
OBJECTS
  0
DICTIONARY
  5
C
330
0
100
AcDbDictionary
281
     1
  3
ACAD_CIP_PREVIOUS_PRODUCT_INFO
350
68A9
  3
ACAD_COLOR
350
6820
  3
ACAD_DETAILVIEWSTYLE
350
6839
  3
ACAD_GROUP
350
D
  3
ACAD_LAYOUT
350
1A
  3
ACAD_MATERIAL
350
67EE
  3
ACAD_MLEADERSTYLE
350
6835
  3
ACAD_MLINESTYLE
350
17
  3
ACAD_PLOTSETTINGS
350
19
  3
ACAD_PLOTSTYLENAME
350
E
  3
ACAD_SCALELIST
350
6823
  3
ACAD_SECTIONVIEWSTYLE
350
6837
  3
ACAD_TABLESTYLE
350
6821
  3
ACAD_VISUALSTYLE
350
6807
  3
ACDB_RECOMPOSE_DATA
350
69E4
  3
AcDbVariableDictionary
350
689A
  0
DICTIONARY
  5
683F
330
8
100
AcDbDictionary
280
     1
281
     1
  0
DICTIONARY
  5
69DD
330
2
100
AcDbDictionary
280
     1
281
     1
  3
ACAD_LAYERSTATES
360
69DE
  0
DICTIONARY
  5
68AA
330
10
100
AcDbDictionary
280
     1
281
     1
  3
ADSK_XREC_LAYER_RECONCILED
360
68AB
  0
DICTIONARY
  5
68AC
330
1FA
100
AcDbDictionary
280
     1
281
     1
  3
ADSK_XREC_LAYER_RECONCILED
360
68AD
  0
DICTIONARY
  5
68AE
330
1FB
100
AcDbDictionary
280
     1
281
     1
  3
ADSK_XREC_LAYER_RECONCILED
360
68AF
  0
DICTIONARY
  5
68B0
330
1FC
100
AcDbDictionary
280
     1
281
     1
  3
ADSK_XREC_LAYER_RECONCILED
360
68B1
  0
DICTIONARY
  5
68B2
330
1FD
100
AcDbDictionary
280
     1
281
     1
  3
ADSK_XREC_LAYER_RECONCILED
360
68B3
  0
DICTIONARY
  5
68B4
330
1FE
100
AcDbDictionary
280
     1
281
     1
  3
ADSK_XREC_LAYER_RECONCILED
360
68B5
  0
DICTIONARY
  5
68B6
330
1FF
100
AcDbDictionary
280
     1
281
     1
  3
ADSK_XREC_LAYER_RECONCILED
360
68B7
  0
DICTIONARY
  5
68B8
330
200
100
AcDbDictionary
280
     1
281
     1
  3
ADSK_XREC_LAYER_RECONCILED
360
68B9
  0
DICTIONARY
  5
68BA
330
201
100
AcDbDictionary
280
     1
281
     1
  3
ADSK_XREC_LAYER_RECONCILED
360
68BB
  0
DICTIONARY
  5
68BC
330
202
100
AcDbDictionary
280
     1
281
     1
  3
ADSK_XREC_LAYER_RECONCILED
360
68BD
  0
DICTIONARY
  5
68BE
330
203
100
AcDbDictionary
280
     1
281
     1
  3
ADSK_XREC_LAYER_RECONCILED
360
68BF
  0
DICTIONARY
  5
68C0
330
204
100
AcDbDictionary
280
     1
281
     1
  3
ADSK_XREC_LAYER_RECONCILED
360
68C1
  0
DICTIONARY
  5
68C2
330
205
100
AcDbDictionary
280
     1
281
     1
  3
ADSK_XREC_LAYER_RECONCILED
360
68C3
  0
DICTIONARY
  5
68C4
330
206
100
AcDbDictionary
280
     1
281
     1
  3
ADSK_XREC_LAYER_RECONCILED
360
68C5
  0
DICTIONARY
  5
68C6
330
207
100
AcDbDictionary
280
     1
281
     1
  3
ADSK_XREC_LAYER_RECONCILED
360
68C7
  0
DICTIONARY
  5
68C8
330
208
100
AcDbDictionary
280
     1
281
     1
  3
ADSK_XREC_LAYER_RECONCILED
360
68C9
  0
DICTIONARY
  5
68CA
330
209
100
AcDbDictionary
280
     1
281
     1
  3
ADSK_XREC_LAYER_RECONCILED
360
68CB
  0
DICTIONARY
  5
68CC
330
20A
100
AcDbDictionary
280
     1
281
     1
  3
ADSK_XREC_LAYER_RECONCILED
360
68CD
  0
DICTIONARY
  5
68CE
330
20B
100
AcDbDictionary
280
     1
281
     1
  3
ADSK_XREC_LAYER_RECONCILED
360
68CF
  0
DICTIONARY
  5
68D0
330
20C
100
AcDbDictionary
280
     1
281
     1
  3
ADSK_XREC_LAYER_RECONCILED
360
68D1
  0
DICTIONARY
  5
68D2
330
20D
100
AcDbDictionary
280
     1
281
     1
  3
ADSK_XREC_LAYER_RECONCILED
360
68D3
  0
DICTIONARY
  5
68D4
330
20E
100
AcDbDictionary
280
     1
281
     1
  3
ADSK_XREC_LAYER_RECONCILED
360
68D5
  0
DICTIONARY
  5
68D6
330
20F
100
AcDbDictionary
280
     1
281
     1
  3
ADSK_XREC_LAYER_RECONCILED
360
68D7
  0
DICTIONARY
  5
68D8
330
210
100
AcDbDictionary
280
     1
281
     1
  3
ADSK_XREC_LAYER_RECONCILED
360
68D9
  0
DICTIONARY
  5
68DA
330
211
100
AcDbDictionary
280
     1
281
     1
  3
ADSK_XREC_LAYER_RECONCILED
360
68DB
  0
DICTIONARY
  5
68DC
330
212
100
AcDbDictionary
280
     1
281
     1
  3
ADSK_XREC_LAYER_RECONCILED
360
68DD
  0
DICTIONARY
  5
68DE
330
213
100
AcDbDictionary
280
     1
281
     1
  3
ADSK_XREC_LAYER_RECONCILED
360
68DF
  0
DICTIONARY
  5
68E0
330
214
100
AcDbDictionary
280
     1
281
     1
  3
ADSK_XREC_LAYER_RECONCILED
360
68E1
  0
DICTIONARY
  5
68E2
330
215
100
AcDbDictionary
280
     1
281
     1
  3
ADSK_XREC_LAYER_RECONCILED
360
68E3
  0
DICTIONARY
  5
68E4
330
216
100
AcDbDictionary
280
     1
281
     1
  3
ADSK_XREC_LAYER_RECONCILED
360
68E5
  0
DICTIONARY
  5
68E6
330
217
100
AcDbDictionary
280
     1
281
     1
  3
ADSK_XREC_LAYER_RECONCILED
360
68E7
  0
XRECORD
  5
68A9
102
{ACAD_REACTORS
330
C
102
}
330
C
100
AcDbXrecord
280
     1
300
ACDLT
300
2019
300
ACDLT_F_S
  0
DICTIONARY
  5
6820
102
{ACAD_REACTORS
330
C
102
}
330
C
100
AcDbDictionary
281
     1
  0
DICTIONARY
  5
6839
102
{ACAD_REACTORS
330
C
102
}
330
C
100
AcDbDictionary
281
     1
  3
Imperial24
350
683A
  0
DICTIONARY
  5
D
102
{ACAD_REACTORS
330
C
102
}
330
C
100
AcDbDictionary
281
     1
  0
DICTIONARY
  5
1A
102
{ACAD_REACTORS
330
C
102
}
330
C
100
AcDbDictionary
281
     1
  3
Layout1
350
67E9
  3
Model
350
67E8
  0
DICTIONARY
  5
67EE
102
{ACAD_REACTORS
330
C
102
}
330
C
100
AcDbDictionary
281
     1
  3
ByBlock
350
67F7
  3
ByLayer
350
67EF
  3
Global
350
67FF
  0
DICTIONARY
  5
6835
102
{ACAD_REACTORS
330
C
102
}
330
C
100
AcDbDictionary
281
     1
  3
Standard
350
6836
  0
DICTIONARY
  5
17
102
{ACAD_REACTORS
330
C
102
}
330
C
100
AcDbDictionary
281
     1
  3
Standard
350
18
  0
DICTIONARY
  5
19
102
{ACAD_REACTORS
330
C
102
}
330
C
100
AcDbDictionary
281
     1
  0
ACDBDICTIONARYWDFLT
  5
E
102
{ACAD_REACTORS
330
C
102
}
330
C
100
AcDbDictionary
281
     1
  3
Normal
350
F
100
AcDbDictionaryWithDefault
340
F
  0
DICTIONARY
  5
6823
102
{ACAD_REACTORS
330
C
102
}
330
C
100
AcDbDictionary
281
     1
  3
A0
350
6824
  3
A1
350
6825
  3
A2
350
6826
  3
A3
350
6827
  3
A4
350
6828
  3
A5
350
6829
  3
A6
350
682A
  3
A7
350
682B
  3
A8
350
682C
  3
A9
350
682D
  3
B0
350
682E
  3
B1
350
682F
  3
B2
350
6830
  3
B3
350
6831
  3
B4
350
6832
  3
B5
350
6833
  3
B6
350
6834
  0
DICTIONARY
  5
6837
102
{ACAD_REACTORS
330
C
102
}
330
C
100
AcDbDictionary
281
     1
  3
Imperial24
350
6838
  0
DICTIONARY
  5
6821
102
{ACAD_REACTORS
330
C
102
}
330
C
100
AcDbDictionary
281
     1
  3
Standard
350
6822
  0
DICTIONARY
  5
6807
102
{ACAD_REACTORS
330
C
102
}
330
C
100
AcDbDictionary
281
     1
  3
2dWireframe
350
680D
  3
Basic
350
680C
  3
Brighten
350
6813
  3
ColorChange
350
6817
  3
Conceptual
350
6810
  3
Dim
350
6812
  3
EdgeColorOff
350
681F
  3
Facepattern
350
6816
  3
Flat
350
6808
  3
FlatWithEdges
350
6809
  3
Gouraud
350
680A
  3
GouraudWithEdges
350
680B
  3
Hidden
350
680F
  3
JitterOff
350
681D
  3
Linepattern
350
6815
  3
OverhangOff
350
681E
  3
Realistic
350
6811
  3
Shaded
350
681C
  3
Shaded with edges
350
681B
  3
Shades of Gray
350
6818
  3
Sketchy
350
6819
  3
Thicken
350
6814
  3
Wireframe
350
680E
  3
X-Ray
350
681A
  0
XRECORD
  5
69E4
102
{ACAD_REACTORS
330
C
102
}
330
C
100
AcDbXrecord
280
     1
 90
        1
330
6822
  0
DICTIONARY
  5
689A
102
{ACAD_REACTORS
330
C
102
}
330
C
100
AcDbDictionary
281
     1
  3
CANNOSCALE
350
689F
  3
CMLEADERSTYLE
350
689C
  3
CTABLESTYLE
350
689B
  3
CVIEWDETAILSTYLE
350
689D
  3
CVIEWSECTIONSTYLE
350
689E
  3
DIMASSOC
350
68A2
  3
INDEXCTL
350
68A1
  3
LAYEREVAL
350
69D3
  3
LAYERNOTIFY
350
69D4
  3
LIGHTINGUNITS
350
69D2
  3
MSLTSCALE
350
69D1
  3
SORTENTS
350
68A0
  0
DICTIONARY
  5
69DE
102
{ACAD_REACTORS
330
69DD
102
}
330
69DD
100
AcDbDictionary
281
     1
  0
XRECORD
  5
68AB
102
{ACAD_REACTORS
330
68AA
102
}
330
68AA
100
AcDbXrecord
280
     1
290
     1
  0
XRECORD
  5
68AD
102
{ACAD_REACTORS
330
68AC
102
}
330
68AC
100
AcDbXrecord
280
     1
290
     1
  0
XRECORD
  5
68AF
102
{ACAD_REACTORS
330
68AE
102
}
330
68AE
100
AcDbXrecord
280
     1
290
     1
  0
XRECORD
  5
68B1
102
{ACAD_REACTORS
330
68B0
102
}
330
68B0
100
AcDbXrecord
280
     1
290
     1
  0
XRECORD
  5
68B3
102
{ACAD_REACTORS
330
68B2
102
}
330
68B2
100
AcDbXrecord
280
     1
290
     1
  0
XRECORD
  5
68B5
102
{ACAD_REACTORS
330
68B4
102
}
330
68B4
100
AcDbXrecord
280
     1
290
     1
  0
XRECORD
  5
68B7
102
{ACAD_REACTORS
330
68B6
102
}
330
68B6
100
AcDbXrecord
280
     1
290
     1
  0
XRECORD
  5
68B9
102
{ACAD_REACTORS
330
68B8
102
}
330
68B8
100
AcDbXrecord
280
     1
290
     1
  0
XRECORD
  5
68BB
102
{ACAD_REACTORS
330
68BA
102
}
330
68BA
100
AcDbXrecord
280
     1
290
     1
  0
XRECORD
  5
68BD
102
{ACAD_REACTORS
330
68BC
102
}
330
68BC
100
AcDbXrecord
280
     1
290
     1
  0
XRECORD
  5
68BF
102
{ACAD_REACTORS
330
68BE
102
}
330
68BE
100
AcDbXrecord
280
     1
290
     1
  0
XRECORD
  5
68C1
102
{ACAD_REACTORS
330
68C0
102
}
330
68C0
100
AcDbXrecord
280
     1
290
     1
  0
XRECORD
  5
68C3
102
{ACAD_REACTORS
330
68C2
102
}
330
68C2
100
AcDbXrecord
280
     1
290
     1
  0
XRECORD
  5
68C5
102
{ACAD_REACTORS
330
68C4
102
}
330
68C4
100
AcDbXrecord
280
     1
290
     1
  0
XRECORD
  5
68C7
102
{ACAD_REACTORS
330
68C6
102
}
330
68C6
100
AcDbXrecord
280
     1
290
     1
  0
XRECORD
  5
68C9
102
{ACAD_REACTORS
330
68C8
102
}
330
68C8
100
AcDbXrecord
280
     1
290
     1
  0
XRECORD
  5
68CB
102
{ACAD_REACTORS
330
68CA
102
}
330
68CA
100
AcDbXrecord
280
     1
290
     1
  0
XRECORD
  5
68CD
102
{ACAD_REACTORS
330
68CC
102
}
330
68CC
100
AcDbXrecord
280
     1
290
     1
  0
XRECORD
  5
68CF
102
{ACAD_REACTORS
330
68CE
102
}
330
68CE
100
AcDbXrecord
280
     1
290
     1
  0
XRECORD
  5
68D1
102
{ACAD_REACTORS
330
68D0
102
}
330
68D0
100
AcDbXrecord
280
     1
290
     1
  0
XRECORD
  5
68D3
102
{ACAD_REACTORS
330
68D2
102
}
330
68D2
100
AcDbXrecord
280
     1
290
     1
  0
XRECORD
  5
68D5
102
{ACAD_REACTORS
330
68D4
102
}
330
68D4
100
AcDbXrecord
280
     1
290
     1
  0
XRECORD
  5
68D7
102
{ACAD_REACTORS
330
68D6
102
}
330
68D6
100
AcDbXrecord
280
     1
290
     1
  0
XRECORD
  5
68D9
102
{ACAD_REACTORS
330
68D8
102
}
330
68D8
100
AcDbXrecord
280
     1
290
     1
  0
XRECORD
  5
68DB
102
{ACAD_REACTORS
330
68DA
102
}
330
68DA
100
AcDbXrecord
280
     1
290
     1
  0
XRECORD
  5
68DD
102
{ACAD_REACTORS
330
68DC
102
}
330
68DC
100
AcDbXrecord
280
     1
290
     1
  0
XRECORD
  5
68DF
102
{ACAD_REACTORS
330
68DE
102
}
330
68DE
100
AcDbXrecord
280
     1
290
     1
  0
XRECORD
  5
68E1
102
{ACAD_REACTORS
330
68E0
102
}
330
68E0
100
AcDbXrecord
280
     1
290
     1
  0
XRECORD
  5
68E3
102
{ACAD_REACTORS
330
68E2
102
}
330
68E2
100
AcDbXrecord
280
     1
290
     1
  0
XRECORD
  5
68E5
102
{ACAD_REACTORS
330
68E4
102
}
330
68E4
100
AcDbXrecord
280
     1
290
     1
  0
XRECORD
  5
68E7
102
{ACAD_REACTORS
330
68E6
102
}
330
68E6
100
AcDbXrecord
280
     1
290
     1
  0
ACDBDETAILVIEWSTYLE
  5
683A
102
{ACAD_REACTORS
330
6839
102
}
330
6839
100
AcDbModelDocViewStyle
 70
     0
  3
Imperial24
290
     0
300
Imperial24
 90
        0
100
AcDbDetailViewStyle
 70
     0
 71
     0
 90
        3
 71
     1
340
11
 62
   256
 40
0.24
340
0
 62
   256
 40
0.24
300

 40
0.36
280
     3
 71
     2
340
16
 90
       25
 62
   256
 71
     3
340
11
 62
   256
 40
0.24
 90
        1
 40
0.75
 90
        1
300
%<\AcVar ViewType \f "%tc1">% %<\AcVar ViewDetailId>%\PSCALE %<\AcVar ViewScale \f "%sn">%
 71
     4
340
16
 90
       25
 62
   256
340
16
 90
       25
 62
   256
280
     0
  0
LAYOUT
  5
67E9
102
{ACAD_REACTORS
330
1A
102
}
330
1A
100
AcDbPlotSettings
  1

  2
none_device
  4
ANSI_B_(17.00_x_11.00_Inches)
  6

 40
0.0
 41
0.0
 42
0.0
 43
0.0
 44
431.8
 45
279.4
 46
0.0
 47
0.0
 48
0.0
 49
0.0
140
0.0
141
0.0
142
1.0
143
1.0
 70
     0
 72
     0
 73
     0
 74
     0
  7

 75
     0
147
1.0
 76
     0
 77
     2
 78
   300
148
0.0
149
0.0
100
AcDbLayout
  1
Layout1
 70
     1
 71
     1
 10
0.0
 20
0.0
 11
12.0
 21
9.0
 12
0.0
 22
0.0
 32
0.0
 14
1.000000000000000E+20
 24
1.000000000000000E+20
 34
1.000000000000000E+20
 15
-1.000000000000000E+20
 25
-1.000000000000000E+20
 35
-1.000000000000000E+20
146
0.0
 13
0.0
 23
0.0
 33
0.0
 16
1.0
 26
0.0
 36
0.0
 17
0.0
 27
1.0
 37
0.0
 76
     0
330
221
  0
LAYOUT
  5
67E8
102
{ACAD_REACTORS
330
1A
102
}
330
1A
100
AcDbPlotSettings
  1

  2
none_device
  4
ANSI_B_(17.00_x_11.00_Inches)
  6

 40
0.0
 41
0.0
 42
0.0
 43
0.0
 44
431.8
 45
279.4
 46
0.0
 47
0.0
 48
0.0
 49
0.0
140
0.0
141
0.0
142
1.0
143
1.0
 70
  1024
 72
     0
 73
     0
 74
     0
  7

 75
     0
147
1.0
 76
     0
 77
     2
 78
   300
148
0.0
149
0.0
100
AcDbLayout
  1
Model
 70
     0
 71
     0
 10
0.0
 20
0.0
 11
17.0
 21
11.0
 12
0.0
 22
0.0
 32
0.0
 14
0.0
 24
0.0
 34
0.0
 15
0.0
 25
0.0
 35
0.0
146
0.0
 13
0.0
 23
0.0
 33
0.0
 16
1.0
 26
0.0
 36
0.0
 17
0.0
 27
1.0
 37
0.0
 76
     0
330
220
331
1F4
  0
MATERIAL
  5
67F7
102
{ACAD_XDICTIONARY
360
67F8
102
}
102
{ACAD_REACTORS
330
67EE
102
}
330
67EE
100
AcDbMaterial
  1
ByBlock
 72
     0
 43
0.0208333333333333
 43
0.0
 43
0.0
 43
0.0
 43
0.0
 43
0.0208333333333333
 43
0.0
 43
0.0
 43
0.0
 43
0.0
 43
1.0
 43
0.0
 43
0.0
 43
0.0
 43
0.0
 43
1.0
 77
     0
 47
0.0208333333333333
 47
0.0
 47
0.0
 47
0.0
 47
0.0
 47
0.0208333333333333
 47
0.0
 47
0.0
 47
0.0
 47
0.0
 47
1.0
 47
0.0
 47
0.0
 47
0.0
 47
0.0
 47
1.0
171
     0
 49
0.0208333333333333
 49
0.0
 49
0.0
 49
0.0
 49
0.0
 49
0.0208333333333333
 49
0.0
 49
0.0
 49
0.0
 49
0.0
 49
1.0
 49
0.0
 49
0.0
 49
0.0
 49
0.0
 49
1.0
175
     0
142
0.0208333333333333
142
0.0
142
0.0
142
0.0
142
0.0
142
0.0208333333333333
142
0.0
142
0.0
142
0.0
142
0.0
142
1.0
142
0.0
142
0.0
142
0.0
142
0.0
142
1.0
179
     0
144
0.0208333333333333
144
0.0
144
0.0
144
0.0
144
0.0
144
0.0208333333333333
144
0.0
144
0.0
144
0.0
144
0.0
144
1.0
144
0.0
144
0.0
144
0.0
144
0.0
144
1.0
147
0.0208333333333333
147
0.0
147
0.0
147
0.0
147
0.0
147
0.0208333333333333
147
0.0
147
0.0
147
0.0
147
0.0
147
1.0
147
0.0
147
0.0
147
0.0
147
0.0
147
1.0
  0
MATERIAL
  5
67EF
102
{ACAD_XDICTIONARY
360
67F0
102
}
102
{ACAD_REACTORS
330
67EE
102
}
330
67EE
100
AcDbMaterial
  1
ByLayer
 72
     0
 43
0.0208333333333333
 43
0.0
 43
0.0
 43
0.0
 43
0.0
 43
0.0208333333333333
 43
0.0
 43
0.0
 43
0.0
 43
0.0
 43
1.0
 43
0.0
 43
0.0
 43
0.0
 43
0.0
 43
1.0
 77
     0
 47
0.0208333333333333
 47
0.0
 47
0.0
 47
0.0
 47
0.0
 47
0.0208333333333333
 47
0.0
 47
0.0
 47
0.0
 47
0.0
 47
1.0
 47
0.0
 47
0.0
 47
0.0
 47
0.0
 47
1.0
171
     0
 49
0.0208333333333333
 49
0.0
 49
0.0
 49
0.0
 49
0.0
 49
0.0208333333333333
 49
0.0
 49
0.0
 49
0.0
 49
0.0
 49
1.0
 49
0.0
 49
0.0
 49
0.0
 49
0.0
 49
1.0
175
     0
142
0.0208333333333333
142
0.0
142
0.0
142
0.0
142
0.0
142
0.0208333333333333
142
0.0
142
0.0
142
0.0
142
0.0
142
1.0
142
0.0
142
0.0
142
0.0
142
0.0
142
1.0
179
     0
144
0.0208333333333333
144
0.0
144
0.0
144
0.0
144
0.0
144
0.0208333333333333
144
0.0
144
0.0
144
0.0
144
0.0
144
1.0
144
0.0
144
0.0
144
0.0
144
0.0
144
1.0
147
0.0208333333333333
147
0.0
147
0.0
147
0.0
147
0.0
147
0.0208333333333333
147
0.0
147
0.0
147
0.0
147
0.0
147
1.0
147
0.0
147
0.0
147
0.0
147
0.0
147
1.0
  0
MATERIAL
  5
67FF
102
{ACAD_XDICTIONARY
360
6800
102
}
102
{ACAD_REACTORS
330
67EE
102
}
330
67EE
100
AcDbMaterial
  1
Global
 72
     0
 43
0.0208333333333333
 43
0.0
 43
0.0
 43
0.0
 43
0.0
 43
0.0208333333333333
 43
0.0
 43
0.0
 43
0.0
 43
0.0
 43
1.0
 43
0.0
 43
0.0
 43
0.0
 43
0.0
 43
1.0
 77
     0
 47
0.0208333333333333
 47
0.0
 47
0.0
 47
0.0
 47
0.0
 47
0.0208333333333333
 47
0.0
 47
0.0
 47
0.0
 47
0.0
 47
1.0
 47
0.0
 47
0.0
 47
0.0
 47
0.0
 47
1.0
171
     0
 49
0.0208333333333333
 49
0.0
 49
0.0
 49
0.0
 49
0.0
 49
0.0208333333333333
 49
0.0
 49
0.0
 49
0.0
 49
0.0
 49
1.0
 49
0.0
 49
0.0
 49
0.0
 49
0.0
 49
1.0
175
     0
142
0.0208333333333333
142
0.0
142
0.0
142
0.0
142
0.0
142
0.0208333333333333
142
0.0
142
0.0
142
0.0
142
0.0
142
1.0
142
0.0
142
0.0
142
0.0
142
0.0
142
1.0
179
     0
144
0.0208333333333333
144
0.0
144
0.0
144
0.0
144
0.0
144
0.0208333333333333
144
0.0
144
0.0
144
0.0
144
0.0
144
1.0
144
0.0
144
0.0
144
0.0
144
0.0
144
1.0
147
0.0208333333333333
147
0.0
147
0.0
147
0.0
147
0.0
147
0.0208333333333333
147
0.0
147
0.0
147
0.0
147
0.0
147
1.0
147
0.0
147
0.0
147
0.0
147
0.0
147
1.0
  0
MLEADERSTYLE
  5
6836
102
{ACAD_REACTORS
330
6835
102
}
330
6835
100
AcDbMLeaderStyle
179
     2
170
     2
171
     1
172
     0
 90
        2
 40
0.0
 41
0.0
173
     1
 91
-1056964608
340
14
 92
       -2
290
     1
 42
0.09
291
     1
 43
0.36
  3
Standard
 44
0.18
300

342
11
174
     1
178
     6
175
     1
176
     0
 93
-1056964608
 45
0.18
292
     0
297
     0
 46
0.18
 94
-1056964608
 47
1.0
 49
1.0
140
1.0
293
     1
141
0.0
294
     1
177
     0
142
1.0
295
     0
296
     0
143
0.125
271
     0
272
     9
273
     9
298
     0
  0
MLINESTYLE
  5
18
102
{ACAD_REACTORS
330
17
102
}
330
17
100
AcDbMlineStyle
  2
STANDARD
 70
     0
  3

 62
   256
 51
90.0
 52
90.0
 71
     2
 49
0.5
 62
   256
  6
BYLAYER
 49
-0.5
 62
   256
  6
BYLAYER
  0
ACDBPLACEHOLDER
  5
F
102
{ACAD_REACTORS
330
E
102
}
330
E
  0
SCALE
  5
6824
102
{ACAD_REACTORS
330
6823
102
}
330
6823
100
AcDbScale
 70
     0
300
1:1
140
1.0
141
1.0
290
     1
  0
SCALE
  5
6825
102
{ACAD_REACTORS
330
6823
102
}
330
6823
100
AcDbScale
 70
     0
300
1/128" = 1'-0"
140
0.0078125
141
12.0
290
     0
  0
SCALE
  5
6826
102
{ACAD_REACTORS
330
6823
102
}
330
6823
100
AcDbScale
 70
     0
300
1/64" = 1'-0"
140
0.015625
141
12.0
290
     0
  0
SCALE
  5
6827
102
{ACAD_REACTORS
330
6823
102
}
330
6823
100
AcDbScale
 70
     0
300
1/32" = 1'-0"
140
0.03125
141
12.0
290
     0
  0
SCALE
  5
6828
102
{ACAD_REACTORS
330
6823
102
}
330
6823
100
AcDbScale
 70
     0
300
1/16" = 1'-0"
140
0.0625
141
12.0
290
     0
  0
SCALE
  5
6829
102
{ACAD_REACTORS
330
6823
102
}
330
6823
100
AcDbScale
 70
     0
300
3/32" = 1'-0"
140
0.09375
141
12.0
290
     0
  0
SCALE
  5
682A
102
{ACAD_REACTORS
330
6823
102
}
330
6823
100
AcDbScale
 70
     0
300
1/8" = 1'-0"
140
0.125
141
12.0
290
     0
  0
SCALE
  5
682B
102
{ACAD_REACTORS
330
6823
102
}
330
6823
100
AcDbScale
 70
     0
300
3/16" = 1'-0"
140
0.1875
141
12.0
290
     0
  0
SCALE
  5
682C
102
{ACAD_REACTORS
330
6823
102
}
330
6823
100
AcDbScale
 70
     0
300
1/4" = 1'-0"
140
0.25
141
12.0
290
     0
  0
SCALE
  5
682D
102
{ACAD_REACTORS
330
6823
102
}
330
6823
100
AcDbScale
 70
     0
300
3/8" = 1'-0"
140
0.375
141
12.0
290
     0
  0
SCALE
  5
682E
102
{ACAD_REACTORS
330
6823
102
}
330
6823
100
AcDbScale
 70
     0
300
1/2" = 1'-0"
140
0.5
141
12.0
290
     0
  0
SCALE
  5
682F
102
{ACAD_REACTORS
330
6823
102
}
330
6823
100
AcDbScale
 70
     0
300
3/4" = 1'-0"
140
0.75
141
12.0
290
     0
  0
SCALE
  5
6830
102
{ACAD_REACTORS
330
6823
102
}
330
6823
100
AcDbScale
 70
     0
300
1" = 1'-0"
140
1.0
141
12.0
290
     0
  0
SCALE
  5
6831
102
{ACAD_REACTORS
330
6823
102
}
330
6823
100
AcDbScale
 70
     0
300
1-1/2" = 1'-0"
140
1.5
141
12.0
290
     0
  0
SCALE
  5
6832
102
{ACAD_REACTORS
330
6823
102
}
330
6823
100
AcDbScale
 70
     0
300
3" = 1'-0"
140
3.0
141
12.0
290
     0
  0
SCALE
  5
6833
102
{ACAD_REACTORS
330
6823
102
}
330
6823
100
AcDbScale
 70
     0
300
6" = 1'-0"
140
6.0
141
12.0
290
     0
  0
SCALE
  5
6834
102
{ACAD_REACTORS
330
6823
102
}
330
6823
100
AcDbScale
 70
     0
300
1'-0" = 1'-0"
140
12.0
141
12.0
290
     0
  0
ACDBSECTIONVIEWSTYLE
  5
6838
102
{ACAD_REACTORS
330
6837
102
}
330
6837
100
AcDbModelDocViewStyle
 70
     0
  3
Imperial24
290
     0
300
Imperial24
 90
        0
100
AcDbSectionViewStyle
 70
     0
 71
     0
 90
       78
 71
     1
340
11
 62
   256
 40
0.24
340
0
340
0
 62
   256
 40
0.24
300
I, O, Q, S, X, Z
 40
0.48
 90
        3
 40
0.18
 90
        1
 71
     2
340
16
 90
       25
 62
   256
340
16
 90
       50
 62
   256
 40
0.24
 40
0.0
 40
0.24
 71
     3
340
11
 62
   256
 40
0.24
 90
        1
 40
0.75
 90
        1
300
%<\AcVar ViewType \f "%tc1">% %<\AcVar ViewSectionStartId>%-%<\AcVar ViewSectionEndId>%\PSCALE %<\AcVar ViewScale \f "%sn">%
 71
     4
 62
   256
 62
   257
300
ANSI31
 40
1.0
 90
        0
290
     0
290
     0
 90
        6
 40
0.0
 40
1.570796326794896
 40
0.2617993877991494
 40
1.308996938995747
 40
-0.2617993877991494
 40
1.832595714594046
  0
TABLESTYLE
  5
6822
102
{ACAD_XDICTIONARY
360
683C
102
}
102
{ACAD_REACTORS
330
6821
102
}
330
6821
100
AcDbTableStyle
280
     0
  3
Standard
 70
     0
 71
     0
 40
0.06
 41
0.06
280
     0
281
     0
  7
STANDARD
140
0.18
170
     2
 62
     0
 63
     7
283
     0
 90
      512
 91
        0
  1

274
    -2
284
     1
 64
     0
275
    -2
285
     1
 65
     0
276
    -2
286
     1
 66
     0
277
    -2
287
     1
 67
     0
278
    -2
288
     1
 68
     0
279
    -2
289
     1
 69
     0
  7
STANDARD
140
0.25
170
     5
 62
     0
 63
     7
283
     0
 90
      512
 91
        0
  1

274
    -2
284
     1
 64
     0
275
    -2
285
     1
 65
     0
276
    -2
286
     1
 66
     0
277
    -2
287
     1
 67
     0
278
    -2
288
     1
 68
     0
279
    -2
289
     1
 69
     0
  7
STANDARD
140
0.18
170
     5
 62
     0
 63
     7
283
     0
 90
      512
 91
        0
  1

274
    -2
284
     1
 64
     0
275
    -2
285
     1
 65
     0
276
    -2
286
     1
 66
     0
277
    -2
287
     1
 67
     0
278
    -2
288
     1
 68
     0
279
    -2
289
     1
 69
     0
  0
VISUALSTYLE
  5
680D
102
{ACAD_REACTORS
330
6807
102
}
330
6807
100
AcDbVisualStyle
  2
2dWireframe
 70
     4
177
     3
291
     0
 70
    58
 90
        0
176
     1
 90
        2
176
     1
 90
        0
176
     1
 90
        0
176
     1
 40
0.6
176
     1
 40
30.0
176
     1
 62
     7
176
     1
 90
        1
176
     1
 90
        4
176
     1
 62
     7
176
     1
 62
   257
176
     1
 90
        1
176
     1
 90
        1
176
     1
 40
1.0
176
     1
 90
        0
176
     1
 62
   257
176
     1
 40
1.0
176
     1
 90
        1
176
     1
 90
        6
176
     1
 90
        2
176
     1
 62
     7
176
     1
 90
        5
176
     1
 90
        0
176
     1
 90
        0
176
     1
290
     0
176
     1
 90
        1
176
     1
 40
0.0
176
     1
 90
        0
176
     1
290
     1
176
     1
290
     1
176
     1
290
     0
176
     1
290
     0
176
     1
290
     0
176
     1
290
     0
176
     1
290
     0
176
     1
290
     0
176
     1
290
     0
176
     1
 90
       50
176
     1
 40
0.0
176
     1
 40
1.0
176
     1
 90
        0
176
     1
 62
    18
420
        0
176
     1
 90
       50
176
     1
 90
        3
176
     1
 62
     5
420
      255
176
     1
290
     0
176
     1
 90
       50
176
     1
 90
       50
176
     1
 90
       50
176
     1
290
     0
176
     1
 90
       50
176
     1
 62
   256
176
     0
 40
1.0
176
     0
 90
        2
176
     1
  1
strokes_ogs.tif
176
     1
290
     0
176
     1
 40
1.0
176
     1
 40
1.0
176
     1
  0
VISUALSTYLE
  5
680C
102
{ACAD_REACTORS
330
6807
102
}
330
6807
100
AcDbVisualStyle
  2
Basic
 70
     7
177
     3
291
     1
 70
    58
 90
        1
176
     1
 90
        0
176
     1
 90
        1
176
     1
 90
        0
176
     1
 40
0.6
176
     1
 40
30.0
176
     1
 62
     7
176
     1
 90
        0
176
     1
 90
        4
176
     1
 62
     7
176
     1
 62
   257
176
     1
 90
        1
176
     1
 90
        1
176
     1
 40
1.0
176
     1
 90
        8
176
     1
 62
     7
176
     1
 40
1.0
176
     1
 90
        1
176
     1
 90
        6
176
     1
 90
        2
176
     1
 62
     7
176
     1
 90
        5
176
     1
 90
        0
176
     1
 90
        0
176
     1
290
     0
176
     1
 90
        1
176
     1
 40
0.0
176
     1
 90
        0
176
     1
290
     0
176
     1
290
     1
176
     1
290
     1
176
     1
290
     0
176
     1
290
     0
176
     1
290
     0
176
     1
290
     0
176
     1
290
     0
176
     1
290
     0
176
     1
 90
       50
176
     1
 40
0.0
176
     1
 40
1.0
176
     1
 90
        0
176
     1
 62
    18
420
        0
176
     1
 90
       50
176
     1
 90
        3
176
     1
 62
     5
420
      255
176
     1
290
     0
176
     1
 90
       50
176
     1
 90
       50
176
     1
 90
       50
176
     1
290
     0
176
     1
 90
       50
176
     1
 62
   256
176
     0
 40
1.0
176
     0
 90
        2
176
     1
  1
strokes_ogs.tif
176
     1
290
     0
176
     1
 40
1.0
176
     1
 40
1.0
176
     1
  0
VISUALSTYLE
  5
6813
102
{ACAD_REACTORS
330
6807
102
}
330
6807
100
AcDbVisualStyle
  2
Brighten
 70
    12
177
     3
291
     1
 70
    58
 90
        2
176
     1
 90
        2
176
     1
 90
        0
176
     1
 90
        0
176
     1
 40
0.6
176
     1
 40
30.0
176
     1
 62
     7
176
     1
 90
        1
176
     1
 90
        4
176
     1
 62
     7
176
     1
 62
   257
176
     1
 90
        1
176
     1
 90
        1
176
     1
 40
1.0
176
     1
 90
        8
176
     1
 62
     7
176
     1
 40
1.0
176
     1
 90
        1
176
     1
 90
        6
176
     1
 90
        2
176
     1
 62
     7
176
     1
 90
        5
176
     1
 90
        0
176
     1
 90
        0
176
     1
290
     0
176
     1
 90
        1
176
     1
 40
50.0
176
     1
 90
        0
176
     1
290
     0
176
     1
290
     1
176
     1
290
     1
176
     1
290
     0
176
     1
290
     0
176
     1
290
     0
176
     1
290
     0
176
     1
290
     0
176
     1
290
     0
176
     1
 90
       50
176
     1
 40
0.0
176
     1
 40
1.0
176
     1
 90
        0
176
     1
 62
    18
420
        0
176
     1
 90
       50
176
     1
 90
        3
176
     1
 62
     5
420
      255
176
     1
290
     0
176
     1
 90
       50
176
     1
 90
       50
176
     1
 90
       50
176
     1
290
     0
176
     1
 90
       50
176
     1
 62
   256
176
     0
 40
1.0
176
     0
 90
        2
176
     1
  1
strokes_ogs.tif
176
     1
290
     0
176
     1
 40
1.0
176
     1
 40
1.0
176
     1
  0
VISUALSTYLE
  5
6817
102
{ACAD_REACTORS
330
6807
102
}
330
6807
100
AcDbVisualStyle
  2
ColorChange
 70
    16
177
     3
291
     1
 70
    58
 90
        2
176
     1
 90
        2
176
     1
 90
        3
176
     1
 90
        0
176
     1
 40
0.6
176
     1
 40
30.0
176
     1
 62
     8
176
     1
 90
        1
176
     1
 90
        4
176
     1
 62
     7
176
     1
 62
   257
176
     1
 90
        1
176
     1
 90
        1
176
     1
 40
1.0
176
     1
 90
        8
176
     1
 62
     8
176
     1
 40
1.0
176
     1
 90
        1
176
     1
 90
        6
176
     1
 90
        2
176
     1
 62
     7
176
     1
 90
        5
176
     1
 90
        0
176
     1
 90
        0
176
     1
290
     0
176
     1
 90
        1
176
     1
 40
0.0
176
     1
 90
        0
176
     1
290
     0
176
     1
290
     1
176
     1
290
     1
176
     1
290
     0
176
     1
290
     0
176
     1
290
     0
176
     1
290
     0
176
     1
290
     0
176
     1
290
     0
176
     1
 90
       50
176
     1
 40
0.0
176
     1
 40
1.0
176
     1
 90
        0
176
     1
 62
    18
420
        0
176
     1
 90
       50
176
     1
 90
        3
176
     1
 62
     5
420
      255
176
     1
290
     0
176
     1
 90
       50
176
     1
 90
       50
176
     1
 90
       50
176
     1
290
     0
176
     1
 90
       50
176
     1
 62
   256
176
     0
 40
1.0
176
     0
 90
        2
176
     1
  1
strokes_ogs.tif
176
     1
290
     0
176
     1
 40
1.0
176
     1
 40
1.0
176
     1
  0
VISUALSTYLE
  5
6810
102
{ACAD_REACTORS
330
6807
102
}
330
6807
100
AcDbVisualStyle
  2
Conceptual
 70
     9
177
     3
291
     0
 70
    58
 90
        3
176
     1
 90
        2
176
     1
 90
        0
176
     1
 90
        0
176
     1
 40
0.6
176
     1
 40
30.0
176
     1
 62
     7
176
     1
 90
        2
176
     1
 90
        2
176
     1
 62
     7
176
     1
 62
   257
176
     1
 90
        1
176
     1
 90
        1
176
     1
 40
179.0
176
     1
 90
        8
176
     1
 62
     7
176
     1
 40
1.0
176
     1
 90
        1
176
     1
 90
        6
176
     1
 90
        2
176
     1
 62
     7
176
     1
 90
        3
176
     1
 90
        0
176
     1
 90
        0
176
     1
290
     0
176
     1
 90
        1
176
     1
 40
0.0
176
     1
 90
        0
176
     1
290
     0
176
     1
290
     1
176
     1
290
     1
176
     1
290
     0
176
     1
290
     0
176
     1
290
     0
176
     1
290
     0
176
     1
290
     0
176
     1
290
     0
176
     1
 90
       50
176
     1
 40
0.0
176
     1
 40
1.0
176
     1
 90
        0
176
     1
 62
    18
420
        0
176
     1
 90
       50
176
     1
 90
        3
176
     1
 62
     5
420
      255
176
     1
290
     0
176
     1
 90
       50
176
     1
 90
       50
176
     1
 90
       50
176
     1
290
     0
176
     1
 90
       50
176
     1
 62
   256
176
     0
 40
1.0
176
     0
 90
        2
176
     1
  1
strokes_ogs.tif
176
     1
290
     0
176
     1
 40
1.0
176
     1
 40
1.0
176
     1
  0
VISUALSTYLE
  5
6812
102
{ACAD_REACTORS
330
6807
102
}
330
6807
100
AcDbVisualStyle
  2
Dim
 70
    11
177
     3
291
     1
 70
    58
 90
        2
176
     1
 90
        2
176
     1
 90
        0
176
     1
 90
        0
176
     1
 40
0.6
176
     1
 40
30.0
176
     1
 62
     7
176
     1
 90
        1
176
     1
 90
        4
176
     1
 62
     7
176
     1
 62
   257
176
     1
 90
        1
176
     1
 90
        1
176
     1
 40
1.0
176
     1
 90
        8
176
     1
 62
     7
176
     1
 40
1.0
176
     1
 90
        1
176
     1
 90
        6
176
     1
 90
        2
176
     1
 62
     7
176
     1
 90
        5
176
     1
 90
        0
176
     1
 90
        0
176
     1
290
     0
176
     1
 90
        1
176
     1
 40
-50.0
176
     1
 90
        0
176
     1
290
     0
176
     1
290
     1
176
     1
290
     1
176
     1
290
     0
176
     1
290
     0
176
     1
290
     0
176
     1
290
     0
176
     1
290
     0
176
     1
290
     0
176
     1
 90
       50
176
     1
 40
0.0
176
     1
 40
1.0
176
     1
 90
        0
176
     1
 62
    18
420
        0
176
     1
 90
       50
176
     1
 90
        3
176
     1
 62
     5
420
      255
176
     1
290
     0
176
     1
 90
       50
176
     1
 90
       50
176
     1
 90
       50
176
     1
290
     0
176
     1
 90
       50
176
     1
 62
   256
176
     0
 40
1.0
176
     0
 90
        2
176
     1
  1
strokes_ogs.tif
176
     1
290
     0
176
     1
 40
1.0
176
     1
 40
1.0
176
     1
  0
VISUALSTYLE
  5
681F
102
{ACAD_REACTORS
330
6807
102
}
330
6807
100
AcDbVisualStyle
  2
EdgeColorOff
 70
    22
177
     3
291
     1
 70
    58
 90
        2
176
     0
 90
        2
176
     0
 90
        0
176
     0
 90
        0
176
     0
 40
0.6
176
     0
 40
30.0
176
     0
 62
     7
176
     0
 90
        1
176
     0
 90
        4
176
     0
 62
     7
176
     0
 62
   257
176
     0
 90
        1
176
     0
 90
        1
176
     0
 40
1.0
176
     0
 90
        8
176
     2
 62
     7
176
     0
 40
1.0
176
     0
 90
        1
176
     0
 90
        6
176
     0
 90
        2
176
     0
 62
     7
176
     0
 90
        5
176
     0
 90
        0
176
     0
 90
        0
176
     0
290
     0
176
     0
 90
        1
176
     0
 40
0.0
176
     0
 90
        0
176
     0
290
     0
176
     1
290
     1
176
     1
290
     1
176
     1
290
     0
176
     1
290
     0
176
     1
290
     0
176
     1
290
     0
176
     1
290
     0
176
     1
290
     0
176
     1
 90
       50
176
     0
 40
0.0
176
     0
 40
1.0
176
     0
 90
        0
176
     0
 62
    18
420
        0
176
     0
 90
       50
176
     0
 90
        3
176
     0
 62
     5
420
      255
176
     0
290
     0
176
     1
 90
       50
176
     0
 90
       50
176
     0
 90
       50
176
     0
290
     0
176
     1
 90
       50
176
     0
 62
   256
176
     0
 40
1.0
176
     0
 90
        2
176
     0
  1
strokes_ogs.tif
176
     0
290
     0
176
     1
 40
1.0
176
     0
 40
1.0
176
     0
  0
VISUALSTYLE
  5
6816
102
{ACAD_REACTORS
330
6807
102
}
330
6807
100
AcDbVisualStyle
  2
Facepattern
 70
    15
177
     3
291
     1
 70
    58
 90
        2
176
     1
 90
        2
176
     1
 90
        0
176
     1
 90
        0
176
     1
 40
0.6
176
     1
 40
30.0
176
     1
 62
     7
176
     1
 90
        1
176
     1
 90
        4
176
     1
 62
     7
176
     1
 62
   257
176
     1
 90
        1
176
     1
 90
        1
176
     1
 40
1.0
176
     1
 90
        8
176
     1
 62
     7
176
     1
 40
1.0
176
     1
 90
        1
176
     1
 90
        6
176
     1
 90
        2
176
     1
 62
     7
176
     1
 90
        5
176
     1
 90
        0
176
     1
 90
        0
176
     1
290
     0
176
     1
 90
        1
176
     1
 40
0.0
176
     1
 90
        0
176
     1
290
     0
176
     1
290
     1
176
     1
290
     1
176
     1
290
     0
176
     1
290
     0
176
     1
290
     0
176
     1
290
     0
176
     1
290
     0
176
     1
290
     0
176
     1
 90
       50
176
     1
 40
0.0
176
     1
 40
1.0
176
     1
 90
        0
176
     1
 62
    18
420
        0
176
     1
 90
       50
176
     1
 90
        3
176
     1
 62
     5
420
      255
176
     1
290
     0
176
     1
 90
       50
176
     1
 90
       50
176
     1
 90
       50
176
     1
290
     0
176
     1
 90
       50
176
     1
 62
   256
176
     0
 40
1.0
176
     0
 90
        2
176
     1
  1
strokes_ogs.tif
176
     1
290
     0
176
     1
 40
1.0
176
     1
 40
1.0
176
     1
  0
VISUALSTYLE
  5
6808
102
{ACAD_REACTORS
330
6807
102
}
330
6807
100
AcDbVisualStyle
  2
Flat
 70
     0
177
     3
291
     1
 70
    58
 90
        2
176
     1
 90
        1
176
     1
 90
        1
176
     1
 90
        2
176
     1
 40
0.6
176
     1
 40
30.0
176
     1
 62
     7
176
     1
 90
        0
176
     1
 90
        0
176
     1
 62
     7
176
     1
 62
   257
176
     1
 90
        1
176
     1
 90
        1
176
     1
 40
1.0
176
     1
 90
        8
176
     1
 62
     7
176
     1
 40
1.0
176
     1
 90
        1
176
     1
 90
        6
176
     1
 90
        2
176
     1
 62
     7
176
     1
 90
        5
176
     1
 90
        0
176
     1
 90
        0
176
     1
290
     0
176
     1
 90
       13
176
     1
 40
0.0
176
     1
 90
        0
176
     1
290
     0
176
     1
290
     1
176
     1
290
     1
176
     1
290
     0
176
     1
290
     0
176
     1
290
     0
176
     1
290
     0
176
     1
290
     0
176
     1
290
     0
176
     1
 90
       50
176
     1
 40
0.0
176
     1
 40
1.0
176
     1
 90
        0
176
     1
 62
    18
420
        0
176
     1
 90
       50
176
     1
 90
        3
176
     1
 62
     5
420
      255
176
     1
290
     0
176
     1
 90
       50
176
     1
 90
       50
176
     1
 90
       50
176
     1
290
     0
176
     1
 90
       50
176
     1
 62
   256
176
     0
 40
1.0
176
     0
 90
        2
176
     1
  1
strokes_ogs.tif
176
     1
290
     0
176
     1
 40
1.0
176
     1
 40
1.0
176
     1
  0
VISUALSTYLE
  5
6809
102
{ACAD_REACTORS
330
6807
102
}
330
6807
100
AcDbVisualStyle
  2
FlatWithEdges
 70
     1
177
     3
291
     1
 70
    58
 90
        2
176
     1
 90
        1
176
     1
 90
        1
176
     1
 90
        2
176
     1
 40
0.6
176
     1
 40
30.0
176
     1
 62
     7
176
     1
 90
        1
176
     1
 90
        0
176
     1
 62
     7
176
     1
 62
   257
176
     1
 90
        1
176
     1
 90
        1
176
     1
 40
1.0
176
     1
 90
        0
176
     1
 62
   257
176
     1
 40
1.0
176
     1
 90
        1
176
     1
 90
        6
176
     1
 90
        2
176
     1
 62
     7
176
     1
 90
        5
176
     1
 90
        0
176
     1
 90
        0
176
     1
290
     0
176
     1
 90
       13
176
     1
 40
0.0
176
     1
 90
        0
176
     1
290
     0
176
     1
290
     1
176
     1
290
     1
176
     1
290
     0
176
     1
290
     0
176
     1
290
     0
176
     1
290
     0
176
     1
290
     0
176
     1
290
     0
176
     1
 90
       50
176
     1
 40
0.0
176
     1
 40
1.0
176
     1
 90
        0
176
     1
 62
    18
420
        0
176
     1
 90
       50
176
     1
 90
        3
176
     1
 62
     5
420
      255
176
     1
290
     0
176
     1
 90
       50
176
     1
 90
       50
176
     1
 90
       50
176
     1
290
     0
176
     1
 90
       50
176
     1
 62
   256
176
     0
 40
1.0
176
     0
 90
        2
176
     1
  1
strokes_ogs.tif
176
     1
290
     0
176
     1
 40
1.0
176
     1
 40
1.0
176
     1
  0
VISUALSTYLE
  5
680A
102
{ACAD_REACTORS
330
6807
102
}
330
6807
100
AcDbVisualStyle
  2
Gouraud
 70
     2
177
     3
291
     1
 70
    58
 90
        2
176
     1
 90
        2
176
     1
 90
        1
176
     1
 90
        2
176
     1
 40
0.6
176
     1
 40
30.0
176
     1
 62
     7
176
     1
 90
        0
176
     1
 90
        0
176
     1
 62
     7
176
     1
 62
   257
176
     1
 90
        1
176
     1
 90
        1
176
     1
 40
1.0
176
     1
 90
        0
176
     1
 62
     7
176
     1
 40
1.0
176
     1
 90
        1
176
     1
 90
        6
176
     1
 90
        2
176
     1
 62
     7
176
     1
 90
        5
176
     1
 90
        0
176
     1
 90
        0
176
     1
290
     0
176
     1
 90
       13
176
     1
 40
0.0
176
     1
 90
        0
176
     1
290
     0
176
     1
290
     1
176
     1
290
     1
176
     1
290
     0
176
     1
290
     0
176
     1
290
     0
176
     1
290
     0
176
     1
290
     0
176
     1
290
     0
176
     1
 90
       50
176
     1
 40
0.0
176
     1
 40
1.0
176
     1
 90
        0
176
     1
 62
    18
420
        0
176
     1
 90
       50
176
     1
 90
        3
176
     1
 62
     5
420
      255
176
     1
290
     0
176
     1
 90
       50
176
     1
 90
       50
176
     1
 90
       50
176
     1
290
     0
176
     1
 90
       50
176
     1
 62
   256
176
     0
 40
1.0
176
     0
 90
        2
176
     1
  1
strokes_ogs.tif
176
     1
290
     0
176
     1
 40
1.0
176
     1
 40
1.0
176
     1
  0
VISUALSTYLE
  5
680B
102
{ACAD_REACTORS
330
6807
102
}
330
6807
100
AcDbVisualStyle
  2
GouraudWithEdges
 70
     3
177
     3
291
     1
 70
    58
 90
        2
176
     1
 90
        2
176
     1
 90
        1
176
     1
 90
        2
176
     1
 40
0.6
176
     1
 40
30.0
176
     1
 62
     7
176
     1
 90
        1
176
     1
 90
        0
176
     1
 62
     7
176
     1
 62
   257
176
     1
 90
        1
176
     1
 90
        1
176
     1
 40
1.0
176
     1
 90
        0
176
     1
 62
   257
176
     1
 40
1.0
176
     1
 90
        1
176
     1
 90
        6
176
     1
 90
        2
176
     1
 62
     7
176
     1
 90
        5
176
     1
 90
        0
176
     1
 90
        0
176
     1
290
     0
176
     1
 90
       13
176
     1
 40
0.0
176
     1
 90
        0
176
     1
290
     0
176
     1
290
     1
176
     1
290
     1
176
     1
290
     0
176
     1
290
     0
176
     1
290
     0
176
     1
290
     0
176
     1
290
     0
176
     1
290
     0
176
     1
 90
       50
176
     1
 40
0.0
176
     1
 40
1.0
176
     1
 90
        0
176
     1
 62
    18
420
        0
176
     1
 90
       50
176
     1
 90
        3
176
     1
 62
     5
420
      255
176
     1
290
     0
176
     1
 90
       50
176
     1
 90
       50
176
     1
 90
       50
176
     1
290
     0
176
     1
 90
       50
176
     1
 62
   256
176
     0
 40
1.0
176
     0
 90
        2
176
     1
  1
strokes_ogs.tif
176
     1
290
     0
176
     1
 40
1.0
176
     1
 40
1.0
176
     1
  0
VISUALSTYLE
  5
680F
102
{ACAD_REACTORS
330
6807
102
}
330
6807
100
AcDbVisualStyle
  2
Hidden
 70
     6
177
     3
291
     0
 70
    58
 90
        1
176
     1
 90
        2
176
     1
 90
        2
176
     1
 90
        0
176
     1
 40
0.6
176
     1
 40
30.0
176
     1
 62
     7
176
     1
 90
        2
176
     1
 90
        2
176
     1
 62
     7
176
     1
 62
   257
176
     1
 90
        2
176
     1
 90
        1
176
     1
 40
40.0
176
     1
 90
        0
176
     1
 62
   257
176
     1
 40
1.0
176
     1
 90
        1
176
     1
 90
        6
176
     1
 90
        2
176
     1
 62
     7
176
     1
 90
        3
176
     1
 90
        0
176
     1
 90
        0
176
     1
290
     0
176
     1
 90
        1
176
     1
 40
0.0
176
     1
 90
        0
176
     1
290
     0
176
     1
290
     1
176
     1
290
     1
176
     1
290
     0
176
     1
290
     0
176
     1
290
     0
176
     1
290
     0
176
     1
290
     0
176
     1
290
     0
176
     1
 90
       50
176
     1
 40
0.0
176
     1
 40
1.0
176
     1
 90
        0
176
     1
 62
    18
420
        0
176
     1
 90
       50
176
     1
 90
        3
176
     1
 62
     5
420
      255
176
     1
290
     0
176
     1
 90
       50
176
     1
 90
       50
176
     1
 90
       50
176
     1
290
     0
176
     1
 90
       50
176
     1
 62
   256
176
     0
 40
1.0
176
     0
 90
        2
176
     1
  1
strokes_ogs.tif
176
     1
290
     0
176
     1
 40
1.0
176
     1
 40
1.0
176
     1
  0
VISUALSTYLE
  5
681D
102
{ACAD_REACTORS
330
6807
102
}
330
6807
100
AcDbVisualStyle
  2
JitterOff
 70
    20
177
     3
291
     1
 70
    58
 90
        2
176
     0
 90
        2
176
     0
 90
        0
176
     0
 90
        0
176
     0
 40
0.6
176
     0
 40
30.0
176
     0
 62
     7
176
     0
 90
        1
176
     0
 90
        4
176
     0
 62
     7
176
     0
 62
   257
176
     0
 90
        1
176
     0
 90
        1
176
     0
 40
1.0
176
     0
 90
       10
176
     2
 62
     7
176
     0
 40
1.0
176
     0
 90
        1
176
     0
 90
        6
176
     0
 90
        2
176
     0
 62
     7
176
     0
 90
        5
176
     0
 90
        0
176
     0
 90
        0
176
     0
290
     0
176
     0
 90
        1
176
     0
 40
0.0
176
     0
 90
        0
176
     0
290
     0
176
     1
290
     1
176
     1
290
     1
176
     1
290
     0
176
     1
290
     0
176
     1
290
     0
176
     1
290
     0
176
     1
290
     0
176
     1
290
     0
176
     1
 90
       50
176
     0
 40
0.0
176
     0
 40
1.0
176
     0
 90
        0
176
     0
 62
    18
420
        0
176
     0
 90
       50
176
     0
 90
        3
176
     0
 62
     5
420
      255
176
     0
290
     0
176
     1
 90
       50
176
     0
 90
       50
176
     0
 90
       50
176
     0
290
     0
176
     1
 90
       50
176
     0
 62
   256
176
     0
 40
1.0
176
     0
 90
        2
176
     0
  1
strokes_ogs.tif
176
     0
290
     0
176
     1
 40
1.0
176
     0
 40
1.0
176
     0
  0
VISUALSTYLE
  5
6815
102
{ACAD_REACTORS
330
6807
102
}
330
6807
100
AcDbVisualStyle
  2
Linepattern
 70
    14
177
     3
291
     1
 70
    58
 90
        2
176
     1
 90
        2
176
     1
 90
        0
176
     1
 90
        0
176
     1
 40
0.6
176
     1
 40
30.0
176
     1
 62
     7
176
     1
 90
        1
176
     1
 90
        4
176
     1
 62
     7
176
     1
 62
   257
176
     1
 90
        7
176
     1
 90
        7
176
     1
 40
1.0
176
     1
 90
        8
176
     1
 62
     7
176
     1
 40
1.0
176
     1
 90
        1
176
     1
 90
        6
176
     1
 90
        2
176
     1
 62
     7
176
     1
 90
        5
176
     1
 90
        0
176
     1
 90
        0
176
     1
290
     0
176
     1
 90
        1
176
     1
 40
0.0
176
     1
 90
        0
176
     1
290
     0
176
     1
290
     1
176
     1
290
     1
176
     1
290
     0
176
     1
290
     0
176
     1
290
     0
176
     1
290
     0
176
     1
290
     0
176
     1
290
     0
176
     1
 90
       50
176
     1
 40
0.0
176
     1
 40
1.0
176
     1
 90
        0
176
     1
 62
    18
420
        0
176
     1
 90
       50
176
     1
 90
        3
176
     1
 62
     5
420
      255
176
     1
290
     0
176
     1
 90
       50
176
     1
 90
       50
176
     1
 90
       50
176
     1
290
     0
176
     1
 90
       50
176
     1
 62
   256
176
     0
 40
1.0
176
     0
 90
        2
176
     1
  1
strokes_ogs.tif
176
     1
290
     0
176
     1
 40
1.0
176
     1
 40
1.0
176
     1
  0
VISUALSTYLE
  5
681E
102
{ACAD_REACTORS
330
6807
102
}
330
6807
100
AcDbVisualStyle
  2
OverhangOff
 70
    21
177
     3
291
     1
 70
    58
 90
        2
176
     0
 90
        2
176
     0
 90
        0
176
     0
 90
        0
176
     0
 40
0.6
176
     0
 40
30.0
176
     0
 62
     7
176
     0
 90
        1
176
     0
 90
        4
176
     0
 62
     7
176
     0
 62
   257
176
     0
 90
        1
176
     0
 90
        1
176
     0
 40
1.0
176
     0
 90
        9
176
     2
 62
     7
176
     0
 40
1.0
176
     0
 90
        1
176
     0
 90
        6
176
     0
 90
        2
176
     0
 62
     7
176
     0
 90
        5
176
     0
 90
        0
176
     0
 90
        0
176
     0
290
     0
176
     0
 90
        1
176
     0
 40
0.0
176
     0
 90
        0
176
     0
290
     0
176
     1
290
     1
176
     1
290
     1
176
     1
290
     0
176
     1
290
     0
176
     1
290
     0
176
     1
290
     0
176
     1
290
     0
176
     1
290
     0
176
     1
 90
       50
176
     0
 40
0.0
176
     0
 40
1.0
176
     0
 90
        0
176
     0
 62
    18
420
        0
176
     0
 90
       50
176
     0
 90
        3
176
     0
 62
     5
420
      255
176
     0
290
     0
176
     1
 90
       50
176
     0
 90
       50
176
     0
 90
       50
176
     0
290
     0
176
     1
 90
       50
176
     0
 62
   256
176
     0
 40
1.0
176
     0
 90
        2
176
     0
  1
strokes_ogs.tif
176
     0
290
     0
176
     1
 40
1.0
176
     0
 40
1.0
176
     0
  0
VISUALSTYLE
  5
6811
102
{ACAD_REACTORS
330
6807
102
}
330
6807
100
AcDbVisualStyle
  2
Realistic
 70
     8
177
     3
291
     0
 70
    58
 90
        2
176
     1
 90
        2
176
     1
 90
        0
176
     1
 90
        2
176
     1
 40
0.6
176
     1
 40
30.0
176
     1
 62
     7
176
     1
 90
        0
176
     1
 90
        0
176
     1
 62
     7
176
     1
 62
   257
176
     1
 90
        1
176
     1
 90
        1
176
     1
 40
1.0
176
     1
 90
        8
176
     1
 62
   257
176
     1
 40
1.0
176
     1
 90
        1
176
     1
 90
        6
176
     1
 90
        2
176
     1
 62
     7
176
     1
 90
        3
176
     1
 90
        0
176
     1
 90
        0
176
     1
290
     0
176
     1
 90
       13
176
     1
 40
0.0
176
     1
 90
        0
176
     1
290
     0
176
     1
290
     1
176
     1
290
     1
176
     1
290
     0
176
     1
290
     0
176
     1
290
     0
176
     1
290
     0
176
     1
290
     0
176
     1
290
     0
176
     1
 90
       50
176
     1
 40
0.0
176
     1
 40
1.0
176
     1
 90
        0
176
     1
 62
    18
420
        0
176
     1
 90
       50
176
     1
 90
        3
176
     1
 62
     5
420
      255
176
     1
290
     0
176
     1
 90
       50
176
     1
 90
       50
176
     1
 90
       50
176
     1
290
     0
176
     1
 90
       50
176
     1
 62
   256
176
     0
 40
1.0
176
     0
 90
        2
176
     1
  1
strokes_ogs.tif
176
     1
290
     0
176
     1
 40
1.0
176
     1
 40
1.0
176
     1
  0
VISUALSTYLE
  5
681C
102
{ACAD_REACTORS
330
6807
102
}
330
6807
100
AcDbVisualStyle
  2
Shaded
 70
    27
177
     3
291
     0
 70
    58
 90
        2
176
     1
 90
        2
176
     1
 90
        1
176
     1
 90
        2
176
     1
 40
0.6
176
     1
 40
30.0
176
     1
 62
     7
176
     1
 90
        0
176
     1
 90
        4
176
     1
 62
     7
176
     1
 62
   257
176
     1
 90
        1
176
     1
 90
        1
176
     1
 40
1.0
176
     1
 90
        8
176
     1
 62
   257
176
     1
 40
1.0
176
     1
 90
        1
176
     1
 90
        6
176
     1
 90
        2
176
     1
 62
     8
176
     1
 90
        3
176
     1
 90
        0
176
     1
 90
        0
176
     1
290
     0
176
     1
 90
        5
176
     1
 40
0.0
176
     1
 90
        0
176
     1
290
     0
176
     1
290
     1
176
     1
290
     1
176
     1
290
     0
176
     1
290
     0
176
     1
290
     0
176
     1
290
     0
176
     1
290
     0
176
     1
290
     0
176
     1
 90
       50
176
     1
 40
0.0
176
     1
 40
1.0
176
     1
 90
        0
176
     1
 62
    18
420
        0
176
     1
 90
       50
176
     1
 90
        3
176
     1
 62
     5
420
      255
176
     1
290
     0
176
     1
 90
       50
176
     1
 90
       50
176
     1
 90
       50
176
     1
290
     0
176
     1
 90
       50
176
     1
 62
   256
176
     0
 40
1.0
176
     0
 90
        2
176
     1
  1
strokes_ogs.tif
176
     1
290
     0
176
     1
 40
1.0
176
     1
 40
1.0
176
     1
  0
VISUALSTYLE
  5
681B
102
{ACAD_REACTORS
330
6807
102
}
330
6807
100
AcDbVisualStyle
  2
Shaded with edges
 70
    26
177
     3
291
     0
 70
    58
 90
        2
176
     1
 90
        2
176
     1
 90
        1
176
     1
 90
        2
176
     1
 40
0.6
176
     1
 40
30.0
176
     1
 62
     7
176
     1
 90
        1
176
     1
 90
        2
176
     1
 62
     7
176
     1
 62
   257
176
     1
 90
        2
176
     1
 90
        1
176
     1
 40
1.0
176
     1
 90
        8
176
     1
 62
   257
176
     1
 40
1.0
176
     1
 90
        1
176
     1
 90
        6
176
     1
 90
        2
176
     1
 62
     7
176
     1
 90
        3
176
     1
 90
        0
176
     1
 90
        0
176
     1
290
     0
176
     1
 90
        5
176
     1
 40
0.0
176
     1
 90
        0
176
     1
290
     0
176
     1
290
     1
176
     1
290
     1
176
     1
290
     0
176
     1
290
     0
176
     1
290
     0
176
     1
290
     0
176
     1
290
     0
176
     1
290
     0
176
     1
 90
       50
176
     1
 40
0.0
176
     1
 40
1.0
176
     1
 90
        0
176
     1
 62
    18
420
        0
176
     1
 90
       50
176
     1
 90
        3
176
     1
 62
     5
420
      255
176
     1
290
     0
176
     1
 90
       50
176
     1
 90
       50
176
     1
 90
       50
176
     1
290
     0
176
     1
 90
       50
176
     1
 62
   256
176
     0
 40
1.0
176
     0
 90
        2
176
     1
  1
strokes_ogs.tif
176
     1
290
     0
176
     1
 40
1.0
176
     1
 40
1.0
176
     1
  0
VISUALSTYLE
  5
6818
102
{ACAD_REACTORS
330
6807
102
}
330
6807
100
AcDbVisualStyle
  2
Shades of Gray
 70
    23
177
     3
291
     0
 70
    58
 90
        2
176
     1
 90
        2
176
     1
 90
        3
176
     1
 90
        0
176
     1
 40
0.6
176
     1
 40
30.0
176
     1
 62
     7
176
     1
 90
        2
176
     1
 90
        2
176
     1
 62
     7
176
     1
 62
     7
176
     1
 90
        1
176
     1
 90
        1
176
     1
 40
40.0
176
     1
 90
        8
176
     1
 62
     7
176
     1
 40
1.0
176
     1
 90
        1
176
     1
 90
        6
176
     1
 90
        2
176
     1
 62
     7
176
     1
 90
        3
176
     1
 90
        0
176
     1
 90
        0
176
     1
290
     0
176
     1
 90
        1
176
     1
 40
0.0
176
     1
 90
        0
176
     1
290
     0
176
     1
290
     1
176
     1
290
     1
176
     1
290
     0
176
     1
290
     0
176
     1
290
     0
176
     1
290
     0
176
     1
290
     0
176
     1
290
     0
176
     1
 90
       50
176
     1
 40
0.0
176
     1
 40
1.0
176
     1
 90
        0
176
     1
 62
    18
420
        0
176
     1
 90
       50
176
     1
 90
        3
176
     1
 62
     5
420
      255
176
     1
290
     0
176
     1
 90
       50
176
     1
 90
       50
176
     1
 90
       50
176
     1
290
     0
176
     1
 90
       50
176
     1
 62
   256
176
     0
 40
1.0
176
     0
 90
        2
176
     1
  1
strokes_ogs.tif
176
     1
290
     0
176
     1
 40
1.0
176
     1
 40
1.0
176
     1
  0
VISUALSTYLE
  5
6819
102
{ACAD_REACTORS
330
6807
102
}
330
6807
100
AcDbVisualStyle
  2
Sketchy
 70
    24
177
     3
291
     0
 70
    58
 90
        1
176
     1
 90
        2
176
     1
 90
        2
176
     1
 90
        0
176
     1
 40
0.6
176
     1
 40
30.0
176
     1
 62
     7
176
     1
 90
        2
176
     1
 90
        2
176
     1
 62
     7
176
     1
 62
     7
176
     1
 90
        1
176
     1
 90
        1
176
     1
 40
40.0
176
     1
 90
       11
176
     1
 62
     7
176
     1
 40
1.0
176
     1
 90
        1
176
     1
 90
        6
176
     1
 90
        2
176
     1
 62
     7
176
     1
 90
        6
176
     1
 90
        0
176
     1
 90
        0
176
     1
290
     0
176
     1
 90
        1
176
     1
 40
0.0
176
     1
 90
        0
176
     1
290
     0
176
     1
290
     1
176
     1
290
     1
176
     1
290
     0
176
     1
290
     0
176
     1
290
     0
176
     1
290
     0
176
     1
290
     0
176
     1
290
     0
176
     1
 90
       50
176
     1
 40
0.0
176
     1
 40
1.0
176
     1
 90
        0
176
     1
 62
    18
420
        0
176
     1
 90
       50
176
     1
 90
        3
176
     1
 62
     5
420
      255
176
     1
290
     0
176
     1
 90
       50
176
     1
 90
       50
176
     1
 90
       50
176
     1
290
     0
176
     1
 90
       50
176
     1
 62
   256
176
     0
 40
1.0
176
     0
 90
        2
176
     1
  1
strokes_ogs.tif
176
     1
290
     0
176
     1
 40
1.0
176
     1
 40
1.0
176
     1
  0
VISUALSTYLE
  5
6814
102
{ACAD_REACTORS
330
6807
102
}
330
6807
100
AcDbVisualStyle
  2
Thicken
 70
    13
177
     3
291
     1
 70
    58
 90
        2
176
     1
 90
        2
176
     1
 90
        0
176
     1
 90
        0
176
     1
 40
0.6
176
     1
 40
30.0
176
     1
 62
     7
176
     1
 90
        1
176
     1
 90
        4
176
     1
 62
     7
176
     1
 62
   257
176
     1
 90
        1
176
     1
 90
        1
176
     1
 40
1.0
176
     1
 90
       12
176
     1
 62
     7
176
     1
 40
1.0
176
     1
 90
        1
176
     1
 90
        6
176
     1
 90
        2
176
     1
 62
     7
176
     1
 90
        5
176
     1
 90
        0
176
     1
 90
        0
176
     1
290
     0
176
     1
 90
        1
176
     1
 40
0.0
176
     1
 90
        0
176
     1
290
     0
176
     1
290
     1
176
     1
290
     1
176
     1
290
     0
176
     1
290
     0
176
     1
290
     0
176
     1
290
     0
176
     1
290
     0
176
     1
290
     0
176
     1
 90
       50
176
     1
 40
0.0
176
     1
 40
1.0
176
     1
 90
        0
176
     1
 62
    18
420
        0
176
     1
 90
       50
176
     1
 90
        3
176
     1
 62
     5
420
      255
176
     1
290
     0
176
     1
 90
       50
176
     1
 90
       50
176
     1
 90
       50
176
     1
290
     0
176
     1
 90
       50
176
     1
 62
   256
176
     0
 40
1.0
176
     0
 90
        2
176
     1
  1
strokes_ogs.tif
176
     1
290
     0
176
     1
 40
1.0
176
     1
 40
1.0
176
     1
  0
VISUALSTYLE
  5
680E
102
{ACAD_REACTORS
330
6807
102
}
330
6807
100
AcDbVisualStyle
  2
Wireframe
 70
     5
177
     3
291
     0
 70
    58
 90
        0
176
     1
 90
        2
176
     1
 90
        0
176
     1
 90
        0
176
     1
 40
0.6
176
     1
 40
30.0
176
     1
 62
     7
176
     1
 90
        1
176
     1
 90
        4
176
     1
 62
     7
176
     1
 62
   257
176
     1
 90
        1
176
     1
 90
        1
176
     1
 40
1.0
176
     1
 90
        0
176
     1
 62
   257
176
     1
 40
1.0
176
     1
 90
        1
176
     1
 90
        6
176
     1
 90
        2
176
     1
 62
     7
176
     1
 90
        3
176
     1
 90
        0
176
     1
 90
        0
176
     1
290
     0
176
     1
 90
        1
176
     1
 40
0.0
176
     1
 90
        0
176
     1
290
     0
176
     1
290
     1
176
     1
290
     1
176
     1
290
     0
176
     1
290
     0
176
     1
290
     0
176
     1
290
     0
176
     1
290
     0
176
     1
290
     0
176
     1
 90
       50
176
     1
 40
0.0
176
     1
 40
1.0
176
     1
 90
        0
176
     1
 62
    18
420
        0
176
     1
 90
       50
176
     1
 90
        3
176
     1
 62
     5
420
      255
176
     1
290
     0
176
     1
 90
       50
176
     1
 90
       50
176
     1
 90
       50
176
     1
290
     0
176
     1
 90
       50
176
     1
 62
   256
176
     0
 40
1.0
176
     0
 90
        2
176
     1
  1
strokes_ogs.tif
176
     1
290
     0
176
     1
 40
1.0
176
     1
 40
1.0
176
     1
  0
VISUALSTYLE
  5
681A
102
{ACAD_REACTORS
330
6807
102
}
330
6807
100
AcDbVisualStyle
  2
X-Ray
 70
    25
177
     3
291
     0
 70
    58
 90
        2
176
     1
 90
        2
176
     1
 90
        1
176
     1
 90
        1
176
     1
 40
0.5
176
     1
 40
30.0
176
     1
 62
     7
176
     1
 90
        1
176
     1
 90
        0
176
     1
 62
     7
176
     1
 62
   257
176
     1
 90
        1
176
     1
 90
        1
176
     1
 40
1.0
176
     1
 90
        8
176
     1
 62
     7
176
     1
 40
1.0
176
     1
 90
        1
176
     1
 90
        6
176
     1
 90
        2
176
     1
 62
     7
176
     1
 90
        3
176
     1
 90
        0
176
     1
 90
        0
176
     1
290
     0
176
     1
 90
       13
176
     1
 40
0.0
176
     1
 90
        0
176
     1
290
     0
176
     1
290
     1
176
     1
290
     1
176
     1
290
     0
176
     1
290
     0
176
     1
290
     0
176
     1
290
     0
176
     1
290
     0
176
     1
290
     0
176
     1
 90
       50
176
     1
 40
0.0
176
     1
 40
1.0
176
     1
 90
        0
176
     1
 62
    18
420
        0
176
     1
 90
       50
176
     1
 90
        3
176
     1
 62
     5
420
      255
176
     1
290
     0
176
     1
 90
       50
176
     1
 90
       50
176
     1
 90
       50
176
     1
290
     0
176
     1
 90
       50
176
     1
 62
   256
176
     0
 40
1.0
176
     0
 90
        2
176
     1
  1
strokes_ogs.tif
176
     1
290
     0
176
     1
 40
1.0
176
     1
 40
1.0
176
     1
  0
DICTIONARYVAR
  5
689F
102
{ACAD_REACTORS
330
689A
102
}
330
689A
100
DictionaryVariables
280
     0
  1
1:1
  0
DICTIONARYVAR
  5
689C
102
{ACAD_REACTORS
330
689A
102
}
330
689A
100
DictionaryVariables
280
     0
  1
STANDARD
  0
DICTIONARYVAR
  5
689B
102
{ACAD_REACTORS
330
689A
102
}
330
689A
100
DictionaryVariables
280
     0
  1
STANDARD
  0
DICTIONARYVAR
  5
689D
102
{ACAD_REACTORS
330
689A
102
}
330
689A
100
DictionaryVariables
280
     0
  1
Imperial24
  0
DICTIONARYVAR
  5
689E
102
{ACAD_REACTORS
330
689A
102
}
330
689A
100
DictionaryVariables
280
     0
  1
Imperial24
  0
DICTIONARYVAR
  5
68A2
102
{ACAD_REACTORS
330
689A
102
}
330
689A
100
DictionaryVariables
280
     0
  1
1
  0
DICTIONARYVAR
  5
68A1
102
{ACAD_REACTORS
330
689A
102
}
330
689A
100
DictionaryVariables
280
     0
  1
0
  0
DICTIONARYVAR
  5
69D3
102
{ACAD_REACTORS
330
689A
102
}
330
689A
100
DictionaryVariables
280
     0
  1
1
  0
DICTIONARYVAR
  5
69D4
102
{ACAD_REACTORS
330
689A
102
}
330
689A
100
DictionaryVariables
280
     0
  1
15
  0
DICTIONARYVAR
  5
69D2
102
{ACAD_REACTORS
330
689A
102
}
330
689A
100
DictionaryVariables
280
     0
  1
0
  0
DICTIONARYVAR
  5
69D1
102
{ACAD_REACTORS
330
689A
102
}
330
689A
100
DictionaryVariables
280
     0
  1
0
  0
DICTIONARYVAR
  5
68A0
102
{ACAD_REACTORS
330
689A
102
}
330
689A
100
DictionaryVariables
280
     0
  1
127
  0
DICTIONARY
  5
67F8
330
67F7
100
AcDbDictionary
280
     1
281
     1
  3
BUMPTILE
360
67FA
  3
DIFFUSETILE
360
67F9
  3
OPACITYTILE
360
67FD
  3
REFLECTIONTILE
360
67FC
  3
REFRACTIONTILE
360
67FE
  3
SPECULARTILE
360
67FB
  0
DICTIONARY
  5
67F0
330
67EF
100
AcDbDictionary
280
     1
281
     1
  3
BUMPTILE
360
67F2
  3
DIFFUSETILE
360
67F1
  3
OPACITYTILE
360
67F5
  3
REFLECTIONTILE
360
67F4
  3
REFRACTIONTILE
360
67F6
  3
SPECULARTILE
360
67F3
  0
DICTIONARY
  5
6800
330
67FF
100
AcDbDictionary
280
     1
281
     1
  3
BUMPTILE
360
6802
  3
DIFFUSETILE
360
6801
  3
OPACITYTILE
360
6805
  3
REFLECTIONTILE
360
6804
  3
REFRACTIONTILE
360
6806
  3
SPECULARTILE
360
6803
  0
DICTIONARY
  5
683C
330
6822
100
AcDbDictionary
280
     1
281
     1
  3
ACAD_ROUNDTRIP_2008_TABLESTYLE_CELLSTYLEMAP
360
69E3
  0
XRECORD
  5
67FA
102
{ACAD_REACTORS
330
67F8
102
}
330
67F8
100
AcDbXrecord
280
     1
270
     1
271
     1
  0
XRECORD
  5
67F9
102
{ACAD_REACTORS
330
67F8
102
}
330
67F8
100
AcDbXrecord
280
     1
270
     1
271
     1
  0
XRECORD
  5
67FD
102
{ACAD_REACTORS
330
67F8
102
}
330
67F8
100
AcDbXrecord
280
     1
270
     1
271
     1
  0
XRECORD
  5
67FC
102
{ACAD_REACTORS
330
67F8
102
}
330
67F8
100
AcDbXrecord
280
     1
270
     1
271
     1
  0
XRECORD
  5
67FE
102
{ACAD_REACTORS
330
67F8
102
}
330
67F8
100
AcDbXrecord
280
     1
270
     1
271
     1
  0
XRECORD
  5
67FB
102
{ACAD_REACTORS
330
67F8
102
}
330
67F8
100
AcDbXrecord
280
     1
270
     1
271
     1
  0
XRECORD
  5
67F2
102
{ACAD_REACTORS
330
67F0
102
}
330
67F0
100
AcDbXrecord
280
     1
270
     1
271
     1
  0
XRECORD
  5
67F1
102
{ACAD_REACTORS
330
67F0
102
}
330
67F0
100
AcDbXrecord
280
     1
270
     1
271
     1
  0
XRECORD
  5
67F5
102
{ACAD_REACTORS
330
67F0
102
}
330
67F0
100
AcDbXrecord
280
     1
270
     1
271
     1
  0
XRECORD
  5
67F4
102
{ACAD_REACTORS
330
67F0
102
}
330
67F0
100
AcDbXrecord
280
     1
270
     1
271
     1
  0
XRECORD
  5
67F6
102
{ACAD_REACTORS
330
67F0
102
}
330
67F0
100
AcDbXrecord
280
     1
270
     1
271
     1
  0
XRECORD
  5
67F3
102
{ACAD_REACTORS
330
67F0
102
}
330
67F0
100
AcDbXrecord
280
     1
270
     1
271
     1
  0
XRECORD
  5
6802
102
{ACAD_REACTORS
330
6800
102
}
330
6800
100
AcDbXrecord
280
     1
270
     1
271
     1
  0
XRECORD
  5
6801
102
{ACAD_REACTORS
330
6800
102
}
330
6800
100
AcDbXrecord
280
     1
270
     1
271
     1
  0
XRECORD
  5
6805
102
{ACAD_REACTORS
330
6800
102
}
330
6800
100
AcDbXrecord
280
     1
270
     1
271
     1
  0
XRECORD
  5
6804
102
{ACAD_REACTORS
330
6800
102
}
330
6800
100
AcDbXrecord
280
     1
270
     1
271
     1
  0
XRECORD
  5
6806
102
{ACAD_REACTORS
330
6800
102
}
330
6800
100
AcDbXrecord
280
     1
270
     1
271
     1
  0
XRECORD
  5
6803
102
{ACAD_REACTORS
330
6800
102
}
330
6800
100
AcDbXrecord
280
     1
270
     1
271
     1
  0
CELLSTYLEMAP
  5
69E3
102
{ACAD_REACTORS
330
683C
102
}
330
683C
100
AcDbCellStyleMap
 90
        3
300
CELLSTYLE
  1
TABLEFORMAT_BEGIN
 90
        5
170
     1
 91
        0
 92
    32768
 62
   257
 93
        1
300
CONTENTFORMAT
  1
CONTENTFORMAT_BEGIN
 90
        0
 91
        0
 92
      512
 93
        0
300

 40
0.0
140
1.0
 94
        5
 62
     0
340
11
144
0.25
309
CONTENTFORMAT_END
171
     0
 94
        0
309
TABLEFORMAT_END
  1
CELLSTYLE_BEGIN
 90
        1
 91
        1
300
_TITLE
309
CELLSTYLE_END
300
CELLSTYLE
  1
TABLEFORMAT_BEGIN
 90
        5
170
     1
 91
        0
 92
        0
 62
   257
 93
        1
300
CONTENTFORMAT
  1
CONTENTFORMAT_BEGIN
 90
        0
 91
        0
 92
      512
 93
        0
300

 40
0.0
140
1.0
 94
        5
 62
     0
340
11
144
0.18
309
CONTENTFORMAT_END
171
     0
 94
        0
309
TABLEFORMAT_END
  1
CELLSTYLE_BEGIN
 90
        2
 91
        1
300
_HEADER
309
CELLSTYLE_END
300
CELLSTYLE
  1
TABLEFORMAT_BEGIN
 90
        5
170
     1
 91
        0
 92
        0
 62
   257
 93
        1
300
CONTENTFORMAT
  1
CONTENTFORMAT_BEGIN
 90
        0
 91
        0
 92
      512
 93
        0
300

 40
0.0
140
1.0
 94
        2
 62
     0
340
11
144
0.18
309
CONTENTFORMAT_END
171
     0
 94
        0
309
TABLEFORMAT_END
  1
CELLSTYLE_BEGIN
 90
        3
 91
        2
300
_DATA
309
CELLSTYLE_END
  0
ENDSEC
  0
SECTION
  2
ACDSDATA
 70
     2
 71
     8
  0
ACDSSCHEMA
 90
        0
  1
AcDb_Thumbnail_Schema
  2
AcDbDs::ID
280
    10
 91
        8
  2
Thumbnail_Data
280
    15
 91
        0
101
ACDSRECORD
 95
        0
 90
        1
  2
AcDbDs::TreatedAsObjectData
280
     1
291
     1
101
ACDSRECORD
 95
        0
 90
        2
  2
AcDbDs::Legacy
280
     1
291
     1
101
ACDSRECORD
  1
AcDbDs::ID
 90
        3
  2
AcDs:Indexable
280
     1
291
     1
101
ACDSRECORD
  1
AcDbDs::ID
 90
        4
  2
AcDbDs::HandleAttribute
280
     7
282
     1
  0
ACDSSCHEMA
 90
        1
  1
AcDbDs::TreatedAsObjectDataSchema
  2
AcDbDs::TreatedAsObjectData
280
     1
 91
        0
  0
ACDSSCHEMA
 90
        2
  1
AcDbDs::LegacySchema
  2
AcDbDs::Legacy
280
     1
 91
        0
  0
ACDSSCHEMA
 90
        3
  1
AcDbDs::IndexedPropertySchema
  2
AcDs:Indexable
280
     1
 91
        0
  0
ACDSSCHEMA
 90
        4
  1
AcDbDs::HandleAttributeSchema
  2
AcDbDs::HandleAttribute
280
     7
 91
        1
284
     1
  0
ACDSRECORD
 90
        0
  2
AcDbDs::ID
280
    10
320
67E8
  2
Thumbnail_Data
280
    15
 94
     1166
310
89504E470D0A1A0A0000000D49484452000001000000007408030000005D681C3700000300504C5445212830FFFFFF2128300000000000000000000000000000000000000000000000000000330000660000990000CC0000FF0033000033330033660033990033CC0033FF0066000066330066660066990066CC0066FF0099
310
000099330099660099990099CC0099FF00CC0000CC3300CC6600CC9900CCCC00CCFF00FF0000FF3300FF6600FF9900FFCC00FFFF3300003300333300663300993300CC3300FF3333003333333333663333993333CC3333FF3366003366333366663366993366CC3366FF3399003399333399663399993399CC3399FF33CC00
310
33CC3333CC6633CC9933CCCC33CCFF33FF0033FF3333FF6633FF9933FFCC33FFFF6600006600336600666600996600CC6600FF6633006633336633666633996633CC6633FF6666006666336666666666996666CC6666FF6699006699336699666699996699CC6699FF66CC0066CC3366CC6666CC9966CCCC66CCFF66FF0066
310
FF3366FF6666FF9966FFCC66FFFF9900009900339900669900999900CC9900FF9933009933339933669933999933CC9933FF9966009966339966669966999966CC9966FF9999009999339999669999999999CC9999FF99CC0099CC3399CC6699CC9999CCCC99CCFF99FF0099FF3399FF6699FF9999FFCC99FFFFCC0000CC00
310
33CC0066CC0099CC00CCCC00FFCC3300CC3333CC3366CC3399CC33CCCC33FFCC6600CC6633CC6666CC6699CC66CCCC66FFCC9900CC9933CC9966CC9999CC99CCCC99FFCCCC00CCCC33CCCC66CCCC99CCCCCCCCCCFFCCFF00CCFF33CCFF66CCFF99CCFFCCCCFFFFFF0000FF0033FF0066FF0099FF00CCFF00FFFF3300FF3333
310
FF3366FF3399FF33CCFF33FFFF6600FF6633FF6666FF6699FF66CCFF66FFFF9900FF9933FF9966FF9999FF99CCFF99FFFFCC00FFCC33FFCC66FFCC99FFCCCCFFCCFFFFFF00FFFF33FFFF66FFFF99FFFFCCFFFFFF0000000D0D0D1A1A1A2828283535354343435050505D5D5D6B6B6B787878868686939393A1A1A1AEAEAEBB
310
BBBBC9C9C9D6D6D6E4E4E4F1F1F1FFFFFF0000000000000000000000000000000000000000000000000000000000002E4550F1000001494944415478DAEDDCCB8A83601044E17EFF67ADADFB04CD45831202B12DAD7316330303837EF377C76C52454444444444F4A5E14401B00BC0F44DD6C7549A5DEA3E00DE02AAFD019C
310
05541D00E653D000E02B20007A000A807400F335D87002E47C000088DD01AD0002207A097A0BC402B0047B01E47AFFB100CD3BC0582015A07B04AA0050FC091000C94BD0750500D009A0F813200058823FFD777815B8DCAB80D2015C0454E100EC807480E346C064060E04B0105001C0128C0638F604287E0404004B902598
310
0D20A30938E60448F100CA06B85F829277C024A06880710C943B022F023D209E5F163FFECF48DB2BD8FF39E01364956DE557F35BD7F20F653C083DEE76BC5F6D8FDCD59F04DF73B6314ED77F14D6743D8A7E2F30A4BF19020000009A01D23F3FA0CE73020A0000881300000000000000000010111111111111111111111111
310
DDBB01C6FD260543A8BA000000000049454E44AE426082
  0
ENDSEC
  0
EOF
