  0
SECTION
  2
HEADER
  9
$ACADVER
  1
AC1032
  9
$ACADMAINTVER
 90
       55
  9
$DWGCODEPAGE
  3
ANSI_1252
  9
$LASTSAVEDBY
  1
mariehp
  9
$REQUIREDVERSIONS
160
                 0
  9
$INSBASE
 10
0.0
 20
0.0
 30
0.0
  9
$EXTMIN
 10
14.3867740042
 20
23.3997508588
 30
0.0
  9
$EXTMAX
 10
78.3867740042
 20
46.3883639863
 30
0.0
  9
$LIMMIN
 10
0.0
 20
0.0
  9
$LIMMAX
 10
181.3333333333
 20
117.3333333333
  9
$ORTHOMODE
 70
     0
  9
$REGENMODE
 70
     1
  9
$FILLMODE
 70
     1
  9
$QTEXTMODE
 70
     0
  9
$MIRRTEXT
 70
     0
  9
$LTSCALE
 40
9.973333333300001
  9
$ATTMODE
 70
     1
  9
$TEXTSIZE
 40
0.2
  9
$TRACEWID
 40
0.05
  9
$TEXTSTYLE
  7
STANDARD
  9
$CLAYER
  8
0
  9
$CELTYPE
  6
BYLAYER
  9
$CECOLOR
 62
   256
  9
$CELTSCALE
 40
1.0
  9
$DISPSILH
 70
     0
  9
$DIMSCALE
 40
1.0
  9
$DIMASZ
 40
2.0
  9
$DIMEXO
 40
0.0625
  9
$DIMDLI
 40
6.890666666699999
  9
$DIMRND
 40
0.0
  9
$DIMDLE
 40
0.0
  9
$DIMEXE
 40
0.125
  9
$DIMTP
 40
0.001
  9
$DIMTM
 40
0.001
  9
$DIMTXT
 40
1.333333333299999
  9
$DIMCEN
 40
1.631999999999999
  9
$DIMTSZ
 40
0.0
  9
$DIMTOL
 70
     1
  9
$DIMLIM
 70
     0
  9
$DIMTIH
 70
     1
  9
$DIMTOH
 70
     1
  9
$DIMSE1
 70
     0
  9
$DIMSE2
 70
     0
  9
$DIMTAD
 70
     0
  9
$DIMZIN
 70
     0
  9
$DIMBLK
  1
_FILLED
  9
$DIMASO
 70
     1
  9
$DIMSHO
 70
     1
  9
$DIMPOST
  1

  9
$DIMAPOST
  1

  9
$DIMALT
 70
     1
  9
$DIMALTD
 70
     2
  9
$DIMALTF
 40
25.4
  9
$DIMLFAC
 40
1.0
  9
$DIMTOFL
 70
     0
  9
$DIMTVP
 40
0.0
  9
$DIMTIX
 70
     0
  9
$DIMSOXD
 70
     0
  9
$DIMSAH
 70
     0
  9
$DIMBLK1
  1

  9
$DIMBLK2
  1

  9
$DIMSTYLE
  2
STANDARD
  9
$DIMCLRD
 70
     0
  9
$DIMCLRE
 70
     0
  9
$DIMCLRT
 70
     0
  9
$DIMTFAC
 40
1.0
  9
$DIMGAP
 40
0.09
  9
$DIMJUST
 70
     0
  9
$DIMSD1
 70
     0
  9
$DIMSD2
 70
     0
  9
$DIMTOLJ
 70
     1
  9
$DIMTZIN
 70
     0
  9
$DIMALTZ
 70
     0
  9
$DIMALTTZ
 70
     0
  9
$DIMUPT
 70
     0
  9
$DIMDEC
 70
     4
  9
$DIMTDEC
 70
     4
  9
$DIMALTU
 70
     2
  9
$DIMALTTD
 70
     2
  9
$DIMTXSTY
  7
STANDARD
  9
$DIMAUNIT
 70
     0
  9
$DIMADEC
 70
     0
  9
$DIMALTRND
 40
0.0
  9
$DIMAZIN
 70
     0
  9
$DIMDSEP
 70
    46
  9
$DIMATFIT
 70
     3
  9
$DIMFRAC
 70
     0
  9
$DIMLDRBLK
  1

  9
$DIMLUNIT
 70
     2
  9
$DIMLWD
 70
    -2
  9
$DIMLWE
 70
    -2
  9
$DIMTMOVE
 70
     0
  9
$DIMFXL
 40
1.0
  9
$DIMFXLON
 70
     0
  9
$DIMJOGANG
 40
0.7853981633974483
  9
$DIMTFILL
 70
     0
  9
$DIMTFILLCLR
 70
     0
  9
$DIMARCSYM
 70
     0
  9
$DIMLTYPE
  6

  9
$DIMLTEX1
  6

  9
$DIMLTEX2
  6

  9
$DIMTXTDIRECTION
 70
     0
  9
$LUNITS
 70
     2
  9
$LUPREC
 70
     4
  9
$SKETCHINC
 40
0.1
  9
$FILLETRAD
 40
0.0
  9
$AUNITS
 70
     0
  9
$AUPREC
 70
     0
  9
$MENU
  1
.
  9
$ELEVATION
 40
0.0
  9
$PELEVATION
 40
0.0
  9
$THICKNESS
 40
0.0
  9
$LIMCHECK
 70
     0
  9
$CHAMFERA
 40
0.0
  9
$CHAMFERB
 40
0.0
  9
$CHAMFERC
 40
0.0
  9
$CHAMFERD
 40
0.0
  9
$SKPOLY
 70
     0
  9
$TDCREATE
 40
2459690.379236111
  9
$TDUCREATE
 40
2459690.545902778
  9
$TDUPDATE
 40
2459773.554618056
  9
$TDUUPDATE
 40
2459773.721284723
  9
$TDINDWG
 40
0.0019560185
  9
$TDUSRTIMER
 40
0.0019560185
  9
$USRTIMER
 70
     1
  9
$ANGBASE
 50
0.0
  9
$ANGDIR
 70
     0
  9
$PDMODE
 70
     3
  9
$PDSIZE
 40
0.03125
  9
$PLINEWID
 40
0.0
  9
$SPLFRAME
 70
     0
  9
$SPLINETYPE
 70
     6
  9
$SPLINESEGS
 70
     8
  9
$HANDSEED
  5
58EB
  9
$SURFTAB1
 70
     6
  9
$SURFTAB2
 70
     6
  9
$SURFTYPE
 70
     6
  9
$SURFU
 70
     6
  9
$SURFV
 70
     6
  9
$UCSBASE
  2

  9
$UCSNAME
  2

  9
$UCSORG
 10
0.0
 20
0.0
 30
0.0
  9
$UCSXDIR
 10
1.0
 20
0.0
 30
0.0
  9
$UCSYDIR
 10
0.0
 20
1.0
 30
0.0
  9
$UCSORTHOREF
  2

  9
$UCSORTHOVIEW
 70
     0
  9
$UCSORGTOP
 10
0.0
 20
0.0
 30
0.0
  9
$UCSORGBOTTOM
 10
0.0
 20
0.0
 30
0.0
  9
$UCSORGLEFT
 10
0.0
 20
0.0
 30
0.0
  9
$UCSORGRIGHT
 10
0.0
 20
0.0
 30
0.0
  9
$UCSORGFRONT
 10
0.0
 20
0.0
 30
0.0
  9
$UCSORGBACK
 10
0.0
 20
0.0
 30
0.0
  9
$PUCSBASE
  2

  9
$PUCSNAME
  2

  9
$PUCSORG
 10
0.0
 20
0.0
 30
0.0
  9
$PUCSXDIR
 10
1.0
 20
0.0
 30
0.0
  9
$PUCSYDIR
 10
0.0
 20
1.0
 30
0.0
  9
$PUCSORTHOREF
  2

  9
$PUCSORTHOVIEW
 70
     0
  9
$PUCSORGTOP
 10
0.0
 20
0.0
 30
0.0
  9
$PUCSORGBOTTOM
 10
0.0
 20
0.0
 30
0.0
  9
$PUCSORGLEFT
 10
0.0
 20
0.0
 30
0.0
  9
$PUCSORGRIGHT
 10
0.0
 20
0.0
 30
0.0
  9
$PUCSORGFRONT
 10
0.0
 20
0.0
 30
0.0
  9
$PUCSORGBACK
 10
0.0
 20
0.0
 30
0.0
  9
$USERI1
 70
     0
  9
$USERI2
 70
     0
  9
$USERI3
 70
     0
  9
$USERI4
 70
     0
  9
$USERI5
 70
     0
  9
$USERR1
 40
0.0
  9
$USERR2
 40
0.0
  9
$USERR3
 40
0.0
  9
$USERR4
 40
0.0
  9
$USERR5
 40
0.0
  9
$WORLDVIEW
 70
     1
  9
$SHADEDGE
 70
     3
  9
$SHADEDIF
 70
    70
  9
$TILEMODE
 70
     1
  9
$MAXACTVP
 70
    64
  9
$PINSBASE
 10
0.0
 20
0.0
 30
0.0
  9
$PLIMCHECK
 70
     0
  9
$PEXTMIN
 10
1.000000000000000E+20
 20
1.000000000000000E+20
 30
1.000000000000000E+20
  9
$PEXTMAX
 10
-1.000000000000000E+20
 20
-1.000000000000000E+20
 30
-1.000000000000000E+20
  9
$PLIMMIN
 10
0.0
 20
0.0
  9
$PLIMMAX
 10
12.0
 20
9.0
  9
$UNITMODE
 70
     0
  9
$VISRETAIN
 70
     1
  9
$PLINEGEN
 70
     0
  9
$PSLTSCALE
 70
     1
  9
$TREEDEPTH
 70
  3020
  9
$CMLSTYLE
  2
Standard
  9
$CMLJUST
 70
     0
  9
$CMLSCALE
 40
1.0
  9
$PROXYGRAPHICS
 70
     1
  9
$MEASUREMENT
 70
     0
  9
$CELWEIGHT
370
    -1
  9
$ENDCAPS
280
     0
  9
$JOINSTYLE
280
     0
  9
$LWDISPLAY
290
     0
  9
$INSUNITS
 70
     1
  9
$HYPERLINKBASE
  1

  9
$STYLESHEET
  1

  9
$XEDIT
290
     1
  9
$CEPSNTYPE
380
     0
  9
$PSTYLEMODE
290
     1
  9
$FINGERPRINTGUID
  2
{245DB33C-2DFE-264C-B179-25980774782B}
  9
$VERSIONGUID
  2
{2B44935D-0448-A748-B731-61DD7875FE53}
  9
$EXTNAMES
290
     1
  9
$PSVPSCALE
 40
0.0
  9
$OLESTARTUP
290
     0
  9
$SORTENTS
280
   127
  9
$INDEXCTL
280
     0
  9
$HIDETEXT
280
     0
  9
$XCLIPFRAME
280
     2
  9
$HALOGAP
280
     0
  9
$OBSCOLOR
 70
   257
  9
$OBSLTYPE
280
     0
  9
$INTERSECTIONDISPLAY
280
     0
  9
$INTERSECTIONCOLOR
 70
   257
  9
$DIMASSOC
280
     1
  9
$PROJECTNAME
  1

  9
$CAMERADISPLAY
290
     0
  9
$LENSLENGTH
 40
50.0
  9
$CAMERAHEIGHT
 40
0.0
  9
$STEPSPERSEC
 40
2.0
  9
$STEPSIZE
 40
6.0
  9
$3DDWFPREC
 40
2.0
  9
$PSOLWIDTH
 40
0.25
  9
$PSOLHEIGHT
 40
4.0
  9
$LOFTANG1
 40
1.570796326794896
  9
$LOFTANG2
 40
1.570796326794896
  9
$LOFTMAG1
 40
0.0
  9
$LOFTMAG2
 40
0.0
  9
$LOFTPARAM
 70
     7
  9
$LOFTNORMALS
280
     1
  9
$LATITUDE
 40
37.795
  9
$LONGITUDE
 40
-122.394
  9
$NORTHDIRECTION
 40
0.0
  9
$TIMEZONE
 70
 -8000
  9
$LIGHTGLYPHDISPLAY
280
     1
  9
$TILEMODELIGHTSYNCH
280
     1
  9
$CMATERIAL
347
5727
  9
$SOLIDHIST
280
     0
  9
$SHOWHIST
280
     1
  9
$DWFFRAME
280
     2
  9
$DGNFRAME
280
     0
  9
$REALWORLDSCALE
290
     1
  9
$INTERFERECOLOR
 62
     1
  9
$INTERFEREOBJVS
345
5749
  9
$INTERFEREVPVS
346
5746
  9
$CSHADOW
280
     0
  9
$SHADOWPLANELOCATION
 40
0.0
  0
ENDSEC
  0
SECTION
  2
CLASSES
  0
CLASS
  1
ACDBDICTIONARYWDFLT
  2
AcDbDictionaryWithDefault
  3
ObjectDBX Classes
 90
        0
 91
        1
280
     0
281
     0
  0
CLASS
  1
RASTERVARIABLES
  2
AcDbRasterVariables
  3
ISM
 90
        0
 91
        1
280
     0
281
     0
  0
CLASS
  1
IMAGEDEF
  2
AcDbRasterImageDef
  3
ISM
 90
        0
 91
        1
280
     0
281
     0
  0
CLASS
  1
IMAGEDEF_REACTOR
  2
AcDbRasterImageDefReactor
  3
ISM
 90
        1
 91
        0
280
     0
281
     0
  0
CLASS
  1
IMAGE
  2
AcDbRasterImage
  3
ISM
 90
     2175
 91
        0
280
     0
281
     1
  0
CLASS
  1
MATERIAL
  2
AcDbMaterial
  3
ObjectDBX Classes
 90
     1153
 91
        3
280
     0
281
     0
  0
CLASS
  1
VISUALSTYLE
  2
AcDbVisualStyle
  3
ObjectDBX Classes
 90
     4095
 91
       24
280
     0
281
     0
  0
CLASS
  1
TABLESTYLE
  2
AcDbTableStyle
  3
ObjectDBX Classes
 90
     4095
 91
        1
280
     0
281
     0
  0
CLASS
  1
SCALE
  2
AcDbScale
  3
ObjectDBX Classes
 90
     1153
 91
       17
280
     0
281
     0
  0
CLASS
  1
MLEADERSTYLE
  2
AcDbMLeaderStyle
  3
ACDB_MLEADERSTYLE_CLASS
 90
     4095
 91
        1
280
     0
281
     0
  0
CLASS
  1
ACDBSECTIONVIEWSTYLE
  2
AcDbSectionViewStyle
  3
ObjectDBX Classes
 90
     1025
 91
        1
280
     0
281
     0
  0
CLASS
  1
ACDBDETAILVIEWSTYLE
  2
AcDbDetailViewStyle
  3
ObjectDBX Classes
 90
     1025
 91
        1
280
     0
281
     0
  0
CLASS
  1
CELLSTYLEMAP
  2
AcDbCellStyleMap
  3
ObjectDBX Classes
 90
     1152
 91
        1
280
     0
281
     0
  0
CLASS
  1
DICTIONARYVAR
  2
AcDbDictionaryVar
  3
ObjectDBX Classes
 90
        0
 91
       12
280
     0
281
     0
  0
ENDSEC
  0
SECTION
  2
TABLES
  0
TABLE
  2
VPORT
  5
8
102
{ACAD_XDICTIONARY
360
5777
102
}
330
0
100
AcDbSymbolTable
 70
     1
  0
VPORT
  5
1F4
330
8
100
AcDbSymbolTableRecord
100
AcDbViewportTableRecord
  2
*ACTIVE
 70
     0
 10
0.0
 20
0.0
 11
1.0
 21
1.0
 12
48.91403692145907
 22
36.48088852929986
 13
0.0
 23
0.0
 14
1.0
 24
1.0
 15
0.0
 25
0.0
 16
0.0
 26
0.0
 36
1.0
 17
0.0
 27
0.0
 37
0.0
 40
44.12680451267476
 41
2.250975292587776
 42
50.0
 43
0.0
 44
0.0
 50
0.0
 51
0.0
 71
     0
 72
   100
 73
     1
 74
     1
 75
     0
 76
     0
 77
     0
 78
     0
281
     0
 65
     1
110
0.0
120
0.0
130
0.0
111
1.0
121
0.0
131
0.0
112
0.0
122
1.0
132
0.0
 79
     0
146
0.0
348
5745
 60
     3
 61
     5
292
     1
282
     1
141
0.0
142
0.0
 63
   250
421
  3355443
1001
ACAD_NAV_VCDISPLAY
1070
     3
  0
ENDTAB
  0
TABLE
  2
LTYPE
  5
5
330
0
100
AcDbSymbolTable
 70
     6
  0
LTYPE
  5
14
330
5
100
AcDbSymbolTableRecord
100
AcDbLinetypeTableRecord
  2
BYBLOCK
 70
     0
  3

 72
    65
 73
     0
 40
0.0
  0
LTYPE
  5
15
330
5
100
AcDbSymbolTableRecord
100
AcDbLinetypeTableRecord
  2
BYLAYER
 70
     0
  3

 72
    65
 73
     0
 40
0.0
  0
LTYPE
  5
16
330
5
100
AcDbSymbolTableRecord
100
AcDbLinetypeTableRecord
  2
CONTINUOUS
 70
     0
  3
Solid line
 72
    65
 73
     0
 40
0.0
  0
LTYPE
  5
1F5
330
5
100
AcDbSymbolTableRecord
100
AcDbLinetypeTableRecord
  2
CENTER
 70
     0
  3
____ _ ____ _ ____ _ ____ _ ____ _ ____ _ ____
 72
    65
 73
     4
 40
0.6
 49
0.375
 74
     0
 49
-0.075
 74
     0
 49
0.075
 74
     0
 49
-0.075
 74
     0
  0
LTYPE
  5
1F6
330
5
100
AcDbSymbolTableRecord
100
AcDbLinetypeTableRecord
  2
HIDDEN
 70
     0
  3
- - - - - - - - - - - - - - - - - - - -
 72
    65
 73
     2
 40
0.2
 49
0.1
 74
     0
 49
-0.1
 74
     0
  0
LTYPE
  5
1F7
330
5
100
AcDbSymbolTableRecord
100
AcDbLinetypeTableRecord
  2
PHANTOM
 70
     0
  3
_____ _ _ _____ _ _ _____ _ _ _____
 72
    65
 73
     6
 40
0.8
 49
0.45
 74
     0
 49
-0.05
 74
     0
 49
0.1
 74
     0
 49
-0.05
 74
     0
 49
0.1
 74
     0
 49
-0.05
 74
     0
  0
LTYPE
  5
1F8
330
5
100
AcDbSymbolTableRecord
100
AcDbLinetypeTableRecord
  2
DOT
 70
     0
  3
. . . . . . . . . . . . . . . . . . . .
 72
    65
 73
     2
 40
0.2
 49
0.1
 74
     0
 49
-0.1
 74
     0
  0
LTYPE
  5
1F9
330
5
100
AcDbSymbolTableRecord
100
AcDbLinetypeTableRecord
  2
DASHED
 70
     0
  3
- - - - - - - - - - - - - - - - - - - -
 72
    65
 73
     2
 40
0.2
 49
0.1
 74
     0
 49
-0.1
 74
     0
  0
ENDTAB
  0
TABLE
  2
LAYER
  5
2
102
{ACAD_XDICTIONARY
360
58DE
102
}
330
0
100
AcDbSymbolTable
 70
    38
  0
LAYER
  5
10
102
{ACAD_XDICTIONARY
360
57E0
102
}
330
2
100
AcDbSymbolTableRecord
100
AcDbLayerTableRecord
  2
0
 70
     0
 62
     7
  6
CONTINUOUS
370
    -3
390
F
347
5737
348
0
  0
LAYER
  5
1FA
102
{ACAD_XDICTIONARY
360
57E2
102
}
330
2
100
AcDbSymbolTableRecord
100
AcDbLayerTableRecord
  2
DEFAULT_1
 70
     0
 62
     7
  6
CENTER
370
    -3
390
F
347
5737
348
0
  0
LAYER
  5
1FB
102
{ACAD_XDICTIONARY
360
57E4
102
}
330
2
100
AcDbSymbolTableRecord
100
AcDbLayerTableRecord
  2
DEFAULT_2
 70
     0
 62
     8
  6
HIDDEN
370
    -3
390
F
347
5737
348
0
  0
LAYER
  5
1FC
102
{ACAD_XDICTIONARY
360
57E6
102
}
330
2
100
AcDbSymbolTableRecord
100
AcDbLayerTableRecord
  2
DEFAULT_3
 70
     0
 62
     7
  6
PHANTOM
370
    -3
390
F
347
5737
348
0
  0
LAYER
  5
1FD
102
{ACAD_XDICTIONARY
360
57E8
102
}
330
2
100
AcDbSymbolTableRecord
100
AcDbLayerTableRecord
  2
0_DEFAULT
 70
     0
 62
     7
  6
CONTINUOUS
370
    -3
390
F
347
5737
348
0
  0
LAYER
  5
1FE
102
{ACAD_XDICTIONARY
360
57EA
102
}
330
2
100
AcDbSymbolTableRecord
100
AcDbLayerTableRecord
  2
1_CURVES
 70
     0
 62
     7
  6
CONTINUOUS
370
    -3
390
F
347
5737
348
0
  0
LAYER
  5
1FF
102
{ACAD_XDICTIONARY
360
57EC
102
}
330
2
100
AcDbSymbolTableRecord
100
AcDbLayerTableRecord
  2
1_CURVES_CHROMO_INV
 70
     0
 62
     7
  6
CONTINUOUS
370
    -3
390
F
347
5737
348
0
  0
LAYER
  5
200
102
{ACAD_XDICTIONARY
360
57EE
102
}
330
2
100
AcDbSymbolTableRecord
100
AcDbLayerTableRecord
  2
1_CURVES_DECOUPE
 70
     0
 62
     7
  6
CONTINUOUS
370
    -3
390
F
347
5737
348
0
  0
LAYER
  5
201
102
{ACAD_XDICTIONARY
360
57F0
102
}
330
2
100
AcDbSymbolTableRecord
100
AcDbLayerTableRecord
  2
1_CURVES_FOND
 70
     0
 62
     7
  6
CONTINUOUS
370
    -3
390
F
347
5737
348
0
  0
LAYER
  5
202
102
{ACAD_XDICTIONARY
360
57F2
102
}
330
2
100
AcDbSymbolTableRecord
100
AcDbLayerTableRecord
  2
1_CURVES_JETS
 70
     0
 62
     7
  6
CONTINUOUS
370
    -3
390
F
347
5737
348
0
  0
LAYER
  5
203
102
{ACAD_XDICTIONARY
360
57F4
102
}
330
2
100
AcDbSymbolTableRecord
100
AcDbLayerTableRecord
  2
1_CURVES_PLAGE
 70
     0
 62
     7
  6
CONTINUOUS
370
    -3
390
F
347
5737
348
0
  0
LAYER
  5
204
102
{ACAD_XDICTIONARY
360
57F6
102
}
330
2
100
AcDbSymbolTableRecord
100
AcDbLayerTableRecord
  2
1_CURVES_SPEC_FRONT
 70
     0
 62
     7
  6
CONTINUOUS
370
    -3
390
F
347
5737
348
0
  0
LAYER
  5
205
102
{ACAD_XDICTIONARY
360
57F8
102
}
330
2
100
AcDbSymbolTableRecord
100
AcDbLayerTableRecord
  2
1_CURVES_SPEC_RIGHT
 70
     0
 62
     7
  6
CONTINUOUS
370
    -3
390
F
347
5737
348
0
  0
LAYER
  5
206
102
{ACAD_XDICTIONARY
360
57FA
102
}
330
2
100
AcDbSymbolTableRecord
100
AcDbLayerTableRecord
  2
2_PLANES
 70
     0
 62
     7
  6
CONTINUOUS
370
    -3
390
F
347
5737
348
0
  0
LAYER
  5
207
102
{ACAD_XDICTIONARY
360
57FC
102
}
330
2
100
AcDbSymbolTableRecord
100
AcDbLayerTableRecord
  2
2_PLANES_CHROMO_INV
 70
     0
 62
     7
  6
CONTINUOUS
370
    -3
390
F
347
5737
348
0
  0
LAYER
  5
208
102
{ACAD_XDICTIONARY
360
57FE
102
}
330
2
100
AcDbSymbolTableRecord
100
AcDbLayerTableRecord
  2
2_PLANES_JETS
 70
     0
 62
     7
  6
CONTINUOUS
370
    -3
390
F
347
5737
348
0
  0
LAYER
  5
209
102
{ACAD_XDICTIONARY
360
5800
102
}
330
2
100
AcDbSymbolTableRecord
100
AcDbLayerTableRecord
  2
3_POINTS
 70
     0
 62
     7
  6
CONTINUOUS
370
    -3
390
F
347
5737
348
0
  0
LAYER
  5
20A
102
{ACAD_XDICTIONARY
360
5802
102
}
330
2
100
AcDbSymbolTableRecord
100
AcDbLayerTableRecord
  2
3_POINTS_JETS
 70
     0
 62
     7
  6
CONTINUOUS
370
    -3
390
F
347
5737
348
0
  0
LAYER
  5
20B
102
{ACAD_XDICTIONARY
360
5804
102
}
330
2
100
AcDbSymbolTableRecord
100
AcDbLayerTableRecord
  2
4_CSYS
 70
     0
 62
     7
  6
CONTINUOUS
370
    -3
390
F
347
5737
348
0
  0
LAYER
  5
20C
102
{ACAD_XDICTIONARY
360
5806
102
}
330
2
100
AcDbSymbolTableRecord
100
AcDbLayerTableRecord
  2
5_AXIS
 70
     0
 62
     7
  6
CONTINUOUS
370
    -3
390
F
347
5737
348
0
  0
LAYER
  5
20D
102
{ACAD_XDICTIONARY
360
5808
102
}
330
2
100
AcDbSymbolTableRecord
100
AcDbLayerTableRecord
  2
5_AXIS_CHROMO_INV
 70
     0
 62
     7
  6
CONTINUOUS
370
    -3
390
F
347
5737
348
0
  0
LAYER
  5
20E
102
{ACAD_XDICTIONARY
360
580A
102
}
330
2
100
AcDbSymbolTableRecord
100
AcDbLayerTableRecord
  2
5_AXIS_JETS
 70
     0
 62
     7
  6
CONTINUOUS
370
    -3
390
F
347
5737
348
0
  0
LAYER
  5
20F
102
{ACAD_XDICTIONARY
360
580C
102
}
330
2
100
AcDbSymbolTableRecord
100
AcDbLayerTableRecord
  2
6_SURFACES
 70
     0
 62
     7
  6
CONTINUOUS
370
    -3
390
F
347
5737
348
0
  0
LAYER
  5
210
102
{ACAD_XDICTIONARY
360
580E
102
}
330
2
100
AcDbSymbolTableRecord
100
AcDbLayerTableRecord
  2
6_SURFACES-OFFSET-FIBRE-ACRYLIQ
 70
     0
 62
     7
  6
CONTINUOUS
370
    -3
390
F
347
5737
348
0
  0
LAYER
  5
211
102
{ACAD_XDICTIONARY
360
5810
102
}
330
2
100
AcDbSymbolTableRecord
100
AcDbLayerTableRecord
  2
6_SURFACES-TOOLING
 70
     0
 62
     7
  6
CONTINUOUS
370
    -3
390
F
347
5737
348
0
  0
LAYER
  5
212
102
{ACAD_XDICTIONARY
360
5812
102
}
330
2
100
AcDbSymbolTableRecord
100
AcDbLayerTableRecord
  2
6_SURFACES_CHROMO_INV
 70
     0
 62
     7
  6
CONTINUOUS
370
    -3
390
F
347
5737
348
0
  0
LAYER
  5
213
102
{ACAD_XDICTIONARY
360
5814
102
}
330
2
100
AcDbSymbolTableRecord
100
AcDbLayerTableRecord
  2
6_SURFACES_RATIO-ETIREMENT
 70
     0
 62
     7
  6
CONTINUOUS
370
    -3
390
F
347
5737
348
0
  0
LAYER
  5
214
102
{ACAD_XDICTIONARY
360
5816
102
}
330
2
100
AcDbSymbolTableRecord
100
AcDbLayerTableRecord
  2
6_SURFACES_TOOLING
 70
     0
 62
     7
  6
CONTINUOUS
370
    -3
390
F
347
5737
348
0
  0
LAYER
  5
215
102
{ACAD_XDICTIONARY
360
5818
102
}
330
2
100
AcDbSymbolTableRecord
100
AcDbLayerTableRecord
  2
7_NOTES
 70
     0
 62
     7
  6
CONTINUOUS
370
    -3
390
F
347
5737
348
0
  0
LAYER
  5
216
102
{ACAD_XDICTIONARY
360
581A
102
}
330
2
100
AcDbSymbolTableRecord
100
AcDbLayerTableRecord
  2
CONTROLE
 70
     0
 62
     7
  6
CONTINUOUS
370
    -3
390
F
347
5737
348
0
  0
LAYER
  5
217
102
{ACAD_XDICTIONARY
360
581C
102
}
330
2
100
AcDbSymbolTableRecord
100
AcDbLayerTableRecord
  2
CURVE_ZONE_ROBINETTERIE
 70
     0
 62
     7
  6
CONTINUOUS
370
    -3
390
F
347
5737
348
0
  0
LAYER
  5
218
102
{ACAD_XDICTIONARY
360
581E
102
}
330
2
100
AcDbSymbolTableRecord
100
AcDbLayerTableRecord
  2
DEGAGEMENT_SERIGRAPHIE
 70
     0
 62
     7
  6
CONTINUOUS
370
    -3
390
F
347
5737
348
0
  0
LAYER
  5
219
102
{ACAD_XDICTIONARY
360
5820
102
}
330
2
100
AcDbSymbolTableRecord
100
AcDbLayerTableRecord
  2
LEDS
 70
     0
 62
     7
  6
CONTINUOUS
370
    -3
390
F
347
5737
348
0
  0
LAYER
  5
21A
102
{ACAD_XDICTIONARY
360
5822
102
}
330
2
100
AcDbSymbolTableRecord
100
AcDbLayerTableRecord
  2
MIA_PLUS_TROU
 70
     0
 62
     7
  6
CONTINUOUS
370
    -3
390
F
347
5737
348
0
  0
LAYER
  5
21B
102
{ACAD_XDICTIONARY
360
5824
102
}
330
2
100
AcDbSymbolTableRecord
100
AcDbLayerTableRecord
  2
MIA_TROU
 70
     0
 62
     7
  6
CONTINUOUS
370
    -3
390
F
347
5737
348
0
  0
LAYER
  5
21C
102
{ACAD_XDICTIONARY
360
5826
102
}
330
2
100
AcDbSymbolTableRecord
100
AcDbLayerTableRecord
  2
XSEC_DATUMS
 70
     0
 62
     7
  6
CONTINUOUS
370
    -3
390
F
347
5737
348
0
  0
LAYER
  5
21D
102
{ACAD_XDICTIONARY
360
5828
102
}
330
2
100
AcDbSymbolTableRecord
100
AcDbLayerTableRecord
  2
ZONE_ROBINETTERIE
 70
     0
 62
     7
  6
CONTINUOUS
370
    -3
390
F
347
5737
348
0
  0
LAYER
  5
58CD
330
2
100
AcDbSymbolTableRecord
100
AcDbLayerTableRecord
  2
Defpoints
 70
     0
 62
     7
  6
CONTINUOUS
290
     0
370
    -3
390
F
347
5737
348
0
  0
ENDTAB
  0
TABLE
  2
STYLE
  5
3
330
0
100
AcDbSymbolTable
 70
     8
  0
STYLE
  5
11
330
3
100
AcDbSymbolTableRecord
100
AcDbTextStyleTableRecord
  2
STANDARD
 70
     0
 40
0.0
 41
0.8
 50
0.0
 71
     0
 42
0.2
  3
txt
  4

  0
STYLE
  5
21E
330
3
100
AcDbSymbolTableRecord
100
AcDbTextStyleTableRecord
  2
TEXTSTYLE_1
 70
     0
 40
0.0
 41
0.8
 50
0.0
 71
     0
 42
0.2
  3
gdt
  4

  0
STYLE
  5
21F
330
3
100
AcDbSymbolTableRecord
100
AcDbTextStyleTableRecord
  2
TEXTSTYLE_2
 70
     0
 40
0.0
 41
1.0
 50
0.0
 71
     0
 42
0.2
  3

  4

1001
ACAD
1000
CG Triumvirate
1071
       34
  0
STYLE
  5
220
330
3
100
AcDbSymbolTableRecord
100
AcDbTextStyleTableRecord
  2
TEXTSTYLE_3
 70
     0
 40
0.0
 41
1.0
 50
0.0
 71
     0
 42
0.2
  3

  4

1001
ACAD
1000
CG Triumvirate
1071
       34
  0
STYLE
  5
221
330
3
100
AcDbSymbolTableRecord
100
AcDbTextStyleTableRecord
  2
TEXTSTYLE_4
 70
     0
 40
0.0
 41
1.0
 50
0.0
 71
     0
 42
0.2
  3
txt
  4

  0
STYLE
  5
222
330
3
100
AcDbSymbolTableRecord
100
AcDbTextStyleTableRecord
  2
TEXTSTYLE_5
 70
     0
 40
0.0
 41
1.0
 50
0.0
 71
     0
 42
0.2
  3
txt
  4

  0
STYLE
  5
223
330
3
100
AcDbSymbolTableRecord
100
AcDbTextStyleTableRecord
  2
TEXTSTYLE_6
 70
     0
 40
0.0
 41
1.0
 50
0.0
 71
     0
 42
0.2
  3

  4

1001
ACAD
1000
CG Triumvirate
1071
       34
  0
STYLE
  5
224
330
3
100
AcDbSymbolTableRecord
100
AcDbTextStyleTableRecord
  2
TEXTSTYLE_7
 70
     0
 40
0.0
 41
0.8
 50
0.0
 71
     0
 42
0.2
  3
txt
  4

  0
ENDTAB
  0
TABLE
  2
VIEW
  5
6
330
0
100
AcDbSymbolTable
 70
     0
  0
ENDTAB
  0
TABLE
  2
UCS
  5
7
330
0
100
AcDbSymbolTable
 70
     0
  0
ENDTAB
  0
TABLE
  2
APPID
  5
9
330
0
100
AcDbSymbolTable
 70
     3
  0
APPID
  5
225
330
9
100
AcDbSymbolTableRecord
100
AcDbRegAppTableRecord
  2
ACAD
 70
     0
  0
APPID
  5
57CB
330
9
100
AcDbSymbolTableRecord
100
AcDbRegAppTableRecord
  2
ACAD_MLEADERVER
 70
     0
  0
APPID
  5
582A
330
9
100
AcDbSymbolTableRecord
100
AcDbRegAppTableRecord
  2
ACAD_NAV_VCDISPLAY
 70
     0
  0
ENDTAB
  0
TABLE
  2
DIMSTYLE
  5
A
330
0
100
AcDbSymbolTable
 70
     2
100
AcDbDimStyleTable
 71
     1
340
22E
  0
DIMSTYLE
105
22E
330
A
100
AcDbSymbolTableRecord
100
AcDbDimStyleTableRecord
  2
STANDARD
 70
     0
 41
2.0
 44
0.125
 47
0.001
 48
0.001
 71
     1
 78
     4
 79
     1
140
1.333333333299999
143
2.54
170
     1
179
     3
271
     3
272
     3
284
     4
340
11
341
228
342
228
343
228
344
228
  0
DIMSTYLE
105
22F
330
A
100
AcDbSymbolTableRecord
100
AcDbDimStyleTableRecord
  2
DIMSTYLE_1
 70
     0
 41
2.0
 44
0.125
 47
0.001
 48
0.001
 78
     4
 79
     1
140
1.333333333299999
143
2.54
147
0.0625
170
     1
171
     0
179
     3
272
    16
274
     0
284
     4
340
11
341
228
342
228
343
228
344
228
  0
ENDTAB
  0
TABLE
  2
BLOCK_RECORD
  5
1
330
0
100
AcDbSymbolTable
 70
     5
  0
BLOCK_RECORD
  5
226
330
1
100
AcDbSymbolTableRecord
100
AcDbBlockTableRecord
  2
*Model_Space
340
571F
 70
     0
280
     1
281
     0
  0
BLOCK_RECORD
  5
227
330
1
100
AcDbSymbolTableRecord
100
AcDbBlockTableRecord
  2
*Paper_Space
340
5720
 70
     0
280
     1
281
     0
  0
BLOCK_RECORD
  5
228
330
1
100
AcDbSymbolTableRecord
100
AcDbBlockTableRecord
  2
_FILLED
340
0
102
{BLKREFS
102
}
 70
     0
280
     1
281
     0
  0
BLOCK_RECORD
  5
22B
330
1
100
AcDbSymbolTableRecord
100
AcDbBlockTableRecord
  2
L03-MOTEUR-CONTROLE-LED_BL2
340
0
 70
     0
280
     1
281
     0
  0
BLOCK_RECORD
  5
22C
330
1
100
AcDbSymbolTableRecord
100
AcDbBlockTableRecord
  2
L03-USAGE_INTERNE_SEULEM_BL1
340
0
 70
     0
280
     1
281
     0
  0
BLOCK_RECORD
  5
22D
330
1
100
AcDbSymbolTableRecord
100
AcDbBlockTableRecord
  2
L03-NOTE_SPECS_BAINS_BL0
340
0
 70
     0
280
     1
281
     0
  0
ENDTAB
  0
ENDSEC
  0
SECTION
  2
BLOCKS
  0
BLOCK
  5
20
330
226
100
AcDbEntity
  8
0
100
AcDbBlockBegin
  2
*Model_Space
 70
     0
 10
0.0
 20
0.0
 30
0.0
  3
*Model_Space
  1

  0
ENDBLK
  5
21
330
226
100
AcDbEntity
  8
0
100
AcDbBlockEnd
  0
BLOCK
  5
1C
330
227
100
AcDbEntity
 67
     1
  8
0
100
AcDbBlockBegin
  2
*Paper_Space
 70
     0
 10
0.0
 20
0.0
 30
0.0
  3
*Paper_Space
  1

  0
ENDBLK
  5
1D
330
227
100
AcDbEntity
 67
     1
  8
0
100
AcDbBlockEnd
  0
BLOCK
  5
2FF
330
228
100
AcDbEntity
  8
0
100
AcDbBlockBegin
  2
_FILLED
 70
     0
 10
0.0
 20
0.0
 30
0.0
  3
_FILLED
  1

  0
SOLID
  5
300
330
228
100
AcDbEntity
  8
0
  6
ByBlock
 62
     0
100
AcDbTrace
 10
0.0
 20
0.0
 30
0.0
 11
-1.0
 21
0.1666666667
 31
0.0
 12
-1.0
 22
-0.1666666667
 32
0.0
 13
-1.0
 23
-0.1666666667
 33
0.0
  0
ENDBLK
  5
301
330
228
100
AcDbEntity
  8
0
  6
ByBlock
 62
     0
100
AcDbBlockEnd
  0
BLOCK
  5
230
330
22B
100
AcDbEntity
  8
0
  6
Continuous
 62
     2
100
AcDbBlockBegin
  2
L03-MOTEUR-CONTROLE-LED_BL2
 70
     0
 10
18.7687741256
 20
79.7769995088
 30
0.0
  3
L03-MOTEUR-CONTROLE-LED_BL2
  1

  0
TEXT
  5
231
330
22B
100
AcDbEntity
  8
0
  6
Continuous
 62
     2
100
AcDbText
 10
18.2058109436
 20
79.11033258270001
 30
0.0
 40
1.333333852099999
  1
T
 41
0.9895727803714168
  7
TEXTSTYLE_2
 72
     5
 11
19.3317373075
 21
79.11033258270001
 31
0.0
100
AcDbText
  0
ELLIPSE
  5
232
330
22B
100
AcDbEntity
  8
0
  6
Continuous
 62
     7
100
AcDbEllipse
 10
18.7687741256
 20
79.7769995088
 30
0.0
 11
-1.942887567899999
 21
0.0
 31
0.0
210
0.0
220
0.0
230
1.0
 40
0.6606458385
 41
0.0
 42
6.283185307179586
  0
ENDBLK
  5
233
330
22B
100
AcDbEntity
  8
0
  6
ByBlock
 62
     0
100
AcDbBlockEnd
  0
BLOCK
  5
234
330
22C
100
AcDbEntity
  8
0
  6
Continuous
 62
     2
100
AcDbBlockBegin
  2
L03-USAGE_INTERNE_SEULEM_BL1
 70
     0
 10
122.4233755978
 20
57.7321923852
 30
0.0
  3
L03-USAGE_INTERNE_SEULEM_BL1
  1

  0
TEXT
  5
235
330
22C
100
AcDbEntity
  8
0
  6
Continuous
 62
     7
100
AcDbText
 10
116.109315296
 20
59.977226371
 30
0.0
 40
1.1626666667
  1
INTERNAL USE 
 50
9.999999999799985
 41
1.005097163394937
  7
TEXTSTYLE_3
 72
     5
 11
128.2590709167
 21
62.1195560959
 31
0.0
100
AcDbText
  0
TEXT
  5
236
330
22C
100
AcDbEntity
  8
0
  6
Continuous
 62
     7
100
AcDbText
 10
115.365631092
 20
57.9757051933
 30
0.0
 40
1.1626666667
  1
DOCUMENT ONLY
 50
10.00000000006676
 41
1.00480463189224
  7
TEXTSTYLE_3
 72
     5
 11
129.4746143207
 21
60.46349960689999
 31
0.0
100
AcDbText
  0
TEXT
  5
237
330
22C
100
AcDbEntity
  8
0
  6
Continuous
 62
     7
100
AcDbText
 10
121.1503586553
 20
57.7272771428
 30
0.0
 40
1.1626666667
  1
 
 50
9.999999999982465
 41
0.9999999893449121
  7
TEXTSTYLE_5
 72
     5
 11
122.2953618028
 21
57.9291720907
 31
0.0
100
AcDbText
  0
TEXT
  5
238
330
22C
100
AcDbEntity
  8
0
  6
Continuous
 62
     7
100
AcDbText
 10
112.7057107723
 20
53.55018273649999
 30
0.0
 40
1.1626666667
  1
DOCUMENT POUR USAGE
 50
10.00000000001811
 41
1.000408784561172
  7
TEXTSTYLE_3
 72
     5
 11
133.0655630358
 21
57.1401740138
 31
0.0
100
AcDbText
  0
TEXT
  5
239
330
22C
100
AcDbEntity
  8
0
  6
Continuous
 62
     7
100
AcDbText
 10
113.1348102183
 20
51.5334342761
 30
0.0
 40
1.1626666667
  1
A L'INTERNE SEULEMENT
 50
9.999999999781422
 41
1.011903875565177
  7
TEXTSTYLE_3
 72
     5
 11
133.3207916335
 21
55.0927674316
 31
0.0
100
AcDbText
  0
LINE
  5
23A
330
22C
100
AcDbEntity
  8
0
  6
Continuous
 62
     1
100
AcDbLine
 10
136.2799273211
 20
53.3886587672
 30
0.0
 11
136.2866862538
 21
53.3954176999
 31
0.0
  0
LINE
  5
23B
330
22C
100
AcDbEntity
  8
0
  6
Continuous
 62
     1
100
AcDbLine
 10
135.5473577547
 20
53.25948698739999
 30
0.0
 11
136.1962391998
 21
53.90836843249999
 31
0.0
  0
LINE
  5
23C
330
22C
100
AcDbEntity
  8
0
  6
Continuous
 62
     1
100
AcDbLine
 10
134.8147881883
 20
53.1303152076
 30
0.0
 11
136.1057921459
 21
54.42131916520001
 31
0.0
  0
LINE
  5
23D
330
22C
100
AcDbEntity
  8
0
  6
Continuous
 62
     1
100
AcDbLine
 10
134.0822186219
 20
53.00114342779999
 30
0.0
 11
136.0153450919
 21
54.9342698979
 31
0.0
  0
LINE
  5
23E
330
22C
100
AcDbEntity
  8
0
  6
Continuous
 62
     1
100
AcDbLine
 10
133.3496490554999
 20
52.871971648
 30
0.0
 11
135.924898038
 21
55.4472206305
 31
0.0
  0
LINE
  5
23F
330
22C
100
AcDbEntity
  8
0
  6
Continuous
 62
     1
100
AcDbLine
 10
132.617079489
 20
52.74279986819999
 30
0.0
 11
134.1580833038
 21
54.283803683
 31
0.0
  0
LINE
  5
240
330
22C
100
AcDbEntity
  8
0
  6
Continuous
 62
     1
100
AcDbLine
 10
134.7554284965
 20
54.8811488757
 30
0.0
 11
135.8344509841
 21
55.9601713632
 31
0.0
  0
LINE
  5
241
330
22C
100
AcDbEntity
  8
0
  6
Continuous
 62
     1
100
AcDbLine
 10
131.8845099226
 20
52.6136280884
 30
0.0
 11
133.4255137374
 21
54.1546319032
 31
0.0
  0
LINE
  5
242
330
22C
100
AcDbEntity
  8
0
  6
Continuous
 62
     1
100
AcDbLine
 10
134.6649814426
 20
55.3940996084
 30
0.0
 11
135.7440039301
 21
56.4731220959
 31
0.0
  0
LINE
  5
243
330
22C
100
AcDbEntity
  8
0
  6
Continuous
 62
     1
100
AcDbLine
 10
131.1519403562
 20
52.4844563086
 30
0.0
 11
132.692944171
 21
54.0254601233
 31
0.0
  0
LINE
  5
244
330
22C
100
AcDbEntity
  8
0
  6
Continuous
 62
     1
100
AcDbLine
 10
134.5745343886
 20
55.907050341
 30
0.0
 11
135.6535568762
 21
56.98607282850001
 31
0.0
  0
LINE
  5
245
330
22C
100
AcDbEntity
  8
0
  6
Continuous
 62
     1
100
AcDbLine
 10
130.4193707898
 20
52.3552845288
 30
0.0
 11
131.9603746046
 21
53.8962883435
 31
0.0
  0
LINE
  5
246
330
22C
100
AcDbEntity
  8
0
  6
Continuous
 62
     1
100
AcDbLine
 10
134.4840873347
 20
56.4200010737
 30
0.0
 11
135.5631098222
 21
57.49902356119999
 31
0.0
  0
LINE
  5
247
330
22C
100
AcDbEntity
  8
0
  6
Continuous
 62
     1
100
AcDbLine
 10
129.6868012234
 20
52.226112749
 30
0.0
 11
131.2278050381
 21
53.7671165637
 31
0.0
  0
LINE
  5
248
330
22C
100
AcDbEntity
  8
0
  6
Continuous
 62
     1
100
AcDbLine
 10
134.3936402808
 20
56.9329518064
 30
0.0
 11
135.4726627683
 21
58.01197429390001
 31
0.0
  0
LINE
  5
249
330
22C
100
AcDbEntity
  8
0
  6
Continuous
 62
     1
100
AcDbLine
 10
128.9542316569
 20
52.09694096919999
 30
0.0
 11
130.4952354717
 21
53.6379447839
 31
0.0
  0
LINE
  5
24A
330
22C
100
AcDbEntity
  8
0
  6
Continuous
 62
     1
100
AcDbLine
 10
134.3031932268
 20
57.445902539
 30
0.0
 11
135.3822157143
 21
58.52492502649999
 31
0.0
  0
LINE
  5
24B
330
22C
100
AcDbEntity
  8
0
  6
Continuous
 62
     1
100
AcDbLine
 10
128.2216620905
 20
51.96776918939999
 30
0.0
 11
129.7626659053
 21
53.5087730041
 31
0.0
  0
LINE
  5
24C
330
22C
100
AcDbEntity
  8
0
  6
Continuous
 62
     1
100
AcDbLine
 10
134.2127461729
 20
57.9588532717
 30
0.0
 11
135.2917686604
 21
59.0378757592
 31
0.0
  0
LINE
  5
24D
330
22C
100
AcDbEntity
  8
0
  6
Continuous
 62
     1
100
AcDbLine
 10
127.4890925241
 20
51.8385974095
 30
0.0
 11
129.0300963389
 21
53.37960122430001
 31
0.0
  0
LINE
  5
24E
330
22C
100
AcDbEntity
  8
0
  6
Continuous
 62
     1
100
AcDbLine
 10
134.1222991189
 20
58.4718040044
 30
0.0
 11
135.2013216064
 21
59.5508264919
 31
0.0
  0
LINE
  5
24F
330
22C
100
AcDbEntity
  8
0
  6
Continuous
 62
     1
100
AcDbLine
 10
126.7565229577
 20
51.7094256297
 30
0.0
 11
128.2975267725
 21
53.2504294445
 31
0.0
  0
LINE
  5
250
330
22C
100
AcDbEntity
  8
0
  6
Continuous
 62
     1
100
AcDbLine
 10
134.031852065
 20
58.98475473699999
 30
0.0
 11
135.1108745525
 21
60.0637772246
 31
0.0
  0
LINE
  5
251
330
22C
100
AcDbEntity
  8
0
  6
Continuous
 62
     1
100
AcDbLine
 10
126.0239533913
 20
51.5802538499
 30
0.0
 11
127.564957206
 21
53.1212576647
 31
0.0
  0
LINE
  5
252
330
22C
100
AcDbEntity
  8
0
  6
Continuous
 62
     1
100
AcDbLine
 10
133.7289724652
 20
59.2852729238
 30
0.0
 11
135.0204274986
 21
60.5767279572
 31
0.0
  0
LINE
  5
253
330
22C
100
AcDbEntity
  8
0
  6
Continuous
 62
     1
100
AcDbLine
 10
125.2913838249
 20
51.4510820701
 30
0.0
 11
126.8323876396
 21
52.99208588489999
 31
0.0
  0
LINE
  5
254
330
22C
100
AcDbEntity
  8
0
  6
Continuous
 62
     1
100
AcDbLine
 10
132.9964028987
 20
59.15610114399999
 30
0.0
 11
134.9299804446
 21
61.08967868989999
 31
0.0
  0
LINE
  5
255
330
22C
100
AcDbEntity
  8
0
  6
Continuous
 62
     1
100
AcDbLine
 10
124.5588142584
 20
51.3219102903
 30
0.0
 11
126.0998180732
 21
52.8629141051
 31
0.0
  0
LINE
  5
256
330
22C
100
AcDbEntity
  8
0
  6
Continuous
 62
     1
100
AcDbLine
 10
132.2638333323
 20
59.0269293642
 30
0.0
 11
133.2911756306
 21
60.0542716625
 31
0.0
  0
LINE
  5
257
330
22C
100
AcDbEntity
  8
0
  6
Continuous
 62
     1
100
AcDbLine
 10
133.7605109032
 20
60.52360693499999
 30
0.0
 11
134.8395333907
 21
61.60262942260001
 31
0.0
  0
LINE
  5
258
330
22C
100
AcDbEntity
  8
0
  6
Continuous
 62
     1
100
AcDbLine
 10
123.826244692
 20
51.19273851049999
 30
0.0
 11
125.3672485068
 21
52.7337423253
 31
0.0
  0
LINE
  5
259
330
22C
100
AcDbEntity
  8
0
  6
Continuous
 62
     1
100
AcDbLine
 10
131.5312637659
 20
58.89775758439999
 30
0.0
 11
132.5586058546
 21
59.92509967310001
 31
0.0
  0
LINE
  5
25A
330
22C
100
AcDbEntity
  8
0
  6
Continuous
 62
     1
100
AcDbLine
 10
133.6700638492
 20
61.0365576677
 30
0.0
 11
134.7490863367
 21
62.11558015520001
 31
0.0
  0
LINE
  5
25B
330
22C
100
AcDbEntity
  8
0
  6
Continuous
 62
     1
100
AcDbLine
 10
123.0936751256
 20
51.06356673069999
 30
0.0
 11
124.6346789404
 21
52.6045705455
 31
0.0
  0
LINE
  5
25C
330
22C
100
AcDbEntity
  8
0
  6
Continuous
 62
     1
100
AcDbLine
 10
130.7986941995
 20
58.7685858046
 30
0.0
 11
131.8260360785
 21
59.79592768359999
 31
0.0
  0
LINE
  5
25D
330
22C
100
AcDbEntity
  8
0
  6
Continuous
 62
     1
100
AcDbLine
 10
133.5796167953
 20
61.5495084004
 30
0.0
 11
134.6586392828
 21
62.6285308879
 31
0.0
  0
LINE
  5
25E
330
22C
100
AcDbEntity
  8
0
  6
Continuous
 62
     1
100
AcDbLine
 10
122.3611055592
 20
50.9343949509
 30
0.0
 11
123.902109374
 21
52.4753987657
 31
0.0
  0
LINE
  5
25F
330
22C
100
AcDbEntity
  8
0
  6
Continuous
 62
     1
100
AcDbLine
 10
130.0661246331
 20
58.6394140248
 30
0.0
 11
131.0934663025
 21
59.6667556942
 31
0.0
  0
LINE
  5
260
330
22C
100
AcDbEntity
  8
0
  6
Continuous
 62
     1
100
AcDbLine
 10
133.4891697413
 20
62.062459133
 30
0.0
 11
134.5681922288
 21
63.1414816206
 31
0.0
  0
LINE
  5
261
330
22C
100
AcDbEntity
  8
0
  6
Continuous
 62
     1
100
AcDbLine
 10
121.6285359928
 20
50.80522317109999
 30
0.0
 11
123.1695398075
 21
52.3462269859
 31
0.0
  0
LINE
  5
262
330
22C
100
AcDbEntity
  8
0
  6
Continuous
 62
     1
100
AcDbLine
 10
129.3335550666
 20
58.510242245
 30
0.0
 11
130.3608965265
 21
59.53758370479999
 31
0.0
  0
LINE
  5
263
330
22C
100
AcDbEntity
  8
0
  6
Continuous
 62
     1
100
AcDbLine
 10
133.3987226874
 20
62.57540986569999
 30
0.0
 11
134.4777451749
 21
63.65443235319999
 31
0.0
  0
LINE
  5
264
330
22C
100
AcDbEntity
  8
0
  6
Continuous
 62
     1
100
AcDbLine
 10
120.8959664263
 20
50.6760513913
 30
0.0
 11
122.4369702411
 21
52.2170552061
 31
0.0
  0
LINE
  5
265
330
22C
100
AcDbEntity
  8
0
  6
Continuous
 62
     1
100
AcDbLine
 10
128.6009855002
 20
58.38107046520001
 30
0.0
 11
129.6283267504
 21
59.4084117154
 31
0.0
  0
LINE
  5
266
330
22C
100
AcDbEntity
  8
0
  6
Continuous
 62
     1
100
AcDbLine
 10
133.3082756334
 20
63.0883605984
 30
0.0
 11
134.387298121
 21
64.1673830859
 31
0.0
  0
LINE
  5
267
330
22C
100
AcDbEntity
  8
0
  6
Continuous
 62
     1
100
AcDbLine
 10
120.1633968599
 20
50.54687961149999
 30
0.0
 11
121.7044006747
 21
52.08788342630001
 31
0.0
  0
LINE
  5
268
330
22C
100
AcDbEntity
  8
0
  6
Continuous
 62
     1
100
AcDbLine
 10
127.8684159338
 20
58.2518986854
 30
0.0
 11
128.8957569744
 21
59.27923972600001
 31
0.0
  0
LINE
  5
269
330
22C
100
AcDbEntity
  8
0
  6
Continuous
 62
     1
100
AcDbLine
 10
133.2178285795
 20
63.6013113311
 30
0.0
 11
134.296851067
 21
64.68033381859999
 31
0.0
  0
LINE
  5
26A
330
22C
100
AcDbEntity
  8
0
  6
Continuous
 62
     1
100
AcDbLine
 10
119.4308272935
 20
50.4177078317
 30
0.0
 11
120.9718311083
 21
51.9587116465
 31
0.0
  0
LINE
  5
26B
330
22C
100
AcDbEntity
  8
0
  6
Continuous
 62
     1
100
AcDbLine
 10
127.1358463674
 20
58.1227269056
 30
0.0
 11
128.1631871984
 21
59.1500677366
 31
0.0
  0
LINE
  5
26C
330
22C
100
AcDbEntity
  8
0
  6
Continuous
 62
     1
100
AcDbLine
 10
133.1273815255
 20
64.11426206369999
 30
0.0
 11
134.2064040131
 21
65.1932845512
 31
0.0
  0
LINE
  5
26D
330
22C
100
AcDbEntity
  8
0
  6
Continuous
 62
     1
100
AcDbLine
 10
118.6982577271
 20
50.2885360519
 30
0.0
 11
120.2392615419
 21
51.8295398667
 31
0.0
  0
LINE
  5
26E
330
22C
100
AcDbEntity
  8
0
  6
Continuous
 62
     1
100
AcDbLine
 10
126.403276801
 20
57.9935551258
 30
0.0
 11
127.4306174224
 21
59.0208957471
 31
0.0
  0
LINE
  5
26F
330
22C
100
AcDbEntity
  8
0
  6
Continuous
 62
     1
100
AcDbLine
 10
133.0369344716
 20
64.6272127964
 30
0.0
 11
134.1159569591
 21
65.7062352839
 31
0.0
  0
LINE
  5
270
330
22C
100
AcDbEntity
  8
0
  6
Continuous
 62
     1
100
AcDbLine
 10
117.9656881607
 20
50.1593642721
 30
0.0
 11
119.5066919755
 21
51.70036808689999
 31
0.0
  0
LINE
  5
271
330
22C
100
AcDbEntity
  8
0
  6
Continuous
 62
     1
100
AcDbLine
 10
125.6707072346
 20
57.864383346
 30
0.0
 11
126.6980476463
 21
58.89172375770001
 31
0.0
  0
LINE
  5
272
330
22C
100
AcDbEntity
  8
0
  6
Continuous
 62
     1
100
AcDbLine
 10
132.8620583702
 20
65.05573448159999
 30
0.0
 11
134.0255099052
 21
66.2191860166
 31
0.0
  0
LINE
  5
273
330
22C
100
AcDbEntity
  8
0
  6
Continuous
 62
     1
100
AcDbLine
 10
117.2331185943
 20
50.0301924923
 30
0.0
 11
118.774122409
 21
51.571196307
 31
0.0
  0
LINE
  5
274
330
22C
100
AcDbEntity
  8
0
  6
Continuous
 62
     1
100
AcDbLine
 10
124.9381376681
 20
57.7352115662
 30
0.0
 11
125.9654778703
 21
58.76255176829999
 31
0.0
  0
LINE
  5
275
330
22C
100
AcDbEntity
  8
0
  6
Continuous
 62
     1
100
AcDbLine
 10
132.1294888038
 20
64.92656270180001
 30
0.0
 11
133.6704926185
 21
66.4675665166
 31
0.0
  0
LINE
  5
276
330
22C
100
AcDbEntity
  8
0
  6
Continuous
 62
     1
100
AcDbLine
 10
116.5005490278
 20
49.90102071249999
 30
0.0
 11
118.0415528426
 21
51.4420245272
 31
0.0
  0
LINE
  5
277
330
22C
100
AcDbEntity
  8
0
  6
Continuous
 62
     1
100
AcDbLine
 10
124.2055681017
 20
57.6060397864
 30
0.0
 11
125.2329080943
 21
58.6333797789
 31
0.0
  0
LINE
  5
278
330
22C
100
AcDbEntity
  8
0
  6
Continuous
 62
     1
100
AcDbLine
 10
131.3969192374
 20
64.79739092199999
 30
0.0
 11
132.9379230521
 21
66.3383947368
 31
0.0
  0
LINE
  5
279
330
22C
100
AcDbEntity
  8
0
  6
Continuous
 62
     1
100
AcDbLine
 10
115.7679794614
 20
49.7718489327
 30
0.0
 11
117.3089832762
 21
51.3128527474
 31
0.0
  0
LINE
  5
27A
330
22C
100
AcDbEntity
  8
0
  6
Continuous
 62
     1
100
AcDbLine
 10
123.4729985353
 20
57.4768680065
 30
0.0
 11
124.5003383182
 21
58.5042077895
 31
0.0
  0
LINE
  5
27B
330
22C
100
AcDbEntity
  8
0
  6
Continuous
 62
     1
100
AcDbLine
 10
130.6643496709
 20
64.6682191422
 30
0.0
 11
132.2053534857
 21
66.20922295689999
 31
0.0
  0
LINE
  5
27C
330
22C
100
AcDbEntity
  8
0
  6
Continuous
 62
     1
100
AcDbLine
 10
115.035409895
 20
49.6426771529
 30
0.0
 11
116.5764137098
 21
51.18368096760001
 31
0.0
  0
LINE
  5
27D
330
22C
100
AcDbEntity
  8
0
  6
Continuous
 62
     1
100
AcDbLine
 10
122.7404289689
 20
57.3476962267
 30
0.0
 11
123.7677685422
 21
58.3750358001
 31
0.0
  0
LINE
  5
27E
330
22C
100
AcDbEntity
  8
0
  6
Continuous
 62
     1
100
AcDbLine
 10
129.9317801045
 20
64.5390473624
 30
0.0
 11
131.4727839193
 21
66.0800511771
 31
0.0
  0
LINE
  5
27F
330
22C
100
AcDbEntity
  8
0
  6
Continuous
 62
     1
100
AcDbLine
 10
114.3028403286
 20
49.513505373
 30
0.0
 11
115.8438441434
 21
51.0545091878
 31
0.0
  0
LINE
  5
280
330
22C
100
AcDbEntity
  8
0
  6
Continuous
 62
     1
100
AcDbLine
 10
122.0078594025
 20
57.2185244469
 30
0.0
 11
123.0351987662
 21
58.24586381060001
 31
0.0
  0
LINE
  5
281
330
22C
100
AcDbEntity
  8
0
  6
Continuous
 62
     1
100
AcDbLine
 10
129.1992105381
 20
64.40987558260001
 30
0.0
 11
130.7402143529
 21
65.95087939729999
 31
0.0
  0
LINE
  5
282
330
22C
100
AcDbEntity
  8
0
  6
Continuous
 62
     1
100
AcDbLine
 10
113.5702707622
 20
49.3843335932
 30
0.0
 11
115.1112745769
 21
50.925337408
 31
0.0
  0
LINE
  5
283
330
22C
100
AcDbEntity
  8
0
  6
Continuous
 62
     1
100
AcDbLine
 10
121.2752898361
 20
57.0893526671
 30
0.0
 11
122.3026289902
 21
58.1166918212
 31
0.0
  0
LINE
  5
284
330
22C
100
AcDbEntity
  8
0
  6
Continuous
 62
     1
100
AcDbLine
 10
128.4666409717
 20
64.28070380279999
 30
0.0
 11
130.0076447865
 21
65.82170761749999
 31
0.0
  0
LINE
  5
285
330
22C
100
AcDbEntity
  8
0
  6
Continuous
 62
     1
100
AcDbLine
 10
112.8377011957
 20
49.2551618134
 30
0.0
 11
114.3787050105
 21
50.7961656282
 31
0.0
  0
LINE
  5
286
330
22C
100
AcDbEntity
  8
0
  6
Continuous
 62
     1
100
AcDbLine
 10
120.5427202696
 20
56.96018088729999
 30
0.0
 11
121.5700592141
 21
57.9875198318
 31
0.0
  0
LINE
  5
287
330
22C
100
AcDbEntity
  8
0
  6
Continuous
 62
     1
100
AcDbLine
 10
127.7340714053
 20
64.15153202289999
 30
0.0
 11
129.27507522
 21
65.69253583770001
 31
0.0
  0
LINE
  5
288
330
22C
100
AcDbEntity
  8
0
  6
Continuous
 62
     1
100
AcDbLine
 10
112.1051316293
 20
49.1259900336
 30
0.0
 11
113.6461354441
 21
50.6669938484
 31
0.0
  0
LINE
  5
289
330
22C
100
AcDbEntity
  8
0
  6
Continuous
 62
     1
100
AcDbLine
 10
119.8101507032
 20
56.8310091075
 30
0.0
 11
120.8374894381
 21
57.8583478424
 31
0.0
  0
LINE
  5
28A
330
22C
100
AcDbEntity
  8
0
  6
Continuous
 62
     1
100
AcDbLine
 10
127.0015018388
 20
64.02236024310001
 30
0.0
 11
128.5425056536
 21
65.5633640579
 31
0.0
  0
LINE
  5
28B
330
22C
100
AcDbEntity
  8
0
  6
Continuous
 62
     1
100
AcDbLine
 10
111.3725620629
 20
48.9968182538
 30
0.0
 11
112.9135658777
 21
50.53782206859999
 31
0.0
  0
LINE
  5
28C
330
22C
100
AcDbEntity
  8
0
  6
Continuous
 62
     1
100
AcDbLine
 10
119.0775811368
 20
56.7018373277
 30
0.0
 11
120.1049196621
 21
57.729175853
 31
0.0
  0
LINE
  5
28D
330
22C
100
AcDbEntity
  8
0
  6
Continuous
 62
     1
100
AcDbLine
 10
126.2689322724
 20
63.8931884633
 30
0.0
 11
127.8099360872
 21
65.4341922781
 31
0.0
  0
LINE
  5
28E
330
22C
100
AcDbEntity
  8
0
  6
Continuous
 62
     1
100
AcDbLine
 10
110.8212412904
 20
49.0488952679
 30
0.0
 11
112.1809963113
 21
50.4086502888
 31
0.0
  0
LINE
  5
28F
330
22C
100
AcDbEntity
  8
0
  6
Continuous
 62
     1
100
AcDbLine
 10
118.3450115704
 20
56.5726655479
 30
0.0
 11
119.372349886
 21
57.60000386359999
 31
0.0
  0
LINE
  5
290
330
22C
100
AcDbEntity
  8
0
  6
Continuous
 62
     1
100
AcDbLine
 10
125.536362706
 20
63.7640166835
 30
0.0
 11
127.0773665208
 21
65.30502049829999
 31
0.0
  0
LINE
  5
291
330
22C
100
AcDbEntity
  8
0
  6
Continuous
 62
     1
100
AcDbLine
 10
110.7307942364
 20
49.56184600060001
 30
0.0
 11
111.809816724
 21
50.6408684881
 31
0.0
  0
LINE
  5
292
330
22C
100
AcDbEntity
  8
0
  6
Continuous
 62
     1
100
AcDbLine
 10
117.612442004
 20
56.44349376810001
 30
0.0
 11
118.63978011
 21
57.4708318742
 31
0.0
  0
LINE
  5
293
330
22C
100
AcDbEntity
  8
0
  6
Continuous
 62
     1
100
AcDbLine
 10
124.8037931396
 20
63.6348449037
 30
0.0
 11
126.3447969544
 21
65.17584871850001
 31
0.0
  0
LINE
  5
294
330
22C
100
AcDbEntity
  8
0
  6
Continuous
 62
     1
100
AcDbLine
 10
110.6403471825
 20
50.07479673329999
 30
0.0
 11
111.71936967
 21
51.1538192208
 31
0.0
  0
LINE
  5
295
330
22C
100
AcDbEntity
  8
0
  6
Continuous
 62
     1
100
AcDbLine
 10
116.8798724375
 20
56.3143219883
 30
0.0
 11
117.907210334
 21
57.3416598847
 31
0.0
  0
LINE
  5
296
330
22C
100
AcDbEntity
  8
0
  6
Continuous
 62
     1
100
AcDbLine
 10
124.0712235732
 20
63.5056731239
 30
0.0
 11
125.6122273879
 21
65.0466769387
 31
0.0
  0
LINE
  5
297
330
22C
100
AcDbEntity
  8
0
  6
Continuous
 62
     1
100
AcDbLine
 10
110.5499001286
 20
50.5877474659
 30
0.0
 11
111.6289226161
 21
51.6667699534
 31
0.0
  0
LINE
  5
298
330
22C
100
AcDbEntity
  8
0
  6
Continuous
 62
     1
100
AcDbLine
 10
116.1473028711
 20
56.18515020850001
 30
0.0
 11
117.174640558
 21
57.2124878953
 31
0.0
  0
LINE
  5
299
330
22C
100
AcDbEntity
  8
0
  6
Continuous
 62
     1
100
AcDbLine
 10
123.3386540068
 20
63.3765013441
 30
0.0
 11
124.8796578215
 21
64.9175051589
 31
0.0
  0
LINE
  5
29A
330
22C
100
AcDbEntity
  8
0
  6
Continuous
 62
     1
100
AcDbLine
 10
110.4594530746
 20
51.1006981986
 30
0.0
 11
111.5384755621
 21
52.17972068609999
 31
0.0
  0
LINE
  5
29B
330
22C
100
AcDbEntity
  8
0
  6
Continuous
 62
     1
100
AcDbLine
 10
115.4147333047
 20
56.0559784287
 30
0.0
 11
116.4420707819
 21
57.0833159059
 31
0.0
  0
LINE
  5
29C
330
22C
100
AcDbEntity
  8
0
  6
Continuous
 62
     1
100
AcDbLine
 10
122.6060844403
 20
63.2473295643
 30
0.0
 11
124.1470882551
 21
64.7883333791
 31
0.0
  0
LINE
  5
29D
330
22C
100
AcDbEntity
  8
0
  6
Continuous
 62
     1
100
AcDbLine
 10
110.3690060207
 20
51.6136489313
 30
0.0
 11
111.4480285082
 21
52.6926714188
 31
0.0
  0
LINE
  5
29E
330
22C
100
AcDbEntity
  8
0
  6
Continuous
 62
     1
100
AcDbLine
 10
114.6821637383
 20
55.9268066489
 30
0.0
 11
115.7095010059
 21
56.95414391649999
 31
0.0
  0
LINE
  5
29F
330
22C
100
AcDbEntity
  8
0
  6
Continuous
 62
     1
100
AcDbLine
 10
121.8735148739
 20
63.1181577845
 30
0.0
 11
123.4145186887
 21
64.6591615993
 31
0.0
  0
LINE
  5
2A0
330
22C
100
AcDbEntity
  8
0
  6
Continuous
 62
     1
100
AcDbLine
 10
110.2785589667
 20
52.1265996639
 30
0.0
 11
111.3575814542
 21
53.2056221514
 31
0.0
  0
LINE
  5
2A1
330
22C
100
AcDbEntity
  8
0
  6
Continuous
 62
     1
100
AcDbLine
 10
113.9495941719
 20
55.7976348691
 30
0.0
 11
114.9769312299
 21
56.8249719271
 31
0.0
  0
LINE
  5
2A2
330
22C
100
AcDbEntity
  8
0
  6
Continuous
 62
     1
100
AcDbLine
 10
121.1409453075
 20
62.9889860047
 30
0.0
 11
122.6819491223
 21
64.5299898195
 31
0.0
  0
LINE
  5
2A3
330
22C
100
AcDbEntity
  8
0
  6
Continuous
 62
     1
100
AcDbLine
 10
110.1881119128
 20
52.6395503966
 30
0.0
 11
111.2671344003
 21
53.7185728841
 31
0.0
  0
LINE
  5
2A4
330
22C
100
AcDbEntity
  8
0
  6
Continuous
 62
     1
100
AcDbLine
 10
113.2170246055
 20
55.6684630893
 30
0.0
 11
114.2443614538
 21
56.6957999377
 31
0.0
  0
LINE
  5
2A5
330
22C
100
AcDbEntity
  8
0
  6
Continuous
 62
     1
100
AcDbLine
 10
120.4083757411
 20
62.85981422489999
 30
0.0
 11
121.9493795559
 21
64.4008180397
 31
0.0
  0
LINE
  5
2A6
330
22C
100
AcDbEntity
  8
0
  6
Continuous
 62
     1
100
AcDbLine
 10
110.0976648588
 20
53.15250112930001
 30
0.0
 11
111.1766873464
 21
54.2315236168
 31
0.0
  0
LINE
  5
2A7
330
22C
100
AcDbEntity
  8
0
  6
Continuous
 62
     1
100
AcDbLine
 10
112.484455039
 20
55.5392913095
 30
0.0
 11
113.5117916778
 21
56.56662794819999
 31
0.0
  0
LINE
  5
2A8
330
22C
100
AcDbEntity
  8
0
  6
Continuous
 62
     1
100
AcDbLine
 10
119.6758061747
 20
62.7306424451
 30
0.0
 11
121.2168099894
 21
64.27164625989999
 31
0.0
  0
LINE
  5
2A9
330
22C
100
AcDbEntity
  8
0
  6
Continuous
 62
     1
100
AcDbLine
 10
110.0072178049
 20
53.66545186189999
 30
0.0
 11
111.0862402924
 21
54.7444743495
 31
0.0
  0
LINE
  5
2AA
330
22C
100
AcDbEntity
  8
0
  6
Continuous
 62
     1
100
AcDbLine
 10
111.7518854726
 20
55.4101195297
 30
0.0
 11
112.7792219018
 21
56.4374559588
 31
0.0
  0
LINE
  5
2AB
330
22C
100
AcDbEntity
  8
0
  6
Continuous
 62
     1
100
AcDbLine
 10
118.9432366082
 20
62.6014706653
 30
0.0
 11
120.484240423
 21
64.14247448010001
 31
0.0
  0
LINE
  5
2AC
330
22C
100
AcDbEntity
  8
0
  6
Continuous
 62
     1
100
AcDbLine
 10
109.916770751
 20
54.1784025946
 30
0.0
 11
110.9957932385
 21
55.2574250821
 31
0.0
  0
LINE
  5
2AD
330
22C
100
AcDbEntity
  8
0
  6
Continuous
 62
     1
100
AcDbLine
 10
111.0193159062
 20
55.2809477499
 30
0.0
 11
112.0466521258
 21
56.3082839694
 31
0.0
  0
LINE
  5
2AE
330
22C
100
AcDbEntity
  8
0
  6
Continuous
 62
     1
100
AcDbLine
 10
118.2106670418
 20
62.4722988855
 30
0.0
 11
119.7516708566
 21
64.0133027003
 31
0.0
  0
LINE
  5
2AF
330
22C
100
AcDbEntity
  8
0
  6
Continuous
 62
     1
100
AcDbLine
 10
109.826323697
 20
54.69135332729999
 30
0.0
 11
111.3140823497
 21
56.17911198
 31
0.0
  0
LINE
  5
2B0
330
22C
100
AcDbEntity
  8
0
  6
Continuous
 62
     1
100
AcDbLine
 10
117.4780974754
 20
62.3431271057
 30
0.0
 11
119.0191012902
 21
63.8841309205
 31
0.0
  0
LINE
  5
2B1
330
22C
100
AcDbEntity
  8
0
  6
Continuous
 62
     1
100
AcDbLine
 10
109.7358766431
 20
55.2043040599
 30
0.0
 11
110.8148991306
 21
56.2833265475
 31
0.0
  0
LINE
  5
2B2
330
22C
100
AcDbEntity
  8
0
  6
Continuous
 62
     1
100
AcDbLine
 10
116.745527909
 20
62.2139553259
 30
0.0
 11
118.2865317238
 21
63.7549591406
 31
0.0
  0
LINE
  5
2B3
330
22C
100
AcDbEntity
  8
0
  6
Continuous
 62
     1
100
AcDbLine
 10
109.6454295891
 20
55.7172547926
 30
0.0
 11
110.7244520766
 21
56.7962772801
 31
0.0
  0
LINE
  5
2B4
330
22C
100
AcDbEntity
  8
0
  6
Continuous
 62
     1
100
AcDbLine
 10
116.0129583426
 20
62.0847835461
 30
0.0
 11
117.5539621574
 21
63.62578736079999
 31
0.0
  0
LINE
  5
2B5
330
22C
100
AcDbEntity
  8
0
  6
Continuous
 62
     1
100
AcDbLine
 10
109.5549825352
 20
56.2302055253
 30
0.0
 11
110.6340050227
 21
57.3092280128
 31
0.0
  0
LINE
  5
2B6
330
22C
100
AcDbEntity
  8
0
  6
Continuous
 62
     1
100
AcDbLine
 10
115.2803887762
 20
61.9556117663
 30
0.0
 11
116.8213925909
 21
63.496615581
 31
0.0
  0
LINE
  5
2B7
330
22C
100
AcDbEntity
  8
0
  6
Continuous
 62
     1
100
AcDbLine
 10
109.4645354812
 20
56.743156258
 30
0.0
 11
110.5435579688
 21
57.8221787455
 31
0.0
  0
LINE
  5
2B8
330
22C
100
AcDbEntity
  8
0
  6
Continuous
 62
     1
100
AcDbLine
 10
114.5478192097
 20
61.8264399865
 30
0.0
 11
116.0888230245
 21
63.36744380119999
 31
0.0
  0
LINE
  5
2B9
330
22C
100
AcDbEntity
  8
0
  6
Continuous
 62
     1
100
AcDbLine
 10
109.3740884273
 20
57.2561069906
 30
0.0
 11
110.4531109148
 21
58.3351294781
 31
0.0
  0
LINE
  5
2BA
330
22C
100
AcDbEntity
  8
0
  6
Continuous
 62
     1
100
AcDbLine
 10
113.8152496433
 20
61.6972682066
 30
0.0
 11
115.3562534581
 21
63.2382720214
 31
0.0
  0
LINE
  5
2BB
330
22C
100
AcDbEntity
  8
0
  6
Continuous
 62
     1
100
AcDbLine
 10
109.2836413733
 20
57.7690577233
 30
0.0
 11
110.3626638609
 21
58.8480802108
 31
0.0
  0
LINE
  5
2BC
330
22C
100
AcDbEntity
  8
0
  6
Continuous
 62
     1
100
AcDbLine
 10
113.0826800769
 20
61.5680964268
 30
0.0
 11
114.6236838917
 21
63.1091002416
 31
0.0
  0
LINE
  5
2BD
330
22C
100
AcDbEntity
  8
0
  6
Continuous
 62
     1
100
AcDbLine
 10
109.1931943194
 20
58.28200845600001
 30
0.0
 11
110.2722168069
 21
59.3610309435
 31
0.0
  0
LINE
  5
2BE
330
22C
100
AcDbEntity
  8
0
  6
Continuous
 62
     1
100
AcDbLine
 10
112.3501105105
 20
61.438924647
 30
0.0
 11
113.8911143253
 21
62.9799284618
 31
0.0
  0
LINE
  5
2BF
330
22C
100
AcDbEntity
  8
0
  6
Continuous
 62
     1
100
AcDbLine
 10
109.1027472654999
 20
58.7949591886
 30
0.0
 11
110.181769753
 21
59.87398167609999
 31
0.0
  0
LINE
  5
2C0
330
22C
100
AcDbEntity
  8
0
  6
Continuous
 62
     1
100
AcDbLine
 10
111.6175409441
 20
61.3097528672
 30
0.0
 11
113.1585447588
 21
62.850756682
 31
0.0
  0
LINE
  5
2C1
330
22C
100
AcDbEntity
  8
0
  6
Continuous
 62
     1
100
AcDbLine
 10
109.0123002115
 20
59.3079099213
 30
0.0
 11
110.091322699
 21
60.3869324088
 31
0.0
  0
LINE
  5
2C2
330
22C
100
AcDbEntity
  8
0
  6
Continuous
 62
     1
100
AcDbLine
 10
110.8849713776
 20
61.1805810874
 30
0.0
 11
112.4259751924
 21
62.7215849022
 31
0.0
  0
LINE
  5
2C3
330
22C
100
AcDbEntity
  8
0
  6
Continuous
 62
     1
100
AcDbLine
 10
108.9218531576
 20
59.82086065399999
 30
0.0
 11
110.0008756451
 21
60.8998831415
 31
0.0
  0
LINE
  5
2C4
330
22C
100
AcDbEntity
  8
0
  6
Continuous
 62
     1
100
AcDbLine
 10
110.1524018112
 20
61.05140930760001
 30
0.0
 11
111.693405626
 21
62.5924131224
 31
0.0
  0
LINE
  5
2C5
330
22C
100
AcDbEntity
  8
0
  6
Continuous
 62
     1
100
AcDbLine
 10
108.8314061036
 20
60.3338113866
 30
0.0
 11
110.9608360596
 21
62.46324134259999
 31
0.0
  0
LINE
  5
2C6
330
22C
100
AcDbEntity
  8
0
  6
Continuous
 62
     1
100
AcDbLine
 10
108.7409590497
 20
60.8467621193
 30
0.0
 11
110.2282664932
 21
62.33406956279999
 31
0.0
  0
LINE
  5
2C7
330
22C
100
AcDbEntity
  8
0
  6
Continuous
 62
     1
100
AcDbLine
 10
108.6505119957
 20
61.359712852
 30
0.0
 11
109.4956969268
 21
62.204897783
 31
0.0
  0
LINE
  5
2C8
330
22C
100
AcDbEntity
  8
0
  6
Continuous
 62
     1
100
AcDbLine
 10
108.5600649418
 20
61.8726635846
 30
0.0
 11
108.7631273603
 21
62.07572600319999
 31
0.0
  0
ENDBLK
  5
2C9
330
22C
100
AcDbEntity
  8
0
  6
ByBlock
 62
     0
100
AcDbBlockEnd
  0
BLOCK
  5
2CA
330
22D
100
AcDbEntity
  8
0
  6
Continuous
 62
     2
100
AcDbBlockBegin
  2
L03-NOTE_SPECS_BAINS_BL0
 70
     0
 10
160.6667355398
 20
55.3331171009
 30
0.0
  3
L03-NOTE_SPECS_BAINS_BL0
  1

  0
TEXT
  5
2CB
330
22D
100
AcDbEntity
  8
0
  6
Continuous
 62
     2
100
AcDbText
 10
144.4189504636
 20
63.106550492
 30
0.0
 40
0.5
  1
Infomations Techniques/Technical Infomations
 41
1.013057755184423
  7
TEXTSTYLE_2
 72
     5
 11
159.0115430562
 21
63.106550492
 31
0.0
100
AcDbText
  0
TEXT
  5
2CC
330
22D
100
AcDbEntity
  8
0
  6
Continuous
 62
     2
100
AcDbText
 10
144.6667355398
 20
61.6664504343
 30
0.0
 40
0.6666666667
  1
NOMBRE DE JETS:     
 41
1.011916664616728
  7
TEXTSTYLE_2
 72
     5
 11
154.5111799842
 21
61.6664504343
 31
0.0
100
AcDbText
  0
TEXT
  5
2CD
330
22D
100
AcDbEntity
  8
0
  6
Continuous
 62
     2
100
AcDbText
 10
154.5111799842
 20
61.6664504343
 30
0.0
 40
0.6666666667
  1
44
 41
0.9867720164271595
  7
TEXTSTYLE_2
 72
     5
 11
155.5334022064
 21
61.6664504343
 31
0.0
100
AcDbText
  0
TEXT
  5
2CE
330
22D
100
AcDbEntity
  8
0
  6
Continuous
 62
     2
100
AcDbText
 10
144.6667355398
 20
60.6664504343
 30
0.0
 40
0.6666666667
  1
 
 41
1.059207179591827
  7
TEXTSTYLE_2
 72
     5
 11
144.9408096137999
 21
60.6664504343
 31
0.0
100
AcDbText
  0
TEXT
  5
2CF
330
22D
100
AcDbEntity
  8
0
  6
Continuous
 62
     2
100
AcDbText
 10
144.6667355398
 20
59.6664504343
 30
0.0
 40
0.6666666667
  1
NIVEAU D'EAU              GALLONS(US)        LITRES        GALLONS(UK)
 41
1.01395463634499
  7
TEXTSTYLE_2
 72
     5
 11
175.2296985027
 21
59.6664504343
 31
0.0
100
AcDbText
  0
TEXT
  5
2D0
330
22D
100
AcDbEntity
  8
0
  6
Continuous
 62
     2
100
AcDbText
 10
144.6667355398
 20
58.66645043430001
 30
0.0
 40
0.6666666667
  1
PLEIN
 41
1.002633071523468
  7
TEXTSTYLE_2
 72
     5
 11
147.3655009719
 21
58.66645043430001
 31
0.0
100
AcDbText
  0
TEXT
  5
2D1
330
22D
100
AcDbEntity
  8
0
  6
Continuous
 62
     2
100
AcDbText
 10
144.6667355398
 20
57.6664504343
 30
0.0
 40
0.6666666667
  1
HAUT T.PLEIN
 41
1.00668923031733
  7
TEXTSTYLE_2
 72
     5
 11
151.0222910953
 21
57.6664504343
 31
0.0
100
AcDbText
  0
TEXT
  5
2D2
330
22D
100
AcDbEntity
  8
0
  6
Continuous
 62
     2
100
AcDbText
 10
144.6667355398
 20
56.6664504343
 30
0.0
 40
0.6666666667
  1
MILIEU T.PLEIN
 41
1.007652585888674
  7
TEXTSTYLE_2
 72
     5
 11
151.6025380089
 21
56.6664504343
 31
0.0
100
AcDbText
  0
TEXT
  5
2D3
330
22D
100
AcDbEntity
  8
0
  6
Continuous
 62
     2
100
AcDbText
 10
144.6667355398
 20
55.6664504343
 30
0.0
 40
0.6666666667
  1
BAS T.PLEIN
 41
1.00530865596344
  7
TEXTSTYLE_2
 72
     5
 11
150.338340478
 21
55.6664504343
 31
0.0
100
AcDbText
  0
TEXT
  5
2D4
330
22D
100
AcDbEntity
  8
0
  6
Continuous
 62
     2
100
AcDbText
 10
144.6667355398
 20
54.6664504343
 30
0.0
 40
0.6666666667
  1
3" EN BAS T.PLEIN
 41
1.018706183083045
  7
TEXTSTYLE_2
 72
     5
 11
153.1235256631999
 21
54.6664504343
 31
0.0
100
AcDbText
  0
TEXT
  5
2D5
330
22D
100
AcDbEntity
  8
0
  6
Continuous
 62
     2
100
AcDbText
 10
144.6667355398
 20
53.66645043430001
 30
0.0
 40
0.6666666667
  1
 
 41
1.059207179591827
  7
TEXTSTYLE_2
 72
     5
 11
144.9408096137999
 21
53.66645043430001
 31
0.0
100
AcDbText
  0
TEXT
  5
2D6
330
22D
100
AcDbEntity
  8
0
  6
Continuous
 62
     2
100
AcDbText
 10
144.4665740341
 20
53.1196635094
 30
0.0
 40
0.5
  1
Legende/Legend
 41
1.009227457802888
  7
TEXTSTYLE_2
 72
     5
 11
149.7591666267
 21
53.1196635094
 31
0.0
100
AcDbText
  0
TEXT
  5
2D7
330
22D
100
AcDbEntity
  8
0
  6
Continuous
 62
     2
100
AcDbText
 10
150.9954089782
 20
51.6083985317
 30
0.0
 40
0.6666666667
  1
ZONE DE ROBINETTERIE
 41
0.9978908867311707
  7
TEXTSTYLE_2
 72
     5
 11
162.2521991017
 21
51.6083985317
 31
0.0
100
AcDbText
  0
TEXT
  5
2D8
330
22D
100
AcDbEntity
  8
0
  6
Continuous
 62
     2
100
AcDbText
 10
145.9156844113
 20
50.1131540173
 30
0.0
 40
0.6666666667
  1
L   :  SYSTEME LED       DC   :  DOUBLE DOSSIER CHAUFFANT
 41
1.010592021543008
  7
TEXTSTYLE_2
 72
     5
 11
173.6860547816
 21
50.1131540173
 31
0.0
100
AcDbText
  0
TEXT
  5
2D9
330
22D
100
AcDbEntity
  8
0
  6
Continuous
 62
     2
100
AcDbText
 10
145.9156844113
 20
48.77982068399999
 30
0.0
 40
0.6666666667
  1
C   :  CONTROLE
 41
1.009046208423068
  7
TEXTSTYLE_2
 72
     5
 11
153.3823510779
 21
48.77982068399999
 31
0.0
100
AcDbText
  0
TEXT
  5
2DA
330
22D
100
AcDbEntity
  8
0
  6
Continuous
 62
     2
100
AcDbText
 10
145.9156844113
 20
47.4464873507
 30
0.0
 40
0.6666666667
  1
T   :  MOTEUR
 41
1.013017531859368
  7
TEXTSTYLE_2
 72
     5
 11
152.1527214483
 21
47.4464873507
 31
0.0
100
AcDbText
  0
TEXT
  5
2DB
330
22D
100
AcDbEntity
  8
0
  6
Continuous
 62
     2
100
AcDbText
 10
157.4994322391
 20
58.66645043430001
 30
0.0
 40
0.6666666667
  1
96
 41
0.9867720164271595
  7
TEXTSTYLE_2
 72
     5
 11
158.5216544613
 21
58.66645043430001
 31
0.0
100
AcDbText
  0
TEXT
  5
2DC
330
22D
100
AcDbEntity
  8
0
  6
Continuous
 62
     2
100
AcDbText
 10
157.4994322391
 20
57.6664504343
 30
0.0
 40
0.6666666667
  1
73
 41
0.9867720164271595
  7
TEXTSTYLE_2
 72
     5
 11
158.5216544613
 21
57.6664504343
 31
0.0
100
AcDbText
  0
TEXT
  5
2DD
330
22D
100
AcDbEntity
  8
0
  6
Continuous
 62
     2
100
AcDbText
 10
157.4994322391
 20
56.6664504343
 30
0.0
 40
0.6666666667
  1
72
 41
0.9867720164271595
  7
TEXTSTYLE_2
 72
     5
 11
158.5216544613
 21
56.6664504343
 31
0.0
100
AcDbText
  0
TEXT
  5
2DE
330
22D
100
AcDbEntity
  8
0
  6
Continuous
 62
     2
100
AcDbText
 10
157.4994322391
 20
55.6664504343
 30
0.0
 40
0.6666666667
  1
71
 41
0.9867720164271595
  7
TEXTSTYLE_2
 72
     5
 11
158.5216544613
 21
55.6664504343
 31
0.0
100
AcDbText
  0
TEXT
  5
2DF
330
22D
100
AcDbEntity
  8
0
  6
Continuous
 62
     2
100
AcDbText
 10
157.4994322391
 20
54.6664504343
 30
0.0
 40
0.6666666667
  1
55
 41
0.9867720164271595
  7
TEXTSTYLE_2
 72
     5
 11
158.5216544613
 21
54.6664504343
 31
0.0
100
AcDbText
  0
TEXT
  5
2E0
330
22D
100
AcDbEntity
  8
0
  6
Continuous
 62
     2
100
AcDbText
 10
164.4196381828
 20
58.68352983640001
 30
0.0
 40
0.6666666667
  1
364
 41
0.9867720164271688
  7
TEXTSTYLE_2
 72
     5
 11
165.9529715161
 21
58.68352983640001
 31
0.0
100
AcDbText
  0
TEXT
  5
2E1
330
22D
100
AcDbEntity
  8
0
  6
Continuous
 62
     2
100
AcDbText
 10
164.4196381828
 20
57.6835298364
 30
0.0
 40
0.6666666667
  1
276
 41
0.9867720164271688
  7
TEXTSTYLE_2
 72
     5
 11
165.9529715161
 21
57.6835298364
 31
0.0
100
AcDbText
  0
TEXT
  5
2E2
330
22D
100
AcDbEntity
  8
0
  6
Continuous
 62
     2
100
AcDbText
 10
164.4196381828
 20
56.68352983640001
 30
0.0
 40
0.6666666667
  1
272
 41
0.9867720164271688
  7
TEXTSTYLE_2
 72
     5
 11
165.9529715161
 21
56.68352983640001
 31
0.0
100
AcDbText
  0
TEXT
  5
2E3
330
22D
100
AcDbEntity
  8
0
  6
Continuous
 62
     2
100
AcDbText
 10
164.4196381828
 20
55.6835298364
 30
0.0
 40
0.6666666667
  1
268
 41
0.9867720164271688
  7
TEXTSTYLE_2
 72
     5
 11
165.9529715161
 21
55.6835298364
 31
0.0
100
AcDbText
  0
TEXT
  5
2E4
330
22D
100
AcDbEntity
  8
0
  6
Continuous
 62
     2
100
AcDbText
 10
164.4196381828
 20
54.6835298364
 30
0.0
 40
0.6666666667
  1
208
 41
0.9867720164271688
  7
TEXTSTYLE_2
 72
     5
 11
165.9529715161
 21
54.6835298364
 31
0.0
100
AcDbText
  0
TEXT
  5
2E5
330
22D
100
AcDbEntity
  8
0
  6
Continuous
 62
     2
100
AcDbText
 10
171.3642771203
 20
58.66645043430001
 30
0.0
 40
0.6666666667
  1
80
 41
0.9867720164271595
  7
TEXTSTYLE_2
 72
     5
 11
172.3864993425
 21
58.66645043430001
 31
0.0
100
AcDbText
  0
TEXT
  5
2E6
330
22D
100
AcDbEntity
  8
0
  6
Continuous
 62
     2
100
AcDbText
 10
171.3642771203
 20
57.6664504343
 30
0.0
 40
0.6666666667
  1
61
 41
0.9867720164271595
  7
TEXTSTYLE_2
 72
     5
 11
172.3864993425
 21
57.6664504343
 31
0.0
100
AcDbText
  0
TEXT
  5
2E7
330
22D
100
AcDbEntity
  8
0
  6
Continuous
 62
     2
100
AcDbText
 10
171.3642771203
 20
56.6664504343
 30
0.0
 40
0.6666666667
  1
60
 41
0.9867720164271595
  7
TEXTSTYLE_2
 72
     5
 11
172.3864993425
 21
56.6664504343
 31
0.0
100
AcDbText
  0
TEXT
  5
2E8
330
22D
100
AcDbEntity
  8
0
  6
Continuous
 62
     2
100
AcDbText
 10
171.3642771203
 20
55.6664504343
 30
0.0
 40
0.6666666667
  1
59
 41
0.9867720164271595
  7
TEXTSTYLE_2
 72
     5
 11
172.3864993425
 21
55.6664504343
 31
0.0
100
AcDbText
  0
TEXT
  5
2E9
330
22D
100
AcDbEntity
  8
0
  6
Continuous
 62
     2
100
AcDbText
 10
171.3642771203
 20
54.6664504343
 30
0.0
 40
0.6666666667
  1
46
 41
0.9867720164271595
  7
TEXTSTYLE_2
 72
     5
 11
172.3864993425
 21
54.6664504343
 31
0.0
100
AcDbText
  0
LINE
  5
2EA
330
22D
100
AcDbEntity
  8
0
  6
Continuous
 62
     7
100
AcDbLine
 10
144.0000688731
 20
63.9997837676
 30
0.0
 11
144.0000688731
 21
46.6664504343
 31
0.0
  0
LINE
  5
2EB
330
22D
100
AcDbEntity
  8
0
  6
Continuous
 62
     7
100
AcDbLine
 10
144.0000688731
 20
63.9997837676
 30
0.0
 11
177.3334022064
 21
63.9997837676
 31
0.0
  0
LINE
  5
2EC
330
22D
100
AcDbEntity
  8
0
  6
Continuous
 62
     7
100
AcDbLine
 10
177.3334022064
 20
63.9997837676
 30
0.0
 11
177.3334022064
 21
46.6664504343
 31
0.0
  0
LINE
  5
2ED
330
22D
100
AcDbEntity
  8
0
  6
Continuous
 62
     7
100
AcDbLine
 10
144.0000688731
 20
46.6664504343
 30
0.0
 11
177.3334022064
 21
46.6664504343
 31
0.0
  0
LINE
  5
2EE
330
22D
100
AcDbEntity
  8
0
  6
Continuous
 62
     7
100
AcDbLine
 10
145.3334022064
 20
53.9997837676
 30
0.0
 11
176.0000688731
 21
53.9997837676
 31
0.0
  0
LINE
  5
2EF
330
22D
100
AcDbEntity
  8
0
  6
Continuous
 62
     7
100
AcDbLine
 10
145.3334022064
 20
60.9997837676
 30
0.0
 11
176.0000688731
 21
60.9997837676
 31
0.0
  0
LINE
  5
2F0
330
22D
100
AcDbEntity
  8
0
  6
Continuous
 62
     7
100
AcDbLine
 10
144.8089754324
 20
52.377948272
 30
0.0
 11
144.43995469
 21
52.0089275296
 31
0.0
  0
LINE
  5
2F1
330
22D
100
AcDbEntity
  8
0
  6
Continuous
 62
     7
100
AcDbLine
 10
145.475642099
 20
52.377948272
 30
0.0
 11
144.6776263086
 21
51.57993248149999
 31
0.0
  0
LINE
  5
2F2
330
22D
100
AcDbEntity
  8
0
  6
Continuous
 62
     7
100
AcDbLine
 10
146.1423087657
 20
52.377948272
 30
0.0
 11
145.3442929753
 21
51.57993248149999
 31
0.0
  0
LINE
  5
2F3
330
22D
100
AcDbEntity
  8
0
  6
Continuous
 62
     7
100
AcDbLine
 10
146.8089754324
 20
52.377948272
 30
0.0
 11
146.0109596419
 21
51.57993248149999
 31
0.0
  0
LINE
  5
2F4
330
22D
100
AcDbEntity
  8
0
  6
Continuous
 62
     7
100
AcDbLine
 10
147.475642099
 20
52.377948272
 30
0.0
 11
146.6776263086
 21
51.57993248149999
 31
0.0
  0
LINE
  5
2F5
330
22D
100
AcDbEntity
  8
0
  6
Continuous
 62
     7
100
AcDbLine
 10
148.1423087657
 20
52.377948272
 30
0.0
 11
147.3442929753
 21
51.57993248149999
 31
0.0
  0
LINE
  5
2F6
330
22D
100
AcDbEntity
  8
0
  6
Continuous
 62
     7
100
AcDbLine
 10
148.8089754324
 20
52.377948272
 30
0.0
 11
148.0109596419
 21
51.57993248149999
 31
0.0
  0
LINE
  5
2F7
330
22D
100
AcDbEntity
  8
0
  6
Continuous
 62
     7
100
AcDbLine
 10
149.475642099
 20
52.377948272
 30
0.0
 11
148.6776263086
 21
51.57993248149999
 31
0.0
  0
LINE
  5
2F8
330
22D
100
AcDbEntity
  8
0
  6
Continuous
 62
     7
100
AcDbLine
 10
150.1423087657
 20
52.377948272
 30
0.0
 11
149.3442929753
 21
51.57993248149999
 31
0.0
  0
LINE
  5
2F9
330
22D
100
AcDbEntity
  8
0
  6
Continuous
 62
     7
100
AcDbLine
 10
150.5857961998
 20
52.15476903939999
 30
0.0
 11
150.0109596419
 21
51.57993248149999
 31
0.0
  0
ELLIPSE
  5
2FA
330
22D
100
AcDbEntity
  8
0
  6
Continuous
 62
     7
100
AcDbEllipse
 10
146.1454713553
 20
50.4307314745
 30
0.0
 11
1.0473539356
 21
0.0
 31
0.0
210
0.0
220
0.0
230
1.0
 40
0.4938647983
 41
0.0
 42
6.283185307179586
  0
ELLIPSE
  5
2FB
330
22D
100
AcDbEntity
  8
0
  6
Continuous
 62
     7
100
AcDbEllipse
 10
146.1454713553
 20
49.09739814119999
 30
0.0
 11
1.0473539356
 21
0.0
 31
0.0
210
0.0
220
0.0
230
1.0
 40
0.4938647983
 41
0.0
 42
6.283185307179586
  0
ELLIPSE
  5
2FC
330
22D
100
AcDbEntity
  8
0
  6
Continuous
 62
     7
100
AcDbEllipse
 10
146.1454713553
 20
47.7640648079
 30
0.0
 11
1.0473539356
 21
0.0
 31
0.0
210
0.0
220
0.0
230
1.0
 40
0.4938647983
 41
0.0
 42
6.283185307179586
  0
ELLIPSE
  5
2FD
330
22D
100
AcDbEntity
  8
0
  6
Continuous
 62
     7
100
AcDbEllipse
 10
157.1641069364
 20
50.4502528316
 30
0.0
 11
1.0473539356
 21
0.0
 31
0.0
210
0.0
220
0.0
230
1.0
 40
0.4938647983
 41
0.0
 42
6.283185307179586
  0
ENDBLK
  5
2FE
330
22D
100
AcDbEntity
  8
0
  6
ByBlock
 62
     0
100
AcDbBlockEnd
  0
ENDSEC
  0
SECTION
  2
ENTITIES
  0
LINE
  5
13EC
330
226
100
AcDbEntity
  8
0
  6
Continuous
 62
     7
100
AcDbLine
 10
14.3867740042
 20
23.3997508588
 30
0.0
 11
14.3867740042
 21
46.3883639863
 31
0.0
  0
LINE
  5
13ED
330
226
100
AcDbEntity
  8
0
  6
Continuous
 62
     7
100
AcDbLine
 10
14.3867740042
 20
23.3997508588
 30
0.0
 11
78.3867740042
 21
23.3997508588
 31
0.0
  0
LINE
  5
14CC
330
226
100
AcDbEntity
  8
DEFAULT_2
  6
HIDDEN
 62
     8
100
AcDbLine
 10
69.96504061359999
 20
26.8997508588
 30
0.0
 11
67.42214739479999
 21
26.8997508588
 31
0.0
  0
LINE
  5
1845
330
226
100
AcDbEntity
  8
DEFAULT_2
  6
HIDDEN
 62
     8
100
AcDbLine
 10
66.8675361674
 20
27.3508086956
 30
0.0
 11
67.2453706995
 21
26.9729741635
 31
0.0
  0
LINE
  5
1890
330
226
100
AcDbEntity
  8
DEFAULT_2
  6
HIDDEN
 62
     8
100
AcDbLine
 10
78.3867740042
 20
46.3512058255
 30
0.0
 11
76.7112267615
 21
46.290033348
 31
0.0
  0
LINE
  5
1891
330
226
100
AcDbEntity
  8
DEFAULT_2
  6
HIDDEN
 62
     8
100
AcDbLine
 10
75.687147151
 20
41.9665085788
 30
0.0
 11
75.66362828439999
 21
41.96981393989999
 31
0.0
  0
LINE
  5
1892
330
226
100
AcDbEntity
  8
DEFAULT_2
  6
HIDDEN
 62
     8
100
AcDbLine
 10
75.6914963104
 20
41.99745445589999
 30
0.0
 11
75.6605504333
 21
42.00180361530001
 31
0.0
  0
LINE
  5
1893
330
226
100
AcDbEntity
  8
DEFAULT_2
  6
HIDDEN
 62
     8
100
AcDbLine
 10
75.7001946293
 20
42.05934621019999
 30
0.0
 11
75.6692487521
 21
42.06369536959999
 31
0.0
  0
LINE
  5
1894
330
226
100
AcDbEntity
  8
DEFAULT_1
  6
CENTER
 62
     7
100
AcDbLine
 10
74.5989118113
 20
42.56124964469999
 30
0.0
 11
77.11378009419999
 21
42.2078079571
 31
0.0
  0
LINE
  5
193E
330
226
100
AcDbEntity
  8
DEFAULT_2
  6
HIDDEN
 62
     8
100
AcDbLine
 10
75.79587613619999
 20
42.74015550749999
 30
0.0
 11
75.76493025899999
 21
42.7445046669
 31
0.0
  0
LINE
  5
193F
330
226
100
AcDbEntity
  8
DEFAULT_2
  6
HIDDEN
 62
     8
100
AcDbLine
 10
75.80457445499999
 20
42.8020472618
 30
0.0
 11
75.77362857779999
 21
42.80639642119999
 31
0.0
  0
LINE
  5
1940
330
226
100
AcDbEntity
  8
DEFAULT_2
  6
HIDDEN
 62
     8
100
AcDbLine
 10
75.8089236144
 20
42.8329931389
 30
0.0
 11
75.7854047477
 21
42.8362985001
 31
0.0
  0
LINE
  5
1941
330
226
100
AcDbEntity
  8
DEFAULT_1
  6
CENTER
 62
     7
100
AcDbLine
 10
68.69359400419999
 20
28.7164175255
 30
0.0
 11
68.69359400419999
 21
25.8330841922
 31
0.0
  0
LINE
  5
1942
330
226
100
AcDbEntity
  8
DEFAULT_2
  6
HIDDEN
 62
     8
100
AcDbLine
 10
70.55317263939999
 20
27.384329494
 30
0.0
 11
70.1418173089
 21
26.9729741635
 31
0.0
  0
LINE
  5
1943
330
226
100
AcDbEntity
  8
DEFAULT_2
  6
HIDDEN
 62
     8
100
AcDbLine
 10
75.7063438659
 20
42.7767218523
 30
0.0
 11
75.60405163670001
 21
42.0488748218
 31
0.0
  0
LINE
  5
1944
330
226
100
AcDbEntity
  8
DEFAULT_2
  6
HIDDEN
 62
     8
100
AcDbLine
 10
75.71100074979999
 20
42.5942984069
 30
0.0
 11
75.6588108369
 21
42.2229478811
 31
0.0
  0
LINE
  5
1945
330
226
100
AcDbEntity
  8
DEFAULT_2
  6
HIDDEN
 62
     8
100
AcDbLine
 10
75.73833354129999
 20
42.7797997034
 30
0.0
 11
75.6339537156
 21
42.0370986519
 31
0.0
  0
LINE
  5
1946
330
226
100
AcDbEntity
  8
DEFAULT_2
  6
HIDDEN
 62
     8
100
AcDbLine
 10
75.77362857779999
 20
42.80639642119999
 30
0.0
 11
75.6605504333
 21
42.00180361530001
 31
0.0
  0
LINE
  5
1947
330
226
100
AcDbEntity
  8
DEFAULT_2
  6
HIDDEN
 62
     8
100
AcDbLine
 10
75.7854047477
 20
42.8362985001
 30
0.0
 11
75.66362828439999
 21
41.96981393989999
 31
0.0
  0
LINE
  5
1948
330
226
100
AcDbEntity
  8
DEFAULT_2
  6
HIDDEN
 62
     8
100
AcDbLine
 10
73.90172681359999
 20
29.2625827678
 30
0.0
 11
76.2343350499
 21
45.85995278699999
 31
0.0
  0
LINE
  5
1949
330
226
100
AcDbEntity
  8
0
  6
Continuous
 62
     7
100
AcDbLine
 10
78.3867740042
 20
23.3997508588
 30
0.0
 11
78.3867740042
 21
46.3624261024
 31
0.0
  0
ARC
  5
3D77
330
226
100
AcDbEntity
  8
DEFAULT_2
  6
HIDDEN
 62
     8
100
AcDbCircle
 10
-55.78127810319999
 20
2.586844322299999
 30
0.0
 40
85.0
100
AcDbArc
 50
18.6936333546
 51
29.609989497
  0
ARC
  5
3D7E
330
226
100
AcDbEntity
  8
DEFAULT_2
  6
HIDDEN
 62
     8
100
AcDbCircle
 10
15.0751317865
 20
42.8533695309
 30
0.0
 40
3.502126339499999
100
AcDbArc
 50
74.45240462939999
 51
85.77643075080001
  0
ARC
  5
3D7F
330
226
100
AcDbEntity
  8
DEFAULT_2
  6
HIDDEN
 62
     8
100
AcDbCircle
 10
15.0754253676
 20
42.854678362
 30
0.0
 40
3.500786710499999
100
AcDbArc
 50
74.45129204709999
 51
87.6712520707
  0
ARC
  5
3D80
330
226
100
AcDbEntity
  8
DEFAULT_2
  6
HIDDEN
 62
     8
100
AcDbCircle
 10
15.0755396562
 20
42.85546124429999
 30
0.0
 40
3.4999991643
100
AcDbArc
 50
29.6099909051
 51
52.8199394899
  0
ARC
  5
3D81
330
226
100
AcDbEntity
  8
DEFAULT_2
  6
HIDDEN
 62
     8
100
AcDbCircle
 10
15.0775701958
 20
42.88547184329999
 30
0.0
 40
3.469931623999999
100
AcDbArc
 50
85.77754534399998
 51
87.68597789270001
  0
ARC
  5
3F17
330
226
100
AcDbEntity
  8
DEFAULT_2
  6
HIDDEN
 62
     8
100
AcDbCircle
 10
71.92118793119999
 20
29.5409281145
 30
0.0
 40
2.0000025991
100
AcDbArc
 50
274.106973643
 51
352.0000352056
  0
ARC
  5
3F18
330
226
100
AcDbEntity
  8
DEFAULT_2
  6
HIDDEN
 62
     8
100
AcDbCircle
 10
70.7299498951
 20
27.2075523128
 30
0.0
 40
0.2500007507
100
AcDbArc
 50
93.1540676696
 51
135.000012085
  0
ARC
  5
3F19
330
226
100
AcDbEntity
  8
DEFAULT_2
  6
HIDDEN
 62
     8
100
AcDbCircle
 10
67.42214739479999
 20
27.1497508588
 30
0.0
 40
0.25
100
AcDbArc
 50
225.0
 51
270.0
  0
ARC
  5
3F1A
330
226
100
AcDbEntity
  8
DEFAULT_2
  6
HIDDEN
 62
     8
100
AcDbCircle
 10
69.96504061359999
 20
27.1497508588
 30
0.0
 40
0.25
100
AcDbArc
 50
270.0
 51
315.0
  0
ARC
  5
3F1B
330
226
100
AcDbEntity
  8
DEFAULT_2
  6
HIDDEN
 62
     8
100
AcDbCircle
 10
66.69075947510001
 20
27.1740320034
 30
0.0
 40
0.2499999996
100
AcDbArc
 50
45.0000000026
 51
89.1416404013
  0
ARC
  5
40B1
330
226
100
AcDbEntity
  8
DEFAULT_2
  6
HIDDEN
 62
     8
100
AcDbCircle
 10
76.75333604229999
 20
45.7467303572
 30
0.0
 40
0.5497621222
100
AcDbArc
 50
94.44405908569999
 51
116.5565972841
  0
ARC
  5
40B2
330
226
100
AcDbEntity
  8
DEFAULT_2
  6
HIDDEN
 62
     8
100
AcDbCircle
 10
76.7505022576
 20
45.753232433
 30
0.0
 40
0.5426792543
100
AcDbArc
 50
116.59588948
 51
117.0704698565
  0
ARC
  5
40B3
330
226
100
AcDbEntity
  8
DEFAULT_2
  6
HIDDEN
 62
     8
100
AcDbCircle
 10
76.7522541141
 20
45.75476792279999
 30
0.0
 40
0.5416650796
100
AcDbArc
 50
93.56967528590001
 51
94.39583751969999
  0
ARC
  5
40B4
330
226
100
AcDbEntity
  8
DEFAULT_2
  6
HIDDEN
 62
     8
100
AcDbCircle
 10
76.74916397220001
 20
45.7558047602
 30
0.0
 40
0.5397796975000001
100
AcDbArc
 50
117.0682362448999
 51
119.0958222287
  0
ARC
  5
40B5
330
226
100
AcDbEntity
  8
DEFAULT_2
  6
HIDDEN
 62
     8
100
AcDbCircle
 10
76.74096495010001
 20
45.7707774563
 30
0.0
 40
0.5227095014000001
100
AcDbArc
 50
119.1085844074
 51
119.3837528822
  0
ARC
  5
40B6
330
226
100
AcDbEntity
  8
DEFAULT_2
  6
HIDDEN
 62
     8
100
AcDbCircle
 10
76.73591282450001
 20
45.77968302899999
 30
0.0
 40
0.512470746
100
AcDbArc
 50
119.3801074426
 51
121.7162201325
  0
ARC
  5
40B7
330
226
100
AcDbEntity
  8
DEFAULT_2
  6
HIDDEN
 62
     8
100
AcDbCircle
 10
76.72945717569999
 20
45.7903689808
 30
0.0
 40
0.499987742
100
AcDbArc
 50
161.8543365247
 51
172.0001214887
  0
ARC
  5
40B8
330
226
100
AcDbEntity
  8
DEFAULT_2
  6
HIDDEN
 62
     8
100
AcDbCircle
 10
75.67337040149999
 20
42.03913270469999
 30
0.0
 40
0.07
100
AcDbArc
 50
172.0
 51
262.0
  0
ARC
  5
40B9
330
226
100
AcDbEntity
  8
DEFAULT_2
  6
HIDDEN
 62
     8
100
AcDbCircle
 10
75.7756626307
 20
42.7669797352
 30
0.0
 40
0.07
100
AcDbArc
 50
82.0
 51
172.0
  0
ARC
  5
40BA
330
226
100
AcDbEntity
  8
DEFAULT_2
  6
HIDDEN
 62
     8
100
AcDbCircle
 10
75.76927941840001
 20
42.77545054399999
 30
0.0
 40
0.03125
100
AcDbArc
 50
82.0
 51
262.0
  0
ARC
  5
40BB
330
226
100
AcDbEntity
  8
DEFAULT_2
  6
HIDDEN
 62
     8
100
AcDbCircle
 10
75.66489959270001
 20
42.0327494925
 30
0.0
 40
0.03125
100
AcDbArc
 50
82.0
 51
262.0
  0
ARC
  5
40BC
330
226
100
AcDbEntity
  8
DEFAULT_2
  6
HIDDEN
 62
     8
100
AcDbCircle
 10
75.7151759428
 20
42.624006449
 30
0.0
 40
0.03
100
AcDbArc
 50
172.0
 51
262.0
  0
ARC
  5
40BD
330
226
100
AcDbEntity
  8
DEFAULT_2
  6
HIDDEN
 62
     8
100
AcDbCircle
 10
75.6546356439
 20
42.19323983909999
 30
0.0
 40
0.03
100
AcDbArc
 50
82.0
 51
172.0
  0
SPLINE
  5
4167
330
226
100
AcDbEntity
  8
DEFAULT_2
  6
HIDDEN
 62
     8
100
AcDbSpline
210
0.0
220
0.0
230
1.0
 70
     8
 71
     3
 72
     9
 73
     5
 74
     0
 42
0.0000001
 43
0.0000000001
 40
0.0
 40
0.0
 40
0.0
 40
0.0
 40
0.493323262
 40
1.0
 40
1.0
 40
1.0
 40
1.0
 10
72.064425808
 20
27.5460613754
 30
0.0
 10
71.8428084601
 20
27.5301486908
 30
0.0
 10
71.3935686869
 20
27.4979778583
 30
0.0
 10
70.9440510801
 20
27.4697302306
 30
0.0
 10
70.716194587
 20
27.4571743623
 30
0.0
  0
SPLINE
  5
4168
330
226
100
AcDbEntity
  8
DEFAULT_2
  6
HIDDEN
 62
     8
100
AcDbSpline
210
0.0
220
0.0
230
1.0
 70
     8
 71
     3
 72
    10
 73
     6
 74
     0
 42
0.0000001
 43
0.0000000001
 40
0.0
 40
0.0
 40
0.0
 40
0.0
 40
0.4824675732000001
 40
0.7338297017000001
 40
1.0
 40
1.0
 40
1.0
 40
1.0
 10
76.7185288063
 20
46.2953820755
 30
0.0
 10
76.6757372134
 20
46.2927123845
 30
0.0
 10
76.6108088671
 20
46.28080399739999
 30
0.0
 10
76.527481205
 20
46.24954797
 30
0.0
 10
76.48661921119999
 20
46.2280608108
 30
0.0
 10
76.4665003172
 20
46.21562243569999
 30
0.0
  0
SPLINE
  5
46CE
330
226
100
AcDbEntity
  8
DEFAULT_2
  6
HIDDEN
 62
     8
100
AcDbSpline
210
0.0
220
0.0
230
1.0
 70
     8
 71
     3
 72
    17
 73
    13
 74
     0
 42
0.0000001
 43
0.0000000001
 40
0.0
 40
0.0
 40
0.0
 40
0.0
 40
0.0403952447
 40
0.0892200923
 40
0.1449056641
 40
0.2060093706
 40
0.3394652259000001
 40
0.4807940495000001
 40
0.6228550400000001
 40
0.759804968
 40
0.8868592542
 40
1.0
 40
1.0
 40
1.0
 40
1.0
 10
66.69450463529999
 20
27.4240039492
 30
0.0
 10
66.1608472532
 20
27.4319993761
 30
0.0
 10
64.98218384000001
 20
27.4505857579
 30
0.0
 10
63.06789611020001
 20
27.4821876034
 30
0.0
 10
60.88005493529999
 20
27.5193419
 30
0.0
 10
57.5742158295
 20
27.576518223
 30
0.0
 10
53.1370198866
 20
27.6547002722
 30
0.0
 10
47.6303710065
 20
27.7528139021
 30
0.0
 10
42.07757257179999
 20
27.8522053841
 30
0.0
 10
36.7133437904
 20
27.9481803759
 30
0.0
 10
31.7311510659
 20
28.0368705179
 30
0.0
 10
28.558095662
 20
28.0927716487
 30
0.0
 10
27.0634646811
 20
28.1188451577
 30
0.0
  0
SPLINE
  5
46CF
330
226
100
AcDbEntity
  8
DEFAULT_2
  6
HIDDEN
 62
     8
100
AcDbSpline
210
0.0
220
0.0
230
1.0
 70
     8
 71
     3
 72
    13
 73
     9
 74
     0
 42
0.0000001
 43
0.0000000001
 40
0.0
 40
0.0
 40
0.0
 40
0.0
 40
0.1987899299
 40
0.4206041203
 40
0.5444295606000001
 40
0.6802444381
 40
0.8313583336
 40
1.0
 40
1.0
 40
1.0
 40
1.0
 10
76.46650055249999
 20
46.21562258119999
 30
0.0
 10
76.4467789137
 20
46.20342982149999
 30
0.0
 10
76.4067993164
 20
46.1746918656
 30
0.0
 10
76.3610553668
 20
46.1302566534
 30
0.0
 10
76.3257511858
 20
46.0865097466
 30
0.0
 10
76.2991286259
 20
46.04658718249999
 30
0.0
 10
76.27418426120001
 20
45.9995652502
 30
0.0
 10
76.2604608877
 20
45.96477376479999
 30
0.0
 10
76.2543346451
 20
45.9460821852
 30
0.0
  0
SPLINE
  5
46D0
330
226
100
AcDbEntity
  8
DEFAULT_2
  6
HIDDEN
 62
     8
100
AcDbSpline
210
0.0
220
0.0
230
1.0
 70
     8
 71
     3
 72
    11
 73
     7
 74
     0
 42
0.0000001
 43
0.0000000001
 40
0.0
 40
0.0
 40
0.0
 40
0.0
 40
0.2612787248
 40
0.5146019811000001
 40
0.7602627234999999
 40
1.0
 40
1.0
 40
1.0
 40
1.0
 10
17.1906658051
 20
45.6440516513
 30
0.0
 10
17.0990154806
 20
45.7135678208
 30
0.0
 10
16.9116170191
 20
45.84166644569999
 30
0.0
 10
16.6178398916
 20
46.0030922476
 30
0.0
 10
16.318924452
 20
46.13239627399999
 30
0.0
 10
16.1155222099
 20
46.19905298049999
 30
0.0
 10
16.0138374148
 20
46.2273465079
 30
0.0
  0
SPLINE
  5
46D1
330
226
100
AcDbEntity
  8
DEFAULT_2
  6
HIDDEN
 62
     8
100
AcDbSpline
210
0.0
220
0.0
230
1.0
 70
     8
 71
     3
 72
    15
 73
    11
 74
     0
 42
0.0000001
 43
0.0000000001
 40
0.0
 40
0.0
 40
0.0
 40
0.0
 40
0.2451504355
 40
0.3084995009
 40
0.3722988039
 40
0.5004822627000002
 40
0.6285712564
 40
0.7553378793000001
 40
0.8795562814
 40
1.0
 40
1.0
 40
1.0
 40
1.0
 10
27.0763923754
 20
28.1306639093
 30
0.0
 10
26.8246864779
 20
28.1333423819
 30
0.0
 10
26.5053452272
 20
28.1855336843
 30
0.0
 10
26.1467337914
 20
28.3181614651
 30
0.0
 10
25.9084061036
 20
28.4280467335
 30
0.0
 10
25.6267008552
 20
28.6001438114
 30
0.0
 10
25.3267182674
 20
28.8570142425
 30
0.0
 10
25.0731345501
 20
29.154413227
 30
0.0
 10
24.8726198194
 20
29.4805125124
 30
0.0
 10
24.774260898
 20
29.7128545763
 30
0.0
 10
24.73462323150001
 20
29.8300018504
 30
0.0
  0
SPLINE
  5
46D2
330
226
100
AcDbEntity
  8
0
  6
Continuous
 62
     7
100
AcDbSpline
210
0.0
220
0.0
230
1.0
 70
     8
 71
     3
 72
    37
 73
    33
 74
     0
 42
0.0000001
 43
0.0000000001
 40
0.0
 40
0.0
 40
0.0
 40
0.0
 40
0.1250000018
 40
0.2500000036
 40
0.3750000055
 40
0.4375000064
 40
0.5000000072999999
 40
0.5625000082
 40
0.6250000091
 40
0.6875000100000001
 40
0.7500000109000001
 40
0.7812500114000001
 40
0.8125000118
 40
0.8437500122999999
 40
0.8750000126999999
 40
0.890625013
 40
0.9062500132
 40
0.9218750134
 40
0.9296875134999998
 40
0.9375000136
 40
0.9453125137
 40
0.9531250139
 40
0.960937514
 40
0.964843764
 40
0.9687500140999999
 40
0.9707031390999999
 40
0.9726562639
 40
0.9765625121999999
 40
0.9804687612999998
 40
0.9843750108
 40
0.9921875056999999
 40
1.0
 40
1.0
 40
1.0
 40
1.0
 10
46.8867740042
 20
46.3511743352
 30
0.0
 10
48.19927739949999
 20
46.3511743352
 30
0.0
 10
50.8242841901
 20
46.3511743352
 30
0.0
 10
54.7617943759
 20
46.3511743352
 30
0.0
 10
58.04305286419999
 20
46.3511743352
 30
0.0
 10
60.6680596547
 20
46.3511743352
 30
0.0
 10
62.63681474770001
 20
46.3511743352
 30
0.0
 10
64.6055698406
 20
46.3511743352
 30
0.0
 10
66.57432493359999
 20
46.3511743352
 30
0.0
 10
68.54308002649999
 20
46.3511743352
 30
0.0
 10
70.18370927060001
 20
46.3511743352
 30
0.0
 10
71.4962126659
 20
46.3511743352
 30
0.0
 10
72.4805902124
 20
46.3511743352
 30
0.0
 10
73.4649677588
 20
46.351174335
 30
0.0
 10
74.2852823809
 20
46.3511743355
 30
0.0
 10
74.94153407849999
 20
46.3511743346
 30
0.0
 10
75.4337228518
 20
46.35117433729999
 30
0.0
 10
75.84388016279999
 20
46.35117432869999
 30
0.0
 10
76.1720060116
 20
46.35117434629999
 30
0.0
 10
76.4181003983
 20
46.35117429229999
 30
0.0
 10
76.6641947847
 20
46.3511744962
 30
0.0
 10
76.91028917220001
 20
46.35117373129999
 30
0.0
 10
77.11536782489999
 20
46.3511761218
 30
0.0
 10
77.279430755
 20
46.3511712721
 30
0.0
 10
77.3819700672
 20
46.35118391689999
 30
0.0
 10
77.4640015571
 20
46.3511595559
 30
0.0
 10
77.54603286529999
 20
46.351352131
 30
0.0
 10
77.648570832
 20
46.3519184078
 30
0.0
 10
77.77161372399999
 20
46.3529586147
 30
0.0
 10
77.9356669383
 20
46.3547496131
 30
0.0
 10
78.14072541379999
 20
46.3576601063
 30
0.0
 10
78.3047610023
 20
46.3606887704
 30
0.0
 10
78.3867740042
 20
46.3624261024
 30
0.0
  0
SPLINE
  5
46D3
330
226
100
AcDbEntity
  8
0
  6
Continuous
 62
     7
100
AcDbSpline
210
0.0
220
0.0
230
1.0
 70
     8
 71
     3
 72
    42
 73
    38
 74
     0
 42
0.0000001
 43
0.0000000001
 40
0.0
 40
0.0
 40
0.0
 40
0.0
 40
0.0078124985
 40
0.015624997
 40
0.0234374956
 40
0.0273437456
 40
0.0312499944
 40
0.0351562437
 40
0.0390624932
 40
0.0468749862
 40
0.0507812352
 40
0.0546874833
 40
0.0566406079
 40
0.058593733
 40
0.0624999831
 40
0.0664062331
 40
0.0703124832
 40
0.0781249833
 40
0.0859374835
 40
0.0937499836
 40
0.1093749839
 40
0.1249999842
 40
0.1406249845
 40
0.1562499848
 40
0.1874999853
 40
0.2187499859
 40
0.2499999865
 40
0.281249987
 40
0.3124999876
 40
0.3749999886999999
 40
0.4374999898
 40
0.4999999910000001
 40
0.5624999921000001
 40
0.6249999932
 40
0.7499999955
 40
0.8749999976999999
 40
1.0
 40
1.0
 40
1.0
 40
1.0
 10
14.3867740042
 20
46.3883639863
 30
0.0
 10
14.4713652629
 20
46.3855949383
 30
0.0
 10
14.6405555225
 20
46.380291183
 30
0.0
 10
14.8943607293
 20
46.3729966441
 30
0.0
 10
15.1058802035
 20
46.3674732639
 30
0.0
 10
15.2751017913
 20
46.363290895
 30
0.0
 10
15.4020276717
 20
46.360567329
 30
0.0
 10
15.528960835
 20
46.3582125538
 30
0.0
 10
15.6982121954
 20
46.3554943581
 30
0.0
 10
15.8674727695
 20
46.3533694567
 30
0.0
 10
16.0367396866
 20
46.35190948039999
 30
0.0
 10
16.1425340785
 20
46.3513269371
 30
0.0
 10
16.2271705568
 20
46.35115512819999
 30
0.0
 10
16.3118071591
 20
46.35118538899999
 30
0.0
 10
16.4176028831
 20
46.3511705914
 30
0.0
 10
16.5445577658
 20
46.35117532939999
 30
0.0
 10
16.7138309377
 20
46.3511737566
 30
0.0
 10
16.9254224042
 20
46.35117453229999
 30
0.0
 10
17.1793321634
 20
46.3511742835
 30
0.0
 10
17.5178785092
 20
46.35117436499999
 30
0.0
 10
17.9410614414
 20
46.3511743251
 30
0.0
 10
18.4488809601
 20
46.35117433789999
 30
0.0
 10
18.9567004787
 20
46.35117433439999
 30
0.0
 10
19.6337931702
 20
46.3511743356
 30
0.0
 10
20.4801590346
 20
46.351174335
 30
0.0
 10
21.4957980719
 20
46.3511743352
 30
0.0
 10
22.5114371092
 20
46.3511743351
 30
0.0
 10
23.5270761465
 20
46.3511743352
 30
0.0
 10
24.8812615296
 20
46.3511743352
 30
0.0
 10
26.5739932584
 20
46.3511743352
 30
0.0
 10
28.605271333
 20
46.3511743352
 30
0.0
 10
30.6365494075
 20
46.3511743352
 30
0.0
 10
32.6678274821
 20
46.3511743352
 30
0.0
 10
35.37619824820001
 20
46.3511743352
 30
0.0
 10
38.7616617059
 20
46.3511743352
 30
0.0
 10
42.824217855
 20
46.3511743352
 30
0.0
 10
45.53258862109999
 20
46.3511743352
 30
0.0
 10
46.8867740042
 20
46.3511743352
 30
0.0
  0
SPLINE
  5
46D4
330
226
100
AcDbEntity
  8
0
  6
Continuous
 62
     7
100
AcDbSpline
210
0.0
220
0.0
230
1.0
 70
     8
 71
     3
 72
    12
 73
     8
 74
     0
 42
0.0000001
 43
0.0000000001
 40
0.0
 40
0.0
 40
0.0
 40
0.0
 40
0.2499999493
 40
0.4999999265
 40
0.624999994
 40
0.7500000376
 40
1.0
 40
1.0
 40
1.0
 40
1.0
 10
78.3867740042
 20
46.2373868306
 30
0.0
 10
78.29383167199999
 20
46.23541946689999
 30
0.0
 10
78.1079348104
 20
46.2320546754
 30
0.0
 10
77.87554681979999
 20
46.2289382227
 30
0.0
 10
77.689628736
 20
46.22717279489999
 30
0.0
 10
77.5037057907
 20
46.2259251255
 30
0.0
 10
77.36425989379999
 20
46.2260913565
 30
0.0
 10
77.2712967369
 20
46.2260909313
 30
0.0
  0
LINE
  5
46D5
330
226
100
AcDbEntity
  8
0
  6
Continuous
 62
     7
100
AcDbLine
 10
77.2712967369
 20
46.2260909313
 30
0.0
 11
46.8867740042
 21
46.2260909484
 31
0.0
  0
LINE
  5
46D6
330
226
100
AcDbEntity
  8
0
  6
Continuous
 62
     7
100
AcDbLine
 10
46.8867740042
 20
46.2260909484
 30
0.0
 11
16.4243039359
 21
46.226090853
 31
0.0
  0
SPLINE
  5
46D7
330
226
100
AcDbEntity
  8
0
  6
Continuous
 62
     7
100
AcDbSpline
210
0.0
220
0.0
230
1.0
 70
     8
 71
     3
 72
    20
 73
    16
 74
     0
 42
0.0000001
 43
0.0000000001
 40
0.0
 40
0.0
 40
0.0
 40
0.0
 40
0.0625000188
 40
0.0937500285
 40
0.1250000317
 40
0.1875000231
 40
0.2500000251
 40
0.3749999502
 40
0.4374999593
 40
0.4999999647
 40
0.5624999632
 40
0.6249999755
 40
0.7499999843000001
 40
0.8749999923999999
 40
1.0
 40
1.0
 40
1.0
 40
1.0
 10
16.4243039359
 20
46.226090853
 30
0.0
 10
16.3818460489
 20
46.22609107439999
 30
0.0
 10
16.3181592234
 20
46.2261002754
 30
0.0
 10
16.2332434392
 20
46.2260751519
 30
0.0
 10
16.1483277474
 20
46.2262346363
 30
0.0
 10
16.0421843679
 20
46.2268212222
 30
0.0
 10
15.8723589964
 20
46.22827299639999
 30
0.0
 10
15.702539951
 20
46.2303946024
 30
0.0
 10
15.5327300797
 20
46.2331088789
 30
0.0
 10
15.4053780557
 20
46.23546286829999
 30
0.0
 10
15.2780331237
 20
46.2381782266
 30
0.0
 10
15.1082531467
 20
46.2423670793
 30
0.0
 10
14.8960356697
 20
46.24789778020001
 30
0.0
 10
14.6413929627
 20
46.2552064217
 30
0.0
 10
14.4716443993
 20
46.26052105229999
 30
0.0
 10
14.3867740042
 20
46.26329616609999
 30
0.0
  0
SPLINE
  5
46D8
330
226
100
AcDbEntity
  8
0
  6
Continuous
 62
     7
100
AcDbSpline
210
0.0
220
0.0
230
1.0
 70
     8
 71
     3
 72
    37
 73
    33
 74
     0
 42
0.0000001
 43
0.0000000001
 40
0.0
 40
0.0
 40
0.0
 40
0.0
 40
0.0078124943
 40
0.0156249894
 40
0.0195312389
 40
0.0234374881
 40
0.0273437368
 40
0.0292968615
 40
0.0312499865
 40
0.0351562366
 40
0.0390624866
 40
0.0468749867
 40
0.0546874868
 40
0.0624999869
 40
0.0703124871
 40
0.0781249872
 40
0.0937499874
 40
0.1093749876
 40
0.1249999878
 40
0.1562499883
 40
0.1874999887
 40
0.2187499891
 40
0.2499999896
 40
0.3124999904
 40
0.3749999913
 40
0.4374999922
 40
0.499999993
 40
0.5624999939000001
 40
0.6249999948000001
 40
0.7499999965000001
 40
0.8749999983
 40
1.0
 40
1.0
 40
1.0
 40
1.0
 10
78.3867740042
 20
46.2373868306
 30
0.0
 10
78.3047609743
 20
46.23565081379999
 30
0.0
 10
78.1407253397
 20
46.2326247073
 30
0.0
 10
77.9356668999
 20
46.2297119889
 30
0.0
 10
77.7716137326
 20
46.22791637619999
 30
0.0
 10
77.64857089680001
 20
46.22686942909999
 30
0.0
 10
77.54603300859999
 20
46.22629048239999
 30
0.0
 10
77.46400173419999
 20
46.22608277989999
 30
0.0
 10
77.3819702392
 20
46.2260944975
 30
0.0
 10
77.2794309288
 20
46.226089816
 30
0.0
 10
77.1153679967
 20
46.22609163609999
 30
0.0
 10
76.91028934329999
 20
46.2260907186
 30
0.0
 10
76.6641949542
 20
46.2260910087
 30
0.0
 10
76.4181005665
 20
46.2260909324
 30
0.0
 10
76.1720061784
 20
46.2260909525
 30
0.0
 10
75.8438803277
 20
46.226090946
 30
0.0
 10
75.4337230144
 20
46.2260909492
 30
0.0
 10
74.94153423829999
 20
46.22609094819999
 30
0.0
 10
74.2852825369
 20
46.2260909485
 30
0.0
 10
73.4649679102
 20
46.22609094829999
 30
0.0
 10
72.4805903581
 20
46.2260909484
 30
0.0
 10
71.49621280609999
 20
46.2260909484
 30
0.0
 10
70.1837094033
 20
46.2260909484
 30
0.0
 10
68.54308014979999
 20
46.2260909484
 30
0.0
 10
66.5743250457
 20
46.2260909484
 30
0.0
 10
64.6055699415
 20
46.2260909484
 30
0.0
 10
62.6368148374
 20
46.2260909484
 30
0.0
 10
60.6680597332
 20
46.2260909484
 30
0.0
 10
58.0430529277
 20
46.2260909484
 30
0.0
 10
54.7617944208
 20
46.2260909484
 30
0.0
 10
50.8242842125
 20
46.2260909484
 30
0.0
 10
48.19927740699999
 20
46.2260909484
 30
0.0
 10
46.8867740042
 20
46.2260909484
 30
0.0
  0
SPLINE
  5
46D9
330
226
100
AcDbEntity
  8
0
  6
Continuous
 62
     7
100
AcDbSpline
210
0.0
220
0.0
230
1.0
 70
     8
 71
     3
 72
    42
 73
    38
 74
     0
 42
0.0000001
 43
0.0000000001
 40
0.0
 40
0.0
 40
0.0
 40
0.0
 40
0.1250000023
 40
0.2500000046
 40
0.3750000068999999
 40
0.4375000081
 40
0.5000000093
 40
0.5625000104
 40
0.6250000116
 40
0.6875000127
 40
0.7187500133000001
 40
0.7500000139000001
 40
0.7812500145
 40
0.8125000149999999
 40
0.8437500156
 40
0.8593750158999998
 40
0.8750000161999999
 40
0.8906250164999999
 40
0.9062500167999999
 40
0.9140625168999999
 40
0.9218750170999999
 40
0.9296875172
 40
0.9335937673
 40
0.9375000174
 40
0.9414062674
 40
0.9433593925
 40
0.9453125170999999
 40
0.9492187656
 40
0.9531250145999999
 40
0.9609375077999999
 40
0.9648437573
 40
0.9687500065000001
 40
0.9726562553
 40
0.976562505
 40
0.9843750034000001
 40
0.9921875016999999
 40
1.0
 40
1.0
 40
1.0
 40
1.0
 10
46.8867740042
 20
46.2260909484
 30
0.0
 10
45.53258864399999
 20
46.2260909484
 30
0.0
 10
42.8242179235
 20
46.2260909484
 30
0.0
 10
38.7616618429
 20
46.2260909484
 30
0.0
 10
35.3761984424
 20
46.2260909484
 30
0.0
 10
32.6678277219
 20
46.2260909484
 30
0.0
 10
30.6365496816
 20
46.2260909484
 30
0.0
 10
28.6052716413
 20
46.2260909484
 30
0.0
 10
26.573993601
 20
46.2260909484
 30
0.0
 10
24.8812619007
 20
46.2260909484
 30
0.0
 10
23.5270765405
 20
46.2260909484
 30
0.0
 10
22.5114375203
 20
46.2260909484
 30
0.0
 10
21.4957985002
 20
46.2260909484
 30
0.0
 10
20.48015948
 20
46.22609094829999
 30
0.0
 10
19.6337936299
 20
46.22609094859999
 30
0.0
 10
18.9567009498
 20
46.226090948
 30
0.0
 10
18.4488814397
 20
46.22609094979999
 30
0.0
 10
17.9410619296
 20
46.2260909441
 30
0.0
 10
17.5178790046
 20
46.2260909597
 30
0.0
 10
17.1793326644
 20
46.2260909268
 30
0.0
 10
16.9254229096
 20
46.22609101760001
 30
0.0
 10
16.7138314465
 20
46.2260907414
 30
0.0
 10
16.5445582777
 20
46.2260914553
 30
0.0
 10
16.4176033964
 20
46.2260885588
 30
0.0
 10
16.3118076765
 20
46.2260978236
 30
0.0
 10
16.2271710715
 20
46.2260773792
 30
0.0
 10
16.1425346159
 20
46.22626203439999
 30
0.0
 10
16.0367403163
 20
46.22685977289999
 30
0.0
 10
15.8674734754
 20
46.228327889
 30
0.0
 10
15.6982129494
 20
46.23045593979999
 30
0.0
 10
15.5289615923
 20
46.2331743341
 30
0.0
 10
15.4020284403
 20
46.23552931169999
 30
0.0
 10
15.2751024487
 20
46.238247371
 30
0.0
 10
15.1058808286
 20
46.24242821310001
 30
0.0
 10
14.8943611758
 20
46.2479441735
 30
0.0
 10
14.6405557943
 20
46.25523231249999
 30
0.0
 10
14.4713653597
 20
46.2605301764
 30
0.0
 10
14.3867740042
 20
46.26329616609999
 30
0.0
  0
ENDSEC
  0
SECTION
  2
OBJECTS
  0
DICTIONARY
  5
C
330
0
100
AcDbDictionary
281
     1
  3
ACAD_CIP_PREVIOUS_PRODUCT_INFO
350
57DF
  3
ACAD_COLOR
350
5758
  3
ACAD_DETAILVIEWSTYLE
350
5771
  3
ACAD_GROUP
350
D
  3
ACAD_IMAGE_DICT
350
571D
  3
ACAD_IMAGE_VARS
350
571E
  3
ACAD_LAYOUT
350
1A
  3
ACAD_MATERIAL
350
5726
  3
ACAD_MLEADERSTYLE
350
576D
  3
ACAD_MLINESTYLE
350
17
  3
ACAD_PLOTSETTINGS
350
19
  3
ACAD_PLOTSTYLENAME
350
E
  3
ACAD_SCALELIST
350
575B
  3
ACAD_SECTIONVIEWSTYLE
350
576F
  3
ACAD_TABLESTYLE
350
5759
  3
ACAD_VISUALSTYLE
350
573F
  3
ACDB_RECOMPOSE_DATA
350
58EA
  3
AcDbVariableDictionary
350
57D0
  0
DICTIONARY
  5
5777
330
8
100
AcDbDictionary
280
     1
281
     1
  0
DICTIONARY
  5
58DE
330
2
100
AcDbDictionary
280
     1
281
     1
  3
ACAD_LAYERSTATES
360
58DF
  0
DICTIONARY
  5
57E0
330
10
100
AcDbDictionary
280
     1
281
     1
  3
ADSK_XREC_LAYER_RECONCILED
360
57E1
  0
DICTIONARY
  5
57E2
330
1FA
100
AcDbDictionary
280
     1
281
     1
  3
ADSK_XREC_LAYER_RECONCILED
360
57E3
  0
DICTIONARY
  5
57E4
330
1FB
100
AcDbDictionary
280
     1
281
     1
  3
ADSK_XREC_LAYER_RECONCILED
360
57E5
  0
DICTIONARY
  5
57E6
330
1FC
100
AcDbDictionary
280
     1
281
     1
  3
ADSK_XREC_LAYER_RECONCILED
360
57E7
  0
DICTIONARY
  5
57E8
330
1FD
100
AcDbDictionary
280
     1
281
     1
  3
ADSK_XREC_LAYER_RECONCILED
360
57E9
  0
DICTIONARY
  5
57EA
330
1FE
100
AcDbDictionary
280
     1
281
     1
  3
ADSK_XREC_LAYER_RECONCILED
360
57EB
  0
DICTIONARY
  5
57EC
330
1FF
100
AcDbDictionary
280
     1
281
     1
  3
ADSK_XREC_LAYER_RECONCILED
360
57ED
  0
DICTIONARY
  5
57EE
330
200
100
AcDbDictionary
280
     1
281
     1
  3
ADSK_XREC_LAYER_RECONCILED
360
57EF
  0
DICTIONARY
  5
57F0
330
201
100
AcDbDictionary
280
     1
281
     1
  3
ADSK_XREC_LAYER_RECONCILED
360
57F1
  0
DICTIONARY
  5
57F2
330
202
100
AcDbDictionary
280
     1
281
     1
  3
ADSK_XREC_LAYER_RECONCILED
360
57F3
  0
DICTIONARY
  5
57F4
330
203
100
AcDbDictionary
280
     1
281
     1
  3
ADSK_XREC_LAYER_RECONCILED
360
57F5
  0
DICTIONARY
  5
57F6
330
204
100
AcDbDictionary
280
     1
281
     1
  3
ADSK_XREC_LAYER_RECONCILED
360
57F7
  0
DICTIONARY
  5
57F8
330
205
100
AcDbDictionary
280
     1
281
     1
  3
ADSK_XREC_LAYER_RECONCILED
360
57F9
  0
DICTIONARY
  5
57FA
330
206
100
AcDbDictionary
280
     1
281
     1
  3
ADSK_XREC_LAYER_RECONCILED
360
57FB
  0
DICTIONARY
  5
57FC
330
207
100
AcDbDictionary
280
     1
281
     1
  3
ADSK_XREC_LAYER_RECONCILED
360
57FD
  0
DICTIONARY
  5
57FE
330
208
100
AcDbDictionary
280
     1
281
     1
  3
ADSK_XREC_LAYER_RECONCILED
360
57FF
  0
DICTIONARY
  5
5800
330
209
100
AcDbDictionary
280
     1
281
     1
  3
ADSK_XREC_LAYER_RECONCILED
360
5801
  0
DICTIONARY
  5
5802
330
20A
100
AcDbDictionary
280
     1
281
     1
  3
ADSK_XREC_LAYER_RECONCILED
360
5803
  0
DICTIONARY
  5
5804
330
20B
100
AcDbDictionary
280
     1
281
     1
  3
ADSK_XREC_LAYER_RECONCILED
360
5805
  0
DICTIONARY
  5
5806
330
20C
100
AcDbDictionary
280
     1
281
     1
  3
ADSK_XREC_LAYER_RECONCILED
360
5807
  0
DICTIONARY
  5
5808
330
20D
100
AcDbDictionary
280
     1
281
     1
  3
ADSK_XREC_LAYER_RECONCILED
360
5809
  0
DICTIONARY
  5
580A
330
20E
100
AcDbDictionary
280
     1
281
     1
  3
ADSK_XREC_LAYER_RECONCILED
360
580B
  0
DICTIONARY
  5
580C
330
20F
100
AcDbDictionary
280
     1
281
     1
  3
ADSK_XREC_LAYER_RECONCILED
360
580D
  0
DICTIONARY
  5
580E
330
210
100
AcDbDictionary
280
     1
281
     1
  3
ADSK_XREC_LAYER_RECONCILED
360
580F
  0
DICTIONARY
  5
5810
330
211
100
AcDbDictionary
280
     1
281
     1
  3
ADSK_XREC_LAYER_RECONCILED
360
5811
  0
DICTIONARY
  5
5812
330
212
100
AcDbDictionary
280
     1
281
     1
  3
ADSK_XREC_LAYER_RECONCILED
360
5813
  0
DICTIONARY
  5
5814
330
213
100
AcDbDictionary
280
     1
281
     1
  3
ADSK_XREC_LAYER_RECONCILED
360
5815
  0
DICTIONARY
  5
5816
330
214
100
AcDbDictionary
280
     1
281
     1
  3
ADSK_XREC_LAYER_RECONCILED
360
5817
  0
DICTIONARY
  5
5818
330
215
100
AcDbDictionary
280
     1
281
     1
  3
ADSK_XREC_LAYER_RECONCILED
360
5819
  0
DICTIONARY
  5
581A
330
216
100
AcDbDictionary
280
     1
281
     1
  3
ADSK_XREC_LAYER_RECONCILED
360
581B
  0
DICTIONARY
  5
581C
330
217
100
AcDbDictionary
280
     1
281
     1
  3
ADSK_XREC_LAYER_RECONCILED
360
581D
  0
DICTIONARY
  5
581E
330
218
100
AcDbDictionary
280
     1
281
     1
  3
ADSK_XREC_LAYER_RECONCILED
360
581F
  0
DICTIONARY
  5
5820
330
219
100
AcDbDictionary
280
     1
281
     1
  3
ADSK_XREC_LAYER_RECONCILED
360
5821
  0
DICTIONARY
  5
5822
330
21A
100
AcDbDictionary
280
     1
281
     1
  3
ADSK_XREC_LAYER_RECONCILED
360
5823
  0
DICTIONARY
  5
5824
330
21B
100
AcDbDictionary
280
     1
281
     1
  3
ADSK_XREC_LAYER_RECONCILED
360
5825
  0
DICTIONARY
  5
5826
330
21C
100
AcDbDictionary
280
     1
281
     1
  3
ADSK_XREC_LAYER_RECONCILED
360
5827
  0
DICTIONARY
  5
5828
330
21D
100
AcDbDictionary
280
     1
281
     1
  3
ADSK_XREC_LAYER_RECONCILED
360
5829
  0
XRECORD
  5
57DF
102
{ACAD_REACTORS
330
C
102
}
330
C
100
AcDbXrecord
280
     1
300
ACDLT
300
2019
300
ACDLT_F_S
  0
DICTIONARY
  5
5758
102
{ACAD_REACTORS
330
C
102
}
330
C
100
AcDbDictionary
281
     1
  0
DICTIONARY
  5
5771
102
{ACAD_REACTORS
330
C
102
}
330
C
100
AcDbDictionary
281
     1
  3
Imperial24
350
5772
  0
DICTIONARY
  5
D
102
{ACAD_REACTORS
330
C
102
}
330
C
100
AcDbDictionary
281
     1
  0
DICTIONARY
  5
571D
330
C
100
AcDbDictionary
281
     1
  3
a0001309_2_img_1
350
5721
  0
RASTERVARIABLES
  5
571E
330
C
100
AcDbRasterVariables
 90
        0
 70
     0
 71
     1
 72
     5
  0
DICTIONARY
  5
1A
102
{ACAD_REACTORS
330
C
102
}
330
C
100
AcDbDictionary
281
     1
  3
Layout1
350
5720
  3
Model
350
571F
  0
DICTIONARY
  5
5726
102
{ACAD_REACTORS
330
C
102
}
330
C
100
AcDbDictionary
281
     1
  3
ByBlock
350
572F
  3
ByLayer
350
5727
  3
Global
350
5737
  0
DICTIONARY
  5
576D
102
{ACAD_REACTORS
330
C
102
}
330
C
100
AcDbDictionary
281
     1
  3
Standard
350
576E
  0
DICTIONARY
  5
17
102
{ACAD_REACTORS
330
C
102
}
330
C
100
AcDbDictionary
281
     1
  3
Standard
350
18
  0
DICTIONARY
  5
19
102
{ACAD_REACTORS
330
C
102
}
330
C
100
AcDbDictionary
281
     1
  0
ACDBDICTIONARYWDFLT
  5
E
102
{ACAD_REACTORS
330
C
102
}
330
C
100
AcDbDictionary
281
     1
  3
Normal
350
F
100
AcDbDictionaryWithDefault
340
F
  0
DICTIONARY
  5
575B
102
{ACAD_REACTORS
330
C
102
}
330
C
100
AcDbDictionary
281
     1
  3
A0
350
575C
  3
A1
350
575D
  3
A2
350
575E
  3
A3
350
575F
  3
A4
350
5760
  3
A5
350
5761
  3
A6
350
5762
  3
A7
350
5763
  3
A8
350
5764
  3
A9
350
5765
  3
B0
350
5766
  3
B1
350
5767
  3
B2
350
5768
  3
B3
350
5769
  3
B4
350
576A
  3
B5
350
576B
  3
B6
350
576C
  0
DICTIONARY
  5
576F
102
{ACAD_REACTORS
330
C
102
}
330
C
100
AcDbDictionary
281
     1
  3
Imperial24
350
5770
  0
DICTIONARY
  5
5759
102
{ACAD_REACTORS
330
C
102
}
330
C
100
AcDbDictionary
281
     1
  3
Standard
350
575A
  0
DICTIONARY
  5
573F
102
{ACAD_REACTORS
330
C
102
}
330
C
100
AcDbDictionary
281
     1
  3
2dWireframe
350
5745
  3
Basic
350
5744
  3
Brighten
350
574B
  3
ColorChange
350
574F
  3
Conceptual
350
5748
  3
Dim
350
574A
  3
EdgeColorOff
350
5757
  3
Facepattern
350
574E
  3
Flat
350
5740
  3
FlatWithEdges
350
5741
  3
Gouraud
350
5742
  3
GouraudWithEdges
350
5743
  3
Hidden
350
5747
  3
JitterOff
350
5755
  3
Linepattern
350
574D
  3
OverhangOff
350
5756
  3
Realistic
350
5749
  3
Shaded
350
5754
  3
Shaded with edges
350
5753
  3
Shades of Gray
350
5750
  3
Sketchy
350
5751
  3
Thicken
350
574C
  3
Wireframe
350
5746
  3
X-Ray
350
5752
  0
XRECORD
  5
58EA
102
{ACAD_REACTORS
330
C
102
}
330
C
100
AcDbXrecord
280
     1
 90
        1
330
575A
  0
DICTIONARY
  5
57D0
102
{ACAD_REACTORS
330
C
102
}
330
C
100
AcDbDictionary
281
     1
  3
CANNOSCALE
350
57D5
  3
CMLEADERSTYLE
350
57D2
  3
CTABLESTYLE
350
57D1
  3
CVIEWDETAILSTYLE
350
57D3
  3
CVIEWSECTIONSTYLE
350
57D4
  3
DIMASSOC
350
57D8
  3
INDEXCTL
350
57D7
  3
LAYEREVAL
350
58C5
  3
LAYERNOTIFY
350
58C6
  3
LIGHTINGUNITS
350
58C4
  3
MSLTSCALE
350
58C3
  3
SORTENTS
350
57D6
  0
DICTIONARY
  5
58DF
102
{ACAD_REACTORS
330
58DE
102
}
330
58DE
100
AcDbDictionary
281
     1
  0
XRECORD
  5
57E1
102
{ACAD_REACTORS
330
57E0
102
}
330
57E0
100
AcDbXrecord
280
     1
290
     1
  0
XRECORD
  5
57E3
102
{ACAD_REACTORS
330
57E2
102
}
330
57E2
100
AcDbXrecord
280
     1
290
     1
  0
XRECORD
  5
57E5
102
{ACAD_REACTORS
330
57E4
102
}
330
57E4
100
AcDbXrecord
280
     1
290
     1
  0
XRECORD
  5
57E7
102
{ACAD_REACTORS
330
57E6
102
}
330
57E6
100
AcDbXrecord
280
     1
290
     1
  0
XRECORD
  5
57E9
102
{ACAD_REACTORS
330
57E8
102
}
330
57E8
100
AcDbXrecord
280
     1
290
     1
  0
XRECORD
  5
57EB
102
{ACAD_REACTORS
330
57EA
102
}
330
57EA
100
AcDbXrecord
280
     1
290
     1
  0
XRECORD
  5
57ED
102
{ACAD_REACTORS
330
57EC
102
}
330
57EC
100
AcDbXrecord
280
     1
290
     1
  0
XRECORD
  5
57EF
102
{ACAD_REACTORS
330
57EE
102
}
330
57EE
100
AcDbXrecord
280
     1
290
     1
  0
XRECORD
  5
57F1
102
{ACAD_REACTORS
330
57F0
102
}
330
57F0
100
AcDbXrecord
280
     1
290
     1
  0
XRECORD
  5
57F3
102
{ACAD_REACTORS
330
57F2
102
}
330
57F2
100
AcDbXrecord
280
     1
290
     1
  0
XRECORD
  5
57F5
102
{ACAD_REACTORS
330
57F4
102
}
330
57F4
100
AcDbXrecord
280
     1
290
     1
  0
XRECORD
  5
57F7
102
{ACAD_REACTORS
330
57F6
102
}
330
57F6
100
AcDbXrecord
280
     1
290
     1
  0
XRECORD
  5
57F9
102
{ACAD_REACTORS
330
57F8
102
}
330
57F8
100
AcDbXrecord
280
     1
290
     1
  0
XRECORD
  5
57FB
102
{ACAD_REACTORS
330
57FA
102
}
330
57FA
100
AcDbXrecord
280
     1
290
     1
  0
XRECORD
  5
57FD
102
{ACAD_REACTORS
330
57FC
102
}
330
57FC
100
AcDbXrecord
280
     1
290
     1
  0
XRECORD
  5
57FF
102
{ACAD_REACTORS
330
57FE
102
}
330
57FE
100
AcDbXrecord
280
     1
290
     1
  0
XRECORD
  5
5801
102
{ACAD_REACTORS
330
5800
102
}
330
5800
100
AcDbXrecord
280
     1
290
     1
  0
XRECORD
  5
5803
102
{ACAD_REACTORS
330
5802
102
}
330
5802
100
AcDbXrecord
280
     1
290
     1
  0
XRECORD
  5
5805
102
{ACAD_REACTORS
330
5804
102
}
330
5804
100
AcDbXrecord
280
     1
290
     1
  0
XRECORD
  5
5807
102
{ACAD_REACTORS
330
5806
102
}
330
5806
100
AcDbXrecord
280
     1
290
     1
  0
XRECORD
  5
5809
102
{ACAD_REACTORS
330
5808
102
}
330
5808
100
AcDbXrecord
280
     1
290
     1
  0
XRECORD
  5
580B
102
{ACAD_REACTORS
330
580A
102
}
330
580A
100
AcDbXrecord
280
     1
290
     1
  0
XRECORD
  5
580D
102
{ACAD_REACTORS
330
580C
102
}
330
580C
100
AcDbXrecord
280
     1
290
     1
  0
XRECORD
  5
580F
102
{ACAD_REACTORS
330
580E
102
}
330
580E
100
AcDbXrecord
280
     1
290
     1
  0
XRECORD
  5
5811
102
{ACAD_REACTORS
330
5810
102
}
330
5810
100
AcDbXrecord
280
     1
290
     1
  0
XRECORD
  5
5813
102
{ACAD_REACTORS
330
5812
102
}
330
5812
100
AcDbXrecord
280
     1
290
     1
  0
XRECORD
  5
5815
102
{ACAD_REACTORS
330
5814
102
}
330
5814
100
AcDbXrecord
280
     1
290
     1
  0
XRECORD
  5
5817
102
{ACAD_REACTORS
330
5816
102
}
330
5816
100
AcDbXrecord
280
     1
290
     1
  0
XRECORD
  5
5819
102
{ACAD_REACTORS
330
5818
102
}
330
5818
100
AcDbXrecord
280
     1
290
     1
  0
XRECORD
  5
581B
102
{ACAD_REACTORS
330
581A
102
}
330
581A
100
AcDbXrecord
280
     1
290
     1
  0
XRECORD
  5
581D
102
{ACAD_REACTORS
330
581C
102
}
330
581C
100
AcDbXrecord
280
     1
290
     1
  0
XRECORD
  5
581F
102
{ACAD_REACTORS
330
581E
102
}
330
581E
100
AcDbXrecord
280
     1
290
     1
  0
XRECORD
  5
5821
102
{ACAD_REACTORS
330
5820
102
}
330
5820
100
AcDbXrecord
280
     1
290
     1
  0
XRECORD
  5
5823
102
{ACAD_REACTORS
330
5822
102
}
330
5822
100
AcDbXrecord
280
     1
290
     1
  0
XRECORD
  5
5825
102
{ACAD_REACTORS
330
5824
102
}
330
5824
100
AcDbXrecord
280
     1
290
     1
  0
XRECORD
  5
5827
102
{ACAD_REACTORS
330
5826
102
}
330
5826
100
AcDbXrecord
280
     1
290
     1
  0
XRECORD
  5
5829
102
{ACAD_REACTORS
330
5828
102
}
330
5828
100
AcDbXrecord
280
     1
290
     1
  0
ACDBDETAILVIEWSTYLE
  5
5772
102
{ACAD_REACTORS
330
5771
102
}
330
5771
100
AcDbModelDocViewStyle
 70
     0
  3
Imperial24
290
     0
300
Imperial24
 90
        0
100
AcDbDetailViewStyle
 70
     0
 71
     0
 90
        3
 71
     1
340
11
 62
   256
 40
0.24
340
0
 62
   256
 40
0.24
300

 40
0.36
280
     3
 71
     2
340
16
 90
       25
 62
   256
 71
     3
340
11
 62
   256
 40
0.24
 90
        1
 40
0.75
 90
        1
300
%<\AcVar ViewType \f "%tc1">% %<\AcVar ViewDetailId>%\PSCALE %<\AcVar ViewScale \f "%sn">%
 71
     4
340
16
 90
       25
 62
   256
340
16
 90
       25
 62
   256
280
     0
  0
IMAGEDEF
  5
5721
102
{ACAD_REACTORS
330
571D
102
}
330
571D
100
AcDbRasterImageDef
 90
        0
  1
a0001309_2_img_1.png
 10
6619.0
 20
5716.0
 11
0.0066666667
 21
0.0066666667
280
     1
281
     0
  0
LAYOUT
  5
5720
102
{ACAD_REACTORS
330
1A
102
}
330
1A
100
AcDbPlotSettings
  1

  2
none_device
  4
ANSI_B_(17.00_x_11.00_Inches)
  6

 40
0.0
 41
0.0
 42
0.0
 43
0.0
 44
431.8
 45
279.4
 46
0.0
 47
0.0
 48
0.0
 49
0.0
140
0.0
141
0.0
142
1.0
143
1.0
 70
     0
 72
     0
 73
     0
 74
     0
  7

 75
     0
147
1.0
 76
     0
 77
     2
 78
   300
148
0.0
149
0.0
100
AcDbLayout
  1
Layout1
 70
     1
 71
     1
 10
0.0
 20
0.0
 11
12.0
 21
9.0
 12
0.0
 22
0.0
 32
0.0
 14
1.000000000000000E+20
 24
1.000000000000000E+20
 34
1.000000000000000E+20
 15
-1.000000000000000E+20
 25
-1.000000000000000E+20
 35
-1.000000000000000E+20
146
0.0
 13
0.0
 23
0.0
 33
0.0
 16
1.0
 26
0.0
 36
0.0
 17
0.0
 27
1.0
 37
0.0
 76
     0
330
227
  0
LAYOUT
  5
571F
102
{ACAD_REACTORS
330
1A
102
}
330
1A
100
AcDbPlotSettings
  1

  2
none_device
  4
ANSI_B_(17.00_x_11.00_Inches)
  6

 40
0.0
 41
0.0
 42
0.0
 43
0.0
 44
431.8
 45
279.4
 46
0.0
 47
0.0
 48
0.0
 49
0.0
140
0.0
141
0.0
142
1.0
143
1.0
 70
  1024
 72
     0
 73
     0
 74
     0
  7

 75
     0
147
1.0
 76
     0
 77
     2
 78
   300
148
0.0
149
0.0
100
AcDbLayout
  1
Model
 70
     0
 71
     0
 10
0.0
 20
0.0
 11
17.0
 21
11.0
 12
0.0
 22
0.0
 32
0.0
 14
0.0
 24
0.0
 34
0.0
 15
0.0
 25
0.0
 35
0.0
146
0.0
 13
0.0
 23
0.0
 33
0.0
 16
1.0
 26
0.0
 36
0.0
 17
0.0
 27
1.0
 37
0.0
 76
     0
330
226
331
1F4
  0
MATERIAL
  5
572F
102
{ACAD_XDICTIONARY
360
5730
102
}
102
{ACAD_REACTORS
330
5726
102
}
330
5726
100
AcDbMaterial
  1
ByBlock
 72
     0
 43
0.0208333333333333
 43
0.0
 43
0.0
 43
0.0
 43
0.0
 43
0.0208333333333333
 43
0.0
 43
0.0
 43
0.0
 43
0.0
 43
1.0
 43
0.0
 43
0.0
 43
0.0
 43
0.0
 43
1.0
 77
     0
 47
0.0208333333333333
 47
0.0
 47
0.0
 47
0.0
 47
0.0
 47
0.0208333333333333
 47
0.0
 47
0.0
 47
0.0
 47
0.0
 47
1.0
 47
0.0
 47
0.0
 47
0.0
 47
0.0
 47
1.0
171
     0
 49
0.0208333333333333
 49
0.0
 49
0.0
 49
0.0
 49
0.0
 49
0.0208333333333333
 49
0.0
 49
0.0
 49
0.0
 49
0.0
 49
1.0
 49
0.0
 49
0.0
 49
0.0
 49
0.0
 49
1.0
175
     0
142
0.0208333333333333
142
0.0
142
0.0
142
0.0
142
0.0
142
0.0208333333333333
142
0.0
142
0.0
142
0.0
142
0.0
142
1.0
142
0.0
142
0.0
142
0.0
142
0.0
142
1.0
179
     0
144
0.0208333333333333
144
0.0
144
0.0
144
0.0
144
0.0
144
0.0208333333333333
144
0.0
144
0.0
144
0.0
144
0.0
144
1.0
144
0.0
144
0.0
144
0.0
144
0.0
144
1.0
147
0.0208333333333333
147
0.0
147
0.0
147
0.0
147
0.0
147
0.0208333333333333
147
0.0
147
0.0
147
0.0
147
0.0
147
1.0
147
0.0
147
0.0
147
0.0
147
0.0
147
1.0
  0
MATERIAL
  5
5727
102
{ACAD_XDICTIONARY
360
5728
102
}
102
{ACAD_REACTORS
330
5726
102
}
330
5726
100
AcDbMaterial
  1
ByLayer
 72
     0
 43
0.0208333333333333
 43
0.0
 43
0.0
 43
0.0
 43
0.0
 43
0.0208333333333333
 43
0.0
 43
0.0
 43
0.0
 43
0.0
 43
1.0
 43
0.0
 43
0.0
 43
0.0
 43
0.0
 43
1.0
 77
     0
 47
0.0208333333333333
 47
0.0
 47
0.0
 47
0.0
 47
0.0
 47
0.0208333333333333
 47
0.0
 47
0.0
 47
0.0
 47
0.0
 47
1.0
 47
0.0
 47
0.0
 47
0.0
 47
0.0
 47
1.0
171
     0
 49
0.0208333333333333
 49
0.0
 49
0.0
 49
0.0
 49
0.0
 49
0.0208333333333333
 49
0.0
 49
0.0
 49
0.0
 49
0.0
 49
1.0
 49
0.0
 49
0.0
 49
0.0
 49
0.0
 49
1.0
175
     0
142
0.0208333333333333
142
0.0
142
0.0
142
0.0
142
0.0
142
0.0208333333333333
142
0.0
142
0.0
142
0.0
142
0.0
142
1.0
142
0.0
142
0.0
142
0.0
142
0.0
142
1.0
179
     0
144
0.0208333333333333
144
0.0
144
0.0
144
0.0
144
0.0
144
0.0208333333333333
144
0.0
144
0.0
144
0.0
144
0.0
144
1.0
144
0.0
144
0.0
144
0.0
144
0.0
144
1.0
147
0.0208333333333333
147
0.0
147
0.0
147
0.0
147
0.0
147
0.0208333333333333
147
0.0
147
0.0
147
0.0
147
0.0
147
1.0
147
0.0
147
0.0
147
0.0
147
0.0
147
1.0
  0
MATERIAL
  5
5737
102
{ACAD_XDICTIONARY
360
5738
102
}
102
{ACAD_REACTORS
330
5726
102
}
330
5726
100
AcDbMaterial
  1
Global
 72
     0
 43
0.0208333333333333
 43
0.0
 43
0.0
 43
0.0
 43
0.0
 43
0.0208333333333333
 43
0.0
 43
0.0
 43
0.0
 43
0.0
 43
1.0
 43
0.0
 43
0.0
 43
0.0
 43
0.0
 43
1.0
 77
     0
 47
0.0208333333333333
 47
0.0
 47
0.0
 47
0.0
 47
0.0
 47
0.0208333333333333
 47
0.0
 47
0.0
 47
0.0
 47
0.0
 47
1.0
 47
0.0
 47
0.0
 47
0.0
 47
0.0
 47
1.0
171
     0
 49
0.0208333333333333
 49
0.0
 49
0.0
 49
0.0
 49
0.0
 49
0.0208333333333333
 49
0.0
 49
0.0
 49
0.0
 49
0.0
 49
1.0
 49
0.0
 49
0.0
 49
0.0
 49
0.0
 49
1.0
175
     0
142
0.0208333333333333
142
0.0
142
0.0
142
0.0
142
0.0
142
0.0208333333333333
142
0.0
142
0.0
142
0.0
142
0.0
142
1.0
142
0.0
142
0.0
142
0.0
142
0.0
142
1.0
179
     0
144
0.0208333333333333
144
0.0
144
0.0
144
0.0
144
0.0
144
0.0208333333333333
144
0.0
144
0.0
144
0.0
144
0.0
144
1.0
144
0.0
144
0.0
144
0.0
144
0.0
144
1.0
147
0.0208333333333333
147
0.0
147
0.0
147
0.0
147
0.0
147
0.0208333333333333
147
0.0
147
0.0
147
0.0
147
0.0
147
1.0
147
0.0
147
0.0
147
0.0
147
0.0
147
1.0
  0
MLEADERSTYLE
  5
576E
102
{ACAD_REACTORS
330
576D
102
}
330
576D
100
AcDbMLeaderStyle
179
     2
170
     2
171
     1
172
     0
 90
        2
 40
0.0
 41
0.0
173
     1
 91
-1056964608
340
14
 92
       -2
290
     1
 42
0.09
291
     1
 43
0.36
  3
Standard
 44
0.18
300

342
11
174
     1
178
     6
175
     1
176
     0
 93
-1056964608
 45
0.18
292
     0
297
     0
 46
0.18
 94
-1056964608
 47
1.0
 49
1.0
140
1.0
293
     1
141
0.0
294
     1
177
     0
142
1.0
295
     0
296
     0
143
0.125
271
     0
272
     9
273
     9
298
     0
  0
MLINESTYLE
  5
18
102
{ACAD_REACTORS
330
17
102
}
330
17
100
AcDbMlineStyle
  2
STANDARD
 70
     0
  3

 62
   256
 51
90.0
 52
90.0
 71
     2
 49
0.5
 62
   256
  6
BYLAYER
 49
-0.5
 62
   256
  6
BYLAYER
  0
ACDBPLACEHOLDER
  5
F
102
{ACAD_REACTORS
330
E
102
}
330
E
  0
SCALE
  5
575C
102
{ACAD_REACTORS
330
575B
102
}
330
575B
100
AcDbScale
 70
     0
300
1:1
140
1.0
141
1.0
290
     1
  0
SCALE
  5
575D
102
{ACAD_REACTORS
330
575B
102
}
330
575B
100
AcDbScale
 70
     0
300
1/128" = 1'-0"
140
0.0078125
141
12.0
290
     0
  0
SCALE
  5
575E
102
{ACAD_REACTORS
330
575B
102
}
330
575B
100
AcDbScale
 70
     0
300
1/64" = 1'-0"
140
0.015625
141
12.0
290
     0
  0
SCALE
  5
575F
102
{ACAD_REACTORS
330
575B
102
}
330
575B
100
AcDbScale
 70
     0
300
1/32" = 1'-0"
140
0.03125
141
12.0
290
     0
  0
SCALE
  5
5760
102
{ACAD_REACTORS
330
575B
102
}
330
575B
100
AcDbScale
 70
     0
300
1/16" = 1'-0"
140
0.0625
141
12.0
290
     0
  0
SCALE
  5
5761
102
{ACAD_REACTORS
330
575B
102
}
330
575B
100
AcDbScale
 70
     0
300
3/32" = 1'-0"
140
0.09375
141
12.0
290
     0
  0
SCALE
  5
5762
102
{ACAD_REACTORS
330
575B
102
}
330
575B
100
AcDbScale
 70
     0
300
1/8" = 1'-0"
140
0.125
141
12.0
290
     0
  0
SCALE
  5
5763
102
{ACAD_REACTORS
330
575B
102
}
330
575B
100
AcDbScale
 70
     0
300
3/16" = 1'-0"
140
0.1875
141
12.0
290
     0
  0
SCALE
  5
5764
102
{ACAD_REACTORS
330
575B
102
}
330
575B
100
AcDbScale
 70
     0
300
1/4" = 1'-0"
140
0.25
141
12.0
290
     0
  0
SCALE
  5
5765
102
{ACAD_REACTORS
330
575B
102
}
330
575B
100
AcDbScale
 70
     0
300
3/8" = 1'-0"
140
0.375
141
12.0
290
     0
  0
SCALE
  5
5766
102
{ACAD_REACTORS
330
575B
102
}
330
575B
100
AcDbScale
 70
     0
300
1/2" = 1'-0"
140
0.5
141
12.0
290
     0
  0
SCALE
  5
5767
102
{ACAD_REACTORS
330
575B
102
}
330
575B
100
AcDbScale
 70
     0
300
3/4" = 1'-0"
140
0.75
141
12.0
290
     0
  0
SCALE
  5
5768
102
{ACAD_REACTORS
330
575B
102
}
330
575B
100
AcDbScale
 70
     0
300
1" = 1'-0"
140
1.0
141
12.0
290
     0
  0
SCALE
  5
5769
102
{ACAD_REACTORS
330
575B
102
}
330
575B
100
AcDbScale
 70
     0
300
1-1/2" = 1'-0"
140
1.5
141
12.0
290
     0
  0
SCALE
  5
576A
102
{ACAD_REACTORS
330
575B
102
}
330
575B
100
AcDbScale
 70
     0
300
3" = 1'-0"
140
3.0
141
12.0
290
     0
  0
SCALE
  5
576B
102
{ACAD_REACTORS
330
575B
102
}
330
575B
100
AcDbScale
 70
     0
300
6" = 1'-0"
140
6.0
141
12.0
290
     0
  0
SCALE
  5
576C
102
{ACAD_REACTORS
330
575B
102
}
330
575B
100
AcDbScale
 70
     0
300
1'-0" = 1'-0"
140
12.0
141
12.0
290
     0
  0
ACDBSECTIONVIEWSTYLE
  5
5770
102
{ACAD_REACTORS
330
576F
102
}
330
576F
100
AcDbModelDocViewStyle
 70
     0
  3
Imperial24
290
     0
300
Imperial24
 90
        0
100
AcDbSectionViewStyle
 70
     0
 71
     0
 90
       78
 71
     1
340
11
 62
   256
 40
0.24
340
0
340
0
 62
   256
 40
0.24
300
I, O, Q, S, X, Z
 40
0.48
 90
        3
 40
0.18
 90
        1
 71
     2
340
16
 90
       25
 62
   256
340
16
 90
       50
 62
   256
 40
0.24
 40
0.0
 40
0.24
 71
     3
340
11
 62
   256
 40
0.24
 90
        1
 40
0.75
 90
        1
300
%<\AcVar ViewType \f "%tc1">% %<\AcVar ViewSectionStartId>%-%<\AcVar ViewSectionEndId>%\PSCALE %<\AcVar ViewScale \f "%sn">%
 71
     4
 62
   256
 62
   257
300
ANSI31
 40
1.0
 90
        0
290
     0
290
     0
 90
        6
 40
0.0
 40
1.570796326794896
 40
0.2617993877991494
 40
1.308996938995747
 40
-0.2617993877991494
 40
1.832595714594046
  0
TABLESTYLE
  5
575A
102
{ACAD_XDICTIONARY
360
5774
102
}
102
{ACAD_REACTORS
330
5759
102
}
330
5759
100
AcDbTableStyle
280
     0
  3
Standard
 70
     0
 71
     0
 40
0.06
 41
0.06
280
     0
281
     0
  7
STANDARD
140
0.18
170
     2
 62
     0
 63
     7
283
     0
 90
      512
 91
        0
  1

274
    -2
284
     1
 64
     0
275
    -2
285
     1
 65
     0
276
    -2
286
     1
 66
     0
277
    -2
287
     1
 67
     0
278
    -2
288
     1
 68
     0
279
    -2
289
     1
 69
     0
  7
STANDARD
140
0.25
170
     5
 62
     0
 63
     7
283
     0
 90
      512
 91
        0
  1

274
    -2
284
     1
 64
     0
275
    -2
285
     1
 65
     0
276
    -2
286
     1
 66
     0
277
    -2
287
     1
 67
     0
278
    -2
288
     1
 68
     0
279
    -2
289
     1
 69
     0
  7
STANDARD
140
0.18
170
     5
 62
     0
 63
     7
283
     0
 90
      512
 91
        0
  1

274
    -2
284
     1
 64
     0
275
    -2
285
     1
 65
     0
276
    -2
286
     1
 66
     0
277
    -2
287
     1
 67
     0
278
    -2
288
     1
 68
     0
279
    -2
289
     1
 69
     0
  0
VISUALSTYLE
  5
5745
102
{ACAD_REACTORS
330
573F
102
}
330
573F
100
AcDbVisualStyle
  2
2dWireframe
 70
     4
177
     3
291
     0
 70
    58
 90
        0
176
     1
 90
        2
176
     1
 90
        0
176
     1
 90
        0
176
     1
 40
0.6
176
     1
 40
30.0
176
     1
 62
     7
176
     1
 90
        1
176
     1
 90
        4
176
     1
 62
     7
176
     1
 62
   257
176
     1
 90
        1
176
     1
 90
        1
176
     1
 40
1.0
176
     1
 90
        0
176
     1
 62
   257
176
     1
 40
1.0
176
     1
 90
        1
176
     1
 90
        6
176
     1
 90
        2
176
     1
 62
     7
176
     1
 90
        5
176
     1
 90
        0
176
     1
 90
        0
176
     1
290
     0
176
     1
 90
        1
176
     1
 40
0.0
176
     1
 90
        0
176
     1
290
     1
176
     1
290
     1
176
     1
290
     0
176
     1
290
     0
176
     1
290
     0
176
     1
290
     0
176
     1
290
     0
176
     1
290
     0
176
     1
290
     0
176
     1
 90
       50
176
     1
 40
0.0
176
     1
 40
1.0
176
     1
 90
        0
176
     1
 62
    18
420
        0
176
     1
 90
       50
176
     1
 90
        3
176
     1
 62
     5
420
      255
176
     1
290
     0
176
     1
 90
       50
176
     1
 90
       50
176
     1
 90
       50
176
     1
290
     0
176
     1
 90
       50
176
     1
 62
   256
176
     0
 40
1.0
176
     0
 90
        2
176
     1
  1
strokes_ogs.tif
176
     1
290
     0
176
     1
 40
1.0
176
     1
 40
1.0
176
     1
  0
VISUALSTYLE
  5
5744
102
{ACAD_REACTORS
330
573F
102
}
330
573F
100
AcDbVisualStyle
  2
Basic
 70
     7
177
     3
291
     1
 70
    58
 90
        1
176
     1
 90
        0
176
     1
 90
        1
176
     1
 90
        0
176
     1
 40
0.6
176
     1
 40
30.0
176
     1
 62
     7
176
     1
 90
        0
176
     1
 90
        4
176
     1
 62
     7
176
     1
 62
   257
176
     1
 90
        1
176
     1
 90
        1
176
     1
 40
1.0
176
     1
 90
        8
176
     1
 62
     7
176
     1
 40
1.0
176
     1
 90
        1
176
     1
 90
        6
176
     1
 90
        2
176
     1
 62
     7
176
     1
 90
        5
176
     1
 90
        0
176
     1
 90
        0
176
     1
290
     0
176
     1
 90
        1
176
     1
 40
0.0
176
     1
 90
        0
176
     1
290
     0
176
     1
290
     1
176
     1
290
     1
176
     1
290
     0
176
     1
290
     0
176
     1
290
     0
176
     1
290
     0
176
     1
290
     0
176
     1
290
     0
176
     1
 90
       50
176
     1
 40
0.0
176
     1
 40
1.0
176
     1
 90
        0
176
     1
 62
    18
420
        0
176
     1
 90
       50
176
     1
 90
        3
176
     1
 62
     5
420
      255
176
     1
290
     0
176
     1
 90
       50
176
     1
 90
       50
176
     1
 90
       50
176
     1
290
     0
176
     1
 90
       50
176
     1
 62
   256
176
     0
 40
1.0
176
     0
 90
        2
176
     1
  1
strokes_ogs.tif
176
     1
290
     0
176
     1
 40
1.0
176
     1
 40
1.0
176
     1
  0
VISUALSTYLE
  5
574B
102
{ACAD_REACTORS
330
573F
102
}
330
573F
100
AcDbVisualStyle
  2
Brighten
 70
    12
177
     3
291
     1
 70
    58
 90
        2
176
     1
 90
        2
176
     1
 90
        0
176
     1
 90
        0
176
     1
 40
0.6
176
     1
 40
30.0
176
     1
 62
     7
176
     1
 90
        1
176
     1
 90
        4
176
     1
 62
     7
176
     1
 62
   257
176
     1
 90
        1
176
     1
 90
        1
176
     1
 40
1.0
176
     1
 90
        8
176
     1
 62
     7
176
     1
 40
1.0
176
     1
 90
        1
176
     1
 90
        6
176
     1
 90
        2
176
     1
 62
     7
176
     1
 90
        5
176
     1
 90
        0
176
     1
 90
        0
176
     1
290
     0
176
     1
 90
        1
176
     1
 40
50.0
176
     1
 90
        0
176
     1
290
     0
176
     1
290
     1
176
     1
290
     1
176
     1
290
     0
176
     1
290
     0
176
     1
290
     0
176
     1
290
     0
176
     1
290
     0
176
     1
290
     0
176
     1
 90
       50
176
     1
 40
0.0
176
     1
 40
1.0
176
     1
 90
        0
176
     1
 62
    18
420
        0
176
     1
 90
       50
176
     1
 90
        3
176
     1
 62
     5
420
      255
176
     1
290
     0
176
     1
 90
       50
176
     1
 90
       50
176
     1
 90
       50
176
     1
290
     0
176
     1
 90
       50
176
     1
 62
   256
176
     0
 40
1.0
176
     0
 90
        2
176
     1
  1
strokes_ogs.tif
176
     1
290
     0
176
     1
 40
1.0
176
     1
 40
1.0
176
     1
  0
VISUALSTYLE
  5
574F
102
{ACAD_REACTORS
330
573F
102
}
330
573F
100
AcDbVisualStyle
  2
ColorChange
 70
    16
177
     3
291
     1
 70
    58
 90
        2
176
     1
 90
        2
176
     1
 90
        3
176
     1
 90
        0
176
     1
 40
0.6
176
     1
 40
30.0
176
     1
 62
     8
176
     1
 90
        1
176
     1
 90
        4
176
     1
 62
     7
176
     1
 62
   257
176
     1
 90
        1
176
     1
 90
        1
176
     1
 40
1.0
176
     1
 90
        8
176
     1
 62
     8
176
     1
 40
1.0
176
     1
 90
        1
176
     1
 90
        6
176
     1
 90
        2
176
     1
 62
     7
176
     1
 90
        5
176
     1
 90
        0
176
     1
 90
        0
176
     1
290
     0
176
     1
 90
        1
176
     1
 40
0.0
176
     1
 90
        0
176
     1
290
     0
176
     1
290
     1
176
     1
290
     1
176
     1
290
     0
176
     1
290
     0
176
     1
290
     0
176
     1
290
     0
176
     1
290
     0
176
     1
290
     0
176
     1
 90
       50
176
     1
 40
0.0
176
     1
 40
1.0
176
     1
 90
        0
176
     1
 62
    18
420
        0
176
     1
 90
       50
176
     1
 90
        3
176
     1
 62
     5
420
      255
176
     1
290
     0
176
     1
 90
       50
176
     1
 90
       50
176
     1
 90
       50
176
     1
290
     0
176
     1
 90
       50
176
     1
 62
   256
176
     0
 40
1.0
176
     0
 90
        2
176
     1
  1
strokes_ogs.tif
176
     1
290
     0
176
     1
 40
1.0
176
     1
 40
1.0
176
     1
  0
VISUALSTYLE
  5
5748
102
{ACAD_REACTORS
330
573F
102
}
330
573F
100
AcDbVisualStyle
  2
Conceptual
 70
     9
177
     3
291
     0
 70
    58
 90
        3
176
     1
 90
        2
176
     1
 90
        0
176
     1
 90
        0
176
     1
 40
0.6
176
     1
 40
30.0
176
     1
 62
     7
176
     1
 90
        2
176
     1
 90
        2
176
     1
 62
     7
176
     1
 62
   257
176
     1
 90
        1
176
     1
 90
        1
176
     1
 40
179.0
176
     1
 90
        8
176
     1
 62
     7
176
     1
 40
1.0
176
     1
 90
        1
176
     1
 90
        6
176
     1
 90
        2
176
     1
 62
     7
176
     1
 90
        3
176
     1
 90
        0
176
     1
 90
        0
176
     1
290
     0
176
     1
 90
        1
176
     1
 40
0.0
176
     1
 90
        0
176
     1
290
     0
176
     1
290
     1
176
     1
290
     1
176
     1
290
     0
176
     1
290
     0
176
     1
290
     0
176
     1
290
     0
176
     1
290
     0
176
     1
290
     0
176
     1
 90
       50
176
     1
 40
0.0
176
     1
 40
1.0
176
     1
 90
        0
176
     1
 62
    18
420
        0
176
     1
 90
       50
176
     1
 90
        3
176
     1
 62
     5
420
      255
176
     1
290
     0
176
     1
 90
       50
176
     1
 90
       50
176
     1
 90
       50
176
     1
290
     0
176
     1
 90
       50
176
     1
 62
   256
176
     0
 40
1.0
176
     0
 90
        2
176
     1
  1
strokes_ogs.tif
176
     1
290
     0
176
     1
 40
1.0
176
     1
 40
1.0
176
     1
  0
VISUALSTYLE
  5
574A
102
{ACAD_REACTORS
330
573F
102
}
330
573F
100
AcDbVisualStyle
  2
Dim
 70
    11
177
     3
291
     1
 70
    58
 90
        2
176
     1
 90
        2
176
     1
 90
        0
176
     1
 90
        0
176
     1
 40
0.6
176
     1
 40
30.0
176
     1
 62
     7
176
     1
 90
        1
176
     1
 90
        4
176
     1
 62
     7
176
     1
 62
   257
176
     1
 90
        1
176
     1
 90
        1
176
     1
 40
1.0
176
     1
 90
        8
176
     1
 62
     7
176
     1
 40
1.0
176
     1
 90
        1
176
     1
 90
        6
176
     1
 90
        2
176
     1
 62
     7
176
     1
 90
        5
176
     1
 90
        0
176
     1
 90
        0
176
     1
290
     0
176
     1
 90
        1
176
     1
 40
-50.0
176
     1
 90
        0
176
     1
290
     0
176
     1
290
     1
176
     1
290
     1
176
     1
290
     0
176
     1
290
     0
176
     1
290
     0
176
     1
290
     0
176
     1
290
     0
176
     1
290
     0
176
     1
 90
       50
176
     1
 40
0.0
176
     1
 40
1.0
176
     1
 90
        0
176
     1
 62
    18
420
        0
176
     1
 90
       50
176
     1
 90
        3
176
     1
 62
     5
420
      255
176
     1
290
     0
176
     1
 90
       50
176
     1
 90
       50
176
     1
 90
       50
176
     1
290
     0
176
     1
 90
       50
176
     1
 62
   256
176
     0
 40
1.0
176
     0
 90
        2
176
     1
  1
strokes_ogs.tif
176
     1
290
     0
176
     1
 40
1.0
176
     1
 40
1.0
176
     1
  0
VISUALSTYLE
  5
5757
102
{ACAD_REACTORS
330
573F
102
}
330
573F
100
AcDbVisualStyle
  2
EdgeColorOff
 70
    22
177
     3
291
     1
 70
    58
 90
        2
176
     0
 90
        2
176
     0
 90
        0
176
     0
 90
        0
176
     0
 40
0.6
176
     0
 40
30.0
176
     0
 62
     7
176
     0
 90
        1
176
     0
 90
        4
176
     0
 62
     7
176
     0
 62
   257
176
     0
 90
        1
176
     0
 90
        1
176
     0
 40
1.0
176
     0
 90
        8
176
     2
 62
     7
176
     0
 40
1.0
176
     0
 90
        1
176
     0
 90
        6
176
     0
 90
        2
176
     0
 62
     7
176
     0
 90
        5
176
     0
 90
        0
176
     0
 90
        0
176
     0
290
     0
176
     0
 90
        1
176
     0
 40
0.0
176
     0
 90
        0
176
     0
290
     0
176
     1
290
     1
176
     1
290
     1
176
     1
290
     0
176
     1
290
     0
176
     1
290
     0
176
     1
290
     0
176
     1
290
     0
176
     1
290
     0
176
     1
 90
       50
176
     0
 40
0.0
176
     0
 40
1.0
176
     0
 90
        0
176
     0
 62
    18
420
        0
176
     0
 90
       50
176
     0
 90
        3
176
     0
 62
     5
420
      255
176
     0
290
     0
176
     1
 90
       50
176
     0
 90
       50
176
     0
 90
       50
176
     0
290
     0
176
     1
 90
       50
176
     0
 62
   256
176
     0
 40
1.0
176
     0
 90
        2
176
     0
  1
strokes_ogs.tif
176
     0
290
     0
176
     1
 40
1.0
176
     0
 40
1.0
176
     0
  0
VISUALSTYLE
  5
574E
102
{ACAD_REACTORS
330
573F
102
}
330
573F
100
AcDbVisualStyle
  2
Facepattern
 70
    15
177
     3
291
     1
 70
    58
 90
        2
176
     1
 90
        2
176
     1
 90
        0
176
     1
 90
        0
176
     1
 40
0.6
176
     1
 40
30.0
176
     1
 62
     7
176
     1
 90
        1
176
     1
 90
        4
176
     1
 62
     7
176
     1
 62
   257
176
     1
 90
        1
176
     1
 90
        1
176
     1
 40
1.0
176
     1
 90
        8
176
     1
 62
     7
176
     1
 40
1.0
176
     1
 90
        1
176
     1
 90
        6
176
     1
 90
        2
176
     1
 62
     7
176
     1
 90
        5
176
     1
 90
        0
176
     1
 90
        0
176
     1
290
     0
176
     1
 90
        1
176
     1
 40
0.0
176
     1
 90
        0
176
     1
290
     0
176
     1
290
     1
176
     1
290
     1
176
     1
290
     0
176
     1
290
     0
176
     1
290
     0
176
     1
290
     0
176
     1
290
     0
176
     1
290
     0
176
     1
 90
       50
176
     1
 40
0.0
176
     1
 40
1.0
176
     1
 90
        0
176
     1
 62
    18
420
        0
176
     1
 90
       50
176
     1
 90
        3
176
     1
 62
     5
420
      255
176
     1
290
     0
176
     1
 90
       50
176
     1
 90
       50
176
     1
 90
       50
176
     1
290
     0
176
     1
 90
       50
176
     1
 62
   256
176
     0
 40
1.0
176
     0
 90
        2
176
     1
  1
strokes_ogs.tif
176
     1
290
     0
176
     1
 40
1.0
176
     1
 40
1.0
176
     1
  0
VISUALSTYLE
  5
5740
102
{ACAD_REACTORS
330
573F
102
}
330
573F
100
AcDbVisualStyle
  2
Flat
 70
     0
177
     3
291
     1
 70
    58
 90
        2
176
     1
 90
        1
176
     1
 90
        1
176
     1
 90
        2
176
     1
 40
0.6
176
     1
 40
30.0
176
     1
 62
     7
176
     1
 90
        0
176
     1
 90
        0
176
     1
 62
     7
176
     1
 62
   257
176
     1
 90
        1
176
     1
 90
        1
176
     1
 40
1.0
176
     1
 90
        8
176
     1
 62
     7
176
     1
 40
1.0
176
     1
 90
        1
176
     1
 90
        6
176
     1
 90
        2
176
     1
 62
     7
176
     1
 90
        5
176
     1
 90
        0
176
     1
 90
        0
176
     1
290
     0
176
     1
 90
       13
176
     1
 40
0.0
176
     1
 90
        0
176
     1
290
     0
176
     1
290
     1
176
     1
290
     1
176
     1
290
     0
176
     1
290
     0
176
     1
290
     0
176
     1
290
     0
176
     1
290
     0
176
     1
290
     0
176
     1
 90
       50
176
     1
 40
0.0
176
     1
 40
1.0
176
     1
 90
        0
176
     1
 62
    18
420
        0
176
     1
 90
       50
176
     1
 90
        3
176
     1
 62
     5
420
      255
176
     1
290
     0
176
     1
 90
       50
176
     1
 90
       50
176
     1
 90
       50
176
     1
290
     0
176
     1
 90
       50
176
     1
 62
   256
176
     0
 40
1.0
176
     0
 90
        2
176
     1
  1
strokes_ogs.tif
176
     1
290
     0
176
     1
 40
1.0
176
     1
 40
1.0
176
     1
  0
VISUALSTYLE
  5
5741
102
{ACAD_REACTORS
330
573F
102
}
330
573F
100
AcDbVisualStyle
  2
FlatWithEdges
 70
     1
177
     3
291
     1
 70
    58
 90
        2
176
     1
 90
        1
176
     1
 90
        1
176
     1
 90
        2
176
     1
 40
0.6
176
     1
 40
30.0
176
     1
 62
     7
176
     1
 90
        1
176
     1
 90
        0
176
     1
 62
     7
176
     1
 62
   257
176
     1
 90
        1
176
     1
 90
        1
176
     1
 40
1.0
176
     1
 90
        0
176
     1
 62
   257
176
     1
 40
1.0
176
     1
 90
        1
176
     1
 90
        6
176
     1
 90
        2
176
     1
 62
     7
176
     1
 90
        5
176
     1
 90
        0
176
     1
 90
        0
176
     1
290
     0
176
     1
 90
       13
176
     1
 40
0.0
176
     1
 90
        0
176
     1
290
     0
176
     1
290
     1
176
     1
290
     1
176
     1
290
     0
176
     1
290
     0
176
     1
290
     0
176
     1
290
     0
176
     1
290
     0
176
     1
290
     0
176
     1
 90
       50
176
     1
 40
0.0
176
     1
 40
1.0
176
     1
 90
        0
176
     1
 62
    18
420
        0
176
     1
 90
       50
176
     1
 90
        3
176
     1
 62
     5
420
      255
176
     1
290
     0
176
     1
 90
       50
176
     1
 90
       50
176
     1
 90
       50
176
     1
290
     0
176
     1
 90
       50
176
     1
 62
   256
176
     0
 40
1.0
176
     0
 90
        2
176
     1
  1
strokes_ogs.tif
176
     1
290
     0
176
     1
 40
1.0
176
     1
 40
1.0
176
     1
  0
VISUALSTYLE
  5
5742
102
{ACAD_REACTORS
330
573F
102
}
330
573F
100
AcDbVisualStyle
  2
Gouraud
 70
     2
177
     3
291
     1
 70
    58
 90
        2
176
     1
 90
        2
176
     1
 90
        1
176
     1
 90
        2
176
     1
 40
0.6
176
     1
 40
30.0
176
     1
 62
     7
176
     1
 90
        0
176
     1
 90
        0
176
     1
 62
     7
176
     1
 62
   257
176
     1
 90
        1
176
     1
 90
        1
176
     1
 40
1.0
176
     1
 90
        0
176
     1
 62
     7
176
     1
 40
1.0
176
     1
 90
        1
176
     1
 90
        6
176
     1
 90
        2
176
     1
 62
     7
176
     1
 90
        5
176
     1
 90
        0
176
     1
 90
        0
176
     1
290
     0
176
     1
 90
       13
176
     1
 40
0.0
176
     1
 90
        0
176
     1
290
     0
176
     1
290
     1
176
     1
290
     1
176
     1
290
     0
176
     1
290
     0
176
     1
290
     0
176
     1
290
     0
176
     1
290
     0
176
     1
290
     0
176
     1
 90
       50
176
     1
 40
0.0
176
     1
 40
1.0
176
     1
 90
        0
176
     1
 62
    18
420
        0
176
     1
 90
       50
176
     1
 90
        3
176
     1
 62
     5
420
      255
176
     1
290
     0
176
     1
 90
       50
176
     1
 90
       50
176
     1
 90
       50
176
     1
290
     0
176
     1
 90
       50
176
     1
 62
   256
176
     0
 40
1.0
176
     0
 90
        2
176
     1
  1
strokes_ogs.tif
176
     1
290
     0
176
     1
 40
1.0
176
     1
 40
1.0
176
     1
  0
VISUALSTYLE
  5
5743
102
{ACAD_REACTORS
330
573F
102
}
330
573F
100
AcDbVisualStyle
  2
GouraudWithEdges
 70
     3
177
     3
291
     1
 70
    58
 90
        2
176
     1
 90
        2
176
     1
 90
        1
176
     1
 90
        2
176
     1
 40
0.6
176
     1
 40
30.0
176
     1
 62
     7
176
     1
 90
        1
176
     1
 90
        0
176
     1
 62
     7
176
     1
 62
   257
176
     1
 90
        1
176
     1
 90
        1
176
     1
 40
1.0
176
     1
 90
        0
176
     1
 62
   257
176
     1
 40
1.0
176
     1
 90
        1
176
     1
 90
        6
176
     1
 90
        2
176
     1
 62
     7
176
     1
 90
        5
176
     1
 90
        0
176
     1
 90
        0
176
     1
290
     0
176
     1
 90
       13
176
     1
 40
0.0
176
     1
 90
        0
176
     1
290
     0
176
     1
290
     1
176
     1
290
     1
176
     1
290
     0
176
     1
290
     0
176
     1
290
     0
176
     1
290
     0
176
     1
290
     0
176
     1
290
     0
176
     1
 90
       50
176
     1
 40
0.0
176
     1
 40
1.0
176
     1
 90
        0
176
     1
 62
    18
420
        0
176
     1
 90
       50
176
     1
 90
        3
176
     1
 62
     5
420
      255
176
     1
290
     0
176
     1
 90
       50
176
     1
 90
       50
176
     1
 90
       50
176
     1
290
     0
176
     1
 90
       50
176
     1
 62
   256
176
     0
 40
1.0
176
     0
 90
        2
176
     1
  1
strokes_ogs.tif
176
     1
290
     0
176
     1
 40
1.0
176
     1
 40
1.0
176
     1
  0
VISUALSTYLE
  5
5747
102
{ACAD_REACTORS
330
573F
102
}
330
573F
100
AcDbVisualStyle
  2
Hidden
 70
     6
177
     3
291
     0
 70
    58
 90
        1
176
     1
 90
        2
176
     1
 90
        2
176
     1
 90
        0
176
     1
 40
0.6
176
     1
 40
30.0
176
     1
 62
     7
176
     1
 90
        2
176
     1
 90
        2
176
     1
 62
     7
176
     1
 62
   257
176
     1
 90
        2
176
     1
 90
        1
176
     1
 40
40.0
176
     1
 90
        0
176
     1
 62
   257
176
     1
 40
1.0
176
     1
 90
        1
176
     1
 90
        6
176
     1
 90
        2
176
     1
 62
     7
176
     1
 90
        3
176
     1
 90
        0
176
     1
 90
        0
176
     1
290
     0
176
     1
 90
        1
176
     1
 40
0.0
176
     1
 90
        0
176
     1
290
     0
176
     1
290
     1
176
     1
290
     1
176
     1
290
     0
176
     1
290
     0
176
     1
290
     0
176
     1
290
     0
176
     1
290
     0
176
     1
290
     0
176
     1
 90
       50
176
     1
 40
0.0
176
     1
 40
1.0
176
     1
 90
        0
176
     1
 62
    18
420
        0
176
     1
 90
       50
176
     1
 90
        3
176
     1
 62
     5
420
      255
176
     1
290
     0
176
     1
 90
       50
176
     1
 90
       50
176
     1
 90
       50
176
     1
290
     0
176
     1
 90
       50
176
     1
 62
   256
176
     0
 40
1.0
176
     0
 90
        2
176
     1
  1
strokes_ogs.tif
176
     1
290
     0
176
     1
 40
1.0
176
     1
 40
1.0
176
     1
  0
VISUALSTYLE
  5
5755
102
{ACAD_REACTORS
330
573F
102
}
330
573F
100
AcDbVisualStyle
  2
JitterOff
 70
    20
177
     3
291
     1
 70
    58
 90
        2
176
     0
 90
        2
176
     0
 90
        0
176
     0
 90
        0
176
     0
 40
0.6
176
     0
 40
30.0
176
     0
 62
     7
176
     0
 90
        1
176
     0
 90
        4
176
     0
 62
     7
176
     0
 62
   257
176
     0
 90
        1
176
     0
 90
        1
176
     0
 40
1.0
176
     0
 90
       10
176
     2
 62
     7
176
     0
 40
1.0
176
     0
 90
        1
176
     0
 90
        6
176
     0
 90
        2
176
     0
 62
     7
176
     0
 90
        5
176
     0
 90
        0
176
     0
 90
        0
176
     0
290
     0
176
     0
 90
        1
176
     0
 40
0.0
176
     0
 90
        0
176
     0
290
     0
176
     1
290
     1
176
     1
290
     1
176
     1
290
     0
176
     1
290
     0
176
     1
290
     0
176
     1
290
     0
176
     1
290
     0
176
     1
290
     0
176
     1
 90
       50
176
     0
 40
0.0
176
     0
 40
1.0
176
     0
 90
        0
176
     0
 62
    18
420
        0
176
     0
 90
       50
176
     0
 90
        3
176
     0
 62
     5
420
      255
176
     0
290
     0
176
     1
 90
       50
176
     0
 90
       50
176
     0
 90
       50
176
     0
290
     0
176
     1
 90
       50
176
     0
 62
   256
176
     0
 40
1.0
176
     0
 90
        2
176
     0
  1
strokes_ogs.tif
176
     0
290
     0
176
     1
 40
1.0
176
     0
 40
1.0
176
     0
  0
VISUALSTYLE
  5
574D
102
{ACAD_REACTORS
330
573F
102
}
330
573F
100
AcDbVisualStyle
  2
Linepattern
 70
    14
177
     3
291
     1
 70
    58
 90
        2
176
     1
 90
        2
176
     1
 90
        0
176
     1
 90
        0
176
     1
 40
0.6
176
     1
 40
30.0
176
     1
 62
     7
176
     1
 90
        1
176
     1
 90
        4
176
     1
 62
     7
176
     1
 62
   257
176
     1
 90
        7
176
     1
 90
        7
176
     1
 40
1.0
176
     1
 90
        8
176
     1
 62
     7
176
     1
 40
1.0
176
     1
 90
        1
176
     1
 90
        6
176
     1
 90
        2
176
     1
 62
     7
176
     1
 90
        5
176
     1
 90
        0
176
     1
 90
        0
176
     1
290
     0
176
     1
 90
        1
176
     1
 40
0.0
176
     1
 90
        0
176
     1
290
     0
176
     1
290
     1
176
     1
290
     1
176
     1
290
     0
176
     1
290
     0
176
     1
290
     0
176
     1
290
     0
176
     1
290
     0
176
     1
290
     0
176
     1
 90
       50
176
     1
 40
0.0
176
     1
 40
1.0
176
     1
 90
        0
176
     1
 62
    18
420
        0
176
     1
 90
       50
176
     1
 90
        3
176
     1
 62
     5
420
      255
176
     1
290
     0
176
     1
 90
       50
176
     1
 90
       50
176
     1
 90
       50
176
     1
290
     0
176
     1
 90
       50
176
     1
 62
   256
176
     0
 40
1.0
176
     0
 90
        2
176
     1
  1
strokes_ogs.tif
176
     1
290
     0
176
     1
 40
1.0
176
     1
 40
1.0
176
     1
  0
VISUALSTYLE
  5
5756
102
{ACAD_REACTORS
330
573F
102
}
330
573F
100
AcDbVisualStyle
  2
OverhangOff
 70
    21
177
     3
291
     1
 70
    58
 90
        2
176
     0
 90
        2
176
     0
 90
        0
176
     0
 90
        0
176
     0
 40
0.6
176
     0
 40
30.0
176
     0
 62
     7
176
     0
 90
        1
176
     0
 90
        4
176
     0
 62
     7
176
     0
 62
   257
176
     0
 90
        1
176
     0
 90
        1
176
     0
 40
1.0
176
     0
 90
        9
176
     2
 62
     7
176
     0
 40
1.0
176
     0
 90
        1
176
     0
 90
        6
176
     0
 90
        2
176
     0
 62
     7
176
     0
 90
        5
176
     0
 90
        0
176
     0
 90
        0
176
     0
290
     0
176
     0
 90
        1
176
     0
 40
0.0
176
     0
 90
        0
176
     0
290
     0
176
     1
290
     1
176
     1
290
     1
176
     1
290
     0
176
     1
290
     0
176
     1
290
     0
176
     1
290
     0
176
     1
290
     0
176
     1
290
     0
176
     1
 90
       50
176
     0
 40
0.0
176
     0
 40
1.0
176
     0
 90
        0
176
     0
 62
    18
420
        0
176
     0
 90
       50
176
     0
 90
        3
176
     0
 62
     5
420
      255
176
     0
290
     0
176
     1
 90
       50
176
     0
 90
       50
176
     0
 90
       50
176
     0
290
     0
176
     1
 90
       50
176
     0
 62
   256
176
     0
 40
1.0
176
     0
 90
        2
176
     0
  1
strokes_ogs.tif
176
     0
290
     0
176
     1
 40
1.0
176
     0
 40
1.0
176
     0
  0
VISUALSTYLE
  5
5749
102
{ACAD_REACTORS
330
573F
102
}
330
573F
100
AcDbVisualStyle
  2
Realistic
 70
     8
177
     3
291
     0
 70
    58
 90
        2
176
     1
 90
        2
176
     1
 90
        0
176
     1
 90
        2
176
     1
 40
0.6
176
     1
 40
30.0
176
     1
 62
     7
176
     1
 90
        0
176
     1
 90
        0
176
     1
 62
     7
176
     1
 62
   257
176
     1
 90
        1
176
     1
 90
        1
176
     1
 40
1.0
176
     1
 90
        8
176
     1
 62
   257
176
     1
 40
1.0
176
     1
 90
        1
176
     1
 90
        6
176
     1
 90
        2
176
     1
 62
     7
176
     1
 90
        3
176
     1
 90
        0
176
     1
 90
        0
176
     1
290
     0
176
     1
 90
       13
176
     1
 40
0.0
176
     1
 90
        0
176
     1
290
     0
176
     1
290
     1
176
     1
290
     1
176
     1
290
     0
176
     1
290
     0
176
     1
290
     0
176
     1
290
     0
176
     1
290
     0
176
     1
290
     0
176
     1
 90
       50
176
     1
 40
0.0
176
     1
 40
1.0
176
     1
 90
        0
176
     1
 62
    18
420
        0
176
     1
 90
       50
176
     1
 90
        3
176
     1
 62
     5
420
      255
176
     1
290
     0
176
     1
 90
       50
176
     1
 90
       50
176
     1
 90
       50
176
     1
290
     0
176
     1
 90
       50
176
     1
 62
   256
176
     0
 40
1.0
176
     0
 90
        2
176
     1
  1
strokes_ogs.tif
176
     1
290
     0
176
     1
 40
1.0
176
     1
 40
1.0
176
     1
  0
VISUALSTYLE
  5
5754
102
{ACAD_REACTORS
330
573F
102
}
330
573F
100
AcDbVisualStyle
  2
Shaded
 70
    27
177
     3
291
     0
 70
    58
 90
        2
176
     1
 90
        2
176
     1
 90
        1
176
     1
 90
        2
176
     1
 40
0.6
176
     1
 40
30.0
176
     1
 62
     7
176
     1
 90
        0
176
     1
 90
        4
176
     1
 62
     7
176
     1
 62
   257
176
     1
 90
        1
176
     1
 90
        1
176
     1
 40
1.0
176
     1
 90
        8
176
     1
 62
   257
176
     1
 40
1.0
176
     1
 90
        1
176
     1
 90
        6
176
     1
 90
        2
176
     1
 62
     8
176
     1
 90
        3
176
     1
 90
        0
176
     1
 90
        0
176
     1
290
     0
176
     1
 90
        5
176
     1
 40
0.0
176
     1
 90
        0
176
     1
290
     0
176
     1
290
     1
176
     1
290
     1
176
     1
290
     0
176
     1
290
     0
176
     1
290
     0
176
     1
290
     0
176
     1
290
     0
176
     1
290
     0
176
     1
 90
       50
176
     1
 40
0.0
176
     1
 40
1.0
176
     1
 90
        0
176
     1
 62
    18
420
        0
176
     1
 90
       50
176
     1
 90
        3
176
     1
 62
     5
420
      255
176
     1
290
     0
176
     1
 90
       50
176
     1
 90
       50
176
     1
 90
       50
176
     1
290
     0
176
     1
 90
       50
176
     1
 62
   256
176
     0
 40
1.0
176
     0
 90
        2
176
     1
  1
strokes_ogs.tif
176
     1
290
     0
176
     1
 40
1.0
176
     1
 40
1.0
176
     1
  0
VISUALSTYLE
  5
5753
102
{ACAD_REACTORS
330
573F
102
}
330
573F
100
AcDbVisualStyle
  2
Shaded with edges
 70
    26
177
     3
291
     0
 70
    58
 90
        2
176
     1
 90
        2
176
     1
 90
        1
176
     1
 90
        2
176
     1
 40
0.6
176
     1
 40
30.0
176
     1
 62
     7
176
     1
 90
        1
176
     1
 90
        2
176
     1
 62
     7
176
     1
 62
   257
176
     1
 90
        2
176
     1
 90
        1
176
     1
 40
1.0
176
     1
 90
        8
176
     1
 62
   257
176
     1
 40
1.0
176
     1
 90
        1
176
     1
 90
        6
176
     1
 90
        2
176
     1
 62
     7
176
     1
 90
        3
176
     1
 90
        0
176
     1
 90
        0
176
     1
290
     0
176
     1
 90
        5
176
     1
 40
0.0
176
     1
 90
        0
176
     1
290
     0
176
     1
290
     1
176
     1
290
     1
176
     1
290
     0
176
     1
290
     0
176
     1
290
     0
176
     1
290
     0
176
     1
290
     0
176
     1
290
     0
176
     1
 90
       50
176
     1
 40
0.0
176
     1
 40
1.0
176
     1
 90
        0
176
     1
 62
    18
420
        0
176
     1
 90
       50
176
     1
 90
        3
176
     1
 62
     5
420
      255
176
     1
290
     0
176
     1
 90
       50
176
     1
 90
       50
176
     1
 90
       50
176
     1
290
     0
176
     1
 90
       50
176
     1
 62
   256
176
     0
 40
1.0
176
     0
 90
        2
176
     1
  1
strokes_ogs.tif
176
     1
290
     0
176
     1
 40
1.0
176
     1
 40
1.0
176
     1
  0
VISUALSTYLE
  5
5750
102
{ACAD_REACTORS
330
573F
102
}
330
573F
100
AcDbVisualStyle
  2
Shades of Gray
 70
    23
177
     3
291
     0
 70
    58
 90
        2
176
     1
 90
        2
176
     1
 90
        3
176
     1
 90
        0
176
     1
 40
0.6
176
     1
 40
30.0
176
     1
 62
     7
176
     1
 90
        2
176
     1
 90
        2
176
     1
 62
     7
176
     1
 62
     7
176
     1
 90
        1
176
     1
 90
        1
176
     1
 40
40.0
176
     1
 90
        8
176
     1
 62
     7
176
     1
 40
1.0
176
     1
 90
        1
176
     1
 90
        6
176
     1
 90
        2
176
     1
 62
     7
176
     1
 90
        3
176
     1
 90
        0
176
     1
 90
        0
176
     1
290
     0
176
     1
 90
        1
176
     1
 40
0.0
176
     1
 90
        0
176
     1
290
     0
176
     1
290
     1
176
     1
290
     1
176
     1
290
     0
176
     1
290
     0
176
     1
290
     0
176
     1
290
     0
176
     1
290
     0
176
     1
290
     0
176
     1
 90
       50
176
     1
 40
0.0
176
     1
 40
1.0
176
     1
 90
        0
176
     1
 62
    18
420
        0
176
     1
 90
       50
176
     1
 90
        3
176
     1
 62
     5
420
      255
176
     1
290
     0
176
     1
 90
       50
176
     1
 90
       50
176
     1
 90
       50
176
     1
290
     0
176
     1
 90
       50
176
     1
 62
   256
176
     0
 40
1.0
176
     0
 90
        2
176
     1
  1
strokes_ogs.tif
176
     1
290
     0
176
     1
 40
1.0
176
     1
 40
1.0
176
     1
  0
VISUALSTYLE
  5
5751
102
{ACAD_REACTORS
330
573F
102
}
330
573F
100
AcDbVisualStyle
  2
Sketchy
 70
    24
177
     3
291
     0
 70
    58
 90
        1
176
     1
 90
        2
176
     1
 90
        2
176
     1
 90
        0
176
     1
 40
0.6
176
     1
 40
30.0
176
     1
 62
     7
176
     1
 90
        2
176
     1
 90
        2
176
     1
 62
     7
176
     1
 62
     7
176
     1
 90
        1
176
     1
 90
        1
176
     1
 40
40.0
176
     1
 90
       11
176
     1
 62
     7
176
     1
 40
1.0
176
     1
 90
        1
176
     1
 90
        6
176
     1
 90
        2
176
     1
 62
     7
176
     1
 90
        6
176
     1
 90
        0
176
     1
 90
        0
176
     1
290
     0
176
     1
 90
        1
176
     1
 40
0.0
176
     1
 90
        0
176
     1
290
     0
176
     1
290
     1
176
     1
290
     1
176
     1
290
     0
176
     1
290
     0
176
     1
290
     0
176
     1
290
     0
176
     1
290
     0
176
     1
290
     0
176
     1
 90
       50
176
     1
 40
0.0
176
     1
 40
1.0
176
     1
 90
        0
176
     1
 62
    18
420
        0
176
     1
 90
       50
176
     1
 90
        3
176
     1
 62
     5
420
      255
176
     1
290
     0
176
     1
 90
       50
176
     1
 90
       50
176
     1
 90
       50
176
     1
290
     0
176
     1
 90
       50
176
     1
 62
   256
176
     0
 40
1.0
176
     0
 90
        2
176
     1
  1
strokes_ogs.tif
176
     1
290
     0
176
     1
 40
1.0
176
     1
 40
1.0
176
     1
  0
VISUALSTYLE
  5
574C
102
{ACAD_REACTORS
330
573F
102
}
330
573F
100
AcDbVisualStyle
  2
Thicken
 70
    13
177
     3
291
     1
 70
    58
 90
        2
176
     1
 90
        2
176
     1
 90
        0
176
     1
 90
        0
176
     1
 40
0.6
176
     1
 40
30.0
176
     1
 62
     7
176
     1
 90
        1
176
     1
 90
        4
176
     1
 62
     7
176
     1
 62
   257
176
     1
 90
        1
176
     1
 90
        1
176
     1
 40
1.0
176
     1
 90
       12
176
     1
 62
     7
176
     1
 40
1.0
176
     1
 90
        1
176
     1
 90
        6
176
     1
 90
        2
176
     1
 62
     7
176
     1
 90
        5
176
     1
 90
        0
176
     1
 90
        0
176
     1
290
     0
176
     1
 90
        1
176
     1
 40
0.0
176
     1
 90
        0
176
     1
290
     0
176
     1
290
     1
176
     1
290
     1
176
     1
290
     0
176
     1
290
     0
176
     1
290
     0
176
     1
290
     0
176
     1
290
     0
176
     1
290
     0
176
     1
 90
       50
176
     1
 40
0.0
176
     1
 40
1.0
176
     1
 90
        0
176
     1
 62
    18
420
        0
176
     1
 90
       50
176
     1
 90
        3
176
     1
 62
     5
420
      255
176
     1
290
     0
176
     1
 90
       50
176
     1
 90
       50
176
     1
 90
       50
176
     1
290
     0
176
     1
 90
       50
176
     1
 62
   256
176
     0
 40
1.0
176
     0
 90
        2
176
     1
  1
strokes_ogs.tif
176
     1
290
     0
176
     1
 40
1.0
176
     1
 40
1.0
176
     1
  0
VISUALSTYLE
  5
5746
102
{ACAD_REACTORS
330
573F
102
}
330
573F
100
AcDbVisualStyle
  2
Wireframe
 70
     5
177
     3
291
     0
 70
    58
 90
        0
176
     1
 90
        2
176
     1
 90
        0
176
     1
 90
        0
176
     1
 40
0.6
176
     1
 40
30.0
176
     1
 62
     7
176
     1
 90
        1
176
     1
 90
        4
176
     1
 62
     7
176
     1
 62
   257
176
     1
 90
        1
176
     1
 90
        1
176
     1
 40
1.0
176
     1
 90
        0
176
     1
 62
   257
176
     1
 40
1.0
176
     1
 90
        1
176
     1
 90
        6
176
     1
 90
        2
176
     1
 62
     7
176
     1
 90
        3
176
     1
 90
        0
176
     1
 90
        0
176
     1
290
     0
176
     1
 90
        1
176
     1
 40
0.0
176
     1
 90
        0
176
     1
290
     0
176
     1
290
     1
176
     1
290
     1
176
     1
290
     0
176
     1
290
     0
176
     1
290
     0
176
     1
290
     0
176
     1
290
     0
176
     1
290
     0
176
     1
 90
       50
176
     1
 40
0.0
176
     1
 40
1.0
176
     1
 90
        0
176
     1
 62
    18
420
        0
176
     1
 90
       50
176
     1
 90
        3
176
     1
 62
     5
420
      255
176
     1
290
     0
176
     1
 90
       50
176
     1
 90
       50
176
     1
 90
       50
176
     1
290
     0
176
     1
 90
       50
176
     1
 62
   256
176
     0
 40
1.0
176
     0
 90
        2
176
     1
  1
strokes_ogs.tif
176
     1
290
     0
176
     1
 40
1.0
176
     1
 40
1.0
176
     1
  0
VISUALSTYLE
  5
5752
102
{ACAD_REACTORS
330
573F
102
}
330
573F
100
AcDbVisualStyle
  2
X-Ray
 70
    25
177
     3
291
     0
 70
    58
 90
        2
176
     1
 90
        2
176
     1
 90
        1
176
     1
 90
        1
176
     1
 40
0.5
176
     1
 40
30.0
176
     1
 62
     7
176
     1
 90
        1
176
     1
 90
        0
176
     1
 62
     7
176
     1
 62
   257
176
     1
 90
        1
176
     1
 90
        1
176
     1
 40
1.0
176
     1
 90
        8
176
     1
 62
     7
176
     1
 40
1.0
176
     1
 90
        1
176
     1
 90
        6
176
     1
 90
        2
176
     1
 62
     7
176
     1
 90
        3
176
     1
 90
        0
176
     1
 90
        0
176
     1
290
     0
176
     1
 90
       13
176
     1
 40
0.0
176
     1
 90
        0
176
     1
290
     0
176
     1
290
     1
176
     1
290
     1
176
     1
290
     0
176
     1
290
     0
176
     1
290
     0
176
     1
290
     0
176
     1
290
     0
176
     1
290
     0
176
     1
 90
       50
176
     1
 40
0.0
176
     1
 40
1.0
176
     1
 90
        0
176
     1
 62
    18
420
        0
176
     1
 90
       50
176
     1
 90
        3
176
     1
 62
     5
420
      255
176
     1
290
     0
176
     1
 90
       50
176
     1
 90
       50
176
     1
 90
       50
176
     1
290
     0
176
     1
 90
       50
176
     1
 62
   256
176
     0
 40
1.0
176
     0
 90
        2
176
     1
  1
strokes_ogs.tif
176
     1
290
     0
176
     1
 40
1.0
176
     1
 40
1.0
176
     1
  0
DICTIONARYVAR
  5
57D5
102
{ACAD_REACTORS
330
57D0
102
}
330
57D0
100
DictionaryVariables
280
     0
  1
1:1
  0
DICTIONARYVAR
  5
57D2
102
{ACAD_REACTORS
330
57D0
102
}
330
57D0
100
DictionaryVariables
280
     0
  1
STANDARD
  0
DICTIONARYVAR
  5
57D1
102
{ACAD_REACTORS
330
57D0
102
}
330
57D0
100
DictionaryVariables
280
     0
  1
STANDARD
  0
DICTIONARYVAR
  5
57D3
102
{ACAD_REACTORS
330
57D0
102
}
330
57D0
100
DictionaryVariables
280
     0
  1
Imperial24
  0
DICTIONARYVAR
  5
57D4
102
{ACAD_REACTORS
330
57D0
102
}
330
57D0
100
DictionaryVariables
280
     0
  1
Imperial24
  0
DICTIONARYVAR
  5
57D8
102
{ACAD_REACTORS
330
57D0
102
}
330
57D0
100
DictionaryVariables
280
     0
  1
1
  0
DICTIONARYVAR
  5
57D7
102
{ACAD_REACTORS
330
57D0
102
}
330
57D0
100
DictionaryVariables
280
     0
  1
0
  0
DICTIONARYVAR
  5
58C5
102
{ACAD_REACTORS
330
57D0
102
}
330
57D0
100
DictionaryVariables
280
     0
  1
1
  0
DICTIONARYVAR
  5
58C6
102
{ACAD_REACTORS
330
57D0
102
}
330
57D0
100
DictionaryVariables
280
     0
  1
15
  0
DICTIONARYVAR
  5
58C4
102
{ACAD_REACTORS
330
57D0
102
}
330
57D0
100
DictionaryVariables
280
     0
  1
0
  0
DICTIONARYVAR
  5
58C3
102
{ACAD_REACTORS
330
57D0
102
}
330
57D0
100
DictionaryVariables
280
     0
  1
0
  0
DICTIONARYVAR
  5
57D6
102
{ACAD_REACTORS
330
57D0
102
}
330
57D0
100
DictionaryVariables
280
     0
  1
127
  0
DICTIONARY
  5
5730
330
572F
100
AcDbDictionary
280
     1
281
     1
  3
BUMPTILE
360
5732
  3
DIFFUSETILE
360
5731
  3
OPACITYTILE
360
5735
  3
REFLECTIONTILE
360
5734
  3
REFRACTIONTILE
360
5736
  3
SPECULARTILE
360
5733
  0
DICTIONARY
  5
5728
330
5727
100
AcDbDictionary
280
     1
281
     1
  3
BUMPTILE
360
572A
  3
DIFFUSETILE
360
5729
  3
OPACITYTILE
360
572D
  3
REFLECTIONTILE
360
572C
  3
REFRACTIONTILE
360
572E
  3
SPECULARTILE
360
572B
  0
DICTIONARY
  5
5738
330
5737
100
AcDbDictionary
280
     1
281
     1
  3
BUMPTILE
360
573A
  3
DIFFUSETILE
360
5739
  3
OPACITYTILE
360
573D
  3
REFLECTIONTILE
360
573C
  3
REFRACTIONTILE
360
573E
  3
SPECULARTILE
360
573B
  0
DICTIONARY
  5
5774
330
575A
100
AcDbDictionary
280
     1
281
     1
  3
ACAD_ROUNDTRIP_2008_TABLESTYLE_CELLSTYLEMAP
360
58E9
  0
XRECORD
  5
5732
102
{ACAD_REACTORS
330
5730
102
}
330
5730
100
AcDbXrecord
280
     1
270
     1
271
     1
  0
XRECORD
  5
5731
102
{ACAD_REACTORS
330
5730
102
}
330
5730
100
AcDbXrecord
280
     1
270
     1
271
     1
  0
XRECORD
  5
5735
102
{ACAD_REACTORS
330
5730
102
}
330
5730
100
AcDbXrecord
280
     1
270
     1
271
     1
  0
XRECORD
  5
5734
102
{ACAD_REACTORS
330
5730
102
}
330
5730
100
AcDbXrecord
280
     1
270
     1
271
     1
  0
XRECORD
  5
5736
102
{ACAD_REACTORS
330
5730
102
}
330
5730
100
AcDbXrecord
280
     1
270
     1
271
     1
  0
XRECORD
  5
5733
102
{ACAD_REACTORS
330
5730
102
}
330
5730
100
AcDbXrecord
280
     1
270
     1
271
     1
  0
XRECORD
  5
572A
102
{ACAD_REACTORS
330
5728
102
}
330
5728
100
AcDbXrecord
280
     1
270
     1
271
     1
  0
XRECORD
  5
5729
102
{ACAD_REACTORS
330
5728
102
}
330
5728
100
AcDbXrecord
280
     1
270
     1
271
     1
  0
XRECORD
  5
572D
102
{ACAD_REACTORS
330
5728
102
}
330
5728
100
AcDbXrecord
280
     1
270
     1
271
     1
  0
XRECORD
  5
572C
102
{ACAD_REACTORS
330
5728
102
}
330
5728
100
AcDbXrecord
280
     1
270
     1
271
     1
  0
XRECORD
  5
572E
102
{ACAD_REACTORS
330
5728
102
}
330
5728
100
AcDbXrecord
280
     1
270
     1
271
     1
  0
XRECORD
  5
572B
102
{ACAD_REACTORS
330
5728
102
}
330
5728
100
AcDbXrecord
280
     1
270
     1
271
     1
  0
XRECORD
  5
573A
102
{ACAD_REACTORS
330
5738
102
}
330
5738
100
AcDbXrecord
280
     1
270
     1
271
     1
  0
XRECORD
  5
5739
102
{ACAD_REACTORS
330
5738
102
}
330
5738
100
AcDbXrecord
280
     1
270
     1
271
     1
  0
XRECORD
  5
573D
102
{ACAD_REACTORS
330
5738
102
}
330
5738
100
AcDbXrecord
280
     1
270
     1
271
     1
  0
XRECORD
  5
573C
102
{ACAD_REACTORS
330
5738
102
}
330
5738
100
AcDbXrecord
280
     1
270
     1
271
     1
  0
XRECORD
  5
573E
102
{ACAD_REACTORS
330
5738
102
}
330
5738
100
AcDbXrecord
280
     1
270
     1
271
     1
  0
XRECORD
  5
573B
102
{ACAD_REACTORS
330
5738
102
}
330
5738
100
AcDbXrecord
280
     1
270
     1
271
     1
  0
CELLSTYLEMAP
  5
58E9
102
{ACAD_REACTORS
330
5774
102
}
330
5774
100
AcDbCellStyleMap
 90
        3
300
CELLSTYLE
  1
TABLEFORMAT_BEGIN
 90
        5
170
     1
 91
        0
 92
    32768
 62
   257
 93
        1
300
CONTENTFORMAT
  1
CONTENTFORMAT_BEGIN
 90
        0
 91
        0
 92
      512
 93
        0
300

 40
0.0
140
1.0
 94
        5
 62
     0
340
11
144
0.25
309
CONTENTFORMAT_END
171
     0
 94
        0
309
TABLEFORMAT_END
  1
CELLSTYLE_BEGIN
 90
        1
 91
        1
300
_TITLE
309
CELLSTYLE_END
300
CELLSTYLE
  1
TABLEFORMAT_BEGIN
 90
        5
170
     1
 91
        0
 92
        0
 62
   257
 93
        1
300
CONTENTFORMAT
  1
CONTENTFORMAT_BEGIN
 90
        0
 91
        0
 92
      512
 93
        0
300

 40
0.0
140
1.0
 94
        5
 62
     0
340
11
144
0.18
309
CONTENTFORMAT_END
171
     0
 94
        0
309
TABLEFORMAT_END
  1
CELLSTYLE_BEGIN
 90
        2
 91
        1
300
_HEADER
309
CELLSTYLE_END
300
CELLSTYLE
  1
TABLEFORMAT_BEGIN
 90
        5
170
     1
 91
        0
 92
        0
 62
   257
 93
        1
300
CONTENTFORMAT
  1
CONTENTFORMAT_BEGIN
 90
        0
 91
        0
 92
      512
 93
        0
300

 40
0.0
140
1.0
 94
        2
 62
     0
340
11
144
0.18
309
CONTENTFORMAT_END
171
     0
 94
        0
309
TABLEFORMAT_END
  1
CELLSTYLE_BEGIN
 90
        3
 91
        2
300
_DATA
309
CELLSTYLE_END
  0
ENDSEC
  0
SECTION
  2
ACDSDATA
 70
     2
 71
     8
  0
ACDSSCHEMA
 90
        0
  1
AcDb_Thumbnail_Schema
  2
AcDbDs::ID
280
    10
 91
        8
  2
Thumbnail_Data
280
    15
 91
        0
101
ACDSRECORD
 95
        0
 90
        1
  2
AcDbDs::TreatedAsObjectData
280
     1
291
     1
101
ACDSRECORD
 95
        0
 90
        2
  2
AcDbDs::Legacy
280
     1
291
     1
101
ACDSRECORD
  1
AcDbDs::ID
 90
        3
  2
AcDs:Indexable
280
     1
291
     1
101
ACDSRECORD
  1
AcDbDs::ID
 90
        4
  2
AcDbDs::HandleAttribute
280
     7
282
     1
  0
ACDSSCHEMA
 90
        1
  1
AcDbDs::TreatedAsObjectDataSchema
  2
AcDbDs::TreatedAsObjectData
280
     1
 91
        0
  0
ACDSSCHEMA
 90
        2
  1
AcDbDs::LegacySchema
  2
AcDbDs::Legacy
280
     1
 91
        0
  0
ACDSSCHEMA
 90
        3
  1
AcDbDs::IndexedPropertySchema
  2
AcDs:Indexable
280
     1
 91
        0
  0
ACDSSCHEMA
 90
        4
  1
AcDbDs::HandleAttributeSchema
  2
AcDbDs::HandleAttribute
280
     7
 91
        1
284
     1
  0
ACDSRECORD
 90
        0
  2
AcDbDs::ID
280
    10
320
571F
  2
Thumbnail_Data
280
    15
 94
     1139
310
89504E470D0A1A0A0000000D49484452000001000000007108030000000DA58D8400000300504C5445212830FFFFFF2128300000000000000000000000000000000000000000000000000000330000660000990000CC0000FF0033000033330033660033990033CC0033FF0066000066330066660066990066CC0066FF0099
310
000099330099660099990099CC0099FF00CC0000CC3300CC6600CC9900CCCC00CCFF00FF0000FF3300FF6600FF9900FFCC00FFFF3300003300333300663300993300CC3300FF3333003333333333663333993333CC3333FF3366003366333366663366993366CC3366FF3399003399333399663399993399CC3399FF33CC00
310
33CC3333CC6633CC9933CCCC33CCFF33FF0033FF3333FF6633FF9933FFCC33FFFF6600006600336600666600996600CC6600FF6633006633336633666633996633CC6633FF6666006666336666666666996666CC6666FF6699006699336699666699996699CC6699FF66CC0066CC3366CC6666CC9966CCCC66CCFF66FF0066
310
FF3366FF6666FF9966FFCC66FFFF9900009900339900669900999900CC9900FF9933009933339933669933999933CC9933FF9966009966339966669966999966CC9966FF9999009999339999669999999999CC9999FF99CC0099CC3399CC6699CC9999CCCC99CCFF99FF0099FF3399FF6699FF9999FFCC99FFFFCC0000CC00
310
33CC0066CC0099CC00CCCC00FFCC3300CC3333CC3366CC3399CC33CCCC33FFCC6600CC6633CC6666CC6699CC66CCCC66FFCC9900CC9933CC9966CC9999CC99CCCC99FFCCCC00CCCC33CCCC66CCCC99CCCCCCCCCCFFCCFF00CCFF33CCFF66CCFF99CCFFCCCCFFFFFF0000FF0033FF0066FF0099FF00CCFF00FFFF3300FF3333
310
FF3366FF3399FF33CCFF33FFFF6600FF6633FF6666FF6699FF66CCFF66FFFF9900FF9933FF9966FF9999FF99CCFF99FFFFCC00FFCC33FFCC66FFCC99FFCCCCFFCCFFFFFF00FFFF33FFFF66FFFF99FFFFCCFFFFFF0000000D0D0D1A1A1A2828283535354343435050505D5D5D6B6B6B787878868686939393A1A1A1AEAEAEBB
310
BBBBC9C9C9D6D6D6E4E4E4F1F1F1FFFFFF0000000000000000000000000000000000000000000000000000000000002E4550F10000012E4944415478DAEDDBCB0AC2401044D1FEFF6FAD6DF6C6898F202242B0A762DD23C4809B78991E236815000000000000000000003C2D6740805F06D89E64BA40B5BBC6C400AAAE00A6
310
051A037816880F508D012C0B74AE00CB02BD01FC0A283AC07A03A4EA0DE03701DB6D607080EE15A0F4006E05E203547B802280E104B406507A00AB02F101D804A70450F80810C0A7802A3C009BE0AC000A1F019B020448DF03E2034CFC1490D50298B1024480F000F123E0753F1C1A60F208880036EF3F74139C1EC0681B9C
310
B402143F022240FA26A889A3AE3208F0F895527F009547806B82D5388EF39783DE1E0E5F8A2C3E058ECCEF97B9F6AF6C9722BD49F8FF37421A8FE57E5271016AAC88A56E4B2130C0E74B2140E49721021080000420404780F47F8E0200000000000000009CDE050A92EF437C0027E90000000049454E44AE426082
  0
ENDSEC
  0
EOF
