  0
SECTION
  2
HEADER
  9
$ACADVER
  1
AC1014
  9
$ACADMAINTVER
 70
     9
  9
$DWGCODEPAGE
  3
ANSI_1252
  9
$INSBASE
 10
7.592189360236631
 20
7.014910999534858
 30
0.0
  9
$EXTMIN
 10
-8.65212666030554
 20
-5.762604282201117
 30
-0.0015258207003583
  9
$EXTMAX
 10
23.47483409409126
 20
18.90794916725393
 30
0.0000000349246037
  9
$LIMMIN
 10
0.0
 20
0.0
  9
$LIMMAX
 10
17.0
 20
11.0
  9
$ORTHOMODE
 70
     1
  9
$REGENMODE
 70
     1
  9
$FILLMODE
 70
     1
  9
$QTEXTMODE
 70
     0
  9
$MIRRTEXT
 70
     1
  9
$DRAGMODE
 70
     2
  9
$LTSCALE
 40
2.0
  9
$OSMODE
 70
    55
  9
$ATTMODE
 70
     1
  9
$TEXTSIZE
 40
0.2
  9
$TRACEWID
 40
0.05
  9
$TEXTSTYLE
  7
STANDARD
  9
$CLAYER
  8
0
  9
$CELTYPE
  6
BYLAYER
  9
$CECOLOR
 62
   256
  9
$CELTSCALE
 40
1.0
  9
$DELOBJ
 70
     1
  9
$DISPSILH
 70
     0
  9
$DIMSCALE
 40
16.0
  9
$DIMASZ
 40
0.1875
  9
$DIMEXO
 40
0.0625
  9
$DIMDLI
 40
0.38
  9
$DIMRND
 40
0.0
  9
$DIMDLE
 40
0.0
  9
$DIMEXE
 40
0.18
  9
$DIMTP
 40
0.0
  9
$DIMTM
 40
0.0
  9
$DIMTXT
 40
0.125
  9
$DIMCEN
 40
0.09
  9
$DIMTSZ
 40
0.0
  9
$DIMTOL
 70
     0
  9
$DIMLIM
 70
     0
  9
$DIMTIH
 70
     1
  9
$DIMTOH
 70
     1
  9
$DIMSE1
 70
     0
  9
$DIMSE2
 70
     0
  9
$DIMTAD
 70
     0
  9
$DIMZIN
 70
     4
  9
$DIMBLK
  1
_FILLED
  9
$DIMASO
 70
     1
  9
$DIMSHO
 70
     1
  9
$DIMPOST
  1

  9
$DIMAPOST
  1
cm
  9
$DIMALT
 70
     1
  9
$DIMALTD
 70
     2
  9
$DIMALTF
 40
2.54
  9
$DIMLFAC
 40
1.0
  9
$DIMTOFL
 70
     0
  9
$DIMTVP
 40
0.0
  9
$DIMTIX
 70
     0
  9
$DIMSOXD
 70
     0
  9
$DIMSAH
 70
     0
  9
$DIMBLK1
  1

  9
$DIMBLK2
  1

  9
$DIMSTYLE
  2
STANDARD
  9
$DIMCLRD
 70
     0
  9
$DIMCLRE
 70
     0
  9
$DIMCLRT
 70
     0
  9
$DIMTFAC
 40
1.0
  9
$DIMGAP
 40
0.09
  9
$DIMJUST
 70
     0
  9
$DIMSD1
 70
     0
  9
$DIMSD2
 70
     0
  9
$DIMTOLJ
 70
     1
  9
$DIMTZIN
 70
     4
  9
$DIMALTZ
 70
     0
  9
$DIMALTTZ
 70
     0
  9
$DIMFIT
 70
     3
  9
$DIMUPT
 70
     0
  9
$DIMUNIT
 70
     5
  9
$DIMDEC
 70
     3
  9
$DIMTDEC
 70
     3
  9
$DIMALTU
 70
     2
  9
$DIMALTTD
 70
     2
  9
$DIMTXSTY
  7
STANDARD
  9
$DIMAUNIT
 70
     0
  9
$LUNITS
 70
     2
  9
$LUPREC
 70
     4
  9
$SKETCHINC
 40
0.1
  9
$FILLETRAD
 40
0.0
  9
$AUNITS
 70
     0
  9
$AUPREC
 70
     0
  9
$MENU
  1
acad
  9
$ELEVATION
 40
0.0
  9
$PELEVATION
 40
0.0
  9
$THICKNESS
 40
0.0
  9
$LIMCHECK
 70
     0
  9
$BLIPMODE
 70
     0
  9
$CHAMFERA
 40
0.0
  9
$CHAMFERB
 40
0.0
  9
$CHAMFERC
 40
0.0
  9
$CHAMFERD
 40
0.0
  9
$SKPOLY
 70
     0
  9
$TDCREATE
 40
2453676.879297951
  9
$TDUPDATE
 40
2453686.628764201
  9
$TDINDWG
 40
0.0696676620
  9
$TDUSRTIMER
 40
0.0696676620
  9
$USRTIMER
 70
     1
  9
$ANGBASE
 50
0.0
  9
$ANGDIR
 70
     0
  9
$PDMODE
 70
     3
  9
$PDSIZE
 40
0.3125
  9
$PLINEWID
 40
0.0
  9
$COORDS
 70
     1
  9
$SPLFRAME
 70
     0
  9
$SPLINETYPE
 70
     6
  9
$SPLINESEGS
 70
     8
  9
$ATTDIA
 70
     0
  9
$ATTREQ
 70
     1
  9
$HANDLING
 70
 22529
  9
$HANDSEED
  5
184
  9
$SURFTAB1
 70
     6
  9
$SURFTAB2
 70
     6
  9
$SURFTYPE
 70
     6
  9
$SURFU
 70
     6
  9
$SURFV
 70
     6
  9
$UCSNAME
  2

  9
$UCSORG
 10
0.0
 20
0.0
 30
0.0
  9
$UCSXDIR
 10
1.0
 20
0.0
 30
0.0
  9
$UCSYDIR
 10
0.0
 20
1.0
 30
0.0
  9
$PUCSNAME
  2

  9
$PUCSORG
 10
0.0
 20
0.0
 30
0.0
  9
$PUCSXDIR
 10
1.0
 20
0.0
 30
0.0
  9
$PUCSYDIR
 10
0.0
 20
1.0
 30
0.0
  9
$USERI1
 70
     0
  9
$USERI2
 70
     0
  9
$USERI3
 70
     0
  9
$USERI4
 70
     0
  9
$USERI5
 70
     0
  9
$USERR1
 40
0.0
  9
$USERR2
 40
0.0
  9
$USERR3
 40
0.0
  9
$USERR4
 40
0.0
  9
$USERR5
 40
0.0
  9
$WORLDVIEW
 70
     1
  9
$SHADEDGE
 70
     3
  9
$SHADEDIF
 70
    70
  9
$TILEMODE
 70
     1
  9
$MAXACTVP
 70
    16
  9
$PINSBASE
 10
0.0
 20
0.0
 30
0.0
  9
$PLIMCHECK
 70
     0
  9
$PEXTMIN
 10
1.000000000000000E+20
 20
1.000000000000000E+20
 30
1.000000000000000E+20
  9
$PEXTMAX
 10
-1.000000000000000E+20
 20
-1.000000000000000E+20
 30
-1.000000000000000E+20
  9
$PLIMMIN
 10
0.0
 20
0.0
  9
$PLIMMAX
 10
12.0
 20
9.0
  9
$UNITMODE
 70
     0
  9
$VISRETAIN
 70
     0
  9
$PLINEGEN
 70
     1
  9
$PSLTSCALE
 70
     0
  9
$TREEDEPTH
 70
  3020
  9
$PICKSTYLE
 70
     1
  9
$CMLSTYLE
  2
STANDARD
  9
$CMLJUST
 70
     0
  9
$CMLSCALE
 40
1.0
  9
$PROXYGRAPHICS
 70
     0
  9
$MEASUREMENT
 70
     0
  0
ENDSEC
  0
SECTION
  2
CLASSES
  0
CLASS
  1
ACDBDICTIONARYWDFLT
  2
AcDbDictionaryWithDefault
  3
AutoCAD 2000
 90
        0
280
     0
281
     0
  0
CLASS
  1
ACDBPLACEHOLDER
  2
AcDbPlaceHolder
  3
AutoCAD 2000
 90
        0
280
     0
281
     0
  0
CLASS
  1
LAYOUT
  2
AcDbLayout
  3
AutoCAD 2000
 90
        0
280
     0
281
     0
  0
CLASS
  1
LWPOLYLINE
  2
AcDbPolyline
  3
AutoCAD 2000
 90
        0
280
     0
281
     1
  0
CLASS
  1
IMAGE
  2
AcDbRasterImage
  3
ISM
 90
      127
280
     0
281
     1
  0
CLASS
  1
OLE2FRAME
  2
AcDbOle2Frame
  3
AutoCAD 2000
 90
        0
280
     0
281
     1
  0
CLASS
  1
HATCH
  2
AcDbHatch
  3
AutoCAD 2000
 90
        0
280
     0
281
     1
  0
CLASS
  1
DICTIONARYVAR
  2
AcDbDictionaryVar
  3
AutoCAD 2000
 90
        0
280
     0
281
     0
  0
CLASS
  1
RASTERVARIABLES
  2
AcDbRasterVariables
  3
ISM
 90
        0
280
     0
281
     0
  0
CLASS
  1
IMAGEDEF
  2
AcDbRasterImageDef
  3
ISM
 90
        0
280
     0
281
     0
  0
CLASS
  1
IMAGEDEF_REACTOR
  2
AcDbRasterImageDefReactor
  3
ISM
 90
        1
280
     0
281
     0
  0
CLASS
  1
IDBUFFER
  2
AcDbIdBuffer
  3
AutoCAD 2000
 90
        0
280
     0
281
     0
  0
CLASS
  1
SPATIAL_FILTER
  2
AcDbSpatialFilter
  3
AutoCAD 2000
 90
        0
280
     0
281
     0
  0
CLASS
  1
XRECORD
  2
AcDbXrecord
  3
AutoCAD 2000
 90
        0
280
     0
281
     0
  0
CLASS
  1
SORTENTSTABLE
  2
AcDbSortentsTable
  3
AutoCAD 2000
 90
        0
280
     0
281
     0
  0
CLASS
  1
LAYER_INDEX
  2
AcDbLayerIndex
  3
AutoCAD 2000
 90
        0
280
     0
281
     0
  0
CLASS
  1
SPATIAL_INDEX
  2
AcDbSpatialIndex
  3
AutoCAD 2000
 90
        0
280
     0
281
     0
  0
CLASS
  1
OBJECT_PTR
  2
CAseDLPNTableRecord
  3
ASE-LPNTableRecord
 90
        1
280
     0
281
     0
  0
CLASS
  1
PLOTSETTINGS
  2
AcDbPlotSettings
  3
AutoCAD 2000
 90
        0
280
     0
281
     0
  0
CLASS
  1
VBA_PROJECT
  2
AcDbVbaProject
  3
acadvba
 90
        0
280
     0
281
     0
  0
CLASS
  1
WIPEOUT
  2
AcDbWipeout
  3
"WipeOut|Product Desc: Object Enabler for WipeOut entity^I^I^I^I^I^I|Company: Autodesk, Inc.^I^I^I^I^I^I|WEB Address: www.autodesk.com"
 90
      127
280
     0
281
     1
  0
CLASS
  1
WIPEOUTVARIABLES
  2
AcDbWipeoutVariables
  3
"WipeOut|Product Desc:     WipeOut Dbx Application|Company:          Autodesk, Inc.|WEB Address:      www.autodesk.com"
 90
        0
280
     0
281
     0
  0
CLASS
  1
RTEXT
  2
RText
  3
RText|AutoCAD Express Tool|expresstools@autodesk.com
 90
        0
280
     1
281
     1
  0
CLASS
  1
ARCALIGNEDTEXT
  2
AcDbArcAlignedText
  3
ATEXT|AutoCAD Express Tool|expresstools@autodesk.com
 90
        0
280
     1
281
     1
  0
CLASS
  1
TABLESTYLE
  2
AcDbTableStyle
  3
ObjectDBX Classes
 90
     2047
280
     0
281
     0
  0
CLASS
  1
ACAD_PROXY_OBJECT_WRAPPER
  2
AcDbProxyObjectWrapper
  3
AutoCAD 2000
 90
        0
280
     0
281
     0
  0
CLASS
  1
LONG_TRANSACTION
  2
AcDbLongTransaction
  3
AutoCAD 2000
 90
        0
280
     0
281
     0
  0
CLASS
  1
LWPOLYLINE
  2
AcDbPolyline
  3
AutoCAD 2000
 90
        0
280
     0
281
     1
  0
CLASS
  1
HATCH
  2
AcDbHatch
  3
AutoCAD 2000
 90
        0
280
     0
281
     1
  0
CLASS
  1
XRECORD
  2
AcDbXrecord
  3
AutoCAD 2000
 90
        0
280
     0
281
     0
  0
CLASS
  1
LONG_TRANSACTION
  2
AcDbLongTransaction
  3
AutoCAD 2000
 90
        0
280
     0
281
     0
  0
CLASS
  1
LWPOLYLINE
  2
AcDbPolyline
  3
AutoCAD 2000
 90
        0
280
     0
281
     1
  0
CLASS
  1
HATCH
  2
AcDbHatch
  3
AutoCAD 2000
 90
        0
280
     0
281
     1
  0
CLASS
  1
XRECORD
  2
AcDbXrecord
  3
AutoCAD 2000
 90
        0
280
     0
281
     0
  0
ENDSEC
  0
SECTION
  2
TABLES
  0
TABLE
  2
VPORT
  5
18
330
0
100
AcDbSymbolTable
 70
     2
  0
VPORT
  5
160
330
18
100
AcDbSymbolTableRecord
100
AcDbViewportTableRecord
  2
*ACTIVE
 70
     0
 10
0.0
 20
0.0
 11
1.0
 21
1.0
 12
7.41135361268541
 22
6.572672396817985
 13
0.0
 23
0.0
 14
1.0
 24
1.0
 15
0.0
 25
0.0
 16
0.0
 26
0.0
 36
1.0
 17
0.0
 27
0.0
 37
0.0
 40
32.68360495312572
 41
1.786792452830188
 42
50.0
 43
0.0
 44
0.0
 50
0.0
 51
0.0
 71
     0
 72
   100
 73
     1
 74
     1
 75
     0
 76
     0
 77
     0
 78
     0
  0
ENDTAB
  0
TABLE
  2
LTYPE
  5
13
330
0
100
AcDbSymbolTable
 70
     3
  0
LTYPE
  5
14
330
13
100
AcDbSymbolTableRecord
100
AcDbLinetypeTableRecord
  2
BYBLOCK
 70
     0
  3

 72
    65
 73
     0
 40
0.0
  0
LTYPE
  5
15
330
13
100
AcDbSymbolTableRecord
100
AcDbLinetypeTableRecord
  2
BYLAYER
 70
     0
  3

 72
    65
 73
     0
 40
0.0
  0
LTYPE
  5
6
330
13
100
AcDbSymbolTableRecord
100
AcDbLinetypeTableRecord
  2
CONTINUOUS
 70
     0
  3
Solid line
 72
    65
 73
     0
 40
0.0
  0
LTYPE
  5
4B
330
13
100
AcDbSymbolTableRecord
100
AcDbLinetypeTableRecord
  2
CENTER
 70
     0
  3
____ _ ____ _ ____ _ ____ _ ____ _ ____ _ ____
 72
    65
 73
     4
 40
0.6
 49
0.375
 74
     0
 49
-0.075
 74
     0
 49
0.075
 74
     0
 49
-0.075
 74
     0
  0
LTYPE
  5
33
330
13
100
AcDbSymbolTableRecord
100
AcDbLinetypeTableRecord
  2
HIDDEN
 70
     0
  3
- - - - - - - - - - - - - - - - - - - -
 72
    65
 73
     2
 40
0.2
 49
0.1
 74
     0
 49
-0.1
 74
     0
  0
ENDTAB
  0
TABLE
  2
LAYER
  5
F
330
0
100
AcDbSymbolTable
 70
     3
  0
LAYER
  5
4
330
F
100
AcDbSymbolTableRecord
100
AcDbLayerTableRecord
  2
0
 70
     0
 62
     7
  6
CONTINUOUS
  0
LAYER
  5
4A
330
F
100
AcDbSymbolTableRecord
100
AcDbLayerTableRecord
  2
CENTER
 70
     0
 62
     1
  6
CENTER
  0
LAYER
  5
136
330
F
100
AcDbSymbolTableRecord
100
AcDbLayerTableRecord
  2
DEFPOINTS
 70
     0
 62
     7
  6
CONTINUOUS
  0
ENDTAB
  0
TABLE
  2
STYLE
  5
10
330
0
100
AcDbSymbolTable
 70
     2
  0
STYLE
  5
11
330
10
100
AcDbSymbolTableRecord
100
AcDbTextStyleTableRecord
  2
STANDARD
 70
     0
 40
0.0
 41
0.8
 50
0.0
 71
     0
 42
0.2
  3
txt
  4

  0
STYLE
  5
23
330
10
100
AcDbSymbolTableRecord
100
AcDbTextStyleTableRecord
  2
ROMANS
 70
     0
 40
0.0
 41
1.0
 50
0.0
 71
     0
 42
1.0
  3
romans.shx
  4

  0
ENDTAB
  0
TABLE
  2
VIEW
  5
16
330
0
100
AcDbSymbolTable
 70
     0
  0
ENDTAB
  0
TABLE
  2
UCS
  5
17
330
0
100
AcDbSymbolTable
 70
     0
  0
ENDTAB
  0
TABLE
  2
APPID
  5
1A
330
0
100
AcDbSymbolTable
 70
     3
  0
APPID
  5
1B
330
1A
100
AcDbSymbolTableRecord
100
AcDbRegAppTableRecord
  2
ACAD
 70
     0
  0
APPID
  5
78
330
1A
100
AcDbSymbolTableRecord
100
AcDbRegAppTableRecord
  2
DCO15
 70
     0
  0
APPID
  5
81
330
1A
100
AcDbSymbolTableRecord
100
AcDbRegAppTableRecord
  2
ACAD_DSTYLE_DIMTEXT_FILL
 70
     0
  0
ENDTAB
  0
TABLE
  2
DIMSTYLE
  5
1C
330
0
100
AcDbSymbolTable
 70
     1
  0
DIMSTYLE
105
1D
330
1C
100
AcDbSymbolTableRecord
100
AcDbDimStyleTableRecord
  2
STANDARD
 70
     0
  3

  4
cm
  5
_FILLED
  6

  7

 40
1.0
 41
0.1875
 42
0.0625
 43
0.38
 44
0.18
 45
0.0
 46
0.0
 47
0.0
 48
0.0
140
0.125
141
0.09
142
0.0
143
2.54
144
16.0
145
0.0
146
1.0
147
0.09
 71
     0
 72
     0
 73
     1
 74
     1
 75
     0
 76
     0
 77
     0
 78
     4
170
     1
171
     2
172
     0
173
     0
174
     0
175
     0
176
     0
177
     0
178
     0
270
     5
271
     3
272
     3
273
     2
274
     2
340
11
275
     0
280
     0
281
     0
282
     0
283
     1
284
     4
285
     0
286
     0
287
     3
288
     0
  0
ENDTAB
  0
TABLE
  2
BLOCK_RECORD
  5
1
330
0
100
AcDbSymbolTable
 70
     4
  0
BLOCK_RECORD
  5
2
102
{ACAD_XDICTIONARY
360
11A
102
}
330
1
100
AcDbSymbolTableRecord
100
AcDbBlockTableRecord
  2
*MODEL_SPACE
  0
BLOCK_RECORD
  5
B
102
{ACAD_XDICTIONARY
360
120
102
}
330
1
100
AcDbSymbolTableRecord
100
AcDbBlockTableRecord
  2
*PAPER_SPACE
  0
BLOCK_RECORD
  5
1E
330
1
100
AcDbSymbolTableRecord
100
AcDbBlockTableRecord
  2
_FILLED
  0
BLOCK_RECORD
  5
137
330
1
100
AcDbSymbolTableRecord
100
AcDbBlockTableRecord
  2
*D1
  0
BLOCK_RECORD
  5
145
330
1
100
AcDbSymbolTableRecord
100
AcDbBlockTableRecord
  2
*D2
  0
BLOCK_RECORD
  5
153
330
1
100
AcDbSymbolTableRecord
100
AcDbBlockTableRecord
  2
*D3
  0
ENDTAB
  0
ENDSEC
  0
SECTION
  2
BLOCKS
  0
BLOCK
  5
3
330
2
100
AcDbEntity
  8
0
100
AcDbBlockBegin
  2
*MODEL_SPACE
 70
     0
 10
0.0
 20
0.0
 30
0.0
  3
*MODEL_SPACE
  1

  0
ENDBLK
  5
7
330
2
100
AcDbEntity
  8
0
100
AcDbBlockEnd
  0
BLOCK
  5
C
330
B
100
AcDbEntity
 67
     1
  8
0
100
AcDbBlockBegin
  2
*PAPER_SPACE
 70
     0
 10
0.0
 20
0.0
 30
0.0
  3
*PAPER_SPACE
  1

  0
ENDBLK
  5
D
330
B
100
AcDbEntity
 67
     1
  8
0
100
AcDbBlockEnd
  0
BLOCK
  5
1F
330
1E
100
AcDbEntity
  8
0
100
AcDbBlockBegin
  2
_FILLED
 70
     0
 10
0.0
 20
0.0
 30
0.0
  3
_FILLED
  1

  0
SOLID
  5
20
330
1E
100
AcDbEntity
  8
0
  6
BYBLOCK
 62
     0
100
AcDbTrace
 10
0.0
 20
0.0
 30
0.0
 11
-1.0
 21
0.1666666667
 31
0.0
 12
-1.0
 22
-0.1666666667
 32
0.0
 13
-1.0
 23
-0.1666666667
 33
0.0
  0
ENDBLK
  5
21
330
1E
100
AcDbEntity
  8
0
  6
BYBLOCK
 62
     0
100
AcDbBlockEnd
  0
BLOCK
  5
142
330
137
100
AcDbEntity
  8
0
100
AcDbBlockBegin
  2
*D1
 70
     1
 10
0.0
 20
0.0
 30
0.0
  3
*D1
  1

  0
LINE
  5
138
330
137
100
AcDbEntity
  8
0
 62
     0
100
AcDbLine
 10
-8.651146357903986
 20
15.62630793823995
 30
0.0
 11
-8.651146357903986
 21
25.84030822760176
 31
0.0
  0
LINE
  5
139
330
137
100
AcDbEntity
  8
0
 62
     0
100
AcDbLine
 10
23.47385364209601
 20
15.62630793823995
 30
0.0
 11
23.47385364209601
 21
25.84030822760176
 31
0.0
  0
LINE
  5
13A
330
137
100
AcDbEntity
  8
0
 62
     0
100
AcDbLine
 10
-8.463646357903986
 20
25.66030822760176
 30
0.0
 11
6.742186975429347
 21
25.66030822760176
 31
0.0
  0
LINE
  5
13B
330
137
100
AcDbEntity
  8
0
 62
     0
100
AcDbLine
 10
23.28635364209601
 20
25.66030822760176
 30
0.0
 11
8.080520308762681
 21
25.66030822760176
 31
0.0
  0
INSERT
  5
13C
330
137
100
AcDbEntity
  8
0
 62
     0
100
AcDbBlockReference
  2
_FILLED
 10
-8.651146357903986
 20
25.66030822760176
 30
0.0
 41
0.1875
 42
0.1875
 43
0.1875
 50
180.0
  0
INSERT
  5
13D
330
137
100
AcDbEntity
  8
0
 62
     0
100
AcDbBlockReference
  2
_FILLED
 10
23.47385364209601
 20
25.66030822760176
 30
0.0
 41
0.1875
 42
0.1875
 43
0.1875
  0
MTEXT
  5
13E
330
137
100
AcDbEntity
  8
0
 62
     0
100
AcDbMText
 10
7.411353642096013
 20
25.66030822760176
 30
0.0
 40
0.125
 41
0.0
 71
     5
 72
     1
  1
\A1;32{\H1.000000x;\S1/8;} [81.60cm]
1001
ACAD
1000
MTEXTBEGIN
1070
    73
1070
     1
1070
    44
1040
1.0
1070
    74
1070
     1
1000
MTEXTEND
  0
POINT
  5
13F
330
137
100
AcDbEntity
  8
DEFPOINTS
 62
     0
100
AcDbPoint
 10
-8.651146357903986
 20
15.56380793823995
 30
0.0
  0
POINT
  5
140
330
137
100
AcDbEntity
  8
DEFPOINTS
 62
     0
100
AcDbPoint
 10
23.47385364209601
 20
15.56380793823995
 30
0.0
  0
POINT
  5
141
330
137
100
AcDbEntity
  8
DEFPOINTS
 62
     0
100
AcDbPoint
 10
23.47385364209601
 20
25.66030822760176
 30
0.0
  0
ENDBLK
  5
143
330
137
100
AcDbEntity
  8
0
100
AcDbBlockEnd
  0
BLOCK
  5
150
330
145
100
AcDbEntity
  8
0
100
AcDbBlockBegin
  2
*D2
 70
     1
 10
0.0
 20
0.0
 30
0.0
  3
*D2
  1

  0
LINE
  5
146
330
145
100
AcDbEntity
  8
0
 62
     0
100
AcDbLine
 10
7.903019827812059
 20
24.78265444389439
 30
0.0
 11
6.562186975429347
 21
24.78265444389439
 31
0.0
  0
LINE
  5
147
330
145
100
AcDbEntity
  8
0
 62
     0
100
AcDbLine
 10
7.903019827812059
 20
26.2722054161026
 30
0.0
 11
6.562186975429348
 21
26.2722054161026
 31
0.0
  0
LINE
  5
148
330
145
100
AcDbEntity
  8
0
 62
     0
100
AcDbLine
 10
6.742186975429347
 20
24.97015444389439
 30
0.0
 11
6.742186975429347
 21
25.3124299299985
 31
0.0
  0
LINE
  5
149
330
145
100
AcDbEntity
  8
0
 62
     0
100
AcDbLine
 10
6.742186975429348
 20
26.0847054161026
 30
0.0
 11
6.742186975429347
 21
25.74242992999849
 31
0.0
  0
INSERT
  5
14A
330
145
100
AcDbEntity
  8
0
 62
     0
100
AcDbBlockReference
  2
_FILLED
 10
6.742186975429347
 20
24.78265444389439
 30
0.0
 41
0.1875
 42
0.1875
 43
0.1875
 50
270.0
  0
INSERT
  5
14B
330
145
100
AcDbEntity
  8
0
 62
     0
100
AcDbBlockReference
  2
_FILLED
 10
6.742186975429348
 20
26.2722054161026
 30
0.0
 41
0.1875
 42
0.1875
 43
0.1875
 50
90.0
  0
MTEXT
  5
14C
330
145
100
AcDbEntity
  8
0
 62
     0
100
AcDbMText
 10
6.742186975429343
 20
25.52742992999849
 30
0.0
 40
0.125
 41
0.0
 71
     5
 72
     1
  1
\A1;1{\H1.000000x;\S1/2;} [3.78cm]
1001
ACAD
1000
MTEXTBEGIN
1070
    73
1070
     1
1070
    44
1040
1.0
1070
    74
1070
     1
1000
MTEXTEND
  0
POINT
  5
14D
330
145
100
AcDbEntity
  8
DEFPOINTS
 62
     0
100
AcDbPoint
 10
7.965519827812059
 20
24.78265444389439
 30
0.0
  0
POINT
  5
14E
330
145
100
AcDbEntity
  8
DEFPOINTS
 62
     0
100
AcDbPoint
 10
7.965519827812059
 20
26.2722054161026
 30
0.0
  0
POINT
  5
14F
330
145
100
AcDbEntity
  8
DEFPOINTS
 62
     0
100
AcDbPoint
 10
6.742186975429348
 20
26.2722054161026
 30
0.0
  0
ENDBLK
  5
151
330
145
100
AcDbEntity
  8
0
100
AcDbBlockEnd
  0
BLOCK
  5
15E
330
153
100
AcDbEntity
  8
0
100
AcDbBlockBegin
  2
*D3
 70
     1
 10
0.0
 20
0.0
 30
0.0
  3
*D3
  1

  0
LINE
  5
154
330
153
100
AcDbEntity
  8
0
 62
     0
100
AcDbLine
 10
-9.194996105103985
 20
18.81380793823998
 30
0.0
 11
-17.67588231342917
 21
18.81380793823998
 31
0.0
  0
LINE
  5
155
330
153
100
AcDbEntity
  8
0
 62
     0
100
AcDbLine
 10
0.5058259476959926
 20
-2.186192061760042
 30
0.0
 11
-17.67588231342917
 21
-2.186192061760036
 31
0.0
  0
LINE
  5
156
330
153
100
AcDbEntity
  8
0
 62
     0
100
AcDbLine
 10
-14.79588231342917
 20
15.81380793823998
 30
0.0
 11
-14.79588231342917
 21
10.75380793823997
 31
0.0
  0
LINE
  5
157
330
153
100
AcDbEntity
  8
0
 62
     0
100
AcDbLine
 10
-14.79588231342917
 20
0.813807938239962
 30
0.0
 11
-14.79588231342917
 21
5.873807938239973
 31
0.0
  0
INSERT
  5
158
330
153
100
AcDbEntity
  8
0
 62
     0
100
AcDbBlockReference
  2
_FILLED
 10
-14.79588231342917
 20
18.81380793823998
 30
0.0
 41
3.0
 42
3.0
 43
3.0
 50
90.0
  0
INSERT
  5
159
330
153
100
AcDbEntity
  8
0
 62
     0
100
AcDbBlockReference
  2
_FILLED
 10
-14.79588231342917
 20
-2.186192061760038
 30
0.0
 41
3.0
 42
3.0
 43
3.0
 50
270.0
  0
MTEXT
  5
15A
330
153
100
AcDbEntity
  8
0
 62
     0
100
AcDbMText
 10
-14.79588231342917
 20
8.313807938239971
 30
0.0
 40
2.0
 41
0.0
 71
     5
 72
     1
  1
\A1;21 [53.34cm]
1001
ACAD
1000
MTEXTBEGIN
1070
    73
1070
     1
1070
    44
1040
1.0
1070
    74
1070
     0
1000
MTEXTEND
  0
POINT
  5
15B
330
153
100
AcDbEntity
  8
DEFPOINTS
 62
     0
100
AcDbPoint
 10
-8.194996105103985
 20
18.81380793823998
 30
0.0
  0
POINT
  5
15C
330
153
100
AcDbEntity
  8
DEFPOINTS
 62
     0
100
AcDbPoint
 10
1.505825947695992
 20
-2.186192061760042
 30
0.0
  0
POINT
  5
15D
330
153
100
AcDbEntity
  8
DEFPOINTS
 62
     0
100
AcDbPoint
 10
-14.79588231342917
 20
-2.186192061760038
 30
0.0
  0
ENDBLK
  5
15F
330
153
100
AcDbEntity
  8
0
100
AcDbBlockEnd
  0
ENDSEC
  0
SECTION
  2
ENTITIES
  0
LINE
  5
2F
330
2
100
AcDbEntity
  8
0
100
AcDbLine
 10
16.50659380049599
 20
-2.181193101760076
 30
0.0
 11
14.50659380049598
 21
-2.181193101760076
 31
0.0
  0
LINE
  5
30
330
2
100
AcDbEntity
  8
0
100
AcDbLine
 10
0.5058259476959926
 20
-2.186192061760042
 30
0.0
 11
2.505825947695992
 21
-2.186192061760042
 31
0.0
  0
LINE
  5
31
330
2
100
AcDbEntity
  8
0
100
AcDbLine
 10
6.411353642096013
 20
-2.162176113107822
 30
0.0
 11
8.411353642096013
 21
-2.162176113107822
 31
0.0
  0
LINE
  5
32
330
2
100
AcDbEntity
  8
0
  6
HIDDEN
100
AcDbLine
 10
-4.643032109717257
 20
15.37808676527231
 30
0.0
 11
-2.844042210517262
 21
15.59897495087232
 31
0.0
  0
LINE
  5
34
330
2
100
AcDbEntity
  8
0
  6
HIDDEN
100
AcDbLine
 10
-4.764901453717261
 20
16.3706329172723
 30
0.0
 11
-2.965911552917265
 21
16.59152110287231
 31
0.0
  0
LINE
  5
35
330
2
100
AcDbEntity
  8
0
  6
HIDDEN
100
AcDbLine
 10
17.66815350110955
 20
15.61040965075357
 30
0.0
 11
19.46714340030957
 21
15.38952146675359
 31
0.0
  0
LINE
  5
36
330
2
100
AcDbEntity
  8
0
  6
HIDDEN
100
AcDbLine
 10
17.79002284510955
 20
16.60295580275359
 30
0.0
 11
19.58901274430958
 21
16.38206761875357
 31
0.0
  0
LINE
  5
37
330
2
100
AcDbEntity
  8
0
100
AcDbLine
 10
-5.000378485717266
 20
18.37458565967235
 30
0.0
 11
-4.655132092117259
 21
15.55868830767229
 31
0.0
  0
LINE
  5
38
330
2
100
AcDbEntity
  8
0
100
AcDbLine
 10
0.1892321044959964
 20
-1.909604615360027
 30
0.0
 11
0.0861975556959998
 21
-1.194838141760047
 31
0.0
  0
LINE
  5
39
330
2
100
AcDbEntity
  8
0
  6
HIDDEN
100
AcDbLine
 10
-2.610679084117254
 20
16.26260638287231
 30
0.0
 11
-2.578933335317248
 21
16.00405801007229
 31
0.0
  0
LINE
  5
3A
330
2
100
AcDbEntity
  8
0
100
AcDbLine
 10
6.165646117296002
 20
-1.947802988307817
 30
0.0
 11
6.101598843695992
 21
-1.700283184960031
 31
0.0
  0
LINE
  5
3B
330
2
100
AcDbEntity
  8
0
100
AcDbLine
 10
14.21566048849599
 20
-1.926291232960071
 30
0.0
 11
14.16171021009598
 21
-1.191193101760067
 31
0.0
  0
LINE
  5
3C
330
2
100
AcDbEntity
  8
0
100
AcDbLine
 10
2.809003797295982
 20
-1.909604615360056
 30
0.0
 11
2.865341682095984
 21
-1.200283184960031
 31
0.0
  0
LINE
  5
3D
330
2
100
AcDbEntity
  8
0
100
AcDbLine
 10
16.78504256849602
 20
-1.933035018560051
 30
0.0
 11
16.838992848496
 21
-1.191193101760067
 31
0.0
  0
LINE
  5
3E
330
2
100
AcDbEntity
  8
0
  6
HIDDEN
100
AcDbLine
 10
17.40304462590956
 20
16.0154927099536
 30
0.0
 11
17.43479037470957
 21
16.27404108435359
 31
0.0
  0
LINE
  5
3F
330
2
100
AcDbEntity
  8
0
100
AcDbLine
 10
8.641756611696006
 20
-1.945486695507813
 30
0.0
 11
8.721108442096021
 21
-1.700283184960031
 31
0.0
  0
LINE
  5
40
330
2
100
AcDbEntity
  8
0
100
AcDbLine
 10
19.47803377470957
 20
15.56027152915362
 30
0.0
 11
19.82328016670954
 21
18.37616888275363
 31
0.0
  0
LINE
  5
41
330
2
100
AcDbEntity
  8
0
100
AcDbLine
 10
-8.381782612303982
 20
18.64264964063996
 30
0.0
 11
-8.651146357903986
 21
15.56380793823995
 31
0.0
  0
LINE
  5
42
330
2
100
AcDbEntity
  8
0
100
AcDbLine
 10
-4.665226461904001
 20
15.55884525823995
 30
0.0
 11
-2.662452887504006
 21
-0.7524365497600379
 31
0.0
  0
LINE
  5
43
330
2
100
AcDbEntity
  8
0
  6
HIDDEN
100
AcDbLine
 10
-4.701275548003923
 20
15.93449658607232
 30
0.0
 11
-4.731742884003939
 21
16.1826331236723
 31
0.0
  0
LINE
  5
44
330
2
100
AcDbEntity
  8
0
  6
HIDDEN
100
AcDbLine
 10
-4.205002471203943
 20
15.99543125807229
 30
0.0
 11
-4.23546980720393
 21
16.24356779567233
 31
0.0
  0
LINE
  5
45
330
2
100
AcDbEntity
  8
0
100
AcDbLine
 10
6.101598843695992
 20
-1.700283184960031
 30
0.0
 11
8.721108442096021
 21
-1.700283184960031
 31
0.0
  0
LINE
  5
46
330
2
100
AcDbEntity
  8
0
100
AcDbLine
 10
-2.156254349904006
 20
-1.200283184960031
 30
0.0
 11
16.97896163569602
 21
-1.200283184960031
 31
0.0
  0
LINE
  5
47
330
2
100
AcDbEntity
  8
0
100
AcDbLine
 10
5.992670922096007
 20
-1.660742600960052
 30
0.0
 11
5.602505878896007
 21
-1.270577557760052
 31
0.0
  0
LWPOLYLINE
  5
48
330
2
100
AcDbEntity
  8
0
100
AcDbPolyline
 90
        4
 70
     0
 43
0.0
 10
6.223853642096017
 20
14.80832508383997
 10
6.271874411696003
 20
15.13935220863996
 10
6.412814080496005
 20
15.44477938783995
 10
6.512626155696025
 20
15.55884525823995
  0
LINE
  5
49
330
2
100
AcDbEntity
  8
CENTER
 48
4.0
100
AcDbLine
 10
7.411353642096013
 20
11.48609875207834
 30
0.0
 11
7.411353642096013
 21
18.18380917419053
 31
0.0
  0
LWPOLYLINE
  5
4C
330
2
100
AcDbEntity
  8
0
100
AcDbPolyline
 90
       12
 70
     0
 43
0.0
 10
8.598853642096017
 20
14.80971681503996
 10
8.550751549296009
 20
14.47841529343998
 10
8.410342213296004
 20
14.17395385023996
 10
8.189000763696
 20
13.92099814303995
 10
7.904658970096008
 20
13.74004113663994
 10
7.58035251249602
 20
13.64574289023997
 10
7.242354771696014
 20
13.64574289023997
 10
6.918048314096026
 20
13.74004113663994
 10
6.633706520496005
 20
13.92099814303995
 10
6.412365072496001
 20
14.17395385023996
 10
6.271955736496025
 20
14.47841529343998
 10
6.223853642096017
 20
14.80971681503996
  0
LWPOLYLINE
  5
4D
330
2
100
AcDbEntity
  8
0
100
AcDbPolyline
 90
       12
 70
     0
 43
0.0
 10
8.598853642096017
 20
14.80832508383997
 10
8.550832874096002
 20
14.47729795903995
 10
8.409893205296
 20
14.17187077983996
 10
8.189609280496014
 20
13.92012891903996
 10
7.90358279089601
 20
13.73816335423995
 10
7.581481027696028
 20
13.64451238463996
 10
7.241226258096006
 20
13.64451238463996
 10
6.919124494896024
 20
13.73816335423995
 10
6.63309800529602
 20
13.92012891903996
 10
6.412814080496005
 20
14.17187077983996
 10
6.271874411696003
 20
14.47729795903995
 10
6.223853642096017
 20
14.80832508383997
  0
LWPOLYLINE
  5
4E
330
2
100
AcDbEntity
  8
0
100
AcDbPolyline
 90
        4
 70
     0
 43
0.0
 10
8.310081130096008
 20
15.55884525823995
 10
8.409893205296
 20
15.44477938783995
 10
8.550832874096002
 20
15.13935220863996
 10
8.598853642096017
 20
14.80832508383997
  0
LINE
  5
4F
330
2
100
AcDbEntity
  8
0
100
AcDbLine
 10
8.830036362096006
 20
-1.660742600960052
 30
0.0
 11
9.220201405296005
 21
-1.270577557760052
 31
0.0
  0
LINE
  5
57
330
2
100
AcDbEntity
  8
0
  6
HIDDEN
100
AcDbLine
 10
17.94970868510956
 20
16.25192752115361
 30
0.0
 11
17.91924134910955
 21
16.00379098355358
 31
0.0
  0
LINE
  5
58
330
2
100
AcDbEntity
  8
0
  6
HIDDEN
100
AcDbLine
 10
-4.701275548003923
 20
15.93449658607232
 30
0.0
 11
-4.205002471203943
 21
15.99543125807229
 31
0.0
  0
LINE
  5
59
330
2
100
AcDbEntity
  8
0
  6
HIDDEN
100
AcDbLine
 10
-4.731742884003939
 20
16.1826331236723
 30
0.0
 11
-4.23546980720393
 21
16.24356779567233
 31
0.0
  0
LINE
  5
5A
330
2
100
AcDbEntity
  8
0
  6
HIDDEN
100
AcDbLine
 10
18.41551442430955
 20
15.94285631155361
 30
0.0
 11
17.91924134910955
 21
16.00379098355358
 31
0.0
  0
LINE
  5
5B
330
2
100
AcDbEntity
  8
0
  6
HIDDEN
100
AcDbLine
 10
18.44598176030957
 20
16.19099284915358
 30
0.0
 11
17.94970868510956
 21
16.25192752115361
 31
0.0
  0
LINE
  5
5C
330
2
100
AcDbEntity
  8
0
  6
HIDDEN
100
AcDbLine
 10
18.44598176030957
 20
16.19099284915358
 30
0.0
 11
18.41551442430955
 21
15.94285631155361
 31
0.0
  0
LINE
  5
5D
330
2
100
AcDbEntity
  8
0
100
AcDbLine
 10
19.487933747696
 20
15.55884525823995
 30
0.0
 11
17.48516017329599
 21
-0.7524365497600379
 31
0.0
  0
LINE
  5
5E
330
2
100
AcDbEntity
  8
0
100
AcDbLine
 10
23.01770339089598
 20
18.81380793823998
 30
0.0
 11
-8.194996105103985
 21
18.81380793823998
 31
0.0
  0
LINE
  5
5F
330
2
100
AcDbEntity
  8
0
100
AcDbLine
 10
23.20448989649601
 20
18.64264964063996
 30
0.0
 11
23.47385364209601
 21
15.56380793823995
 31
0.0
  0
ARC
  5
60
330
2
100
AcDbEntity
  8
0
100
AcDbCircle
 10
20.31817586430956
 20
18.3154033307536
 30
0.0
 40
0.4986122768
100
AcDbArc
 50
91.65370250729999
 51
173.0
  0
ARC
  5
61
330
2
100
AcDbEntity
  8
0
100
AcDbCircle
 10
-5.49684031131726
 20
18.31362781327231
 30
0.0
 40
0.5001901664
100
AcDbArc
 50
6.999999999999984
 51
89.63694818219998
  0
ARC
  5
62
330
2
100
AcDbEntity
  8
0
  6
HIDDEN
100
AcDbCircle
 10
17.80699518110956
 20
16.22834007955358
 30
0.0
 40
0.375
100
AcDbArc
 50
92.59406822690001
 51
173.0
  0
ARC
  5
63
330
2
100
AcDbEntity
  8
0
  6
HIDDEN
100
AcDbCircle
 10
17.79963467390954
 20
15.96979170675356
 30
0.0
 40
0.375
100
AcDbArc
 50
173.0
 51
253.4059317731
  0
ARC
  5
64
330
2
100
AcDbEntity
  8
0
  6
HIDDEN
100
AcDbCircle
 10
-2.982883890517275
 20
16.21690537967228
 30
0.0
 40
0.375
100
AcDbArc
 50
6.999999999999984
 51
87.40593177309998
  0
ARC
  5
65
330
2
100
AcDbEntity
  8
0
  6
HIDDEN
100
AcDbCircle
 10
-2.951138141717269
 20
15.95835700527228
 30
0.0
 40
0.375
100
AcDbArc
 50
286.5940682268999
 51
6.999999999999984
  0
ARC
  5
66
330
2
100
AcDbEntity
  8
0
100
AcDbCircle
 10
0.5058259476959926
 20
-1.866704900160033
 30
0.0
 40
0.3194871616
100
AcDbArc
 50
187.7168030268999
 51
270.0
  0
ARC
  5
67
330
2
100
AcDbEntity
  8
0
100
AcDbCircle
 10
2.505825947695992
 20
-1.881736045760025
 30
0.0
 40
0.304456016
100
AcDbArc
 50
270.0
 51
354.7480438615
  0
ARC
  5
68
330
2
100
AcDbEntity
  8
0
100
AcDbCircle
 10
6.411353642149531
 20
-1.914178550916123
 30
0.0
 40
0.2479975616
100
AcDbArc
 50
187.7923762007999
 51
270.0
  0
ARC
  5
69
330
2
100
AcDbEntity
  8
0
100
AcDbCircle
 10
8.411353642096013
 20
-1.931339201107793
 30
0.0
 40
0.230836912
100
AcDbArc
 50
270.0
 51
356.4862637117999
  0
ARC
  5
6A
330
2
100
AcDbEntity
  8
0
100
AcDbCircle
 10
14.50659380049601
 20
-1.887713192960038
 30
0.0
 40
0.2934799088
100
AcDbArc
 50
187.5534112606
 51
270.0
  0
ARC
  5
6B
330
2
100
AcDbEntity
  8
0
100
AcDbCircle
 10
16.50659380049601
 20
-1.900895661760049
 30
0.0
 40
0.28029744
100
AcDbArc
 50
270.0
 51
353.4158923165
  0
ARC
  5
6C
330
2
100
AcDbEntity
  8
0
100
AcDbCircle
 10
5.432800251696161
 20
-1.440283184959813
 30
0.0
 40
0.2399999999997222
100
AcDbArc
 50
44.99999999999039
 51
89.99999999999998
  0
ARC
  5
6D
330
2
100
AcDbEntity
  8
0
100
AcDbCircle
 10
9.389907032496022
 20
-1.440283184960041
 30
0.0
 40
0.24
100
AcDbArc
 50
89.99999999999998
 51
135.0
  0
ARC
  5
6E
330
2
100
AcDbEntity
  8
0
100
AcDbCircle
 10
6.089953412262982
 20
-1.562554761387847
 30
0.0
 40
0.1382198782120014
100
AcDbArc
 50
225.2653718804802
 51
274.8330675202579
  0
ARC
  5
6F
330
2
100
AcDbEntity
  8
0
100
AcDbCircle
 10
8.668793982972868
 20
-1.386355601404492
 30
0.0
 40
0.3182567051145738
100
AcDbArc
 50
279.4611138072346
 51
300.4404473319024
  0
ARC
  5
70
330
2
100
AcDbEntity
  8
0
100
AcDbCircle
 10
23.01770339089601
 20
18.62630793823995
 30
0.0
 40
0.1875
100
AcDbArc
 50
4.999999999999994
 51
89.99999999999998
  0
ARC
  5
71
330
2
100
AcDbEntity
  8
0
100
AcDbCircle
 10
-8.194996105103985
 20
18.62630793823998
 30
0.0
 40
0.1875
100
AcDbArc
 50
89.99999999999998
 51
175.0
  0
ARC
  5
72
330
2
100
AcDbEntity
  8
0
100
AcDbCircle
 10
16.97896163569602
 20
-0.6902831849600411
 30
0.0
 40
0.51
100
AcDbArc
 50
270.0
 51
353.0
  0
ARC
  5
73
330
2
100
AcDbEntity
  8
0
100
AcDbCircle
 10
-2.156254349904006
 20
-0.6902831849600269
 30
0.0
 40
0.51
100
AcDbArc
 50
187.0
 51
270.0
  0
LINE
  5
74
330
2
100
AcDbEntity
  8
CENTER
 48
4.0
100
AcDbLine
 10
7.411353642096013
 20
-5.761854474563907
 30
0.0
 11
7.411353642096013
 21
0.9317648243482459
 31
0.0
  0
LINE
  5
75
330
2
100
AcDbEntity
  8
CENTER
 48
4.0
100
AcDbLine
 10
2.862192731614822
 20
14.83290840153443
 30
0.0
 11
11.9605145525772
 21
14.83290840153443
 31
0.0
  0
LINE
  5
134
330
2
100
AcDbEntity
  8
0
100
AcDbLine
 10
-8.651146357903986
 20
15.56380793823995
 30
0.0
 11
23.47385364209601
 21
15.56380793823995
 31
0.0
  0
ENDSEC
  0
SECTION
  2
OBJECTS
  0
DICTIONARY
  5
A
330
0
100
AcDbDictionary
  3
ACAD_COLOR
350
2B
  3
ACAD_GROUP
350
26
  3
ACAD_LAYOUT
350
9
  3
ACAD_MATERIAL
350
2A
  3
ACAD_MLINESTYLE
350
27
  3
ACAD_PLOTSETTINGS
350
28
  3
ACAD_PLOTSTYLENAME
350
29
  3
ACAD_TABLESTYLE
350
2C
  3
ACDBHEADERROUNDTRIPXREC
350
161
  3
ACDBVARIABLEDICTIONARY
350
7A
  0
DICTIONARY
  5
11A
330
2
100
AcDbDictionary
280
     1
  3
ACAD_LAYOUTSELFREF
360
182
  0
DICTIONARY
  5
120
330
B
100
AcDbDictionary
280
     1
  3
ACAD_LAYOUTSELFREF
360
183
  0
DICTIONARY
  5
2B
102
{ACAD_REACTORS
330
A
102
}
330
A
100
AcDbDictionary
  0
DICTIONARY
  5
26
102
{ACAD_REACTORS
330
A
102
}
330
A
100
AcDbDictionary
  0
DICTIONARY
  5
9
102
{ACAD_REACTORS
330
A
102
}
330
A
100
AcDbDictionary
  0
DICTIONARY
  5
2A
102
{ACAD_REACTORS
330
A
102
}
330
A
100
AcDbDictionary
  0
DICTIONARY
  5
27
102
{ACAD_REACTORS
330
A
102
}
330
A
100
AcDbDictionary
  3
STANDARD
350
2D
  0
DICTIONARY
  5
28
102
{ACAD_REACTORS
330
A
102
}
330
A
100
AcDbDictionary
  0
ACDBDICTIONARYWDFLT
  5
29
102
{ACAD_REACTORS
330
A
102
}
330
A
100
AcDbDictionary
281
     1
  3
Normal
350
5
100
AcDbDictionaryWithDefault
340
5
  0
DICTIONARY
  5
2C
102
{ACAD_REACTORS
330
A
102
}
330
A
100
AcDbDictionary
  3
STANDARD
350
2E
  0
DICTIONARY
  5
161
102
{ACAD_REACTORS
330
A
102
}
330
A
100
AcDbDictionary
  3
CEPSNTYPE
350
16B
  3
DIMSTYLEDATA
350
16F
  3
FINGERPRINTGUID
350
16C
  3
HYPERLINKBASE
350
164
  3
INSUNITS
350
16A
  3
LAYOUTDICT
350
166
  3
LWETCUNION
350
169
  3
PLOTSETDICT
350
167
  3
PLOTSTYLNAMDICT
350
168
  3
PSVPSCALE
350
16E
  3
PUCSBASE
350
172
  3
PUCSORGBACK
350
178
  3
PUCSORGBOTTOM
350
174
  3
PUCSORGFRONT
350
177
  3
PUCSORGLEFT
350
175
  3
PUCSORGRIGHT
350
176
  3
PUCSORGTOP
350
173
  3
PUCSORTHOREF
350
170
  3
PUCSORTHOVIEW
350
171
  3
STYLESHEET
350
165
  3
TSTACKALIGN
350
162
  3
TSTACKSIZE
350
163
  3
UCSBASE
350
17B
  3
UCSORGBACK
350
181
  3
UCSORGBOTTOM
350
17D
  3
UCSORGFRONT
350
180
  3
UCSORGLEFT
350
17E
  3
UCSORGRIGHT
350
17F
  3
UCSORGTOP
350
17C
  3
UCSORTHOREF
350
179
  3
UCSORTHOVIEW
350
17A
  3
VERSIONGUID
350
16D
  0
DICTIONARY
  5
7A
102
{ACAD_REACTORS
330
A
102
}
330
A
100
AcDbDictionary
  3
CTABLESTYLE
350
7B
  3
DIMASSOC
350
B0
  3
HIDETEXT
350
AF
  3
PROJECTNAME
350
B1
  0
XRECORD
  5
182
102
{ACAD_REACTORS
330
11A
102
}
330
11A
100
AcDbXrecord
340
2
  0
XRECORD
  5
183
102
{ACAD_REACTORS
330
120
102
}
330
120
100
AcDbXrecord
340
B
  0
MLINESTYLE
  5
2D
102
{ACAD_REACTORS
330
27
102
}
330
27
100
AcDbMlineStyle
  2
STANDARD
 70
     0
  3

 62
   256
 51
90.0
 52
90.0
 71
     2
 49
0.5
 62
   256
  6
BYLAYER
 49
-0.5
 62
   256
  6
BYLAYER
  0
ACDBPLACEHOLDER
  5
5
102
{ACAD_REACTORS
330
29
102
}
330
0
100
AcDbPlaceHolder
280
     0
  0
ACAD_PROXY_OBJECT
  5
2E
102
{ACAD_REACTORS
330
2C
102
}
330
2C
100
AcDbProxyObject
 90
      499
 91
      525
 93
     1841
310
4214DD185B99185C9928B81E85EB51B8AE3F2E07A17AD46E2B8FC02B5E8DC0F42B1CFD028000000C1008070000C3001FDFF8000000C1003FBFF000000182007F7FE00000030400FEFFC00000060801FDFF8000000C1003FBFF00000018200000000000000681FA0B0000001820100E000186003FBFF000000182007F7FE000
310
00030400FEFFC00000060801FDFF8000000C1003FBFF000000182007F7FE000000304000AD7A3703D0AC73F4160000003040201C00030C007F7FE00000030400FEFFC00000060801FDFF8000000C1003FBFF000000182007F7FE00000030400FEFFC000000608018
340
11
340
11
340
11
 94
        0
1001
ACAD
1000
AcadProxyRoundTripData
1071
      524
1071
   851991
1070
     0
  0
XRECORD
  5
16B
102
{ACAD_REACTORS
330
161
102
}
330
161
100
AcDbXrecord
 90
        0
  0
XRECORD
  5
16F
102
{ACAD_REACTORS
330
161
102
}
330
161
100
AcDbXrecord
1000
DSTYLE
1002
{
1070
   276
 70
     1
1070
   277
 70
     5
1070
   341
340
1E
1070
   342
340
1E
1002
}
  0
XRECORD
  5
16C
102
{ACAD_REACTORS
330
161
102
}
330
161
100
AcDbXrecord
  1
{A64D18C2-C34E-400D-9C7A-A5F49CCF2405}
  0
XRECORD
  5
164
102
{ACAD_REACTORS
330
161
102
}
330
161
100
AcDbXrecord
  1

  0
XRECORD
  5
16A
102
{ACAD_REACTORS
330
161
102
}
330
161
100
AcDbXrecord
 90
        1
  0
XRECORD
  5
166
102
{ACAD_REACTORS
330
161
102
}
330
161
100
AcDbXrecord
340
9
  0
XRECORD
  5
169
102
{ACAD_REACTORS
330
161
102
}
330
161
100
AcDbXrecord
 90
    10781
  0
XRECORD
  5
167
102
{ACAD_REACTORS
330
161
102
}
330
161
100
AcDbXrecord
340
28
  0
XRECORD
  5
168
102
{ACAD_REACTORS
330
161
102
}
330
161
100
AcDbXrecord
340
29
  0
XRECORD
  5
16E
102
{ACAD_REACTORS
330
161
102
}
330
161
100
AcDbXrecord
 40
0.0
  0
XRECORD
  5
172
102
{ACAD_REACTORS
330
161
102
}
330
161
100
AcDbXrecord
340
0
  0
XRECORD
  5
178
102
{ACAD_REACTORS
330
161
102
}
330
161
100
AcDbXrecord
 10
0.0
 20
0.0
 30
0.0
  0
XRECORD
  5
174
102
{ACAD_REACTORS
330
161
102
}
330
161
100
AcDbXrecord
 10
0.0
 20
0.0
 30
0.0
  0
XRECORD
  5
177
102
{ACAD_REACTORS
330
161
102
}
330
161
100
AcDbXrecord
 10
0.0
 20
0.0
 30
0.0
  0
XRECORD
  5
175
102
{ACAD_REACTORS
330
161
102
}
330
161
100
AcDbXrecord
 10
0.0
 20
0.0
 30
0.0
  0
XRECORD
  5
176
102
{ACAD_REACTORS
330
161
102
}
330
161
100
AcDbXrecord
 10
0.0
 20
0.0
 30
0.0
  0
XRECORD
  5
173
102
{ACAD_REACTORS
330
161
102
}
330
161
100
AcDbXrecord
 10
0.0
 20
0.0
 30
0.0
  0
XRECORD
  5
170
102
{ACAD_REACTORS
330
161
102
}
330
161
100
AcDbXrecord
340
0
  0
XRECORD
  5
171
102
{ACAD_REACTORS
330
161
102
}
330
161
100
AcDbXrecord
 70
     0
  0
XRECORD
  5
165
102
{ACAD_REACTORS
330
161
102
}
330
161
100
AcDbXrecord
  1

  0
XRECORD
  5
162
102
{ACAD_REACTORS
330
161
102
}
330
161
100
AcDbXrecord
 90
        1
  0
XRECORD
  5
163
102
{ACAD_REACTORS
330
161
102
}
330
161
100
AcDbXrecord
 90
       70
  0
XRECORD
  5
17B
102
{ACAD_REACTORS
330
161
102
}
330
161
100
AcDbXrecord
340
0
  0
XRECORD
  5
181
102
{ACAD_REACTORS
330
161
102
}
330
161
100
AcDbXrecord
 10
0.0
 20
0.0
 30
0.0
  0
XRECORD
  5
17D
102
{ACAD_REACTORS
330
161
102
}
330
161
100
AcDbXrecord
 10
0.0
 20
0.0
 30
0.0
  0
XRECORD
  5
180
102
{ACAD_REACTORS
330
161
102
}
330
161
100
AcDbXrecord
 10
0.0
 20
0.0
 30
0.0
  0
XRECORD
  5
17E
102
{ACAD_REACTORS
330
161
102
}
330
161
100
AcDbXrecord
 10
0.0
 20
0.0
 30
0.0
  0
XRECORD
  5
17F
102
{ACAD_REACTORS
330
161
102
}
330
161
100
AcDbXrecord
 10
0.0
 20
0.0
 30
0.0
  0
XRECORD
  5
17C
102
{ACAD_REACTORS
330
161
102
}
330
161
100
AcDbXrecord
 10
0.0
 20
0.0
 30
0.0
  0
XRECORD
  5
179
102
{ACAD_REACTORS
330
161
102
}
330
161
100
AcDbXrecord
340
0
  0
XRECORD
  5
17A
102
{ACAD_REACTORS
330
161
102
}
330
161
100
AcDbXrecord
 70
     0
  0
XRECORD
  5
16D
102
{ACAD_REACTORS
330
161
102
}
330
161
100
AcDbXrecord
  1
{FEB4316B-8D76-4072-966F-70811BBA48A0}
  0
DICTIONARYVAR
  5
7B
102
{ACAD_REACTORS
330
7A
102
}
330
7A
100
DictionaryVariables
280
     0
  1
STANDARD
  0
DICTIONARYVAR
  5
B0
102
{ACAD_REACTORS
330
7A
102
}
330
7A
100
DictionaryVariables
280
     0
  1
1
  0
DICTIONARYVAR
  5
AF
102
{ACAD_REACTORS
330
7A
102
}
330
7A
100
DictionaryVariables
280
     0
  1
1
  0
DICTIONARYVAR
  5
B1
102
{ACAD_REACTORS
330
7A
102
}
330
7A
100
DictionaryVariables
280
     0
  1

  0
ENDSEC
  0
EOF
