  0
SECTION
  2
HEADER
  9
$ACADVER
  1
AC1015
  9
$ACADMAINTVER
 70
    10
  9
$DWGCODEPAGE
  3
ANSI_1252
  9
$INSBASE
 10
0.0
 20
0.0
 30
0.0
  9
$EXTMIN
 10
-0.0000000000000009
 20
0.0
 30
0.0
  9
$EXTMAX
 10
66.0
 20
32.0
 30
0.0
  9
$LIMMIN
 10
0.0
 20
0.0
  9
$LIMMAX
 10
17.0
 20
11.0
  9
$ORTHOMODE
 70
     1
  9
$REGENMODE
 70
     1
  9
$FILLMODE
 70
     1
  9
$QTEXTMODE
 70
     0
  9
$MIRRTEXT
 70
     1
  9
$LTSCALE
 40
0.9350000000000001
  9
$ATTMODE
 70
     1
  9
$TEXTSIZE
 40
0.2
  9
$TRACEWID
 40
0.05
  9
$TEXTSTYLE
  7
STANDARD
  9
$CLAYER
  8
0
  9
$CELTYPE
  6
ByLayer
  9
$CECOLOR
 62
   256
  9
$CELTSCALE
 40
1.0
  9
$DISPSILH
 70
     0
  9
$DIMSCALE
 40
1.0
  9
$DIMASZ
 40
0.1875
  9
$DIMEXO
 40
0.10625
  9
$DIMDLI
 40
0.646
  9
$DIMRND
 40
0.0
  9
$DIMDLE
 40
0.0
  9
$DIMEXE
 40
0.306
  9
$DIMTP
 40
0.0
  9
$DIMTM
 40
0.0
  9
$DIMTXT
 40
0.125
  9
$DIMCEN
 40
0.153
  9
$DIMTSZ
 40
0.0
  9
$DIMTOL
 70
     0
  9
$DIMLIM
 70
     0
  9
$DIMTIH
 70
     1
  9
$DIMTOH
 70
     1
  9
$DIMSE1
 70
     0
  9
$DIMSE2
 70
     0
  9
$DIMTAD
 70
     0
  9
$DIMZIN
 70
     0
  9
$DIMBLK
  1
_FILLED
  9
$DIMASO
 70
     1
  9
$DIMSHO
 70
     1
  9
$DIMPOST
  1

  9
$DIMAPOST
  1

  9
$DIMALT
 70
     0
  9
$DIMALTD
 70
     2
  9
$DIMALTF
 40
25.4
  9
$DIMLFAC
 40
1.0
  9
$DIMTOFL
 70
     0
  9
$DIMTVP
 40
0.0
  9
$DIMTIX
 70
     0
  9
$DIMSOXD
 70
     0
  9
$DIMSAH
 70
     0
  9
$DIMBLK1
  1

  9
$DIMBLK2
  1

  9
$DIMSTYLE
  2
STANDARD
  9
$DIMCLRD
 70
     0
  9
$DIMCLRE
 70
     0
  9
$DIMCLRT
 70
     0
  9
$DIMTFAC
 40
1.0
  9
$DIMGAP
 40
0.09
  9
$DIMJUST
 70
     0
  9
$DIMSD1
 70
     0
  9
$DIMSD2
 70
     0
  9
$DIMTOLJ
 70
     1
  9
$DIMTZIN
 70
     0
  9
$DIMALTZ
 70
     0
  9
$DIMALTTZ
 70
     0
  9
$DIMUPT
 70
     0
  9
$DIMDEC
 70
     4
  9
$DIMTDEC
 70
     4
  9
$DIMALTU
 70
     2
  9
$DIMALTTD
 70
     2
  9
$DIMTXSTY
  7
STANDARD
  9
$DIMAUNIT
 70
     0
  9
$DIMADEC
 70
     0
  9
$DIMALTRND
 40
0.0
  9
$DIMAZIN
 70
     0
  9
$DIMDSEP
 70
     0
  9
$DIMATFIT
 70
     3
  9
$DIMFRAC
 70
     0
  9
$DIMLDRBLK
  1

  9
$DIMLUNIT
 70
     2
  9
$DIMLWD
 70
     0
  9
$DIMLWE
 70
     0
  9
$DIMTMOVE
 70
     0
  9
$LUNITS
 70
     2
  9
$LUPREC
 70
     4
  9
$SKETCHINC
 40
0.1
  9
$FILLETRAD
 40
0.0
  9
$AUNITS
 70
     0
  9
$AUPREC
 70
     0
  9
$MENU
  1
acad
  9
$ELEVATION
 40
0.0
  9
$PELEVATION
 40
0.0
  9
$THICKNESS
 40
0.0
  9
$LIMCHECK
 70
     0
  9
$CHAMFERA
 40
0.0
  9
$CHAMFERB
 40
0.0
  9
$CHAMFERC
 40
0.0
  9
$CHAMFERD
 40
0.0
  9
$SKPOLY
 70
     0
  9
$TDCREATE
 40
2454729.489233275
  9
$TDUCREATE
 40
2454729.655899942
  9
$TDUPDATE
 40
2454729.567217326
  9
$TDUUPDATE
 40
2454729.733883993
  9
$TDINDWG
 40
0.0727016319
  9
$TDUSRTIMER
 40
0.0727016319
  9
$USRTIMER
 70
     1
  9
$ANGBASE
 50
0.0
  9
$ANGDIR
 70
     0
  9
$PDMODE
 70
     3
  9
$PDSIZE
 40
0.3125
  9
$PLINEWID
 40
0.0
  9
$SPLFRAME
 70
     0
  9
$SPLINETYPE
 70
     6
  9
$SPLINESEGS
 70
     8
  9
$HANDSEED
  5
175C
  9
$SURFTAB1
 70
     6
  9
$SURFTAB2
 70
     6
  9
$SURFTYPE
 70
     6
  9
$SURFU
 70
     6
  9
$SURFV
 70
     6
  9
$UCSBASE
  2

  9
$UCSNAME
  2

  9
$UCSORG
 10
0.0
 20
0.0
 30
0.0
  9
$UCSXDIR
 10
1.0
 20
0.0
 30
0.0
  9
$UCSYDIR
 10
0.0
 20
1.0
 30
0.0
  9
$UCSORTHOREF
  2

  9
$UCSORTHOVIEW
 70
     0
  9
$UCSORGTOP
 10
0.0
 20
0.0
 30
0.0
  9
$UCSORGBOTTOM
 10
0.0
 20
0.0
 30
0.0
  9
$UCSORGLEFT
 10
0.0
 20
0.0
 30
0.0
  9
$UCSORGRIGHT
 10
0.0
 20
0.0
 30
0.0
  9
$UCSORGFRONT
 10
0.0
 20
0.0
 30
0.0
  9
$UCSORGBACK
 10
0.0
 20
0.0
 30
0.0
  9
$PUCSBASE
  2

  9
$PUCSNAME
  2

  9
$PUCSORG
 10
0.0
 20
0.0
 30
0.0
  9
$PUCSXDIR
 10
1.0
 20
0.0
 30
0.0
  9
$PUCSYDIR
 10
0.0
 20
1.0
 30
0.0
  9
$PUCSORTHOREF
  2

  9
$PUCSORTHOVIEW
 70
     0
  9
$PUCSORGTOP
 10
0.0
 20
0.0
 30
0.0
  9
$PUCSORGBOTTOM
 10
0.0
 20
0.0
 30
0.0
  9
$PUCSORGLEFT
 10
0.0
 20
0.0
 30
0.0
  9
$PUCSORGRIGHT
 10
0.0
 20
0.0
 30
0.0
  9
$PUCSORGFRONT
 10
0.0
 20
0.0
 30
0.0
  9
$PUCSORGBACK
 10
0.0
 20
0.0
 30
0.0
  9
$USERI1
 70
     0
  9
$USERI2
 70
     0
  9
$USERI3
 70
     0
  9
$USERI4
 70
     0
  9
$USERI5
 70
     0
  9
$USERR1
 40
0.0
  9
$USERR2
 40
0.0
  9
$USERR3
 40
0.0
  9
$USERR4
 40
0.0
  9
$USERR5
 40
0.0
  9
$WORLDVIEW
 70
     1
  9
$SHADEDGE
 70
     3
  9
$SHADEDIF
 70
    70
  9
$TILEMODE
 70
     1
  9
$MAXACTVP
 70
    16
  9
$PINSBASE
 10
0.0
 20
0.0
 30
0.0
  9
$PLIMCHECK
 70
     0
  9
$PEXTMIN
 10
1.000000000000000E+20
 20
1.000000000000000E+20
 30
1.000000000000000E+20
  9
$PEXTMAX
 10
-1.000000000000000E+20
 20
-1.000000000000000E+20
 30
-1.000000000000000E+20
  9
$PLIMMIN
 10
0.0
 20
0.0
  9
$PLIMMAX
 10
12.0
 20
9.0
  9
$UNITMODE
 70
     0
  9
$VISRETAIN
 70
     0
  9
$PLINEGEN
 70
     1
  9
$PSLTSCALE
 70
     0
  9
$TREEDEPTH
 70
  3020
  9
$CMLSTYLE
  2
Standard
  9
$CMLJUST
 70
     0
  9
$CMLSCALE
 40
1.0
  9
$PROXYGRAPHICS
 70
     0
  9
$MEASUREMENT
 70
     0
  9
$CELWEIGHT
370
     0
  9
$ENDCAPS
280
     0
  9
$JOINSTYLE
280
     0
  9
$LWDISPLAY
290
     0
  9
$INSUNITS
 70
     1
  9
$HYPERLINKBASE
  1

  9
$STYLESHEET
  1

  9
$XEDIT
290
     1
  9
$CEPSNTYPE
380
     0
  9
$PSTYLEMODE
290
     1
  9
$FINGERPRINTGUID
  2

  9
$VERSIONGUID
  2
{C9E7E496-33D0-4395-B3DC-DDFBECF466CA}
  9
$EXTNAMES
290
     1
  9
$PSVPSCALE
 40
0.0
  9
$OLESTARTUP
290
     0
  0
ENDSEC
  0
SECTION
  2
CLASSES
  0
CLASS
  1
ACDBDICTIONARYWDFLT
  2
AcDbDictionaryWithDefault
  3
AutoCAD 2000
 90
        0
280
     0
281
     0
  0
CLASS
  1
ACDBPLACEHOLDER
  2
AcDbPlaceHolder
  3
AutoCAD 2000
 90
        0
280
     0
281
     0
  0
CLASS
  1
LAYOUT
  2
AcDbLayout
  3
AutoCAD 2000
 90
        0
280
     0
281
     0
  0
CLASS
  1
LWPOLYLINE
  2
AcDbPolyline
  3
AutoCAD 2000
 90
    32768
280
     0
281
     1
  0
CLASS
  1
IMAGE
  2
AcDbRasterImage
  3
ISM
 90
    32895
280
     0
281
     1
  0
CLASS
  1
OLE2FRAME
  2
AcDbOle2Frame
  3
AutoCAD 2000
 90
    32768
280
     0
281
     1
  0
CLASS
  1
HATCH
  2
AcDbHatch
  3
AutoCAD 2000
 90
    32768
280
     0
281
     1
  0
CLASS
  1
DICTIONARYVAR
  2
AcDbDictionaryVar
  3
AutoCAD 2000
 90
    32768
280
     0
281
     0
  0
CLASS
  1
RASTERVARIABLES
  2
AcDbRasterVariables
  3
ISM
 90
    32768
280
     0
281
     0
  0
CLASS
  1
IMAGEDEF
  2
AcDbRasterImageDef
  3
ISM
 90
    32768
280
     0
281
     0
  0
CLASS
  1
IMAGEDEF_REACTOR
  2
AcDbRasterImageDefReactor
  3
ISM
 90
    32769
280
     0
281
     0
  0
CLASS
  1
IDBUFFER
  2
AcDbIdBuffer
  3
AutoCAD 2000
 90
    32768
280
     0
281
     0
  0
CLASS
  1
SPATIAL_FILTER
  2
AcDbSpatialFilter
  3
AutoCAD 2000
 90
    32768
280
     0
281
     0
  0
CLASS
  1
XRECORD
  2
AcDbXrecord
  3
AutoCAD 2000
 90
    32768
280
     0
281
     0
  0
CLASS
  1
SORTENTSTABLE
  2
AcDbSortentsTable
  3
AutoCAD 2000
 90
    32768
280
     0
281
     0
  0
CLASS
  1
LAYER_INDEX
  2
AcDbLayerIndex
  3
AutoCAD 2000
 90
    32768
280
     0
281
     0
  0
CLASS
  1
SPATIAL_INDEX
  2
AcDbSpatialIndex
  3
AutoCAD 2000
 90
    32768
280
     0
281
     0
  0
CLASS
  1
OBJECT_PTR
  2
CAseDLPNTableRecord
  3
ASE-LPNTableRecord
 90
    32769
280
     0
281
     0
  0
CLASS
  1
PLOTSETTINGS
  2
AcDbPlotSettings
  3
AutoCAD 2000
 90
    32768
280
     0
281
     0
  0
CLASS
  1
VBA_PROJECT
  2
AcDbVbaProject
  3
acadvba
 90
    32768
280
     0
281
     0
  0
CLASS
  1
WIPEOUT
  2
AcDbWipeout
  3
WipeOut|AutoCAD Express Tool|expresstools@autodesk.com
 90
    32895
280
     0
281
     1
  0
CLASS
  1
WIPEOUTVARIABLES
  2
AcDbWipeoutVariables
  3
WipeOut|AutoCAD Express Tool|expresstools@autodesk.com
 90
    32768
280
     0
281
     0
  0
CLASS
  1
RTEXT
  2
RText
  3
RText|AutoCAD Express Tool|expresstools@autodesk.com
 90
    32768
280
     0
281
     1
  0
CLASS
  1
ARCALIGNEDTEXT
  2
AcDbArcAlignedText
  3
ATEXT|AutoCAD Express Tool|expresstools@autodesk.com
 90
    32768
280
     0
281
     1
  0
ENDSEC
  0
SECTION
  2
TABLES
  0
TABLE
  2
VPORT
  5
8
330
0
100
AcDbSymbolTable
 70
     2
  0
VPORT
  5
175B
330
8
100
AcDbSymbolTableRecord
100
AcDbViewportTableRecord
  2
*Active
 70
     0
 10
0.0
 20
0.0
 11
1.0
 21
1.0
 12
33.87862990012143
 22
16.15141954713437
 13
0.0
 23
0.0
 14
1.0
 24
1.0
 15
0.0
 25
0.0
 16
0.0
 26
0.0
 36
1.0
 17
0.0
 27
0.0
 37
0.0
 40
49.77017135087524
 41
1.868263473053892
 42
50.0
 43
0.0
 44
0.0
 50
0.0
 51
0.0
 71
     0
 72
   100
 73
     1
 74
     1
 75
     0
 76
     0
 77
     0
 78
     0
281
     0
 65
     0
110
0.0
120
0.0
130
0.0
111
1.0
121
0.0
131
0.0
112
0.0
122
1.0
132
0.0
 79
     0
146
0.0
  0
ENDTAB
  0
TABLE
  2
LTYPE
  5
5
330
0
100
AcDbSymbolTable
 70
     2
  0
LTYPE
  5
14
330
5
100
AcDbSymbolTableRecord
100
AcDbLinetypeTableRecord
  2
ByBlock
 70
     0
  3

 72
    65
 73
     0
 40
0.0
  0
LTYPE
  5
15
330
5
100
AcDbSymbolTableRecord
100
AcDbLinetypeTableRecord
  2
ByLayer
 70
     0
  3

 72
    65
 73
     0
 40
0.0
  0
LTYPE
  5
16
330
5
100
AcDbSymbolTableRecord
100
AcDbLinetypeTableRecord
  2
CONTINUOUS
 70
     0
  3
Solid line
 72
    65
 73
     0
 40
0.0
  0
LTYPE
  5
1F5
330
5
100
AcDbSymbolTableRecord
100
AcDbLinetypeTableRecord
  2
CENTER
 70
     0
  3
____ _ ____ _ ____ _ ____ _ ____ _ ____ _ ____
 72
    65
 73
     4
 40
0.6
 49
0.375
 74
     0
 49
-0.075
 74
     0
 49
0.075
 74
     0
 49
-0.075
 74
     0
  0
ENDTAB
  0
TABLE
  2
LAYER
  5
2
102
{ACAD_XDICTIONARY
360
1671
102
}
330
0
100
AcDbSymbolTable
 70
     2
  0
LAYER
  5
10
330
2
100
AcDbSymbolTableRecord
100
AcDbLayerTableRecord
  2
0
 70
     0
 62
     7
  6
CONTINUOUS
370
    -3
390
F
  0
LAYER
  5
1675
330
2
100
AcDbSymbolTableRecord
100
AcDbLayerTableRecord
  2
CENTER
 70
     0
 62
     1
  6
CENTER
370
    13
390
F
  0
ENDTAB
  0
TABLE
  2
STYLE
  5
3
330
0
100
AcDbSymbolTable
 70
     2
  0
STYLE
  5
11
330
3
100
AcDbSymbolTableRecord
100
AcDbTextStyleTableRecord
  2
STANDARD
 70
     0
 40
0.0
 41
0.8
 50
0.0
 71
     0
 42
0.2
  3
txt
  4

  0
STYLE
  5
223
330
3
100
AcDbSymbolTableRecord
100
AcDbTextStyleTableRecord
  2
TEXTSTYLE_1
 70
     0
 40
0.0
 41
0.8
 50
0.0
 71
     0
 42
0.2
  3
txt
  4

  0
ENDTAB
  0
TABLE
  2
VIEW
  5
6
330
0
100
AcDbSymbolTable
 70
     0
  0
ENDTAB
  0
TABLE
  2
UCS
  5
7
330
0
100
AcDbSymbolTable
 70
     0
  0
ENDTAB
  0
TABLE
  2
APPID
  5
9
330
0
100
AcDbSymbolTable
 70
     2
  0
APPID
  5
227
330
9
100
AcDbSymbolTableRecord
100
AcDbRegAppTableRecord
  2
ACAD
 70
     0
  0
APPID
  5
165B
330
9
100
AcDbSymbolTableRecord
100
AcDbRegAppTableRecord
  2
DCO15
 70
     0
  0
ENDTAB
  0
TABLE
  2
DIMSTYLE
  5
A
330
0
100
AcDbSymbolTable
 70
     1
100
AcDbDimStyleTable
 71
     1
340
245
  0
DIMSTYLE
105
245
330
A
100
AcDbSymbolTableRecord
100
AcDbDimStyleTableRecord
  2
STANDARD
 70
     0
 41
0.1875
 47
0.001
 48
0.001
 78
     4
140
0.125
271
     3
272
     3
284
     4
340
11
341
228
342
228
343
228
344
228
  0
ENDTAB
  0
TABLE
  2
BLOCK_RECORD
  5
1
330
0
100
AcDbSymbolTable
 70
     1
  0
BLOCK_RECORD
  5
1F
330
1
100
AcDbSymbolTableRecord
100
AcDbBlockTableRecord
  2
*MODEL_SPACE
340
22
  0
BLOCK_RECORD
  5
1B
330
1
100
AcDbSymbolTableRecord
100
AcDbBlockTableRecord
  2
*PAPER_SPACE
340
1E
  0
BLOCK_RECORD
  5
228
330
1
100
AcDbSymbolTableRecord
100
AcDbBlockTableRecord
  2
_FILLED
340
0
  0
ENDTAB
  0
ENDSEC
  0
SECTION
  2
BLOCKS
  0
BLOCK
  5
20
330
1F
100
AcDbEntity
  8
0
100
AcDbBlockBegin
  2
*MODEL_SPACE
 70
     0
 10
0.0
 20
0.0
 30
0.0
  3
*MODEL_SPACE
  1

  0
ENDBLK
  5
21
330
1F
100
AcDbEntity
  8
0
100
AcDbBlockEnd
  0
BLOCK
  5
1C
330
1B
100
AcDbEntity
 67
     1
  8
0
100
AcDbBlockBegin
  2
*PAPER_SPACE
 70
     0
 10
0.0
 20
0.0
 30
0.0
  3
*PAPER_SPACE
  1

  0
ENDBLK
  5
1D
330
1B
100
AcDbEntity
 67
     1
  8
0
100
AcDbBlockEnd
  0
BLOCK
  5
1436
330
228
100
AcDbEntity
  8
0
100
AcDbBlockBegin
  2
_FILLED
 70
     0
 10
0.0
 20
0.0
 30
0.0
  3
_FILLED
  1

  0
SOLID
  5
1437
330
228
100
AcDbEntity
  8
0
  6
ByBlock
 62
     0
100
AcDbTrace
 10
0.0
 20
0.0
 30
0.0
 11
-1.0
 21
0.1666666667
 31
0.0
 12
-1.0
 22
-0.1666666667
 32
0.0
 13
-1.0
 23
-0.1666666667
 33
0.0
  0
ENDBLK
  5
1438
330
228
100
AcDbEntity
  8
0
  6
ByBlock
 62
     0
100
AcDbBlockEnd
  0
ENDSEC
  0
SECTION
  2
ENTITIES
  0
MTEXT
  5
14AE
330
1F
100
AcDbEntity
  8
0
  6
Continuous
 62
     2
100
AcDbMText
 10
15.84375
 20
2.3125
 30
0.0
 40
0.09375
 41
0.075
 71
     2
 72
     1
  1
 \P \P 
  7
TEXTSTYLE_1
 73
     1
 44
1.0
  0
LWPOLYLINE
  5
15E9
330
1F
100
AcDbEntity
  8
0
100
AcDbPolyline
 90
        5
 70
     0
 43
0.0
 10
-0.0000000000000009
 20
31.8127569616
 10
0.0142544544000023
 20
31.88447812800001
 10
0.0548115023999989
 20
31.94518921280002
 10
0.1155223728000001
 20
31.98574575360001
 10
0.1872430383999974
 20
32.0
  0
LWPOLYLINE
  5
15EA
330
1F
100
AcDbEntity
  8
0
100
AcDbPolyline
 90
        5
 70
     0
 43
0.0
 10
-0.0000000000000009
 20
0.1872430367999982
 10
0.0142544544000023
 20
0.1155218704000021
 10
0.0548115023999989
 20
0.0548107855999973
 10
0.1155223728000001
 20
0.0142542448000001
 10
0.1872430383999974
 20
0.0
  0
LWPOLYLINE
  5
15EB
330
1F
100
AcDbEntity
  8
0
100
AcDbPolyline
 90
        8
 70
     0
 43
0.0
 10
1.331064676799996
 20
15.99984151999999
 10
1.326020299200002
 20
18.17168673759999
 10
1.312316921599999
 20
20.21782071039999
 10
1.293378667200001
 20
22.15465533599999
 10
1.273404720000001
 20
23.9781260064
 10
1.2550253216
 20
25.6749274176
 10
1.239008513599997
 20
27.232033072
 10
1.2250315136
 20
28.63962531839999
  0
LINE
  5
15EC
330
1F
100
AcDbEntity
  8
0
100
AcDbLine
 10
0.0
 20
31.8127569616
 30
0.0
 11
0.0
 21
0.1872430367999982
 31
0.0
  0
LWPOLYLINE
  5
15ED
330
1F
100
AcDbEntity
  8
0
100
AcDbPolyline
 90
        8
 70
     0
 43
0.0
 10
1.330832635199995
 20
15.99984150240001
 10
1.326020595199998
 20
13.82837732960001
 10
1.3123173536
 20
11.782229704
 10
1.293379073599999
 20
9.845382740800005
 10
1.273405014399997
 20
8.021900728000005
 10
1.255025496
 20
6.325089057599996
 10
1.239008588799996
 20
4.767974432000002
 10
1.2250315136
 20
3.360374680000006
  0
LINE
  5
15EE
330
1F
100
AcDbEntity
  8
0
100
AcDbLine
 10
10.8478493072
 20
25.78381755840001
 30
0.0
 11
10.85205427519999
 21
15.99961233760001
 31
0.0
  0
LINE
  5
15EF
330
1F
100
AcDbEntity
  8
0
100
AcDbLine
 10
10.8478493072
 20
6.216182441599997
 30
0.0
 11
10.85205427519999
 21
15.99961233760001
 31
0.0
  0
LWPOLYLINE
  5
15F0
330
1F
100
AcDbEntity
  8
0
100
AcDbPolyline
 90
        6
 70
     0
 43
0.0
 10
10.8478491616
 20
25.78381754560001
 10
10.8822219408
 20
25.9705383072
 10
10.96873622559999
 20
26.14067573759999
 10
11.099306912
 20
26.277490704
 10
11.26167915839999
 20
26.3681423296
 10
11.43987780159999
 20
26.40415890560001
  0
LWPOLYLINE
  5
15F1
330
1F
100
AcDbEntity
  8
0
100
AcDbPolyline
 90
        5
 70
     0
 43
0.0
 10
65.8127569616
 20
0.0
 10
65.8844781296
 20
0.0142544528000031
 10
65.9451892144
 20
0.0548115007999996
 10
65.9857457536
 20
0.1155223712000009
 10
66.0
 20
0.1872430367999982
  0
LWPOLYLINE
  5
15F2
330
1F
100
AcDbEntity
  8
0
100
AcDbPolyline
 90
        6
 70
     0
 43
0.0
 10
10.8478491616
 20
6.216182454399998
 10
10.8822219408
 20
6.029461692799998
 10
10.96873622559999
 20
5.859324260800008
 10
11.099306912
 20
5.722509294399998
 10
11.26167915839999
 20
5.631857668800009
 10
11.43987780159999
 20
5.5958410928
  0
LWPOLYLINE
  5
15F3
330
1F
100
AcDbEntity
  8
0
100
AcDbPolyline
 90
        6
 70
     0
 43
0.0
 10
59.41586343359999
 20
5.6621040176
 10
59.605162784
 20
5.695041368000005
 10
59.77630489279999
 20
5.784247112000002
 10
59.91291822559999
 20
5.92117471520001
 10
60.00191922399999
 20
6.092710534399998
 10
60.03478097599998
 20
6.282445361599997
  0
LINE
  5
15F4
330
1F
100
AcDbEntity
  8
0
100
AcDbLine
 10
65.8127569616
 20
0.0
 30
0.0
 11
0.1872430383999983
 21
0.0
 31
0.0
  0
LWPOLYLINE
  5
15F5
330
1F
100
AcDbEntity
  8
0
100
AcDbPolyline
 90
        3
 70
     0
 43
0.0
 10
13.2002577856
 20
5.711923374400001
 10
41.19938487679998
 20
5.7484496032
 10
54.81687883039999
 20
5.765955166400004
  0
LWPOLYLINE
  5
15F6
330
1F
100
AcDbEntity
  8
0
100
AcDbPolyline
 90
        4
 70
     0
 43
0.0
 10
54.81687883039999
 20
5.765955166400004
 10
55.88204413279999
 20
5.767004076800006
 10
56.96045170079998
 20
5.767618721600001
 10
58.05075617919999
 20
5.767986336000006
  0
LWPOLYLINE
  5
15F7
330
1F
100
AcDbEntity
  8
0
100
AcDbPolyline
 90
        7
 70
     0
 43
0.0
 10
58.05075617919999
 20
5.767986336000006
 10
58.42083217599999
 20
5.762510075199998
 10
58.74696373439999
 20
5.749312571200007
 10
59.01330679199999
 20
5.731478324800008
 10
59.21816756159999
 20
5.710134790400005
 10
59.35396062559998
 20
5.686351969599996
 10
59.41586343359999
 20
5.6621040176
  0
LWPOLYLINE
  5
15F9
330
1F
100
AcDbEntity
  8
0
100
AcDbPolyline
 90
        4
 70
     0
 43
0.0
 10
1.225027504000002
 20
3.360372476800009
 10
2.085550833600001
 20
3.472615920000009
 10
2.880377311999999
 20
3.561868168000003
 10
3.6090607984
 20
3.610350137600008
  0
LWPOLYLINE
  5
15FA
330
1F
100
AcDbEntity
  8
0
100
AcDbPolyline
 90
        4
 70
     0
 43
0.0
 10
3.609035281599999
 20
3.610349622400008
 10
4.055223924800002
 20
3.656424923200006
 10
4.445992955199996
 20
3.710067567999999
 10
4.770205416000002
 20
3.769811152000002
  0
LWPOLYLINE
  5
15FB
330
1F
100
AcDbEntity
  8
0
100
AcDbPolyline
 90
        8
 70
     0
 43
0.0
 10
61.780118056
 20
3.612777052799998
 10
61.88065192159999
 20
3.596762912000002
 10
62.0018056624
 20
3.571540974400008
 10
62.13901191199999
 20
3.540169070399997
 10
62.29134371839999
 20
3.503668480000001
 10
62.45900950079999
 20
3.462411799999998
 10
62.64275743679998
 20
3.416474875200009
 10
62.8436747904
 20
3.365834931199998
  0
LWPOLYLINE
  5
15FC
330
1F
100
AcDbEntity
  8
0
100
AcDbPolyline
 90
        7
 70
     0
 43
0.0
 10
11.43987780799999
 20
5.5958410944
 10
11.5548138224
 20
5.623957252799996
 10
11.74770536479999
 20
5.650552691200005
 10
12.014183408
 20
5.673779056
 10
12.3469894944
 20
5.6925909184
 10
12.7420152224
 20
5.706009062399999
 10
13.2002577856
 20
5.711923374400001
  0
LWPOLYLINE
  5
15FD
330
1F
100
AcDbEntity
  8
0
100
AcDbPolyline
 90
        4
 70
     0
 43
0.0
 10
4.770205416000002
 20
3.769811152000002
 10
7.306548241599997
 20
4.360561406400009
 10
9.533117793599998
 20
4.970134836799999
 10
11.43987780799999
 20
5.5958410944
  0
LWPOLYLINE
  5
1602
330
1F
100
AcDbEntity
  8
0
100
AcDbPolyline
 90
        7
 70
     0
 43
0.0
 10
11.43987780799999
 20
26.40415890560001
 10
11.5548138224
 20
26.37604274559999
 10
11.74770536479999
 20
26.34944730879999
 10
12.014183408
 20
26.3262209424
 10
12.3469894944
 20
26.30740908000001
 10
12.7420152224
 20
26.293990936
 10
13.2002577856
 20
26.28807662400001
  0
LWPOLYLINE
  5
1603
330
1F
100
AcDbEntity
  8
0
100
AcDbPolyline
 90
        4
 70
     0
 43
0.0
 10
61.73366359039999
 20
28.3628612112
 10
61.745070256
 20
28.3710407504
 10
61.76041704639999
 20
28.37910373919999
 10
61.7801061888
 20
28.38722203360001
  0
LWPOLYLINE
  5
1604
330
1F
100
AcDbEntity
  8
0
100
AcDbPolyline
 90
        4
 70
     0
 43
0.0
 10
4.770205416000002
 20
28.23018884800001
 10
7.306548241599997
 20
27.639438592
 10
9.533117793599998
 20
27.02986516160001
 10
11.43987780799999
 20
26.40415890560001
  0
LWPOLYLINE
  5
1605
330
1F
100
AcDbEntity
  8
0
100
AcDbPolyline
 90
        4
 70
     0
 43
0.0
 10
61.73366359039999
 20
3.637138787200001
 10
61.745070256
 20
3.628959249600001
 10
61.76041704639999
 20
3.620896260800009
 10
61.7801061888
 20
3.612777964800002
  0
LINE
  5
1606
330
1F
100
AcDbEntity
  8
0
100
AcDbLine
 10
59.41586343359999
 20
26.33789598239999
 30
0.0
 11
61.73366359039999
 21
28.3628612112
 31
0.0
  0
LWPOLYLINE
  5
1607
330
1F
100
AcDbEntity
  8
0
100
AcDbPolyline
 90
        8
 70
     0
 43
0.0
 10
61.780118056
 20
28.3872229472
 10
61.88065192159999
 20
28.40323708639999
 10
62.0018056624
 20
28.428459024
 10
62.13901191199999
 20
28.4598309296
 10
62.29134371839999
 20
28.49633151840001
 10
62.45900950079999
 20
28.53758819840001
 10
62.64275743679998
 20
28.58352512319999
 10
62.8436747904
 20
28.6341650688
  0
LWPOLYLINE
  5
1608
330
1F
100
AcDbEntity
  8
0
100
AcDbPolyline
 90
        7
 70
     0
 43
0.0
 10
58.05075617919999
 20
26.23201366239999
 10
58.42083217599999
 20
26.2374899232
 10
58.74696373439999
 20
26.2506874272
 10
59.01330679199999
 20
26.26852167359999
 10
59.21816756159999
 20
26.28986520960001
 10
59.35396062559998
 20
26.3136480288
 10
59.41586343359999
 20
26.33789598239999
  0
LWPOLYLINE
  5
1609
330
1F
100
AcDbEntity
  8
0
100
AcDbPolyline
 90
        4
 70
     0
 43
0.0
 10
3.609035281599999
 20
28.38965037759999
 10
4.055223924800002
 20
28.34357507679999
 10
4.445992955199996
 20
28.2899324304
 10
4.770205416000002
 20
28.23018884800001
  0
LWPOLYLINE
  5
160A
330
1F
100
AcDbEntity
  8
0
100
AcDbPolyline
 90
        4
 70
     0
 43
0.0
 10
1.225027504000002
 20
28.6396275216
 10
2.085550833600001
 20
28.52738407839999
 10
2.880377311999999
 20
28.43813183200001
 10
3.6090607984
 20
28.3896498608
  0
LINE
  5
160B
330
1F
100
AcDbEntity
  8
0
100
AcDbLine
 10
59.41586343359999
 20
5.6621040176
 30
0.0
 11
61.73366359039999
 21
3.637138787200001
 31
0.0
  0
LWPOLYLINE
  5
160C
330
1F
100
AcDbEntity
  8
0
100
AcDbPolyline
 90
        4
 70
     0
 43
0.0
 10
62.37326403999999
 20
27.7678077008
 10
62.3646009744
 20
27.75949814399999
 10
62.35770137919999
 20
27.75106923679999
 10
62.35258136639999
 20
27.7425198352
  0
LINE
  5
160D
330
1F
100
AcDbEntity
  8
0
100
AcDbLine
 10
60.03478097599998
 20
25.7175546368
 30
0.0
 11
62.3525829632
 21
27.7425198352
 31
0.0
  0
LWPOLYLINE
  5
160E
330
1F
100
AcDbEntity
  8
0
100
AcDbPolyline
 90
        4
 70
     0
 43
0.0
 10
54.81687883039999
 20
26.23404483199999
 10
55.88204413279999
 20
26.2329959232
 10
56.96045170079998
 20
26.2323812768
 10
58.05075617919999
 20
26.23201366239999
  0
LINE
  5
1610
330
1F
100
AcDbEntity
  8
0
100
AcDbLine
 10
13.2002577856
 20
26.28807662400001
 30
0.0
 11
54.8168788304
 21
26.23404483199999
 31
0.0
  0
LWPOLYLINE
  5
1611
330
1F
100
AcDbEntity
  8
0
100
AcDbPolyline
 90
        7
 70
     0
 43
0.0
 10
61.86126137919999
 20
14.81268391680001
 10
61.83774128159999
 20
14.82458703680001
 10
61.79260654559999
 20
14.9198120048
 10
61.75303381759999
 20
15.10254737919999
 10
61.72222904159999
 20
15.3579890288
 10
61.70268783839999
 20
15.6654425888
 10
61.69599332159999
 20
16.0
  0
LINE
  5
1612
330
1F
100
AcDbEntity
  8
0
100
AcDbLine
 10
60.03478097599998
 20
6.282445361599997
 30
0.0
 11
62.3525829632
 21
4.2574801632
 31
0.0
  0
LWPOLYLINE
  5
1613
330
1F
100
AcDbEntity
  8
0
100
AcDbPolyline
 90
        4
 70
     0
 43
0.0
 10
62.37326403999999
 20
4.232192299200008
 10
62.3646009744
 20
4.240501854400008
 10
62.35770137919999
 20
4.248930761600007
 10
62.35258136639999
 20
4.2574801632
  0
LWPOLYLINE
  5
1614
330
1F
100
AcDbEntity
  8
0
100
AcDbPolyline
 90
        6
 70
     0
 43
0.0
 10
59.41586343359999
 20
26.33789598239999
 10
59.605162784
 20
26.30495863199999
 10
59.77630489279999
 20
26.21575288639999
 10
59.91291822559999
 20
26.07882528479999
 10
60.00191922399999
 20
25.907289464
 10
60.03478097599998
 20
25.7175546368
  0
LWPOLYLINE
  5
1616
330
1F
100
AcDbEntity
  8
0
100
AcDbPolyline
 90
        3
 70
     0
 43
0.0
 10
61.86126137919999
 20
17.18731608320001
 10
61.88478147519999
 20
17.17541296160001
 10
61.92991621119999
 20
17.08018799359999
  0
LINE
  5
1617
330
1F
100
AcDbEntity
  8
0
100
AcDbLine
 10
65.8127569616
 20
32.0
 30
0.0
 11
0.1872430383999983
 21
32.0
 31
0.0
  0
LWPOLYLINE
  5
161C
330
1F
100
AcDbEntity
  8
0
100
AcDbPolyline
 90
        9
 70
     0
 43
0.0
 10
62.8436747904
 20
28.6341650688
 10
62.76189470239999
 20
28.4717031296
 10
62.68711003839999
 20
28.32391763839999
 10
62.61879640319999
 20
28.19038014240001
 10
62.55657167199999
 20
28.07099199679999
 10
62.50027663999999
 20
27.96619354719999
 10
62.45008918239999
 20
27.87754658720001
 10
62.40687290879999
 20
27.8087053232
 10
62.3732756512
 20
27.76780747360001
  0
LWPOLYLINE
  5
161D
330
1F
100
AcDbEntity
  8
0
100
AcDbPolyline
 90
        5
 70
     0
 43
0.0
 10
65.8127569616
 20
32.0
 10
65.8844781296
 20
31.98574554559999
 10
65.9451892144
 20
31.94518849760001
 10
65.9857457536
 20
31.8844776272
 10
66.0
 20
31.8127569616
  0
LWPOLYLINE
  5
161E
330
1F
100
AcDbEntity
  8
0
100
AcDbPolyline
 90
        9
 70
     0
 43
0.0
 10
62.8436747904
 20
3.365834931199998
 10
62.76189470239999
 20
3.528296870399998
 10
62.68711003839999
 20
3.676082360000009
 10
62.61879640319999
 20
3.809619855999997
 10
62.55657167199999
 20
3.929008001599996
 10
62.50027663999999
 20
4.033806451200007
 10
62.45008918239999
 20
4.122453412799998
 10
62.40687290879999
 20
4.191294675199998
 10
62.3732756512
 20
4.232192526399998
  0
LWPOLYLINE
  5
1621
330
1F
100
AcDbEntity
  8
0
100
AcDbPolyline
 90
        6
 70
     0
 43
0.0
 10
60.01368120412247
 20
16.0
 10
60.01851946559998
 20
12.893860504
 10
60.02201469919999
 20
11.2708685152
 10
60.02631192159999
 20
9.589510736000008
 10
60.03080012639999
 20
7.906055051199999
 10
60.03478097599998
 20
6.282445361599997
  0
LWPOLYLINE
  5
1624
330
1F
100
AcDbEntity
  8
0
100
AcDbPolyline
 90
        6
 70
     0
 43
0.0
 10
60.01368131630232
 20
16.0
 10
60.01851882879999
 20
19.10580039519999
 10
60.0220125488
 20
20.7282331472
 10
60.02630971839999
 20
22.40966256640001
 10
60.030800248
 20
24.09399158240001
 10
60.03478097599998
 20
25.7175546368
  0
LWPOLYLINE
  5
1628
330
1F
100
AcDbEntity
  8
0
100
AcDbPolyline
 90
        3
 70
     0
 43
0.0
 10
61.92991621119999
 20
14.9198120048
 10
61.88478147519999
 20
14.82458703680001
 10
61.86126137919999
 20
14.81268391680001
  0
LINE
  5
1629
330
1F
100
AcDbEntity
  8
0
100
AcDbLine
 10
61.92315313279999
 20
14.90554330719999
 30
0.0
 11
61.91639005439999
 21
14.9198120048
 31
0.0
  0
LWPOLYLINE
  5
162B
330
1F
100
AcDbEntity
  8
0
100
AcDbPolyline
 90
        7
 70
     0
 43
0.0
 10
61.69599332159999
 20
16.0
 10
61.70268783839999
 20
16.33455741119999
 10
61.72222904159999
 20
16.64201096959999
 10
61.75303381759999
 20
16.89745261920001
 10
61.79260654559999
 20
17.08018799359999
 10
61.83774128159999
 20
17.17541296160001
 10
61.86126137919999
 20
17.18731608320001
  0
LWPOLYLINE
  5
162C
330
1F
100
AcDbEntity
  8
0
100
AcDbPolyline
 90
        5
 70
     0
 43
0.0
 10
61.81977683039999
 20
16.0
 10
61.82647134719999
 20
16.33455741119999
 10
61.8460125504
 20
16.64201096959999
 10
61.87681732639999
 20
16.89745261920001
 10
61.91639005439999
 20
17.08018799359999
  0
LWPOLYLINE
  5
162D
330
1F
100
AcDbEntity
  8
0
100
AcDbPolyline
 90
        5
 70
     0
 43
0.0
 10
62.0265294352
 20
16.0
 10
62.01983491839999
 20
15.6654425888
 10
62.00029371519999
 20
15.3579890288
 10
61.9694889392
 20
15.10254737919999
 10
61.92991621119999
 20
14.9198120048
  0
LWPOLYLINE
  5
162E
330
1F
100
AcDbEntity
  8
0
100
AcDbPolyline
 90
        5
 70
     0
 43
0.0
 10
61.91639005439999
 20
14.9198120048
 10
61.87681732639999
 20
15.10254737919999
 10
61.8460125504
 20
15.3579890288
 10
61.82647134719999
 20
15.6654425888
 10
61.81977683039999
 20
16.0
  0
LWPOLYLINE
  5
162F
330
1F
100
AcDbEntity
  8
0
100
AcDbPolyline
 90
        5
 70
     0
 43
0.0
 10
61.92991621119999
 20
17.08018799359999
 10
61.9694889392
 20
16.89745261920001
 10
62.00029371519999
 20
16.64201096959999
 10
62.01983491839999
 20
16.33455741119999
 10
62.0265294352
 20
16.0
  0
LWPOLYLINE
  5
1630
330
1F
100
AcDbEntity
  8
0
100
AcDbPolyline
 90
        7
 70
     0
 43
0.0
 10
62.84368555679999
 20
3.365813580800008
 10
62.8396078912
 20
5.163220755200001
 10
62.8353965344
 20
7.188735049599998
 10
62.83109788319999
 20
9.395991768000001
 10
62.82737232959998
 20
11.639002336
 10
62.82510830399999
 20
13.8229195936
 10
62.82445119999999
 20
15.99967827840001
  0
LWPOLYLINE
  5
1631
330
1F
100
AcDbEntity
  8
0
100
AcDbPolyline
 90
        7
 70
     0
 43
0.0
 10
62.84368555679999
 20
28.6341864192
 10
62.83960794239998
 20
26.83680281440001
 10
62.83539663839999
 20
24.81131714560001
 10
62.83109803519999
 20
22.6040905472
 10
62.82737248319999
 20
20.36110684319999
 10
62.8251083904
 20
18.1772148576
 10
62.82442863039999
 20
15.99967828320001
  0
LINE
  5
1632
330
1F
100
AcDbEntity
  8
0
100
AcDbLine
 10
66.0
 20
31.8127569616
 30
0.0
 11
66.0
 21
0.1872430367999982
 31
0.0
  0
LINE
  5
1655
330
1F
100
AcDbEntity
  8
0
100
AcDbLine
 10
1.225031513600002
 20
3.360374680000006
 30
0.0
 11
62.84368555679999
 21
3.365813580800008
 31
0.0
  0
LINE
  5
1656
330
1F
100
AcDbEntity
  8
0
100
AcDbLine
 10
1.225031513600002
 20
28.63962531839999
 30
0.0
 11
62.84368555679999
 21
28.6341864192
 31
0.0
  0
LINE
  5
167E
330
1F
100
AcDbEntity
  8
CENTER
 48
4.0
100
AcDbLine
 10
54.80682
 20
19.95973337718506
 30
0.0
 11
54.80682
 21
12.04026662281493
 31
0.0
  0
CIRCLE
  5
167F
330
1F
100
AcDbEntity
  8
0
100
AcDbCircle
 10
54.80682
 20
16.0
 30
0.0
 40
1.978545935999999
  0
CIRCLE
  5
1680
330
1F
100
AcDbEntity
  8
0
100
AcDbCircle
 10
54.80682
 20
16.0
 30
0.0
 40
1.3232195168
  0
LINE
  5
1681
330
1F
100
AcDbEntity
  8
CENTER
 48
4.0
100
AcDbLine
 10
50.46248204108982
 20
16.0
 30
0.0
 11
63.98164356796129
 21
16.0
 31
0.0
  0
ENDSEC
  0
SECTION
  2
OBJECTS
  0
DICTIONARY
  5
C
330
0
100
AcDbDictionary
281
     1
  3
ACAD_GROUP
350
D
  3
ACAD_LAYOUT
350
1A
  3
ACAD_MLINESTYLE
350
17
  3
ACAD_PLOTSETTINGS
350
19
  3
ACAD_PLOTSTYLENAME
350
E
  3
ASE_INDEX_DICTIONARY
350
165A
  0
DICTIONARY
  5
1671
330
2
100
AcDbDictionary
280
     1
281
     1
  3
ACAD_LAYERFILTERS
360
1672
  0
DICTIONARY
  5
D
102
{ACAD_REACTORS
330
C
102
}
330
C
100
AcDbDictionary
281
     1
  0
DICTIONARY
  5
1A
102
{ACAD_REACTORS
330
C
102
}
330
C
100
AcDbDictionary
281
     1
  3
Layout1
350
1E
  3
Model
350
22
  0
DICTIONARY
  5
17
102
{ACAD_REACTORS
330
C
102
}
330
C
100
AcDbDictionary
281
     1
  3
Standard
350
18
  0
DICTIONARY
  5
19
102
{ACAD_REACTORS
330
C
102
}
330
C
100
AcDbDictionary
281
     1
  0
ACDBDICTIONARYWDFLT
  5
E
102
{ACAD_REACTORS
330
C
102
}
330
C
100
AcDbDictionary
281
     1
  3
Normal
350
F
100
AcDbDictionaryWithDefault
340
F
  0
DICTIONARY
  5
165A
102
{ACAD_REACTORS
330
C
102
}
330
C
100
AcDbDictionary
281
     1
  3
ASEBlockHierarchyIndexRecord
350
165C
1001
DCO15
1040
1635236593.85
  0
DICTIONARY
  5
1672
102
{ACAD_REACTORS
330
1671
102
}
330
1671
100
AcDbDictionary
280
     1
281
     1
  3
DIM-1_12
360
1673
  3
dim-1_16
360
1674
  0
LAYOUT
  5
1E
102
{ACAD_REACTORS
330
1A
102
}
330
1A
100
AcDbPlotSettings
  1

  2

  4

  6

 40
0.0
 41
0.0
 42
0.0
 43
0.0
 44
0.0
 45
0.0
 46
0.0
 47
0.0
 48
0.0
 49
0.0
140
0.0
141
0.0
142
1.0
143
1.0
 70
     0
 72
     0
 73
     0
 74
     0
  7

 75
     0
147
1.0
148
0.0
149
0.0
100
AcDbLayout
  1
Layout1
 70
     0
 71
     1
 10
0.0
 20
0.0
 11
12.0
 21
9.0
 12
0.0
 22
0.0
 32
0.0
 14
1.000000000000000E+20
 24
1.000000000000000E+20
 34
1.000000000000000E+20
 15
-1.000000000000000E+20
 25
-1.000000000000000E+20
 35
-1.000000000000000E+20
146
0.0
 13
0.0
 23
0.0
 33
0.0
 16
1.0
 26
0.0
 36
0.0
 17
0.0
 27
1.0
 37
0.0
 76
     0
330
1B
  0
LAYOUT
  5
22
102
{ACAD_REACTORS
330
1A
102
}
330
1A
100
AcDbPlotSettings
  1

  2

  4

  6

 40
0.0
 41
0.0
 42
0.0
 43
0.0
 44
0.0
 45
0.0
 46
0.0
 47
0.0
 48
0.0
 49
0.0
140
0.0
141
0.0
142
1.0
143
1.0
 70
     0
 72
     0
 73
     0
 74
     0
  7

 75
     0
147
1.0
148
0.0
149
0.0
100
AcDbLayout
  1
Model
 70
     0
 71
     0
 10
0.0
 20
0.0
 11
0.0
 21
0.0
 12
0.0
 22
0.0
 32
0.0
 14
0.0
 24
0.0
 34
0.0
 15
0.0
 25
0.0
 35
0.0
146
0.0
 13
0.0
 23
0.0
 33
0.0
 16
0.0
 26
0.0
 36
0.0
 17
0.0
 27
0.0
 37
0.0
 76
     0
330
1F
  0
MLINESTYLE
  5
18
102
{ACAD_REACTORS
330
17
102
}
330
17
100
AcDbMlineStyle
  2
STANDARD
 70
     0
  3

 62
   256
 51
90.0
 52
90.0
 71
     2
 49
0.5
 62
   256
  6
BYLAYER
 49
-0.5
 62
   256
  6
BYLAYER
  0
ACDBPLACEHOLDER
  5
F
102
{ACAD_REACTORS
330
E
102
}
330
0
  0
XRECORD
  5
165C
102
{ACAD_REACTORS
330
165A
102
}
330
165A
100
AcDbXrecord
280
     1
330
0
330
0
330
0
330
0
330
0
330
0
330
0
330
0
330
0
330
0
330
0
330
0
330
0
330
0
330
0
330
0
330
0
330
0
330
0
330
0
330
0
330
0
330
0
330
0
330
0
330
0
330
0
330
0
330
0
330
0
330
0
330
0
330
0
330
0
330
0
330
0
  0
XRECORD
  5
1673
102
{ACAD_REACTORS
330
1672
102
}
330
1672
100
AcDbXrecord
280
     1
  1
DIM-1_12
  1
DIM-1_12
  1
*
  1
*
 70
     0
  1
*
  1
*
  0
XRECORD
  5
1674
102
{ACAD_REACTORS
330
1672
102
}
330
1672
100
AcDbXrecord
280
     1
  1
dim-1_16
  1
*
  1
*
  1
*
 70
     0
  1
*
  1
*
  0
ENDSEC
  0
EOF
