  0
SECTION
  2
HEADER
  9
$ACADVER
  1
AC1014
  9
$ACADMAINTVER
 70
     9
  9
$DWGCODEPAGE
  3
ANSI_1252
  9
$INSBASE
 10
5.8203125
 20
2.65625
 30
0.0
  9
$EXTMIN
 10
-48.05675194365917
 20
-1.525422996454494
 30
-0.0015258207003583
  9
$EXTMAX
 10
18.19629970718682
 20
24.97099144261713
 30
0.0000000349246037
  9
$LIMMIN
 10
0.0
 20
0.0
  9
$LIMMAX
 10
17.0
 20
11.0
  9
$ORTHOMODE
 70
     1
  9
$REGENMODE
 70
     1
  9
$FILLMODE
 70
     1
  9
$QTEXTMODE
 70
     0
  9
$MIRRTEXT
 70
     1
  9
$DRAGMODE
 70
     2
  9
$LTSCALE
 40
2.0
  9
$OSMODE
 70
    55
  9
$ATTMODE
 70
     1
  9
$TEXTSIZE
 40
0.0
  9
$TRACEWID
 40
0.05
  9
$TEXTSTYLE
  7
STANDARD
  9
$CLAYER
  8
0
  9
$CELTYPE
  6
BYLAYER
  9
$CECOLOR
 62
   256
  9
$CELTSCALE
 40
1.0
  9
$DELOBJ
 70
     1
  9
$DISPSILH
 70
     0
  9
$DIMSCALE
 40
1.0
  9
$DIMASZ
 40
0.18
  9
$DIMEXO
 40
0.0625
  9
$DIMDLI
 40
0.38
  9
$DIMRND
 40
0.0
  9
$DIMDLE
 40
0.0
  9
$DIMEXE
 40
0.18
  9
$DIMTP
 40
0.015625
  9
$DIMTM
 40
0.015625
  9
$DIMTXT
 40
0.125
  9
$DIMCEN
 40
0.09
  9
$DIMTSZ
 40
0.0
  9
$DIMTOL
 70
     0
  9
$DIMLIM
 70
     0
  9
$DIMTIH
 70
     1
  9
$DIMTOH
 70
     1
  9
$DIMSE1
 70
     0
  9
$DIMSE2
 70
     0
  9
$DIMTAD
 70
     0
  9
$DIMZIN
 70
     0
  9
$DIMBLK
  1

  9
$DIMASO
 70
     1
  9
$DIMSHO
 70
     1
  9
$DIMPOST
  1

  9
$DIMAPOST
  1
cm
  9
$DIMALT
 70
     1
  9
$DIMALTD
 70
     2
  9
$DIMALTF
 40
2.54
  9
$DIMLFAC
 40
16.0
  9
$DIMTOFL
 70
     0
  9
$DIMTVP
 40
0.0
  9
$DIMTIX
 70
     0
  9
$DIMSOXD
 70
     0
  9
$DIMSAH
 70
     0
  9
$DIMBLK1
  1

  9
$DIMBLK2
  1

  9
$DIMSTYLE
  2
STANDARD
  9
$DIMCLRD
 70
     0
  9
$DIMCLRE
 70
     0
  9
$DIMCLRT
 70
     0
  9
$DIMTFAC
 40
1.0
  9
$DIMGAP
 40
0.09
  9
$DIMJUST
 70
     0
  9
$DIMSD1
 70
     0
  9
$DIMSD2
 70
     0
  9
$DIMTOLJ
 70
     1
  9
$DIMTZIN
 70
     0
  9
$DIMALTZ
 70
     0
  9
$DIMALTTZ
 70
     0
  9
$DIMFIT
 70
     0
  9
$DIMUPT
 70
     0
  9
$DIMUNIT
 70
     5
  9
$DIMDEC
 70
     4
  9
$DIMTDEC
 70
     4
  9
$DIMALTU
 70
     2
  9
$DIMALTTD
 70
     2
  9
$DIMTXSTY
  7
STANDARD
  9
$DIMAUNIT
 70
     0
  9
$LUNITS
 70
     2
  9
$LUPREC
 70
     4
  9
$SKETCHINC
 40
0.1
  9
$FILLETRAD
 40
0.0
  9
$AUNITS
 70
     0
  9
$AUPREC
 70
     0
  9
$MENU
  1
acad
  9
$ELEVATION
 40
0.0
  9
$PELEVATION
 40
0.0
  9
$THICKNESS
 40
0.0
  9
$LIMCHECK
 70
     0
  9
$BLIPMODE
 70
     0
  9
$CHAMFERA
 40
0.0
  9
$CHAMFERB
 40
0.0
  9
$CHAMFERC
 40
0.0
  9
$CHAMFERD
 40
0.0
  9
$SKPOLY
 70
     0
  9
$TDCREATE
 40
2444971.833333333
  9
$TDUPDATE
 40
2453686.590565637
  9
$TDINDWG
 40
0.0277421528
  9
$TDUSRTIMER
 40
0.0277421528
  9
$USRTIMER
 70
     1
  9
$ANGBASE
 50
0.0
  9
$ANGDIR
 70
     0
  9
$PDMODE
 70
     0
  9
$PDSIZE
 40
0.0
  9
$PLINEWID
 40
0.0
  9
$COORDS
 70
     1
  9
$SPLFRAME
 70
     0
  9
$SPLINETYPE
 70
     6
  9
$SPLINESEGS
 70
     8
  9
$ATTDIA
 70
     0
  9
$ATTREQ
 70
     1
  9
$HANDLING
 70
 22529
  9
$HANDSEED
  5
151
  9
$SURFTAB1
 70
     6
  9
$SURFTAB2
 70
     6
  9
$SURFTYPE
 70
     6
  9
$SURFU
 70
     6
  9
$SURFV
 70
     6
  9
$UCSNAME
  2

  9
$UCSORG
 10
0.0
 20
0.0
 30
0.0
  9
$UCSXDIR
 10
1.0
 20
0.0
 30
0.0
  9
$UCSYDIR
 10
0.0
 20
1.0
 30
0.0
  9
$PUCSNAME
  2

  9
$PUCSORG
 10
0.0
 20
0.0
 30
0.0
  9
$PUCSXDIR
 10
1.0
 20
0.0
 30
0.0
  9
$PUCSYDIR
 10
0.0
 20
1.0
 30
0.0
  9
$USERI1
 70
     0
  9
$USERI2
 70
     0
  9
$USERI3
 70
     0
  9
$USERI4
 70
     0
  9
$USERI5
 70
     0
  9
$USERR1
 40
0.0
  9
$USERR2
 40
0.0
  9
$USERR3
 40
0.0
  9
$USERR4
 40
0.0
  9
$USERR5
 40
0.0
  9
$WORLDVIEW
 70
     1
  9
$SHADEDGE
 70
     3
  9
$SHADEDIF
 70
    70
  9
$TILEMODE
 70
     1
  9
$MAXACTVP
 70
    16
  9
$PINSBASE
 10
0.0
 20
0.0
 30
0.0
  9
$PLIMCHECK
 70
     0
  9
$PEXTMIN
 10
1.000000000000000E+20
 20
1.000000000000000E+20
 30
1.000000000000000E+20
  9
$PEXTMAX
 10
-1.000000000000000E+20
 20
-1.000000000000000E+20
 30
-1.000000000000000E+20
  9
$PLIMMIN
 10
0.0
 20
0.0
  9
$PLIMMAX
 10
12.0
 20
9.0
  9
$UNITMODE
 70
     0
  9
$VISRETAIN
 70
     0
  9
$PLINEGEN
 70
     1
  9
$PSLTSCALE
 70
     0
  9
$TREEDEPTH
 70
  3020
  9
$PICKSTYLE
 70
     1
  9
$CMLSTYLE
  2
STANDARD
  9
$CMLJUST
 70
     0
  9
$CMLSCALE
 40
1.0
  9
$PROXYGRAPHICS
 70
     1
  9
$MEASUREMENT
 70
     0
  0
ENDSEC
  0
SECTION
  2
CLASSES
  0
CLASS
  1
LWPOLYLINE
  2
AcDbPolyline
  3
AutoCAD 2000
 90
        0
280
     0
281
     1
  0
CLASS
  1
IMAGE
  2
AcDbRasterImage
  3
ISM
 90
      127
280
     0
281
     1
  0
CLASS
  1
OLE2FRAME
  2
AcDbOle2Frame
  3
AutoCAD 2000
 90
        0
280
     0
281
     1
  0
CLASS
  1
HATCH
  2
AcDbHatch
  3
AutoCAD 2000
 90
        0
280
     0
281
     1
  0
CLASS
  1
DICTIONARYVAR
  2
AcDbDictionaryVar
  3
AutoCAD 2000
 90
        0
280
     0
281
     0
  0
CLASS
  1
RASTERVARIABLES
  2
AcDbRasterVariables
  3
ISM
 90
        0
280
     0
281
     0
  0
CLASS
  1
IMAGEDEF
  2
AcDbRasterImageDef
  3
ISM
 90
        0
280
     0
281
     0
  0
CLASS
  1
IMAGEDEF_REACTOR
  2
AcDbRasterImageDefReactor
  3
ISM
 90
        1
280
     0
281
     0
  0
CLASS
  1
IDBUFFER
  2
AcDbIdBuffer
  3
AutoCAD 2000
 90
        0
280
     0
281
     0
  0
CLASS
  1
SPATIAL_FILTER
  2
AcDbSpatialFilter
  3
AutoCAD 2000
 90
        0
280
     0
281
     0
  0
CLASS
  1
XRECORD
  2
AcDbXrecord
  3
AutoCAD 2000
 90
        0
280
     0
281
     0
  0
CLASS
  1
SORTENTSTABLE
  2
AcDbSortentsTable
  3
AutoCAD 2000
 90
        0
280
     0
281
     0
  0
CLASS
  1
LAYER_INDEX
  2
AcDbLayerIndex
  3
AutoCAD 2000
 90
        0
280
     0
281
     0
  0
CLASS
  1
SPATIAL_INDEX
  2
AcDbSpatialIndex
  3
AutoCAD 2000
 90
        0
280
     0
281
     0
  0
CLASS
  1
OBJECT_PTR
  2
CAseDLPNTableRecord
  3
ASE-LPNTableRecord
 90
        1
280
     0
281
     0
  0
CLASS
  1
LAYOUT
  2
AcDbLayout
  3
AutoCAD 2000
 90
        0
280
     0
281
     0
  0
CLASS
  1
PLOTSETTINGS
  2
AcDbPlotSettings
  3
AutoCAD 2000
 90
        0
280
     0
281
     0
  0
CLASS
  1
ACDBDICTIONARYWDFLT
  2
AcDbDictionaryWithDefault
  3
AutoCAD 2000
 90
        0
280
     0
281
     0
  0
CLASS
  1
ACDBPLACEHOLDER
  2
AcDbPlaceHolder
  3
AutoCAD 2000
 90
        0
280
     0
281
     0
  0
CLASS
  1
VBA_PROJECT
  2
AcDbVbaProject
  3
acadvba
 90
        0
280
     0
281
     0
  0
CLASS
  1
WIPEOUT
  2
AcDbWipeout
  3
WipeOut|AutoCAD Express Tool|expresstools@autodesk.com
 90
        0
280
     1
281
     1
  0
CLASS
  1
WIPEOUTVARIABLES
  2
AcDbWipeoutVariables
  3
WipeOut|AutoCAD Express Tool|expresstools@autodesk.com
 90
        0
280
     1
281
     0
  0
CLASS
  1
RTEXT
  2
RText
  3
RText|AutoCAD Express Tool|expresstools@autodesk.com
 90
        0
280
     1
281
     1
  0
CLASS
  1
ARCALIGNEDTEXT
  2
AcDbArcAlignedText
  3
ATEXT|AutoCAD Express Tool|expresstools@autodesk.com
 90
        0
280
     1
281
     1
  0
CLASS
  1
LONG_TRANSACTION
  2
AcDbLongTransaction
  3
AutoCAD 2000
 90
        0
280
     0
281
     0
  0
CLASS
  1
LWPOLYLINE
  2
AcDbPolyline
  3
AutoCAD 2000
 90
        0
280
     0
281
     1
  0
CLASS
  1
HATCH
  2
AcDbHatch
  3
AutoCAD 2000
 90
        0
280
     0
281
     1
  0
CLASS
  1
XRECORD
  2
AcDbXrecord
  3
AutoCAD 2000
 90
        0
280
     0
281
     0
  0
CLASS
  1
LONG_TRANSACTION
  2
AcDbLongTransaction
  3
AutoCAD 2000
 90
        0
280
     0
281
     0
  0
CLASS
  1
LWPOLYLINE
  2
AcDbPolyline
  3
AutoCAD 2000
 90
        0
280
     0
281
     1
  0
CLASS
  1
HATCH
  2
AcDbHatch
  3
AutoCAD 2000
 90
        0
280
     0
281
     1
  0
CLASS
  1
XRECORD
  2
AcDbXrecord
  3
AutoCAD 2000
 90
        0
280
     0
281
     0
  0
CLASS
  1
LONG_TRANSACTION
  2
AcDbLongTransaction
  3
AutoCAD 2000
 90
        0
280
     0
281
     0
  0
CLASS
  1
LWPOLYLINE
  2
AcDbPolyline
  3
AutoCAD 2000
 90
        0
280
     0
281
     1
  0
CLASS
  1
HATCH
  2
AcDbHatch
  3
AutoCAD 2000
 90
        0
280
     0
281
     1
  0
CLASS
  1
XRECORD
  2
AcDbXrecord
  3
AutoCAD 2000
 90
        0
280
     0
281
     0
  0
ENDSEC
  0
SECTION
  2
TABLES
  0
TABLE
  2
VPORT
  5
1D
330
0
100
AcDbSymbolTable
 70
     3
  0
VPORT
  5
12D
330
1D
100
AcDbSymbolTableRecord
100
AcDbViewportTableRecord
  2
*ACTIVE
 70
     0
 10
0.0
 20
0.0
 11
1.0
 21
1.0
 12
-14.93022618665134
 22
11.72278410112278
 13
0.0
 23
0.0
 14
1.0
 24
1.0
 15
0.0
 25
0.0
 16
0.0
 26
0.0
 36
1.0
 17
0.0
 27
0.0
 37
0.0
 40
46.64225762834923
 41
1.786792452830188
 42
50.0
 43
0.0
 44
0.0
 50
0.0
 51
0.0
 71
     0
 72
   100
 73
     1
 74
     1
 75
     0
 76
     0
 77
     0
 78
     0
  0
ENDTAB
  0
TABLE
  2
LTYPE
  5
18
330
0
100
AcDbSymbolTable
 70
     3
  0
LTYPE
  5
19
330
18
100
AcDbSymbolTableRecord
100
AcDbLinetypeTableRecord
  2
BYBLOCK
 70
     0
  3

 72
    65
 73
     0
 40
0.0
  0
LTYPE
  5
1A
330
18
100
AcDbSymbolTableRecord
100
AcDbLinetypeTableRecord
  2
BYLAYER
 70
     0
  3

 72
    65
 73
     0
 40
0.0
  0
LTYPE
  5
8
330
18
100
AcDbSymbolTableRecord
100
AcDbLinetypeTableRecord
  2
CONTINUOUS
 70
     0
  3
Solid line
 72
    65
 73
     0
 40
0.0
  0
LTYPE
  5
40
330
18
100
AcDbSymbolTableRecord
100
AcDbLinetypeTableRecord
  2
CENTER
 70
     0
  3
____ _ ____ _ ____ _ ____ _ ____ _ ____ _ ____
 72
    65
 73
     4
 40
0.6
 49
0.375
 74
     0
 49
-0.075
 74
     0
 49
0.075
 74
     0
 49
-0.075
 74
     0
  0
LTYPE
  5
2D
330
18
100
AcDbSymbolTableRecord
100
AcDbLinetypeTableRecord
  2
HIDDEN
 70
     0
  3
- - - - - - - - - - - - - - - - - - - -
 72
    65
 73
     2
 40
0.2
 49
0.1
 74
     0
 49
-0.1
 74
     0
  0
ENDTAB
  0
TABLE
  2
LAYER
  5
10
102
{ACAD_XDICTIONARY
360
11
102
}
330
0
100
AcDbSymbolTable
 70
     3
  0
LAYER
  5
4
330
10
100
AcDbSymbolTableRecord
100
AcDbLayerTableRecord
  2
0
 70
     0
 62
     7
  6
CONTINUOUS
  0
LAYER
  5
3F
330
10
100
AcDbSymbolTableRecord
100
AcDbLayerTableRecord
  2
CENTER
 70
     0
 62
     1
  6
CENTER
  0
LAYER
  5
EB
330
10
100
AcDbSymbolTableRecord
100
AcDbLayerTableRecord
  2
DEFPOINTS
 70
     0
 62
     7
  6
CONTINUOUS
  0
ENDTAB
  0
TABLE
  2
STYLE
  5
15
330
0
100
AcDbSymbolTable
 70
     1
  0
STYLE
  5
16
330
15
100
AcDbSymbolTableRecord
100
AcDbTextStyleTableRecord
  2
STANDARD
 70
     0
 40
0.0
 41
1.0
 50
0.0
 71
     0
 42
0.0
  3
txt
  4

  0
ENDTAB
  0
TABLE
  2
VIEW
  5
1B
330
0
100
AcDbSymbolTable
 70
     0
  0
ENDTAB
  0
TABLE
  2
UCS
  5
1C
330
0
100
AcDbSymbolTable
 70
     0
  0
ENDTAB
  0
TABLE
  2
APPID
  5
1F
330
0
100
AcDbSymbolTable
 70
     1
  0
APPID
  5
20
330
1F
100
AcDbSymbolTableRecord
100
AcDbRegAppTableRecord
  2
ACAD
 70
     0
  0
ENDTAB
  0
TABLE
  2
DIMSTYLE
  5
21
330
0
100
AcDbSymbolTable
 70
     1
  0
DIMSTYLE
105
22
330
21
100
AcDbSymbolTableRecord
100
AcDbDimStyleTableRecord
  2
STANDARD
 70
     0
  3

  4
cm
  5

  6

  7

 40
1.0
 41
0.18
 42
0.0625
 43
0.38
 44
0.18
 45
0.0
 46
0.0
 47
0.015625
 48
0.015625
140
0.125
141
0.09
142
0.0
143
2.54
144
16.0
145
0.0
146
1.0
147
0.09
 71
     0
 72
     0
 73
     1
 74
     1
 75
     0
 76
     0
 77
     0
 78
     0
170
     1
171
     2
172
     0
173
     0
174
     0
175
     0
176
     0
177
     0
178
     0
270
     5
271
     4
272
     4
273
     2
274
     2
340
16
275
     0
280
     0
281
     0
282
     0
283
     1
284
     0
285
     0
286
     0
287
     0
288
     0
  0
ENDTAB
  0
TABLE
  2
BLOCK_RECORD
  5
1
330
0
100
AcDbSymbolTable
 70
     1
  0
BLOCK_RECORD
  5
2
102
{ACAD_XDICTIONARY
360
96
102
}
330
1
100
AcDbSymbolTableRecord
100
AcDbBlockTableRecord
  2
*MODEL_SPACE
  0
BLOCK_RECORD
  5
C
102
{ACAD_XDICTIONARY
360
9C
102
}
330
1
100
AcDbSymbolTableRecord
100
AcDbBlockTableRecord
  2
*PAPER_SPACE
  0
ENDTAB
  0
ENDSEC
  0
SECTION
  2
BLOCKS
  0
BLOCK
  5
3
330
2
100
AcDbEntity
  8
0
100
AcDbBlockBegin
  2
*MODEL_SPACE
 70
     0
 10
0.0
 20
0.0
 30
0.0
  3
*MODEL_SPACE
  1

  0
ENDBLK
  5
9
330
2
100
AcDbEntity
  8
0
100
AcDbBlockEnd
  0
BLOCK
  5
D
330
C
100
AcDbEntity
 67
     1
  8
0
100
AcDbBlockBegin
  2
*PAPER_SPACE
 70
     0
 10
0.0
 20
0.0
 30
0.0
  3
*PAPER_SPACE
  1

  0
ENDBLK
  5
E
330
C
100
AcDbEntity
 67
     1
  8
0
100
AcDbBlockEnd
  0
ENDSEC
  0
SECTION
  2
ENTITIES
  0
ARC
  5
2A
330
2
100
AcDbEntity
  8
0
100
AcDbCircle
 10
-33.37493650319999
 20
6.15625
 30
0.0
 40
2.509999999999999
100
AcDbArc
 50
197.4610949871004
 51
270.0000000000006
  0
ARC
  5
2B
330
2
100
AcDbEntity
  8
0
100
AcDbCircle
 10
-117.1379416038497
 20
-20.83620026419115
 30
0.0
 40
85.49479813659388
100
AcDbArc
 50
17.87317853711456
 51
29.0566533772181
  0
LINE
  5
2F
330
2
100
AcDbEntity
  8
0
100
AcDbLine
 10
17.67354575119999
 20
24.65519303189934
 30
0.0
 11
-47.5329207512
 21
24.65625
 31
0.0
  0
SPLINE
  5
31
330
2
100
AcDbEntity
  8
0
  6
CONTINUOUS
 62
     7
100
AcDbSpline
210
0.0
220
0.0
230
1.0
 70
     8
 71
     3
 72
    11
 73
     7
 74
     5
 42
0.0000000001
 43
0.0000000001
 44
0.0000000001
 40
0.0
 40
0.0
 40
0.0
 40
0.0
 40
0.0255368793755916
 40
0.0669121865755908
 40
0.1191069626735966
 40
0.1767437203263208
 40
0.1767437203263208
 40
0.1767437203263208
 40
0.1767437203263208
 10
-48.044644644
 20
20.6563057584
 30
0.0
 10
-48.03613236297794
 20
20.65632109939468
 30
0.0
 10
-48.01382833249894
 20
20.65636129614243
 30
0.0
 10
-47.97412598820829
 20
20.65634698132725
 30
0.0
 10
-47.9237237379679
 20
20.65629966354197
 30
0.0
 10
-47.88711323998732
 20
20.65626709246275
 30
0.0
 10
-47.8679009944
 20
20.65625
 30
0.0
 11
-48.044644644
 21
20.6563057584
 31
0.0
 11
-48.01910779439999
 21
20.6563447552
 31
0.0
 11
-47.9777324872
 21
20.6563447552
 31
0.0
 11
-47.9255377288
 21
20.6563017728
 31
0.0
 11
-47.8679009944
 21
20.65625
 31
0.0
  0
SPLINE
  5
32
330
2
100
AcDbEntity
  8
0
  6
CONTINUOUS
 62
     7
100
AcDbSpline
210
0.0
220
0.0
230
1.0
 70
     8
 71
     3
 72
     9
 73
     5
 74
     3
 42
0.0000000001
 43
0.0000000001
 44
0.0000000001
 40
0.0
 40
0.0
 40
0.0
 40
0.0
 40
0.0090590258408117
 40
0.0100310612118484
 40
0.0100310612118484
 40
0.0100310612118484
 40
0.0100310612118484
 10
-48.05467554959999
 20
20.656250088
 30
0.0
 10
-48.05165593419691
 20
20.6562695048357
 30
0.0
 10
-48.04831231342831
 20
20.65629100510194
 30
0.0
 10
-48.04496865319022
 20
20.65630445506439
 30
0.0
 10
-48.044644644
 20
20.6563057584
 30
0.0
 11
-48.05467554959999
 21
20.656250088
 31
0.0
 11
-48.0456166712
 21
20.6563017728
 31
0.0
 11
-48.044644644
 21
20.6563057584
 31
0.0
  0
LINE
  5
33
330
2
100
AcDbEntity
  8
0
100
AcDbLine
 10
-48.0546875
 20
20.65625
 30
0.0
 11
-47.7197072568
 21
24.48509170239999
 31
0.0
  0
LINE
  5
34
330
2
100
AcDbEntity
  8
0
  6
HIDDEN
100
AcDbLine
 10
-43.87873654159999
 20
23.28082805759999
 30
0.0
 11
-42.44737968399999
 21
20.6537539376
 31
0.0
  0
ARC
  5
36
330
2
100
AcDbEntity
  8
0
  6
CONTINUOUS
 62
     7
100
AcDbCircle
 10
-47.5329207512
 20
24.46875
 30
0.0
 40
0.1875
100
AcDbArc
 50
90.00000000000019
 51
175.0000000000003
  0
ARC
  5
37
330
2
100
AcDbEntity
  8
0
  6
HIDDEN
100
AcDbCircle
 10
-46.1180733144
 20
22.14543911839999
 30
0.0
 40
2.510724441599999
100
AcDbArc
 50
26.88592824840005
 51
89.7939419428002
  0
LINE
  5
38
330
2
100
AcDbEntity
  8
0
100
AcDbLine
 10
10.584356948
 20
3.646250000000001
 30
0.0
 11
-33.37493650319999
 21
3.646250000000001
 31
0.0
  0
LINE
  5
39
330
2
100
AcDbEntity
  8
0
100
AcDbLine
 10
-32.3046875
 20
2.65625
 30
0.0
 11
8.6953125
 21
2.65625
 31
0.0
  0
LINE
  5
3A
330
2
100
AcDbEntity
  8
0
100
AcDbLine
 10
7.143535803999995
 20
3.146250000000001
 30
0.0
 11
4.497089196000004
 21
3.146250000000001
 31
0.0
  0
LINE
  5
3B
330
2
100
AcDbEntity
  8
0
100
AcDbLine
 10
-32.80520048559999
 20
3.085641081600002
 30
0.0
 11
-32.8917580616
 21
3.643129752
 31
0.0
  0
ARC
  5
3C
330
2
100
AcDbEntity
  8
0
100
AcDbCircle
 10
-32.3046875
 20
3.1626531008
 30
0.0
 40
0.5064031008
100
AcDbArc
 50
188.7472828565003
 51
270.0000000000006
  0
ARC
  5
3D
330
2
100
AcDbEntity
  8
0
100
AcDbCircle
 10
-33.37493650319999
 20
6.15625
 30
0.0
 40
2.5
100
AcDbArc
 50
231.5839065201005
 51
270.0000000000006
  0
LINE
  5
3E
330
2
100
AcDbEntity
  8
CENTER
 48
4.0
100
AcDbLine
 10
5.8203125
 20
6.836295471152205
 30
0.0
 11
5.8203125
 21
-1.523795471152205
 31
0.0
  0
LINE
  5
41
330
2
100
AcDbEntity
  8
0
100
AcDbLine
 10
4.401629779999993
 20
3.185790584000002
 30
0.0
 11
4.011464736799993
 21
3.575955627200002
 31
0.0
  0
ARC
  5
42
330
2
100
AcDbEntity
  8
0
100
AcDbCircle
 10
4.497089196000004
 20
3.28125
 30
0.0
 40
0.135
100
AcDbArc
 50
225.0000006612005
 51
270.0000000000006
  0
ARC
  5
43
330
2
100
AcDbEntity
  8
0
100
AcDbCircle
 10
3.841759109600005
 20
3.40625
 30
0.0
 40
0.24
100
AcDbArc
 50
45.0000012101001
 51
89.99999967470021
  0
SPLINE
  5
44
330
2
100
AcDbEntity
  8
0
  6
HIDDEN
100
AcDbSpline
210
0.0
220
0.0
230
1.0
 70
     8
 71
     3
 72
    13
 73
     9
 74
     7
 42
0.0000000001
 43
0.0000000001
 44
0.0000000001
 40
0.0
 40
0.0
 40
0.0
 40
0.0
 40
0.4631653769748611
 40
0.9349927477535862
 40
1.411172617734154
 40
1.887352487714722
 40
2.359179858493448
 40
2.822345235468309
 40
2.822345235468309
 40
2.822345235468309
 40
2.822345235468309
 10
-16.21548027279999
 20
21.452071256
 30
0.0
 10
-16.06119609535272
 20
21.45781498758095
 30
0.0
 10
-15.74974235943549
 20
21.46940986845979
 30
0.0
 10
-15.279416917176
 20
21.478512354577
 30
0.0
 10
-14.8046875
 20
21.48182766231518
 30
0.0
 10
-14.32995808282399
 20
21.478512354577
 30
0.0
 10
-13.8596326405645
 20
21.46940986845979
 30
0.0
 10
-13.54817890464728
 20
21.45781498758095
 30
0.0
 10
-13.3938947272
 20
21.452071256
 30
0.0
 11
-16.21548027279999
 21
21.452071256
 31
0.0
 11
-15.75258672079999
 21
21.4679371296
 31
0.0
 11
-15.2808565976
 21
21.47751620479999
 31
0.0
 11
-14.8046875
 21
21.4807191824
 31
0.0
 11
-14.32851840239999
 21
21.47751620479999
 31
0.0
 11
-13.8567882792
 21
21.4679371296
 31
0.0
 11
-13.3938947272
 21
21.452071256
 31
0.0
  0
SPLINE
  5
45
330
2
100
AcDbEntity
  8
0
  6
HIDDEN
100
AcDbSpline
210
0.0
220
0.0
230
1.0
 70
     8
 71
     3
 72
    21
 73
    17
 74
    15
 42
0.0000000001
 43
0.0000000001
 44
0.0000000001
 40
0.0
 40
0.0
 40
0.0
 40
0.0
 40
0.4109593532781992
 40
0.8504652696423306
 40
1.314243837226317
 40
1.797762417286863
 40
2.296274088144059
 40
2.804870874686348
 40
3.318537175634474
 40
3.832203476582599
 40
4.340800263124887
 40
4.839311933982084
 40
5.32283051404263
 40
5.786609081626616
 40
6.226114997990748
 40
6.637074351268947
 40
6.637074351268947
 40
6.637074351268947
 40
6.637074351268947
 10
-11.49218749999999
 20
22.32807353279999
 30
0.0
 10
-11.62834700615864
 20
22.34314948127261
 30
0.0
 10
-11.91012409724041
 20
22.37434860225769
 30
0.0
 10
-12.34672275541335
 20
22.41091136799837
 30
0.0
 10
-12.80795397797277
 20
22.44205327784275
 30
0.0
 10
-13.28929689467922
 20
22.46642367632122
 30
0.0
 10
-13.78587629800822
 20
22.48406498148945
 30
0.0
 10
-14.29270690501351
 20
22.49471046954915
 30
0.0
 10
-14.8046875
 20
22.49827395808055
 30
0.0
 10
-15.31666809498647
 20
22.49471046954915
 30
0.0
 10
-15.82349870199178
 20
22.48406498148946
 30
0.0
 10
-16.32007810532077
 20
22.46642367632122
 30
0.0
 10
-16.80142102202723
 20
22.44205327784275
 30
0.0
 10
-17.26265224458664
 20
22.41091136799837
 30
0.0
 10
-17.69925090275958
 20
22.37434860225769
 30
0.0
 10
-17.98102799384135
 20
22.34314948127261
 30
0.0
 10
-18.1171875
 20
22.32807353279999
 30
0.0
 11
-11.49218749999999
 21
22.32807353279999
 31
0.0
 11
-11.900841588
 21
22.37154106559999
 31
0.0
 11
-12.3387406744
 21
22.4090889104
 31
0.0
 11
-12.8014652408
 21
22.4403384768
 31
0.0
 11
-13.28435573519999
 21
22.4649755968
 31
0.0
 11
-13.78255034
 21
22.48275259679999
 31
0.0
 11
-14.2910337544
 21
22.4934907792
 31
0.0
 11
-14.8046875
 21
22.497082208
 31
0.0
 11
-15.31834124559999
 21
22.4934907792
 31
0.0
 11
-15.82682466
 21
22.48275259679999
 31
0.0
 11
-16.3250192648
 21
22.4649755968
 31
0.0
 11
-16.8079097592
 21
22.4403384768
 31
0.0
 11
-17.2706343256
 21
22.4090889104
 31
0.0
 11
-17.70853341199999
 21
22.37154106559999
 31
0.0
 11
-18.1171875
 21
22.32807353279999
 31
0.0
  0
SPLINE
  5
46
330
2
100
AcDbEntity
  8
0
  6
HIDDEN
100
AcDbSpline
210
0.0
220
0.0
230
1.0
 70
     8
 71
     3
 72
    14
 73
    10
 74
     8
 42
0.0000000001
 43
0.0000000001
 44
0.0000000001
 40
0.0
 40
0.0
 40
0.0
 40
0.0
 40
0.2733874514156249
 40
0.5286547574450323
 40
0.7603166545781077
 40
0.9634788284772781
 40
1.134008680280934
 40
1.268777244794285
 40
1.366173205765421
 40
1.366173205765421
 40
1.366173205765421
 40
1.366173205765421
 10
-16.21548027279999
 20
21.452071256
 30
0.0
 10
-16.30650888653129
 20
21.44772025635681
 30
0.0
 10
-16.48253272911623
 20
21.43930664172636
 30
0.0
 10
-16.73524683030993
 20
21.41946561962325
 30
0.0
 10
-16.96397291508453
 20
21.3950017792395
 30
0.0
 10
-17.16390058043602
 20
21.36658039807732
 30
0.0
 10
-17.32999867773209
 20
21.33354720494698
 30
0.0
 10
-17.46086004020914
 20
21.30099611238977
 30
0.0
 10
-17.53115132988556
 20
21.26828543609263
 30
0.0
 10
-17.5606394168
 20
21.2545628928
 30
0.0
 11
-16.21548027279999
 21
21.452071256
 31
0.0
 11
-16.4884833336
 21
21.4375789344
 31
0.0
 11
-16.7429674232
 21
21.4175978016
 31
0.0
 11
-16.9732736312
 21
21.392572112
 31
0.0
 11
-17.1742806056
 21
21.36305829919999
 31
0.0
 11
-17.3415184456
 21
21.3297126064
 31
0.0
 11
-17.4712681112
 21
21.29327649439999
 31
0.0
 11
-17.5606394168
 21
21.2545628928
 31
0.0
  0
SPLINE
  5
47
330
2
100
AcDbEntity
  8
0
  6
HIDDEN
100
AcDbSpline
210
0.0
220
0.0
230
1.0
 70
     8
 71
     3
 72
    14
 73
    10
 74
     8
 42
0.0000000001
 43
0.0000000001
 44
0.0000000001
 40
0.0
 40
0.0
 40
0.0
 40
0.0
 40
0.0839631617103498
 40
0.1678477586834003
 40
0.2515906036951458
 40
0.3351563484679624
 40
0.4185446170210538
 40
0.5017902863799926
 40
0.5849567148204153
 40
0.5849567148204153
 40
0.5849567148204153
 40
0.5849567148204153
 10
-18.1171875
 20
22.2448309616
 30
0.0
 10
-18.14523222925308
 20
22.24302537238667
 30
0.0
 10
-18.2012954461702
 20
22.23941588345859
 30
0.0
 10
-18.28120361511932
 20
22.21068159050665
 30
0.0
 10
-18.35287887876567
 20
22.16637634141766
 30
0.0
 10
-18.41284988448983
 20
22.10701997920625
 30
0.0
 10
-18.45763975279639
 20
22.03603167224398
 30
0.0
 10
-18.486707648773
 20
21.95684896607341
 30
0.0
 10
-18.49036146287332
 20
21.9012611234178
 30
0.0
 10
-18.4921875
 20
21.8734804368
 30
0.0
 11
-18.1171875
 21
22.2448309616
 31
0.0
 11
-18.20063285039999
 21
22.2355204288
 31
0.0
 11
-18.2798939016
 21
22.2080556992
 31
0.0
 11
-18.35099617519999
 21
22.163813968
 31
0.0
 11
-18.4103743064
 21
22.1050137024
 31
0.0
 11
-18.45505082479999
 21
22.0346033904
 31
0.0
 11
-18.4827854664
 21
21.9561137024
 31
0.0
 11
-18.4921875
 21
21.8734804368
 31
0.0
  0
SPLINE
  5
48
330
2
100
AcDbEntity
  8
0
  6
HIDDEN
100
AcDbSpline
210
0.0
220
0.0
230
1.0
 70
     8
 71
     3
 72
    15
 73
    11
 74
     9
 42
0.0000000001
 43
0.0000000001
 44
0.0000000001
 40
0.0
 40
0.0
 40
0.0
 40
0.0
 40
0.0420763692124612
 40
0.0839533179394037
 40
0.1255945693129362
 40
0.167020071837668
 40
0.2082770004783812
 40
0.2494173877777925
 40
0.2905023684578713
 40
0.3314860375769344
 40
0.3314860375769344
 40
0.3314860375769344
 40
0.3314860375769344
 10
-17.5606394168
 20
21.2545628928
 30
0.0
 10
-17.54716887958039
 20
21.25857428495896
 30
0.0
 10
-17.52029164860303
 20
21.26657805732821
 30
0.0
 10
-17.4831343276777
 20
21.28644276136806
 30
0.0
 10
-17.44963397705439
 20
21.31143005519285
 30
0.0
 10
-17.42082598365724
 20
21.34149157669823
 30
0.0
 10
-17.39740837466938
 20
21.37572710541622
 30
0.0
 10
-17.38024863246784
 20
21.41331025977869
 30
0.0
 10
-17.36924888055528
 20
21.45320022446424
 30
0.0
 10
-17.36787406112577
 20
21.48059043044785
 30
0.0
 10
-17.3671875
 20
21.49426862719999
 30
0.0
 11
-17.5606394168
 21
21.2545628928
 31
0.0
 11
-17.52074011279999
 21
21.267922024
 31
0.0
 11
-17.483646812
 21
21.287358224
 31
0.0
 11
-17.450336092
 21
21.312346016
 31
0.0
 11
-17.421670996
 21
21.34225227839999
 31
0.0
 11
-17.3984224536
 21
21.3763351104
 31
0.0
 11
-17.3812637144
 21
21.413726408
 31
0.0
 11
-17.3707315208
 21
21.4534384784
 31
0.0
 11
-17.3671875
 21
21.49426862719999
 31
0.0
  0
SPLINE
  5
49
330
2
100
AcDbEntity
  8
0
  6
HIDDEN
100
AcDbSpline
210
0.0
220
0.0
230
1.0
 70
     8
 71
     3
 72
    15
 73
    11
 74
     9
 42
0.0000000001
 43
0.0000000001
 44
0.0000000001
 40
0.0
 40
0.0
 40
0.0
 40
0.0
 40
0.0411081301786444
 40
0.0823789915506691
 40
0.1236966237262676
 40
0.1650326033176759
 40
0.2063937090515839
 40
0.2478667892037843
 40
0.2895555116024389
 40
0.3314858853844134
 40
0.3314858853844134
 40
0.3314858853844134
 40
0.3314858853844134
 10
-17.3671875
 20
22.00512522879999
 30
0.0
 10
-17.36787832939662
 20
22.0188450547266
 30
0.0
 10
-17.36926272291636
 20
22.04633901806603
 30
0.0
 10
-17.38034475082009
 20
22.08637890767579
 30
0.0
 10
-17.39762860112202
 20
22.12406944506315
 30
0.0
 10
-17.42115634714909
 20
22.15830833570854
 30
0.0
 10
-17.44999188511722
 20
22.18827098345578
 30
0.0
 10
-17.4834186447139
 20
22.2131193235179
 30
0.0
 10
-17.52044401681558
 20
22.23286828280685
 30
0.0
 10
-17.54721516143544
 20
22.24083572694565
 30
0.0
 10
-17.5606394168
 20
22.2448309616
 30
0.0
 11
-17.3671875
 21
22.00512522879999
 31
0.0
 11
-17.37075306479999
 21
22.0460784352
 31
0.0
 11
-17.3813692824
 21
22.0859605104
 31
0.0
 11
-17.39866384559999
 21
22.12348443359999
 31
0.0
 11
-17.42202988079999
 21
22.15758269759999
 31
0.0
 11
-17.4507137672
 21
22.1873816192
 31
0.0
 11
-17.48393048719999
 21
22.2122143776
 31
0.0
 11
-17.520874868
 21
22.23152919839999
 31
0.0
 11
-17.5606394168
 21
22.2448309616
 31
0.0
  0
SPLINE
  5
4A
330
2
100
AcDbEntity
  8
0
  6
HIDDEN
100
AcDbSpline
210
0.0
220
0.0
230
1.0
 70
     8
 71
     3
 72
    14
 73
    10
 74
     8
 42
0.0000000001
 43
0.0000000001
 44
0.0000000001
 40
0.0
 40
0.0
 40
0.0
 40
0.0
 40
0.0831664284404227
 40
0.1664120993079572
 40
0.2498003665100611
 40
0.333366112408703
 40
0.4171089565751574
 40
0.5009935540720653
 40
0.5849567157824151
 40
0.5849567157824151
 40
0.5849567157824151
 40
0.5849567157824151
 10
-18.4921875
 20
21.6259134192
 30
0.0
 10
-18.49036146277065
 20
21.59813273263077
 30
0.0
 10
-18.48670764843177
 20
21.54254488956843
 30
0.0
 10
-18.45763975376579
 20
21.46336218265655
 30
0.0
 10
-18.41284988328825
 20
21.39237387678361
 30
0.0
 10
-18.35287887996178
 20
21.3330175124849
 30
0.0
 10
-18.28120361417287
 20
21.28871226631773
 30
0.0
 10
-18.20129544659724
 20
21.25997797035734
 30
0.0
 10
-18.14523222933713
 20
21.25636848181482
 30
0.0
 10
-18.1171875
 20
21.2545628928
 30
0.0
 11
-18.4921875
 21
21.6259134192
 31
0.0
 11
-18.4827854664
 21
21.5432801536
 31
0.0
 11
-18.45505082479999
 21
21.46479046399999
 31
0.0
 11
-18.4103743064
 21
21.39438015359999
 31
0.0
 11
-18.35099617519999
 21
21.33557988639999
 31
0.0
 11
-18.2798939016
 21
21.2913381568
 31
0.0
 11
-18.20063285039999
 21
21.2638734256
 31
0.0
 11
-18.1171875
 21
21.2545628928
 31
0.0
  0
SPLINE
  5
4B
330
2
100
AcDbEntity
  8
0
  6
HIDDEN
100
AcDbSpline
210
0.0
220
0.0
230
1.0
 70
     8
 71
     3
 72
    19
 73
    15
 74
    13
 42
0.0000000001
 43
0.0000000001
 44
0.0000000001
 40
0.0
 40
0.0
 40
0.0
 40
0.0
 40
0.0686268807327133
 40
0.1374777155627199
 40
0.202839724637847
 40
0.2618425257114957
 40
0.3138010893090267
 40
0.3600307630846741
 40
0.4016755983877534
 40
0.4400591689587476
 40
0.4753462903277024
 40
0.5080941507997263
 40
0.5407491003836217
 40
0.5717749371990419
 40
0.5717749371990419
 40
0.5717749371990419
 40
0.5717749371990419
 10
-18.4921508168
 20
21.9738167936
 30
0.0
 10
-18.49059166513739
 20
21.99670812488315
 30
0.0
 10
-18.48746827374173
 20
22.04256549006422
 30
0.0
 10
-18.46662348682088
 20
22.10756436247726
 30
0.0
 10
-18.43611729212336
 20
22.1646337159278
 30
0.0
 10
-18.39917500647909
 20
22.21075547514775
 30
0.0
 10
-18.36014099344502
 20
22.24599603848528
 30
0.0
 10
-18.32136763234716
 20
22.27211118630691
 30
0.0
 10
-18.28374119121374
 20
22.29117210710673
 30
0.0
 10
-18.24770349577223
 20
22.30473511561763
 30
0.0
 10
-18.21342928592464
 20
22.31404677769873
 30
0.0
 10
-18.18042946124157
 20
22.32031291456821
 30
0.0
 10
-18.14854946873519
 20
22.32447187925078
 30
0.0
 10
-18.12746166342342
 20
22.32689363311093
 30
0.0
 10
-18.1171875
 20
22.32807353279999
 30
0.0
 11
-18.4921508168
 21
21.9738167936
 31
0.0
 11
-18.48473119759999
 21
22.042041408
 31
0.0
 11
-18.46431803439999
 21
22.10779656159999
 31
0.0
 11
-18.43333973999999
 21
22.16535120959999
 31
0.0
 11
-18.3964815736
 21
22.2114251296
 31
0.0
 11
-18.35792209679999
 21
22.246251256
 31
0.0
 11
-18.319592188
 21
22.272096968
 31
0.0
 11
-18.2824550296
 21
22.29094169599999
 31
0.0
 11
-18.2465447064
 21
22.3044970336
 31
0.0
 11
-18.2125077448
 21
22.31380650079999
 31
0.0
 11
-18.18035195119999
 21
22.32000547679999
 31
0.0
 11
-18.148001804
 21
22.324456736
 31
0.0
 11
-18.1171875
 21
22.32807353279999
 31
0.0
  0
LINE
  5
4C
330
2
100
AcDbEntity
  8
0
  6
HIDDEN
100
AcDbLine
 10
-18.1171875
 20
22.2448309616
 30
0.0
 11
-17.5606394168
 21
22.2448309616
 31
0.0
  0
LINE
  5
4D
330
2
100
AcDbEntity
  8
0
  6
HIDDEN
100
AcDbLine
 10
-18.1171875
 20
21.2545628928
 30
0.0
 11
-17.5606394168
 21
21.2545628928
 31
0.0
  0
LINE
  5
4E
330
2
100
AcDbEntity
  8
0
  6
HIDDEN
100
AcDbLine
 10
-17.3671875
 20
22.00512522879999
 30
0.0
 11
-17.3671875
 21
21.49426862719999
 31
0.0
  0
LINE
  5
4F
330
2
100
AcDbEntity
  8
0
  6
HIDDEN
100
AcDbLine
 10
-18.4921875
 20
21.968618032
 30
0.0
 11
-18.4921875
 21
21.6259134192
 31
0.0
  0
LINE
  5
50
330
2
100
AcDbEntity
  8
0
  6
HIDDEN
100
AcDbLine
 10
-11.49218749999999
 20
22.2448309616
 30
0.0
 11
-12.0487355832
 21
22.2448309616
 31
0.0
  0
LINE
  5
51
330
2
100
AcDbEntity
  8
0
  6
HIDDEN
100
AcDbLine
 10
-11.49218749999999
 20
21.2545628928
 30
0.0
 11
-12.0487355832
 21
21.2545628928
 31
0.0
  0
SPLINE
  5
52
330
2
100
AcDbEntity
  8
0
  6
HIDDEN
100
AcDbSpline
210
0.0
220
0.0
230
1.0
 70
     8
 71
     3
 72
    15
 73
    11
 74
     9
 42
0.0000000001
 43
0.0000000001
 44
0.0000000001
 40
0.0
 40
0.0
 40
0.0
 40
0.0
 40
0.0411081301786373
 40
0.0823789930968282
 40
0.1236966238193357
 40
0.1650326047305924
 40
0.2063937104644952
 40
0.2478667906167
 40
0.2895555122740578
 40
0.3314858865636053
 40
0.3314858865636053
 40
0.3314858865636053
 40
0.3314858865636053
 10
-12.2421875
 20
21.49426862719999
 30
0.0
 10
-12.24149667052154
 20
21.48054880130101
 30
0.0
 10
-12.24011227681184
 20
21.45305483750091
 30
0.0
 10
-12.22903024996486
 20
21.41301494746778
 30
0.0
 10
-12.21174639788949
 20
21.37532441044256
 30
0.0
 10
-12.18821865349356
 20
21.34108551877014
 30
0.0
 10
-12.15938311472424
 20
21.31112287114803
 30
0.0
 10
-12.1259563557836
 20
21.28627453045221
 30
0.0
 10
-12.08893098244027
 20
21.26652557385493
 30
0.0
 10
-12.06215983844925
 20
21.25855812824938
 30
0.0
 10
-12.0487355832
 20
21.2545628928
 30
0.0
 11
-12.2421875
 21
21.49426862719999
 31
0.0
 11
-12.2386219352
 21
21.4533154208
 31
0.0
 11
-12.22800571759999
 21
21.41343334399999
 31
0.0
 11
-12.2107111544
 21
21.3759094224
 31
0.0
 11
-12.1873451192
 21
21.3418111568
 31
0.0
 11
-12.1586612328
 21
21.3120122352
 31
0.0
 11
-12.1254445128
 21
21.28717947679999
 31
0.0
 11
-12.08850013199999
 21
21.26786465759999
 31
0.0
 11
-12.0487355832
 21
21.2545628928
 31
0.0
  0
SPLINE
  5
53
330
2
100
AcDbEntity
  8
0
  6
HIDDEN
100
AcDbSpline
210
0.0
220
0.0
230
1.0
 70
     8
 71
     3
 72
    15
 73
    11
 74
     9
 42
0.0000000001
 43
0.0000000001
 44
0.0000000001
 40
0.0
 40
0.0
 40
0.0
 40
0.0
 40
0.0420766308235977
 40
0.0839540548395341
 40
0.1255957695876386
 40
0.1670214849364041
 40
0.2082782492483056
 40
0.2494181956310383
 40
0.2905026851328356
 40
0.3314860371224366
 40
0.3314860371224366
 40
0.3314860371224366
 40
0.3314860371224366
 10
-12.0487355832
 20
22.2448309616
 30
0.0
 10
-12.06220620336082
 20
22.24081954051829
 30
0.0
 10
-12.08908366863234
 20
22.23281568995121
 30
0.0
 10
-12.12624131037369
 20
22.21295071994781
 30
0.0
 10
-12.15974188064979
 20
22.18796306998365
 30
0.0
 10
-12.18854983491488
 20
22.15790127010562
 30
0.0
 10
-12.21196718642004
 20
22.1236657267951
 30
0.0
 10
-12.22912661580022
 20
22.08608283611344
 30
0.0
 10
-12.24012615408787
 20
22.04619325511257
 30
0.0
 10
-12.24150094944572
 20
22.01880331944075
 30
0.0
 10
-12.2421875
 20
22.00512522879999
 30
0.0
 11
-12.0487355832
 21
22.2448309616
 31
0.0
 11
-12.08863512879999
 21
22.231471728
 31
0.0
 11
-12.1257288136
 21
22.21203523679999
 31
0.0
 11
-12.1590398104
 21
22.1870470416
 31
0.0
 11
-12.1877048968
 21
22.1571404752
 31
0.0
 11
-12.210953164
 21
22.1230576544
 31
0.0
 11
-12.2281115608
 21
22.0856666848
 31
0.0
 11
-12.23864353359999
 21
22.045955064
 31
0.0
 11
-12.2421875
 21
22.00512522879999
 31
0.0
  0
SPLINE
  5
54
330
2
100
AcDbEntity
  8
0
  6
HIDDEN
100
AcDbSpline
210
0.0
220
0.0
230
1.0
 70
     8
 71
     3
 72
    14
 73
    10
 74
     8
 42
0.0000000001
 43
0.0000000001
 44
0.0000000001
 40
0.0
 40
0.0
 40
0.0
 40
0.0
 40
0.0973959609711362
 40
0.2321645254844871
 40
0.4026943772881432
 40
0.6058565511873138
 40
0.8375184483203891
 40
1.092785754349796
 40
1.366173205765421
 40
1.366173205765421
 40
1.366173205765421
 40
1.366173205765421
 10
-12.0487355832
 20
21.2545628928
 30
0.0
 10
-12.07822367011444
 20
21.26828543609263
 30
0.0
 10
-12.14851495979086
 20
21.30099611238977
 30
0.0
 10
-12.2793763222679
 20
21.33354720494698
 30
0.0
 10
-12.44547441956397
 20
21.36658039807732
 30
0.0
 10
-12.64540208491546
 20
21.3950017792395
 30
0.0
 10
-12.87412816969006
 20
21.41946561962326
 30
0.0
 10
-13.12684227088376
 20
21.43930664172635
 30
0.0
 10
-13.3028661134687
 20
21.44772025635681
 30
0.0
 10
-13.3938947272
 20
21.452071256
 30
0.0
 11
-12.0487355832
 21
21.2545628928
 31
0.0
 11
-12.13810688879999
 21
21.29327649439999
 31
0.0
 11
-12.26785655439999
 21
21.3297126064
 31
0.0
 11
-12.43509439439999
 21
21.36305829919999
 31
0.0
 11
-12.63610136879999
 21
21.392572112
 31
0.0
 11
-12.8664075768
 21
21.4175978016
 31
0.0
 11
-13.12089166639999
 21
21.4375789344
 31
0.0
 11
-13.3938947272
 21
21.452071256
 31
0.0
  0
LINE
  5
55
330
2
100
AcDbEntity
  8
0
  6
HIDDEN
100
AcDbLine
 10
-12.2421875
 20
22.00512522879999
 30
0.0
 11
-12.2421875
 21
21.49426862719999
 31
0.0
  0
SPLINE
  5
56
330
2
100
AcDbEntity
  8
0
  6
HIDDEN
100
AcDbSpline
210
0.0
220
0.0
230
1.0
 70
     8
 71
     3
 72
    14
 73
    10
 74
     8
 42
0.0000000001
 43
0.0000000001
 44
0.0000000001
 40
0.0
 40
0.0
 40
0.0
 40
0.0
 40
0.0831664284404227
 40
0.1664120977993613
 40
0.2498003663524527
 40
0.3333661111252693
 40
0.4171089561370148
 40
0.5009935531100654
 40
0.5849567148204152
 40
0.5849567148204152
 40
0.5849567148204152
 40
0.5849567148204152
 10
-11.1171875
 20
21.8734804368
 30
0.0
 10
-11.11901353712667
 20
21.9012611234178
 30
0.0
 10
-11.12266735122699
 20
21.95684896607341
 30
0.0
 10
-11.1517352472036
 20
22.03603167224398
 30
0.0
 10
-11.19652511551016
 20
22.10701997920625
 30
0.0
 10
-11.25649612123432
 20
22.16637634141766
 30
0.0
 10
-11.32817138488068
 20
22.21068159050666
 30
0.0
 10
-11.40807955382979
 20
22.23941588345859
 30
0.0
 10
-11.46414277074691
 20
22.24302537238667
 30
0.0
 10
-11.49218749999999
 20
22.2448309616
 30
0.0
 11
-11.1171875
 21
21.8734804368
 31
0.0
 11
-11.12658953359999
 21
21.9561137024
 31
0.0
 11
-11.1543241752
 21
22.0346033904
 31
0.0
 11
-11.19900069359999
 21
22.1050137024
 31
0.0
 11
-11.2583788248
 21
22.163813968
 31
0.0
 11
-11.32948109839999
 21
22.2080556992
 31
0.0
 11
-11.4087421496
 21
22.2355204288
 31
0.0
 11
-11.49218749999999
 21
22.2448309616
 31
0.0
  0
SPLINE
  5
57
330
2
100
AcDbEntity
  8
0
  6
HIDDEN
100
AcDbSpline
210
0.0
220
0.0
230
1.0
 70
     8
 71
     3
 72
    19
 73
    15
 74
    13
 42
0.0000000001
 43
0.0000000001
 44
0.0000000001
 40
0.0
 40
0.0
 40
0.0
 40
0.0
 40
0.0297174303039234
 40
0.0664826873705287
 40
0.1065023879981696
 40
0.148866371949677
 40
0.1933065340923956
 40
0.2389995018523511
 40
0.2854475870395623
 40
0.3334624509773353
 40
0.3882573787935696
 40
0.4479253529031083
 40
0.510162677983204
 40
0.5718447402393209
 40
0.5718447402393209
 40
0.5718447402393209
 40
0.5718447402393209
 10
-11.49218749999999
 20
22.32807353279999
 30
0.0
 10
-11.48234683438278
 20
22.32694221782084
 30
0.0
 10
-11.4603316773165
 20
22.32441128364154
 30
0.0
 10
-11.42511791938175
 20
22.3198269629114
 30
0.0
 10
-11.38614663795433
 20
22.31190909151355
 30
0.0
 10
-11.3456701986088
 20
22.2994297807936
 30
0.0
 10
-11.30513975818702
 20
22.28161058381198
 30
0.0
 10
-11.26597421125314
 20
22.25815202158387
 30
0.0
 10
-11.22928506283311
 20
22.22900028276973
 30
0.0
 10
-11.19482563666806
 20
22.19289923954887
 30
0.0
 10
-11.16353271038099
 20
22.14838571640011
 30
0.0
 10
-11.13816188807342
 20
22.09497407008067
 30
0.0
 10
-11.12110012595092
 20
22.0357120397606
 30
0.0
 10
-11.11851229890485
 20
21.99438682591019
 30
0.0
 10
-11.11722418319999
 20
21.9738168048
 30
0.0
 11
-11.49218749999999
 21
22.32807353279999
 31
0.0
 11
-11.4626721848
 21
22.32461349919999
 31
0.0
 11
-11.4262565928
 21
22.31955496319999
 31
0.0
 11
-11.38706748399999
 21
22.311443848
 31
0.0
 11
-11.3466069352
 21
22.298887928
 31
0.0
 11
-11.3059423752
 21
22.28096248319999
 31
0.0
 11
-11.2667568344
 21
22.25746055359999
 31
0.0
 11
-11.23040097199999
 21
22.22855249439999
 31
0.0
 11
-11.1972492152
 21
22.1938193952
 31
0.0
 11
-11.16575702
 21
22.1489782784
 31
0.0
 11
-11.14000991759999
 21
22.09515120479999
 31
0.0
 11
-11.1233007384
 21
22.03519882399999
 31
0.0
 11
-11.11722418319999
 21
21.9738168048
 31
0.0
  0
SPLINE
  5
58
330
2
100
AcDbEntity
  8
0
  6
HIDDEN
100
AcDbSpline
210
0.0
220
0.0
230
1.0
 70
     8
 71
     3
 72
    14
 73
    10
 74
     8
 42
0.0000000001
 43
0.0000000001
 44
0.0000000001
 40
0.0
 40
0.0
 40
0.0
 40
0.0
 40
0.0839631617103498
 40
0.1678477592072578
 40
0.2515906033737121
 40
0.3351563492723541
 40
0.418544616474458
 40
0.5017902873419926
 40
0.5849567157824152
 40
0.5849567157824152
 40
0.5849567157824152
 40
0.5849567157824152
 10
-11.49218749999999
 20
21.2545628928
 30
0.0
 10
-11.46414277066286
 20
21.25636848181482
 30
0.0
 10
-11.40807955340275
 20
21.25997797035735
 30
0.0
 10
-11.32817138582713
 20
21.28871226631772
 30
0.0
 10
-11.25649612003821
 20
21.3330175124849
 30
0.0
 10
-11.19652511671174
 20
21.39237387678361
 30
0.0
 10
-11.15173524623421
 20
21.46336218265654
 30
0.0
 10
-11.12266735156821
 20
21.54254488956844
 30
0.0
 10
-11.11901353722934
 20
21.59813273263077
 30
0.0
 10
-11.1171875
 20
21.6259134192
 30
0.0
 11
-11.49218749999999
 21
21.2545628928
 31
0.0
 11
-11.4087421496
 21
21.2638734256
 31
0.0
 11
-11.32948109839999
 21
21.2913381568
 31
0.0
 11
-11.2583788248
 21
21.33557988639999
 31
0.0
 11
-11.19900069359999
 21
21.39438015359999
 31
0.0
 11
-11.1543241752
 21
21.46479046399999
 31
0.0
 11
-11.12658953359999
 21
21.5432801536
 31
0.0
 11
-11.1171875
 21
21.6259134192
 31
0.0
  0
LINE
  5
59
330
2
100
AcDbEntity
  8
0
  6
HIDDEN
100
AcDbLine
 10
-11.1171875
 20
21.96863627199999
 30
0.0
 11
-11.1171875
 21
21.6259134192
 31
0.0
  0
LINE
  5
5C
330
2
100
AcDbEntity
  8
0
100
AcDbLine
 10
17.8603322568
 20
24.48403473429934
 30
0.0
 11
18.1953125
 21
20.65519303189935
 31
0.0
  0
LINE
  5
5D
330
2
100
AcDbEntity
  8
0
  6
HIDDEN
100
AcDbLine
 10
13.90986718
 20
24.2258365504
 30
0.0
 11
13.4080720184
 21
20.6553784432
 31
0.0
  0
LINE
  5
5E
330
2
100
AcDbEntity
  8
CENTER
 48
4.0
100
AcDbLine
 10
16.4756207737083
 20
20.21162020426659
 30
0.0
 11
10.3581273193083
 21
21.08069012751691
 31
0.0
  0
LINE
  5
5F
330
2
100
AcDbEntity
  8
0
100
AcDbLine
 10
13.4181702936
 20
20.6553784432
 30
0.0
 11
11.0893936632
 21
4.085271718400001
 31
0.0
  0
LINE
  5
60
330
2
100
AcDbEntity
  8
0
100
AcDbLine
 10
9.250886010399995
 20
3.160566644799999
 30
0.0
 11
9.304225247199994
 21
3.646250000000001
 31
0.0
  0
LINE
  5
61
330
2
100
AcDbEntity
  8
0
100
AcDbLine
 10
7.238995220000006
 20
3.185790584000002
 30
0.0
 11
7.629160263200006
 21
3.575955627200002
 31
0.0
  0
ARC
  5
62
330
2
100
AcDbEntity
  8
0
100
AcDbCircle
 10
8.6953125
 20
3.2144282896
 30
0.0
 40
0.5581782896
100
AcDbArc
 50
270.0000000000006
 51
354.4626038422007
  0
ARC
  5
63
330
2
100
AcDbEntity
  8
0
100
AcDbCircle
 10
7.143535803999995
 20
3.28125
 30
0.0
 40
0.135
100
AcDbArc
 50
270.0000000000006
 51
314.9999993065006
  0
ARC
  5
64
330
2
100
AcDbEntity
  8
0
100
AcDbCircle
 10
7.798865890399994
 20
3.40625
 30
0.0
 40
0.24
100
AcDbArc
 50
90.00000020570022
 51
134.9999989730003
  0
ARC
  5
65
330
2
100
AcDbEntity
  8
0
  6
CONTINUOUS
 62
     7
100
AcDbCircle
 10
10.584356948
 20
4.15625
 30
0.0
 40
0.51
100
AcDbArc
 50
270.0000000000006
 51
352.0000000000008
  0
ARC
  5
67
330
2
100
AcDbEntity
  8
0
  6
HIDDEN
100
AcDbCircle
 10
14.40721055599999
 20
24.1559394976
 30
0.0
 40
0.5022310544000001
100
AcDbArc
 50
92.93301496480021
 51
172.0000000000004
  0
SPLINE
  5
69
330
2
100
AcDbEntity
  8
0
  6
CONTINUOUS
 62
     7
100
AcDbSpline
210
0.0
220
0.0
230
1.0
 70
     8
 71
     3
 72
    11
 73
     7
 74
     5
 42
0.0000000001
 43
0.0000000001
 44
0.0000000001
 40
0.0
 40
0.0
 40
0.0
 40
0.0
 40
0.0695332132680133
 40
0.1399398994219054
 40
0.2087808171241417
 40
0.2765693873701778
 40
0.2765693873701778
 40
0.2765693873701778
 40
0.2765693873701778
 10
17.8603322568
 20
24.48403473429934
 30
0.0
 10
17.8557698782
 20
24.5070596976447
 30
0.0
 10
17.84658780861911
 20
24.55339886281922
 30
0.0
 10
17.80199782923838
 20
24.60965531358207
 30
0.0
 10
17.74212894857568
 20
24.64792145202505
 30
0.0
 10
17.69628912785696
 20
24.65278165001135
 30
0.0
 10
17.67354575119999
 20
24.65519303189934
 30
0.0
 11
17.8603322568
 21
24.48403473429934
 31
0.0
 11
17.841533204
 21
24.55097846709934
 31
0.0
 11
17.79897219759999
 21
24.60706467029934
 31
0.0
 11
17.7402175368
 21
24.64293891989935
 31
0.0
 11
17.67354575119999
 21
24.65519303189934
 31
0.0
  0
ARC
  5
6A
330
2
100
AcDbEntity
  8
0
  6
CONTINUOUS
 62
     7
100
AcDbCircle
 10
17.67354575119999
 20
24.46769303189935
 30
0.0
 40
0.1875
100
AcDbArc
 50
64.70466701620016
 51
90.00000000000019
  0
ARC
  5
6B
330
2
100
AcDbEntity
  8
0
  6
CONTINUOUS
 62
     7
100
AcDbCircle
 10
17.67354575119999
 20
24.46769303189935
 30
0.0
 40
0.1875
100
AcDbArc
 50
5.00000000000001
 51
56.98667068520013
  0
LINE
  5
FA
330
2
100
AcDbEntity
  8
0
100
AcDbLine
 10
-48.0546875
 20
20.65625
 30
0.0
 11
18.19522002727353
 21
20.65625
 31
0.0
  0
ENDSEC
  0
SECTION
  2
OBJECTS
  0
DICTIONARY
  5
7
330
0
100
AcDbDictionary
  3
ACAD_GROUP
350
26
  3
ACAD_LAYOUT
350
B
  3
ACAD_MLINESTYLE
350
27
  3
ACAD_PLOTSETTINGS
350
28
  3
ACAD_PLOTSTYLENAME
350
6
  3
ACDBHEADERROUNDTRIPXREC
350
12E
  3
ACDBVARIABLEDICTIONARY
350
6C
  0
DICTIONARY
  5
11
330
10
100
AcDbDictionary
280
     1
  3
ACAD_LAYERFILTERS
360
12
  0
DICTIONARY
  5
96
330
2
100
AcDbDictionary
280
     1
  3
ACAD_LAYOUTSELFREF
360
14F
  0
DICTIONARY
  5
9C
330
C
100
AcDbDictionary
280
     1
  3
ACAD_LAYOUTSELFREF
360
150
  0
DICTIONARY
  5
26
102
{ACAD_REACTORS
330
7
102
}
330
7
100
AcDbDictionary
  0
DICTIONARY
  5
B
102
{ACAD_REACTORS
330
7
102
}
330
7
100
AcDbDictionary
  0
DICTIONARY
  5
27
102
{ACAD_REACTORS
330
7
102
}
330
7
100
AcDbDictionary
  3
STANDARD
350
29
  0
DICTIONARY
  5
28
102
{ACAD_REACTORS
330
7
102
}
330
7
100
AcDbDictionary
  0
ACDBDICTIONARYWDFLT
  5
6
102
{ACAD_REACTORS
330
7
102
}
330
7
100
AcDbDictionary
281
     1
  3
Normal
350
5
100
AcDbDictionaryWithDefault
340
5
  0
DICTIONARY
  5
12E
102
{ACAD_REACTORS
330
7
102
}
330
7
100
AcDbDictionary
  3
CEPSNTYPE
350
138
  3
DIMSTYLEDATA
350
13C
  3
FINGERPRINTGUID
350
139
  3
HYPERLINKBASE
350
131
  3
INSUNITS
350
137
  3
LAYOUTDICT
350
133
  3
LWETCUNION
350
136
  3
PLOTSETDICT
350
134
  3
PLOTSTYLNAMDICT
350
135
  3
PSVPSCALE
350
13B
  3
PUCSBASE
350
13F
  3
PUCSORGBACK
350
145
  3
PUCSORGBOTTOM
350
141
  3
PUCSORGFRONT
350
144
  3
PUCSORGLEFT
350
142
  3
PUCSORGRIGHT
350
143
  3
PUCSORGTOP
350
140
  3
PUCSORTHOREF
350
13D
  3
PUCSORTHOVIEW
350
13E
  3
STYLESHEET
350
132
  3
TSTACKALIGN
350
12F
  3
TSTACKSIZE
350
130
  3
UCSBASE
350
148
  3
UCSORGBACK
350
14E
  3
UCSORGBOTTOM
350
14A
  3
UCSORGFRONT
350
14D
  3
UCSORGLEFT
350
14B
  3
UCSORGRIGHT
350
14C
  3
UCSORGTOP
350
149
  3
UCSORTHOREF
350
146
  3
UCSORTHOVIEW
350
147
  3
VERSIONGUID
350
13A
  0
DICTIONARY
  5
6C
102
{ACAD_REACTORS
330
7
102
}
330
7
100
AcDbDictionary
  3
DIMASSOC
350
6E
  3
HIDETEXT
350
6D
  0
DICTIONARY
  5
12
102
{ACAD_REACTORS
330
11
102
}
330
11
100
AcDbDictionary
280
     1
  3
DIM-1_12
360
13
  3
DIM-1_16
360
14
  0
XRECORD
  5
14F
102
{ACAD_REACTORS
330
96
102
}
330
96
100
AcDbXrecord
340
2
  0
XRECORD
  5
150
102
{ACAD_REACTORS
330
9C
102
}
330
9C
100
AcDbXrecord
340
C
  0
MLINESTYLE
  5
29
102
{ACAD_REACTORS
330
27
102
}
330
27
100
AcDbMlineStyle
  2
STANDARD
 70
     0
  3

 62
     0
 51
90.00000000000019
 52
90.00000000000019
 71
     2
 49
0.5
 62
   256
  6
BYLAYER
 49
-0.5
 62
   256
  6
BYLAYER
  0
ACDBPLACEHOLDER
  5
5
102
{ACAD_REACTORS
330
6
102
}
330
6
100
AcDbPlaceHolder
280
     0
  0
XRECORD
  5
138
102
{ACAD_REACTORS
330
12E
102
}
330
12E
100
AcDbXrecord
 90
        0
  0
XRECORD
  5
13C
102
{ACAD_REACTORS
330
12E
102
}
330
12E
100
AcDbXrecord
1000
DSTYLE
1002
{
1070
   276
 70
     1
1070
   277
 70
     5
1070
   289
 70
     0
1002
}
  0
XRECORD
  5
139
102
{ACAD_REACTORS
330
12E
102
}
330
12E
100
AcDbXrecord
  1
{BB49E4DB-24F6-493D-A73D-E510C8469835}
  0
XRECORD
  5
131
102
{ACAD_REACTORS
330
12E
102
}
330
12E
100
AcDbXrecord
  1

  0
XRECORD
  5
137
102
{ACAD_REACTORS
330
12E
102
}
330
12E
100
AcDbXrecord
 90
        0
  0
XRECORD
  5
133
102
{ACAD_REACTORS
330
12E
102
}
330
12E
100
AcDbXrecord
340
B
  0
XRECORD
  5
136
102
{ACAD_REACTORS
330
12E
102
}
330
12E
100
AcDbXrecord
 90
    10781
  0
XRECORD
  5
134
102
{ACAD_REACTORS
330
12E
102
}
330
12E
100
AcDbXrecord
340
28
  0
XRECORD
  5
135
102
{ACAD_REACTORS
330
12E
102
}
330
12E
100
AcDbXrecord
340
6
  0
XRECORD
  5
13B
102
{ACAD_REACTORS
330
12E
102
}
330
12E
100
AcDbXrecord
 40
0.0
  0
XRECORD
  5
13F
102
{ACAD_REACTORS
330
12E
102
}
330
12E
100
AcDbXrecord
340
0
  0
XRECORD
  5
145
102
{ACAD_REACTORS
330
12E
102
}
330
12E
100
AcDbXrecord
 10
0.0
 20
0.0
 30
0.0
  0
XRECORD
  5
141
102
{ACAD_REACTORS
330
12E
102
}
330
12E
100
AcDbXrecord
 10
0.0
 20
0.0
 30
0.0
  0
XRECORD
  5
144
102
{ACAD_REACTORS
330
12E
102
}
330
12E
100
AcDbXrecord
 10
0.0
 20
0.0
 30
0.0
  0
XRECORD
  5
142
102
{ACAD_REACTORS
330
12E
102
}
330
12E
100
AcDbXrecord
 10
0.0
 20
0.0
 30
0.0
  0
XRECORD
  5
143
102
{ACAD_REACTORS
330
12E
102
}
330
12E
100
AcDbXrecord
 10
0.0
 20
0.0
 30
0.0
  0
XRECORD
  5
140
102
{ACAD_REACTORS
330
12E
102
}
330
12E
100
AcDbXrecord
 10
0.0
 20
0.0
 30
0.0
  0
XRECORD
  5
13D
102
{ACAD_REACTORS
330
12E
102
}
330
12E
100
AcDbXrecord
340
0
  0
XRECORD
  5
13E
102
{ACAD_REACTORS
330
12E
102
}
330
12E
100
AcDbXrecord
 70
     0
  0
XRECORD
  5
132
102
{ACAD_REACTORS
330
12E
102
}
330
12E
100
AcDbXrecord
  1

  0
XRECORD
  5
12F
102
{ACAD_REACTORS
330
12E
102
}
330
12E
100
AcDbXrecord
 90
        1
  0
XRECORD
  5
130
102
{ACAD_REACTORS
330
12E
102
}
330
12E
100
AcDbXrecord
 90
       70
  0
XRECORD
  5
148
102
{ACAD_REACTORS
330
12E
102
}
330
12E
100
AcDbXrecord
340
0
  0
XRECORD
  5
14E
102
{ACAD_REACTORS
330
12E
102
}
330
12E
100
AcDbXrecord
 10
0.0
 20
0.0
 30
0.0
  0
XRECORD
  5
14A
102
{ACAD_REACTORS
330
12E
102
}
330
12E
100
AcDbXrecord
 10
0.0
 20
0.0
 30
0.0
  0
XRECORD
  5
14D
102
{ACAD_REACTORS
330
12E
102
}
330
12E
100
AcDbXrecord
 10
0.0
 20
0.0
 30
0.0
  0
XRECORD
  5
14B
102
{ACAD_REACTORS
330
12E
102
}
330
12E
100
AcDbXrecord
 10
0.0
 20
0.0
 30
0.0
  0
XRECORD
  5
14C
102
{ACAD_REACTORS
330
12E
102
}
330
12E
100
AcDbXrecord
 10
0.0
 20
0.0
 30
0.0
  0
XRECORD
  5
149
102
{ACAD_REACTORS
330
12E
102
}
330
12E
100
AcDbXrecord
 10
0.0
 20
0.0
 30
0.0
  0
XRECORD
  5
146
102
{ACAD_REACTORS
330
12E
102
}
330
12E
100
AcDbXrecord
340
0
  0
XRECORD
  5
147
102
{ACAD_REACTORS
330
12E
102
}
330
12E
100
AcDbXrecord
 70
     0
  0
XRECORD
  5
13A
102
{ACAD_REACTORS
330
12E
102
}
330
12E
100
AcDbXrecord
  1
{C9ECBDC2-FD6B-4854-A5B5-8A1C201F2C15}
  0
DICTIONARYVAR
  5
6E
102
{ACAD_REACTORS
330
6C
102
}
330
6C
100
DictionaryVariables
280
     0
  1
1
  0
DICTIONARYVAR
  5
6D
102
{ACAD_REACTORS
330
6C
102
}
330
6C
100
DictionaryVariables
280
     0
  1
1
  0
XRECORD
  5
13
102
{ACAD_REACTORS
330
12
102
}
330
12
100
AcDbXrecord
  1
DIM-1_12
  1
DIM-1_12
  1
*
  1
*
 70
     0
  1
*
  1
*
  0
XRECORD
  5
14
102
{ACAD_REACTORS
330
12
102
}
330
12
100
AcDbXrecord
  1
dim-1_16
  1
*
  1
*
  1
*
 70
     0
  1
*
  1
*
  0
ENDSEC
  0
EOF
