  0
SECTION
  2
HEADER
  9
$ACADVER
  1
AC1014
  9
$ACADMAINTVER
 70
     9
  9
$DWGCODEPAGE
  3
ANSI_1252
  9
$INSBASE
 10
4.4375
 20
2.65625
 30
0.0
  9
$EXTMIN
 10
-31.56469709798949
 20
-1.721686709606601
 30
-0.0015258207003583
  9
$EXTMAX
 10
40.43969743326562
 20
25.46461338698393
 30
0.0000000349246037
  9
$LIMMIN
 10
0.0
 20
0.0
  9
$LIMMAX
 10
17.0
 20
11.0
  9
$ORTHOMODE
 70
     1
  9
$REGENMODE
 70
     1
  9
$FILLMODE
 70
     1
  9
$QTEXTMODE
 70
     0
  9
$MIRRTEXT
 70
     1
  9
$DRAGMODE
 70
     2
  9
$LTSCALE
 40
12.0
  9
$OSMODE
 70
    55
  9
$ATTMODE
 70
     1
  9
$TEXTSIZE
 40
0.0
  9
$TRACEWID
 40
0.05
  9
$TEXTSTYLE
  7
STANDARD
  9
$CLAYER
  8
0
  9
$CELTYPE
  6
BYLAYER
  9
$CECOLOR
 62
   256
  9
$CELTSCALE
 40
1.0
  9
$DELOBJ
 70
     1
  9
$DISPSILH
 70
     0
  9
$DIMSCALE
 40
1.0
  9
$DIMASZ
 40
0.18
  9
$DIMEXO
 40
0.0625
  9
$DIMDLI
 40
0.38
  9
$DIMRND
 40
0.0
  9
$DIMDLE
 40
0.0
  9
$DIMEXE
 40
0.18
  9
$DIMTP
 40
1.0
  9
$DIMTM
 40
1.0
  9
$DIMTXT
 40
0.125
  9
$DIMCEN
 40
0.09
  9
$DIMTSZ
 40
0.0
  9
$DIMTOL
 70
     0
  9
$DIMLIM
 70
     0
  9
$DIMTIH
 70
     1
  9
$DIMTOH
 70
     1
  9
$DIMSE1
 70
     0
  9
$DIMSE2
 70
     0
  9
$DIMTAD
 70
     0
  9
$DIMZIN
 70
     0
  9
$DIMBLK
  1

  9
$DIMASO
 70
     1
  9
$DIMSHO
 70
     1
  9
$DIMPOST
  1

  9
$DIMAPOST
  1
cm
  9
$DIMALT
 70
     1
  9
$DIMALTD
 70
     2
  9
$DIMALTF
 40
2.54
  9
$DIMLFAC
 40
16.0
  9
$DIMTOFL
 70
     0
  9
$DIMTVP
 40
0.0
  9
$DIMTIX
 70
     0
  9
$DIMSOXD
 70
     0
  9
$DIMSAH
 70
     0
  9
$DIMBLK1
  1

  9
$DIMBLK2
  1

  9
$DIMSTYLE
  2
STAMDARD
  9
$DIMCLRD
 70
     0
  9
$DIMCLRE
 70
     0
  9
$DIMCLRT
 70
     0
  9
$DIMTFAC
 40
1.0
  9
$DIMGAP
 40
0.09
  9
$DIMJUST
 70
     0
  9
$DIMSD1
 70
     0
  9
$DIMSD2
 70
     0
  9
$DIMTOLJ
 70
     1
  9
$DIMTZIN
 70
     0
  9
$DIMALTZ
 70
     0
  9
$DIMALTTZ
 70
     0
  9
$DIMFIT
 70
     0
  9
$DIMUPT
 70
     0
  9
$DIMUNIT
 70
     5
  9
$DIMDEC
 70
     4
  9
$DIMTDEC
 70
     4
  9
$DIMALTU
 70
     2
  9
$DIMALTTD
 70
     2
  9
$DIMTXSTY
  7
STANDARD
  9
$DIMAUNIT
 70
     0
  9
$LUNITS
 70
     2
  9
$LUPREC
 70
     4
  9
$SKETCHINC
 40
0.1
  9
$FILLETRAD
 40
0.0
  9
$AUNITS
 70
     0
  9
$AUPREC
 70
     0
  9
$MENU
  1
acad
  9
$ELEVATION
 40
0.0
  9
$PELEVATION
 40
0.0
  9
$THICKNESS
 40
0.0
  9
$LIMCHECK
 70
     0
  9
$BLIPMODE
 70
     0
  9
$CHAMFERA
 40
0.0
  9
$CHAMFERB
 40
0.0
  9
$CHAMFERC
 40
0.0
  9
$CHAMFERD
 40
0.0
  9
$SKPOLY
 70
     0
  9
$TDCREATE
 40
2444971.833333333
  9
$TDUPDATE
 40
2453686.596104386
  9
$TDINDWG
 40
0.0280817824
  9
$TDUSRTIMER
 40
0.0280817824
  9
$USRTIMER
 70
     1
  9
$ANGBASE
 50
0.0
  9
$ANGDIR
 70
     0
  9
$PDMODE
 70
     0
  9
$PDSIZE
 40
0.0
  9
$PLINEWID
 40
0.0
  9
$COORDS
 70
     1
  9
$SPLFRAME
 70
     0
  9
$SPLINETYPE
 70
     6
  9
$SPLINESEGS
 70
     8
  9
$ATTDIA
 70
     0
  9
$ATTREQ
 70
     1
  9
$HANDLING
 70
 22529
  9
$HANDSEED
  5
160
  9
$SURFTAB1
 70
     6
  9
$SURFTAB2
 70
     6
  9
$SURFTYPE
 70
     6
  9
$SURFU
 70
     6
  9
$SURFV
 70
     6
  9
$UCSNAME
  2

  9
$UCSORG
 10
0.0
 20
0.0
 30
0.0
  9
$UCSXDIR
 10
1.0
 20
0.0
 30
0.0
  9
$UCSYDIR
 10
0.0
 20
1.0
 30
0.0
  9
$PUCSNAME
  2

  9
$PUCSORG
 10
0.0
 20
0.0
 30
0.0
  9
$PUCSXDIR
 10
1.0
 20
0.0
 30
0.0
  9
$PUCSYDIR
 10
0.0
 20
1.0
 30
0.0
  9
$USERI1
 70
     0
  9
$USERI2
 70
     0
  9
$USERI3
 70
     0
  9
$USERI4
 70
     0
  9
$USERI5
 70
     0
  9
$USERR1
 40
0.0
  9
$USERR2
 40
0.0
  9
$USERR3
 40
0.0
  9
$USERR4
 40
0.0
  9
$USERR5
 40
0.0
  9
$WORLDVIEW
 70
     1
  9
$SHADEDGE
 70
     3
  9
$SHADEDIF
 70
    70
  9
$TILEMODE
 70
     1
  9
$MAXACTVP
 70
    16
  9
$PINSBASE
 10
0.0
 20
0.0
 30
0.0
  9
$PLIMCHECK
 70
     0
  9
$PEXTMIN
 10
1.000000000000000E+20
 20
1.000000000000000E+20
 30
1.000000000000000E+20
  9
$PEXTMAX
 10
-1.000000000000000E+20
 20
-1.000000000000000E+20
 30
-1.000000000000000E+20
  9
$PLIMMIN
 10
0.0
 20
0.0
  9
$PLIMMAX
 10
12.0
 20
9.0
  9
$UNITMODE
 70
     0
  9
$VISRETAIN
 70
     0
  9
$PLINEGEN
 70
     1
  9
$PSLTSCALE
 70
     0
  9
$TREEDEPTH
 70
  3020
  9
$PICKSTYLE
 70
     1
  9
$CMLSTYLE
  2
STANDARD
  9
$CMLJUST
 70
     0
  9
$CMLSCALE
 40
1.0
  9
$PROXYGRAPHICS
 70
     1
  9
$MEASUREMENT
 70
     0
  0
ENDSEC
  0
SECTION
  2
CLASSES
  0
CLASS
  1
LWPOLYLINE
  2
AcDbPolyline
  3
AutoCAD 2000
 90
        0
280
     0
281
     1
  0
CLASS
  1
IMAGE
  2
AcDbRasterImage
  3
ISM
 90
      127
280
     0
281
     1
  0
CLASS
  1
OLE2FRAME
  2
AcDbOle2Frame
  3
AutoCAD 2000
 90
        0
280
     0
281
     1
  0
CLASS
  1
HATCH
  2
AcDbHatch
  3
AutoCAD 2000
 90
        0
280
     0
281
     1
  0
CLASS
  1
DICTIONARYVAR
  2
AcDbDictionaryVar
  3
AutoCAD 2000
 90
        0
280
     0
281
     0
  0
CLASS
  1
RASTERVARIABLES
  2
AcDbRasterVariables
  3
ISM
 90
        0
280
     0
281
     0
  0
CLASS
  1
IMAGEDEF
  2
AcDbRasterImageDef
  3
ISM
 90
        0
280
     0
281
     0
  0
CLASS
  1
IMAGEDEF_REACTOR
  2
AcDbRasterImageDefReactor
  3
ISM
 90
        1
280
     0
281
     0
  0
CLASS
  1
IDBUFFER
  2
AcDbIdBuffer
  3
AutoCAD 2000
 90
        0
280
     0
281
     0
  0
CLASS
  1
SPATIAL_FILTER
  2
AcDbSpatialFilter
  3
AutoCAD 2000
 90
        0
280
     0
281
     0
  0
CLASS
  1
XRECORD
  2
AcDbXrecord
  3
AutoCAD 2000
 90
        0
280
     0
281
     0
  0
CLASS
  1
SORTENTSTABLE
  2
AcDbSortentsTable
  3
AutoCAD 2000
 90
        0
280
     0
281
     0
  0
CLASS
  1
LAYER_INDEX
  2
AcDbLayerIndex
  3
AutoCAD 2000
 90
        0
280
     0
281
     0
  0
CLASS
  1
SPATIAL_INDEX
  2
AcDbSpatialIndex
  3
AutoCAD 2000
 90
        0
280
     0
281
     0
  0
CLASS
  1
OBJECT_PTR
  2
CAseDLPNTableRecord
  3
ASE-LPNTableRecord
 90
        1
280
     0
281
     0
  0
CLASS
  1
LAYOUT
  2
AcDbLayout
  3
AutoCAD 2000
 90
        0
280
     0
281
     0
  0
CLASS
  1
PLOTSETTINGS
  2
AcDbPlotSettings
  3
AutoCAD 2000
 90
        0
280
     0
281
     0
  0
CLASS
  1
ACDBDICTIONARYWDFLT
  2
AcDbDictionaryWithDefault
  3
AutoCAD 2000
 90
        0
280
     0
281
     0
  0
CLASS
  1
ACDBPLACEHOLDER
  2
AcDbPlaceHolder
  3
AutoCAD 2000
 90
        0
280
     0
281
     0
  0
CLASS
  1
VBA_PROJECT
  2
AcDbVbaProject
  3
acadvba
 90
        0
280
     0
281
     0
  0
CLASS
  1
WIPEOUT
  2
AcDbWipeout
  3
WipeOut|AutoCAD Express Tool|expresstools@autodesk.com
 90
        0
280
     1
281
     1
  0
CLASS
  1
WIPEOUTVARIABLES
  2
AcDbWipeoutVariables
  3
WipeOut|AutoCAD Express Tool|expresstools@autodesk.com
 90
        0
280
     1
281
     0
  0
CLASS
  1
RTEXT
  2
RText
  3
RText|AutoCAD Express Tool|expresstools@autodesk.com
 90
        0
280
     1
281
     1
  0
CLASS
  1
ARCALIGNEDTEXT
  2
AcDbArcAlignedText
  3
ATEXT|AutoCAD Express Tool|expresstools@autodesk.com
 90
        0
280
     1
281
     1
  0
CLASS
  1
LONG_TRANSACTION
  2
AcDbLongTransaction
  3
AutoCAD 2000
 90
        0
280
     0
281
     0
  0
CLASS
  1
LWPOLYLINE
  2
AcDbPolyline
  3
AutoCAD 2000
 90
        0
280
     0
281
     1
  0
CLASS
  1
HATCH
  2
AcDbHatch
  3
AutoCAD 2000
 90
        0
280
     0
281
     1
  0
CLASS
  1
XRECORD
  2
AcDbXrecord
  3
AutoCAD 2000
 90
        0
280
     0
281
     0
  0
CLASS
  1
LONG_TRANSACTION
  2
AcDbLongTransaction
  3
AutoCAD 2000
 90
        0
280
     0
281
     0
  0
CLASS
  1
LWPOLYLINE
  2
AcDbPolyline
  3
AutoCAD 2000
 90
        0
280
     0
281
     1
  0
CLASS
  1
HATCH
  2
AcDbHatch
  3
AutoCAD 2000
 90
        0
280
     0
281
     1
  0
CLASS
  1
XRECORD
  2
AcDbXrecord
  3
AutoCAD 2000
 90
        0
280
     0
281
     0
  0
CLASS
  1
LONG_TRANSACTION
  2
AcDbLongTransaction
  3
AutoCAD 2000
 90
        0
280
     0
281
     0
  0
CLASS
  1
LWPOLYLINE
  2
AcDbPolyline
  3
AutoCAD 2000
 90
        0
280
     0
281
     1
  0
CLASS
  1
HATCH
  2
AcDbHatch
  3
AutoCAD 2000
 90
        0
280
     0
281
     1
  0
CLASS
  1
XRECORD
  2
AcDbXrecord
  3
AutoCAD 2000
 90
        0
280
     0
281
     0
  0
ENDSEC
  0
SECTION
  2
TABLES
  0
TABLE
  2
VPORT
  5
1D
330
0
100
AcDbSymbolTable
 70
     3
  0
VPORT
  5
13C
330
1D
100
AcDbSymbolTableRecord
100
AcDbViewportTableRecord
  2
*ACTIVE
 70
     0
 10
0.0
 20
0.0
 11
1.0
 21
1.0
 12
4.437500409285803
 22
11.8714632793568
 13
0.0
 23
0.0
 14
1.0
 24
1.0
 15
0.0
 25
0.0
 16
0.0
 26
0.0
 36
1.0
 17
0.0
 27
0.0
 37
0.0
 40
48.25803438682175
 41
1.786792452830188
 42
50.0
 43
0.0
 44
0.0
 50
0.0
 51
0.0
 71
     0
 72
   100
 73
     1
 74
     1
 75
     0
 76
     0
 77
     0
 78
     0
  0
ENDTAB
  0
TABLE
  2
LTYPE
  5
18
330
0
100
AcDbSymbolTable
 70
     3
  0
LTYPE
  5
19
330
18
100
AcDbSymbolTableRecord
100
AcDbLinetypeTableRecord
  2
BYBLOCK
 70
     0
  3

 72
    65
 73
     0
 40
0.0
  0
LTYPE
  5
1A
330
18
100
AcDbSymbolTableRecord
100
AcDbLinetypeTableRecord
  2
BYLAYER
 70
     0
  3

 72
    65
 73
     0
 40
0.0
  0
LTYPE
  5
8
330
18
100
AcDbSymbolTableRecord
100
AcDbLinetypeTableRecord
  2
CONTINUOUS
 70
     0
  3
Solid line
 72
    65
 73
     0
 40
0.0
  0
LTYPE
  5
31
330
18
100
AcDbSymbolTableRecord
100
AcDbLinetypeTableRecord
  2
CENTER
 70
     0
  3
____ _ ____ _ ____ _ ____ _ ____ _ ____ _ ____
 72
    65
 73
     4
 40
0.6
 49
0.375
 74
     0
 49
-0.075
 74
     0
 49
0.075
 74
     0
 49
-0.075
 74
     0
  0
LTYPE
  5
2D
330
18
100
AcDbSymbolTableRecord
100
AcDbLinetypeTableRecord
  2
HIDDEN
 70
     0
  3
- - - - - - - - - - - - - - - - - - - -
 72
    65
 73
     2
 40
0.2
 49
0.1
 74
     0
 49
-0.1
 74
     0
  0
ENDTAB
  0
TABLE
  2
LAYER
  5
10
102
{ACAD_XDICTIONARY
360
11
102
}
330
0
100
AcDbSymbolTable
 70
     3
  0
LAYER
  5
4
330
10
100
AcDbSymbolTableRecord
100
AcDbLayerTableRecord
  2
0
 70
     0
 62
     7
  6
CONTINUOUS
  0
LAYER
  5
30
330
10
100
AcDbSymbolTableRecord
100
AcDbLayerTableRecord
  2
CENTER
 70
     0
 62
     1
  6
CENTER
  0
LAYER
  5
F9
330
10
100
AcDbSymbolTableRecord
100
AcDbLayerTableRecord
  2
DEFPOINTS
 70
     0
 62
     7
  6
CONTINUOUS
  0
ENDTAB
  0
TABLE
  2
STYLE
  5
15
330
0
100
AcDbSymbolTable
 70
     1
  0
STYLE
  5
16
330
15
100
AcDbSymbolTableRecord
100
AcDbTextStyleTableRecord
  2
STANDARD
 70
     0
 40
0.0
 41
1.0
 50
0.0
 71
     0
 42
0.0
  3
txt
  4

  0
ENDTAB
  0
TABLE
  2
VIEW
  5
1B
330
0
100
AcDbSymbolTable
 70
     0
  0
ENDTAB
  0
TABLE
  2
UCS
  5
1C
330
0
100
AcDbSymbolTable
 70
     0
  0
ENDTAB
  0
TABLE
  2
APPID
  5
1F
330
0
100
AcDbSymbolTable
 70
     1
  0
APPID
  5
20
330
1F
100
AcDbSymbolTableRecord
100
AcDbRegAppTableRecord
  2
ACAD
 70
     0
  0
ENDTAB
  0
TABLE
  2
DIMSTYLE
  5
21
330
0
100
AcDbSymbolTable
 70
     1
  0
DIMSTYLE
105
22
330
21
100
AcDbSymbolTableRecord
100
AcDbDimStyleTableRecord
  2
STAMDARD
 70
     0
  3

  4
cm
  5

  6

  7

 40
1.0
 41
0.18
 42
0.0625
 43
0.38
 44
0.18
 45
0.0
 46
0.0
 47
1.0
 48
1.0
140
0.125
141
0.09
142
0.0
143
2.54
144
16.0
145
0.0
146
1.0
147
0.09
 71
     0
 72
     0
 73
     1
 74
     1
 75
     0
 76
     0
 77
     0
 78
     0
170
     1
171
     2
172
     0
173
     0
174
     0
175
     0
176
     0
177
     0
178
     0
270
     5
271
     4
272
     4
273
     2
274
     2
340
16
275
     0
280
     0
281
     0
282
     0
283
     1
284
     0
285
     0
286
     0
287
     0
288
     0
  0
ENDTAB
  0
TABLE
  2
BLOCK_RECORD
  5
1
330
0
100
AcDbSymbolTable
 70
     1
  0
BLOCK_RECORD
  5
2
102
{ACAD_XDICTIONARY
360
A4
102
}
330
1
100
AcDbSymbolTableRecord
100
AcDbBlockTableRecord
  2
*MODEL_SPACE
  0
BLOCK_RECORD
  5
C
102
{ACAD_XDICTIONARY
360
AA
102
}
330
1
100
AcDbSymbolTableRecord
100
AcDbBlockTableRecord
  2
*PAPER_SPACE
  0
ENDTAB
  0
ENDSEC
  0
SECTION
  2
BLOCKS
  0
BLOCK
  5
3
330
2
100
AcDbEntity
  8
0
100
AcDbBlockBegin
  2
*MODEL_SPACE
 70
     0
 10
0.0
 20
0.0
 30
0.0
  3
*MODEL_SPACE
  1

  0
ENDBLK
  5
9
330
2
100
AcDbEntity
  8
0
100
AcDbBlockEnd
  0
BLOCK
  5
D
330
C
100
AcDbEntity
 67
     1
  8
0
100
AcDbBlockBegin
  2
*PAPER_SPACE
 70
     0
 10
0.0
 20
0.0
 30
0.0
  3
*PAPER_SPACE
  1

  0
ENDBLK
  5
E
330
C
100
AcDbEntity
 67
     1
  8
0
100
AcDbBlockEnd
  0
ENDSEC
  0
SECTION
  2
ENTITIES
  0
LINE
  5
29
330
2
100
AcDbEntity
  8
0
100
AcDbLine
 10
-31.0407332512
 20
24.65625
 30
0.0
 11
39.91573325119999
 21
24.65625
 31
0.0
  0
LINE
  5
2A
330
2
100
AcDbEntity
  8
0
100
AcDbLine
 10
25.8827490032
 20
3.640625
 30
0.0
 11
-17.00774900319999
 21
3.640625
 31
0.0
  0
LINE
  5
2B
330
2
100
AcDbEntity
  8
0
100
AcDbLine
 10
-14.0625
 20
2.65625
 30
0.0
 11
22.9375
 21
2.65625
 31
0.0
  0
SPLINE
  5
2C
330
2
100
AcDbEntity
  8
0
  6
HIDDEN
 62
     8
 48
0.5
100
AcDbSpline
210
0.0
220
0.0
230
1.0
 70
     8
 71
     3
 72
    16
 73
    12
 74
    10
 42
0.0000000001
 43
0.0000000001
 44
0.0000000001
 40
0.0
 40
0.0
 40
0.0
 40
0.0
 40
1.33525315743585
 40
2.73046574648456
 40
4.169044365189337
 40
5.633858697697725
 40
7.107454380897713
 40
8.572268713406101
 40
10.01084733211087
 40
11.40605992115958
 40
12.74131307859543
 40
12.74131307859543
 40
12.74131307859543
 40
12.74131307859543
 10
-1.931087711999992
 20
20.6787254448
 30
0.0
 10
-1.486413536507074
 20
20.69794183457838
 30
0.0
 10
-0.5770971287770973
 20
20.7372375245146
 30
0.0
 10
0.8120505403843186
 20
20.77727467961565
 30
0.0
 10
2.244662916729112
 20
20.8052036352119
 30
0.0
 10
3.703619184388632
 20
20.81904216683433
 30
0.0
 10
5.171380815611367
 20
20.81904216683433
 30
0.0
 10
6.630337083270887
 20
20.8052036352119
 30
0.0
 10
8.06294945961568
 20
20.77727467961565
 30
0.0
 10
9.452097128777097
 20
20.7372375245146
 30
0.0
 10
10.36141353650707
 20
20.69794183457837
 30
0.0
 10
10.80608771199999
 20
20.6787254448
 30
0.0
 11
-1.931087711999992
 21
20.6787254448
 31
0.0
 11
-0.5969481871999989
 21
20.7332481264
 31
0.0
 11
0.7976477696000046
 21
20.774724456
 31
0.0
 11
2.235955209599993
 21
20.8026556256
 31
0.0
 11
3.700702158400005
 21
20.816705704
 31
0.0
 11
5.174297841599994
 21
20.816705704
 31
0.0
 11
6.639044790400006
 21
20.8026556256
 31
0.0
 11
8.077352230399995
 21
20.774724456
 31
0.0
 11
9.471948187199998
 21
20.7332481264
 31
0.0
 11
10.80608771199999
 21
20.6787254448
 31
0.0
  0
LINE
  5
2E
330
2
100
AcDbEntity
  8
0
  6
HIDDEN
 62
     8
 48
0.5
100
AcDbLine
 10
13.37386469599999
 20
21.9034884672
 30
0.0
 11
-4.498864695999998
 21
21.9034884672
 31
0.0
  0
LINE
  5
36
330
2
100
AcDbEntity
  8
CENTER
100
AcDbLine
 10
4.437492728007327
 20
25.46378371428701
 30
0.0
 11
4.437492728007327
 21
15.84599266971298
 31
0.0
  0
ARC
  5
38
330
2
100
AcDbEntity
  8
0
  6
CONTINUOUS
 62
     7
100
AcDbCircle
 10
-100.4758291791999
 20
-20.0988369696
 30
0.0
 40
84.98437499999999
100
AcDbArc
 50
17.46109498710004
 51
28.67945445300006
  0
LINE
  5
39
330
2
100
AcDbEntity
  8
CENTER
100
AcDbLine
 10
4.4375
 20
8.002107163498017
 30
0.0
 11
4.4375
 21
-1.720857163498017
 31
0.0
  0
ARC
  5
3A
330
2
100
AcDbEntity
  8
0
  6
CONTINUOUS
 62
     7
100
AcDbCircle
 10
-17.00774900319999
 20
6.15625
 30
0.0
 40
2.5
100
AcDbArc
 50
234.8111527085005
 51
270.0000000000006
  0
ARC
  5
3B
330
2
100
AcDbEntity
  8
0
  6
CONTINUOUS
 62
     7
100
AcDbCircle
 10
-17.00774900319999
 20
6.15625
 30
0.0
 40
2.515625
100
AcDbArc
 50
197.4610949871004
 51
270.0000000000006
  0
ARC
  5
3C
330
2
100
AcDbEntity
  8
0
  6
CONTINUOUS
 62
     7
100
AcDbCircle
 10
-14.0625
 20
2.996596283199998
 30
0.0
 40
0.3403462832
100
AcDbArc
 50
186.7471225018004
 51
270.0000000000006
  0
LINE
  5
3D
330
2
100
AcDbEntity
  8
0
  6
CONTINUOUS
 62
     7
100
AcDbLine
 10
-14.400489168
 20
2.956609841599998
 30
0.0
 11
-14.554435296
 21
3.640625
 31
0.0
  0
LINE
  5
3E
330
2
100
AcDbEntity
  8
0
100
AcDbLine
 10
5.860160195199995
 20
3.1818131088
 30
0.0
 11
6.250325238399994
 21
3.571978151999999
 31
0.0
  0
ARC
  5
3F
330
2
100
AcDbEntity
  8
0
100
AcDbCircle
 10
5.760723303999995
 20
3.28125
 30
0.0
 40
0.140625
100
AcDbArc
 50
270.0000000000006
 51
314.9999993199006
  0
ARC
  5
40
330
2
100
AcDbEntity
  8
0
100
AcDbCircle
 10
6.416053390399994
 20
3.40625
 30
0.0
 40
0.234375
100
AcDbArc
 50
90.00000032960018
 51
134.9999987743003
  0
LINE
  5
41
330
2
100
AcDbEntity
  8
0
100
AcDbLine
 10
3.014839804800004
 20
3.1818131088
 30
0.0
 11
2.624674761600005
 21
3.571978151999999
 31
0.0
  0
LINE
  5
42
330
2
100
AcDbEntity
  8
0
100
AcDbLine
 10
3.114276696000004
 20
3.140625
 30
0.0
 11
5.760723303999995
 21
3.140625
 31
0.0
  0
ARC
  5
43
330
2
100
AcDbEntity
  8
0
100
AcDbCircle
 10
3.114276696000004
 20
3.28125
 30
0.0
 40
0.140625
100
AcDbArc
 50
225.0000007122004
 51
270.0000000000006
  0
ARC
  5
44
330
2
100
AcDbEntity
  8
0
100
AcDbCircle
 10
2.458946609600005
 20
3.40625
 30
0.0
 40
0.234375
100
AcDbArc
 50
45.00000104180009
 51
89.9999997905002
  0
LINE
  5
45
330
2
100
AcDbEntity
  8
0
100
AcDbLine
 10
0.2945497935999981
 20
2.959296998399999
 30
0.0
 11
0.4565518096000006
 21
3.640625
 31
0.0
  0
ARC
  5
46
330
2
100
AcDbEntity
  8
0
100
AcDbCircle
 10
-0.1243697120000036
 20
3.097321903999997
 30
0.0
 40
0.4410719056
100
AcDbArc
 50
269.9933456469006
 51
341.7640676819007
  0
LINE
  5
47
330
2
100
AcDbEntity
  8
0
  6
HIDDEN
 62
     8
100
AcDbLine
 10
-25.9681826112
 20
20.65625
 30
0.0
 11
-27.412516288
 21
23.3438813008
 31
0.0
  0
LINE
  5
48
330
2
100
AcDbEntity
  8
0
100
AcDbLine
 10
-31.22751975679999
 20
24.48509170239999
 30
0.0
 11
-31.5625
 21
20.65625
 31
0.0
  0
SPLINE
  5
4F
330
2
100
AcDbEntity
  8
0
  6
CONTINUOUS
 62
     7
100
AcDbSpline
210
0.0
220
0.0
230
1.0
 70
    24
 71
     3
 72
     8
 73
     4
 74
     2
 42
0.0000000001
 43
0.0000000001
 44
0.0000000001
 40
0.0
 40
0.0
 40
0.0
 40
0.0
 40
0.0677885702460292
 40
0.0677885702460292
 40
0.0677885702460292
 40
0.0677885702460292
 10
-31.1074050368
 20
24.643995888
 30
0.0
 10
-31.08518110826667
 20
24.648080592
 30
0.0
 10
-31.06295717973333
 20
24.652165296
 30
0.0
 10
-31.0407332512
 20
24.65625
 30
0.0
 11
-31.1074050368
 21
24.643995888
 31
0.0
 11
-31.0407332512
 21
24.65625
 31
0.0
  0
ARC
  5
50
330
2
100
AcDbEntity
  8
0
  6
CONTINUOUS
 62
     7
100
AcDbCircle
 10
-31.0407332512
 20
24.46875
 30
0.0
 40
0.1875
100
AcDbArc
 50
90.00000000000019
 51
118.3333333333002
  0
ARC
  5
51
330
2
100
AcDbEntity
  8
0
  6
HIDDEN
 62
     8
100
AcDbCircle
 10
-29.6076931872
 20
22.16419273279999
 30
0.0
 40
2.4920808048
100
AcDbArc
 50
28.25359430580006
 51
90.24902519770021
  0
SPLINE
  5
52
330
2
100
AcDbEntity
  8
0
  6
CONTINUOUS
 62
     7
100
AcDbSpline
210
0.0
220
0.0
230
1.0
 70
    24
 71
     3
 72
     8
 73
     4
 74
     2
 42
0.0000000001
 43
0.0000000001
 44
0.0000000001
 40
0.0
 40
0.0
 40
0.0
 40
0.0
 40
0.0485075133524094
 40
0.0485075133524094
 40
0.0485075133524094
 40
0.0485075133524094
 10
-31.208720704
 20
24.55203543519999
 30
0.0
 10
-31.1997235392
 20
24.565470208
 30
0.0
 10
-31.1907263744
 20
24.5789049808
 30
0.0
 10
-31.1817292096
 20
24.5923397536
 30
0.0
 11
-31.208720704
 21
24.55203543519999
 31
0.0
 11
-31.1817292096
 21
24.5923397536
 31
0.0
  0
SPLINE
  5
53
330
2
100
AcDbEntity
  8
0
  6
CONTINUOUS
 62
     7
100
AcDbSpline
210
0.0
220
0.0
230
1.0
 70
    24
 71
     3
 72
     8
 73
     4
 74
     2
 42
0.0000000001
 43
0.0000000001
 44
0.0000000001
 40
0.0
 40
0.0
 40
0.0
 40
0.0
 40
0.0695332132680114
 40
0.0695332132680114
 40
0.0695332132680114
 40
0.0695332132680114
 10
-31.22751975679999
 20
24.48509170239999
 30
0.0
 10
-31.22125340586666
 20
24.50740628
 30
0.0
 10
-31.21498705493333
 20
24.52972085759999
 30
0.0
 10
-31.208720704
 20
24.55203543519999
 30
0.0
 11
-31.22751975679999
 21
24.48509170239999
 31
0.0
 11
-31.208720704
 21
24.55203543519999
 31
0.0
  0
ARC
  5
54
330
2
100
AcDbEntity
  8
0
  6
CONTINUOUS
 62
     7
100
AcDbCircle
 10
-31.0407332512
 20
24.46875
 30
0.0
 40
0.1875
100
AcDbArc
 50
146.6666666667003
 51
175.0000000000003
  0
SPLINE
  5
55
330
2
100
AcDbEntity
  8
0
  6
CONTINUOUS
 62
     7
100
AcDbSpline
210
0.0
220
0.0
230
1.0
 70
     8
 71
     3
 72
     9
 73
     5
 74
     3
 42
0.0000000001
 43
0.0000000001
 44
0.0000000001
 40
0.0
 40
0.0
 40
0.0
 40
0.0
 40
0.0221692938939952
 40
0.0910102115962375
 40
0.0910102115962375
 40
0.0910102115962375
 40
0.0910102115962375
 10
-31.1817292096
 20
24.5923397536
 30
0.0
 10
-31.17667544390579
 20
24.59777207572045
 30
0.0
 10
-31.155928536612
 20
24.62007304696498
 30
0.0
 10
-31.12830199431192
 20
24.63369336253069
 30
0.0
 10
-31.1074050368
 20
24.643995888
 30
0.0
 11
-31.1817292096
 21
24.5923397536
 31
0.0
 11
-31.1661596976
 21
24.60812163839999
 31
0.0
 11
-31.1074050368
 21
24.643995888
 31
0.0
  0
ARC
  5
56
330
2
100
AcDbEntity
  8
0
  6
CONTINUOUS
 62
     7
100
AcDbCircle
 10
-31.0407332512
 20
24.46875
 30
0.0
 40
0.1875
100
AcDbArc
 50
123.0133293148003
 51
141.6472514703003
  0
LINE
  5
58
330
2
100
AcDbEntity
  8
0
  6
HIDDEN
 62
     8
 48
0.5
100
AcDbLine
 10
-4.810967942399997
 20
21.6534884672
 30
0.0
 11
-4.694301540799997
 21
20.7821792352
 31
0.0
  0
SPLINE
  5
59
330
2
100
AcDbEntity
  8
0
  6
HIDDEN
 62
     8
 48
0.5
100
AcDbSpline
210
0.0
220
0.0
230
1.0
 70
     8
 71
     3
 72
    10
 73
     6
 74
     4
 42
0.0000000001
 43
0.0000000001
 44
0.0000000001
 40
0.0
 40
0.0
 40
0.0
 40
0.0
 40
0.1549170202863386
 40
0.2912558676181344
 40
0.4092648452980481
 40
0.4092648452980481
 40
0.4092648452980481
 40
0.4092648452980481
 10
-4.498864695999998
 20
21.9034884672
 30
0.0
 10
-4.546760189905166
 20
21.88389188503902
 30
0.0
 10
-4.636807388118536
 20
21.84704880911944
 30
0.0
 10
-4.74608434334733
 20
21.76007776069344
 30
0.0
 10
-4.790404742971249
 20
21.68726922121297
 30
0.0
 10
-4.810967942399997
 20
21.6534884672
 30
0.0
 11
-4.498864695999998
 21
21.9034884672
 31
0.0
 11
-4.639077158399999
 21
21.83761169919999
 31
0.0
 11
-4.744199700800002
 21
21.750792736
 31
0.0
 11
-4.810967942399997
 21
21.6534884672
 31
0.0
  0
SPLINE
  5
5B
330
2
100
AcDbEntity
  8
0
  6
HIDDEN
 62
     8
 48
0.5
100
AcDbSpline
210
0.0
220
0.0
230
1.0
 70
     8
 71
     3
 72
    10
 73
     6
 74
     4
 42
0.0000000001
 43
0.0000000001
 44
0.0000000001
 40
0.0
 40
0.0
 40
0.0
 40
0.0
 40
0.261458222720905
 40
0.5203776603872341
 40
0.7767772006396207
 40
0.7767772006396207
 40
0.7767772006396207
 40
0.7767772006396207
 10
-2.961596147199998
 20
21.6534884672
 30
0.0
 10
-2.948179063504116
 20
21.56737465800861
 30
0.0
 10
-2.921475177314483
 20
21.39598321318156
 30
0.0
 10
-2.880758245146414
 20
21.14027825207482
 30
0.0
 10
-2.853158378420536
 20
20.97073700141159
 30
0.0
 10
-2.839425926399997
 20
20.88638090239999
 30
0.0
 11
-2.961596147199998
 21
21.6534884672
 31
0.0
 11
-2.921200206400001
 21
21.3951697296
 31
0.0
 11
-2.880477718400001
 21
21.1394727328
 31
0.0
 11
-2.839425926399997
 21
20.88638090239999
 31
0.0
  0
SPLINE
  5
5C
330
2
100
AcDbEntity
  8
0
  6
HIDDEN
 62
     8
 48
0.5
100
AcDbSpline
210
0.0
220
0.0
230
1.0
 70
     8
 71
     3
 72
    10
 73
     6
 74
     4
 42
0.0000000001
 43
0.0000000001
 44
0.0000000001
 40
0.0
 40
0.0
 40
0.0
 40
0.0
 40
0.1400404620831352
 40
0.2987961550182017
 40
0.4763415645201683
 40
0.4763415645201683
 40
0.4763415645201683
 40
0.4763415645201683
 10
-2.961596147199998
 20
21.6534884672
 30
0.0
 10
-2.993940149270791
 20
21.68731413994706
 30
0.0
 10
-3.062950657468892
 20
21.75948600233157
 30
0.0
 10
-3.199199431032045
 20
21.84476196681026
 30
0.0
 10
-3.304656838954842
 20
21.88319715390302
 30
0.0
 10
-3.3603315856
 20
21.9034884672
 30
0.0
 11
-2.961596147199998
 21
21.6534884672
 31
0.0
 11
-3.0622426336
 21
21.750862056
 31
0.0
 11
-3.195889551999997
 21
21.83654677599999
 31
0.0
 11
-3.3603315856
 21
21.9034884672
 31
0.0
  0
ARC
  5
62
330
2
100
AcDbEntity
  8
0
  6
CONTINUOUS
 62
     7
100
AcDbCircle
 10
109.3508291792
 20
-20.0988369696
 30
0.0
 40
84.98437499999999
100
AcDbArc
 50
151.3205457580003
 51
162.5389050129003
  0
LINE
  5
63
330
2
100
AcDbEntity
  8
0
100
AcDbLine
 10
8.643226587200004
 20
2.905241339200003
 30
0.0
 11
8.477864308799993
 21
3.644538057600001
 31
0.0
  0
ARC
  5
64
330
2
100
AcDbEntity
  8
0
100
AcDbCircle
 10
8.954063670400003
 20
2.9747678608
 30
0.0
 40
0.3185178624
100
AcDbArc
 50
192.6081105585004
 51
270.0072589012005
  0
LINE
  5
65
330
2
100
AcDbEntity
  8
0
100
AcDbLine
 10
23.3182080256
 20
2.965611769600002
 30
0.0
 11
23.4633841776
 21
3.660187734399997
 31
0.0
  0
ARC
  5
66
330
2
100
AcDbEntity
  8
0
100
AcDbCircle
 10
22.9375
 20
3.045185105599998
 30
0.0
 40
0.3889351056
100
AcDbArc
 50
270.0000000000006
 51
348.1943350099007
  0
ARC
  5
67
330
2
100
AcDbEntity
  8
0
  6
CONTINUOUS
 62
     7
100
AcDbCircle
 10
25.8827490032
 20
6.15625
 30
0.0
 40
2.5
100
AcDbArc
 50
270.0000000000006
 51
305.1888472451007
  0
ARC
  5
68
330
2
100
AcDbEntity
  8
0
  6
CONTINUOUS
 62
     7
100
AcDbCircle
 10
25.8827490032
 20
6.15625
 30
0.0
 40
2.515625
100
AcDbArc
 50
270.0000000000006
 51
342.5389050129007
  0
LINE
  5
69
330
2
100
AcDbEntity
  8
0
  6
HIDDEN
 62
     8
 48
0.5
100
AcDbLine
 10
13.68596794239999
 20
21.6534884672
 30
0.0
 11
13.56930154079999
 21
20.7821792352
 31
0.0
  0
SPLINE
  5
6A
330
2
100
AcDbEntity
  8
0
  6
HIDDEN
 62
     8
 48
0.5
100
AcDbSpline
210
0.0
220
0.0
230
1.0
 70
     8
 71
     3
 72
    10
 73
     6
 74
     4
 42
0.0000000001
 43
0.0000000001
 44
0.0000000001
 40
0.0
 40
0.0
 40
0.0
 40
0.0
 40
0.1182568128008872
 40
0.2537030885990966
 40
0.4092652108801893
 40
0.4092652108801893
 40
0.4092652108801893
 40
0.4092652108801893
 10
13.68596794239999
 20
21.6534884672
 30
0.0
 10
13.66535587459773
 20
21.6873378509374
 30
0.0
 10
13.62113562935357
 20
21.75995686541915
 30
0.0
 10
13.51192736304836
 20
21.84696445109413
 30
0.0
 10
13.42195860393753
 20
21.8837984171309
 30
0.0
 10
13.37386469599999
 20
21.9034884672
 30
0.0
 11
13.68596794239999
 21
21.6534884672
 31
0.0
 11
13.61903069439999
 21
21.75097733119999
 31
0.0
 11
13.5146270032
 21
21.8372650064
 31
0.0
 11
13.37386469599999
 21
21.9034884672
 31
0.0
  0
SPLINE
  5
6B
330
2
100
AcDbEntity
  8
0
  6
HIDDEN
 62
     8
 48
0.5
100
AcDbSpline
210
0.0
220
0.0
230
1.0
 70
     8
 71
     3
 72
    10
 73
     6
 74
     4
 42
0.0000000001
 43
0.0000000001
 44
0.0000000001
 40
0.0
 40
0.0
 40
0.0
 40
0.0
 40
0.1775297077744171
 40
0.3362726819207126
 40
0.4763415556699896
 40
0.4763415556699896
 40
0.4763415556699896
 40
0.4763415556699896
 10
12.23533158559999
 20
21.9034884672
 30
0.0
 10
12.17966170629594
 20
21.8831991829397
 30
0.0
 10
12.07421310363411
 20
21.84476768818879
 30
0.0
 10
11.93796230932507
 20
21.75949549562896
 30
0.0
 10
11.86894717896082
 20
21.68732063240858
 30
0.0
 10
11.83659614719999
 20
21.6534884672
 30
0.0
 11
12.23533158559999
 21
21.9034884672
 31
0.0
 11
12.0709035472
 21
21.8365540416
 31
0.0
 11
11.9372650592
 21
21.7508797376
 31
0.0
 11
11.83659614719999
 21
21.6534884672
 31
0.0
  0
SPLINE
  5
6C
330
2
100
AcDbEntity
  8
0
  6
HIDDEN
 62
     8
 48
0.5
100
AcDbSpline
210
0.0
220
0.0
230
1.0
 70
     8
 71
     3
 72
    10
 73
     6
 74
     4
 42
0.0000000001
 43
0.0000000001
 44
0.0000000001
 40
0.0
 40
0.0
 40
0.0
 40
0.0
 40
0.261458222720905
 40
0.5203776603872341
 40
0.7767772006396207
 40
0.7767772006396207
 40
0.7767772006396207
 40
0.7767772006396207
 10
11.83659614719999
 20
21.6534884672
 30
0.0
 10
11.82317906350411
 20
21.56737465800861
 30
0.0
 10
11.79647517731448
 20
21.39598321318156
 30
0.0
 10
11.75575824514641
 20
21.14027825207482
 30
0.0
 10
11.72815837842053
 20
20.97073700141159
 30
0.0
 10
11.71442592639999
 20
20.88638090239999
 30
0.0
 11
11.83659614719999
 21
21.6534884672
 31
0.0
 11
11.7962002064
 21
21.3951697296
 31
0.0
 11
11.7554777184
 21
21.1394727328
 31
0.0
 11
11.71442592639999
 21
20.88638090239999
 31
0.0
  0
LINE
  5
72
330
2
100
AcDbEntity
  8
0
100
AcDbLine
 10
40.4375
 20
20.65625
 30
0.0
 11
40.10251975680001
 21
24.48509170239999
 31
0.0
  0
ARC
  5
76
330
2
100
AcDbEntity
  8
0
  6
CONTINUOUS
 62
     7
100
AcDbCircle
 10
39.91573325119999
 20
24.46875
 30
0.0
 40
0.1875
100
AcDbArc
 50
5.00000000000001
 51
90.00000000000019
  0
ARC
  5
77
330
2
100
AcDbEntity
  8
0
  6
HIDDEN
 62
     8
100
AcDbCircle
 10
38.317846696
 20
22.4700362608
 30
0.0
 40
2.1932608608
100
AcDbArc
 50
85.40574868280017
 51
151.4401455087003
  0
LINE
  5
78
330
2
100
AcDbEntity
  8
0
  6
HIDDEN
 62
     8
100
AcDbLine
 10
34.833472032
 20
20.65625
 30
0.0
 11
36.39146583999999
 21
23.5185828752
 31
0.0
  0
CIRCLE
  5
7F
330
2
100
AcDbEntity
  8
0
100
AcDbCircle
 10
4.437492728007327
 20
20.654888192
 30
0.0
 40
1.312492979664707
  0
LINE
  5
108
330
2
100
AcDbEntity
  8
0
100
AcDbLine
 10
-31.5625
 20
20.65625
 30
0.0
 11
40.4375
 21
20.65625
 31
0.0
  0
LINE
  5
109
330
2
100
AcDbEntity
  8
CENTER
100
AcDbLine
 10
-0.3714027942796889
 20
20.654888192
 30
0.0
 11
9.246388250294344
 21
20.654888192
 31
0.0
  0
ENDSEC
  0
SECTION
  2
OBJECTS
  0
DICTIONARY
  5
7
330
0
100
AcDbDictionary
  3
ACAD_GROUP
350
24
  3
ACAD_LAYOUT
350
B
  3
ACAD_MLINESTYLE
350
25
  3
ACAD_PLOTSETTINGS
350
26
  3
ACAD_PLOTSTYLENAME
350
6
  3
ACDBHEADERROUNDTRIPXREC
350
13D
  3
ACDBVARIABLEDICTIONARY
350
79
  0
DICTIONARY
  5
11
330
10
100
AcDbDictionary
280
     1
  3
ACAD_LAYERFILTERS
360
12
  0
DICTIONARY
  5
A4
330
2
100
AcDbDictionary
280
     1
  3
ACAD_LAYOUTSELFREF
360
15E
  0
DICTIONARY
  5
AA
330
C
100
AcDbDictionary
280
     1
  3
ACAD_LAYOUTSELFREF
360
15F
  0
DICTIONARY
  5
24
102
{ACAD_REACTORS
330
7
102
}
330
7
100
AcDbDictionary
  0
DICTIONARY
  5
B
102
{ACAD_REACTORS
330
7
102
}
330
7
100
AcDbDictionary
  0
DICTIONARY
  5
25
102
{ACAD_REACTORS
330
7
102
}
330
7
100
AcDbDictionary
  3
STANDARD
350
27
  0
DICTIONARY
  5
26
102
{ACAD_REACTORS
330
7
102
}
330
7
100
AcDbDictionary
  0
ACDBDICTIONARYWDFLT
  5
6
102
{ACAD_REACTORS
330
7
102
}
330
7
100
AcDbDictionary
281
     1
  3
Normal
350
5
100
AcDbDictionaryWithDefault
340
5
  0
DICTIONARY
  5
13D
102
{ACAD_REACTORS
330
7
102
}
330
7
100
AcDbDictionary
  3
CEPSNTYPE
350
147
  3
DIMSTYLEDATA
350
14B
  3
FINGERPRINTGUID
350
148
  3
HYPERLINKBASE
350
140
  3
INSUNITS
350
146
  3
LAYOUTDICT
350
142
  3
LWETCUNION
350
145
  3
PLOTSETDICT
350
143
  3
PLOTSTYLNAMDICT
350
144
  3
PSVPSCALE
350
14A
  3
PUCSBASE
350
14E
  3
PUCSORGBACK
350
154
  3
PUCSORGBOTTOM
350
150
  3
PUCSORGFRONT
350
153
  3
PUCSORGLEFT
350
151
  3
PUCSORGRIGHT
350
152
  3
PUCSORGTOP
350
14F
  3
PUCSORTHOREF
350
14C
  3
PUCSORTHOVIEW
350
14D
  3
STYLESHEET
350
141
  3
TSTACKALIGN
350
13E
  3
TSTACKSIZE
350
13F
  3
UCSBASE
350
157
  3
UCSORGBACK
350
15D
  3
UCSORGBOTTOM
350
159
  3
UCSORGFRONT
350
15C
  3
UCSORGLEFT
350
15A
  3
UCSORGRIGHT
350
15B
  3
UCSORGTOP
350
158
  3
UCSORTHOREF
350
155
  3
UCSORTHOVIEW
350
156
  3
VERSIONGUID
350
149
  0
DICTIONARY
  5
79
102
{ACAD_REACTORS
330
7
102
}
330
7
100
AcDbDictionary
  3
DIMASSOC
350
7B
  3
HIDETEXT
350
7A
  0
DICTIONARY
  5
12
102
{ACAD_REACTORS
330
11
102
}
330
11
100
AcDbDictionary
280
     1
  3
DIM-1_12
360
13
  3
DIM-1_16
360
14
  0
XRECORD
  5
15E
102
{ACAD_REACTORS
330
A4
102
}
330
A4
100
AcDbXrecord
340
2
  0
XRECORD
  5
15F
102
{ACAD_REACTORS
330
AA
102
}
330
AA
100
AcDbXrecord
340
C
  0
MLINESTYLE
  5
27
102
{ACAD_REACTORS
330
25
102
}
330
25
100
AcDbMlineStyle
  2
STANDARD
 70
     0
  3

 62
     0
 51
90.00000000000019
 52
90.00000000000019
 71
     2
 49
0.5
 62
   256
  6
BYLAYER
 49
-0.5
 62
   256
  6
BYLAYER
  0
ACDBPLACEHOLDER
  5
5
102
{ACAD_REACTORS
330
6
102
}
330
6
100
AcDbPlaceHolder
280
     0
  0
XRECORD
  5
147
102
{ACAD_REACTORS
330
13D
102
}
330
13D
100
AcDbXrecord
 90
        0
  0
XRECORD
  5
14B
102
{ACAD_REACTORS
330
13D
102
}
330
13D
100
AcDbXrecord
1000
DSTYLE
1002
{
1070
   276
 70
     1
1070
   277
 70
     5
1070
   289
 70
     0
1002
}
  0
XRECORD
  5
148
102
{ACAD_REACTORS
330
13D
102
}
330
13D
100
AcDbXrecord
  1
{C9ECA382-FF7D-46B2-AF67-BB00792412CF}
  0
XRECORD
  5
140
102
{ACAD_REACTORS
330
13D
102
}
330
13D
100
AcDbXrecord
  1

  0
XRECORD
  5
146
102
{ACAD_REACTORS
330
13D
102
}
330
13D
100
AcDbXrecord
 90
        0
  0
XRECORD
  5
142
102
{ACAD_REACTORS
330
13D
102
}
330
13D
100
AcDbXrecord
340
B
  0
XRECORD
  5
145
102
{ACAD_REACTORS
330
13D
102
}
330
13D
100
AcDbXrecord
 90
    10781
  0
XRECORD
  5
143
102
{ACAD_REACTORS
330
13D
102
}
330
13D
100
AcDbXrecord
340
26
  0
XRECORD
  5
144
102
{ACAD_REACTORS
330
13D
102
}
330
13D
100
AcDbXrecord
340
6
  0
XRECORD
  5
14A
102
{ACAD_REACTORS
330
13D
102
}
330
13D
100
AcDbXrecord
 40
0.0
  0
XRECORD
  5
14E
102
{ACAD_REACTORS
330
13D
102
}
330
13D
100
AcDbXrecord
340
0
  0
XRECORD
  5
154
102
{ACAD_REACTORS
330
13D
102
}
330
13D
100
AcDbXrecord
 10
0.0
 20
0.0
 30
0.0
  0
XRECORD
  5
150
102
{ACAD_REACTORS
330
13D
102
}
330
13D
100
AcDbXrecord
 10
0.0
 20
0.0
 30
0.0
  0
XRECORD
  5
153
102
{ACAD_REACTORS
330
13D
102
}
330
13D
100
AcDbXrecord
 10
0.0
 20
0.0
 30
0.0
  0
XRECORD
  5
151
102
{ACAD_REACTORS
330
13D
102
}
330
13D
100
AcDbXrecord
 10
0.0
 20
0.0
 30
0.0
  0
XRECORD
  5
152
102
{ACAD_REACTORS
330
13D
102
}
330
13D
100
AcDbXrecord
 10
0.0
 20
0.0
 30
0.0
  0
XRECORD
  5
14F
102
{ACAD_REACTORS
330
13D
102
}
330
13D
100
AcDbXrecord
 10
0.0
 20
0.0
 30
0.0
  0
XRECORD
  5
14C
102
{ACAD_REACTORS
330
13D
102
}
330
13D
100
AcDbXrecord
340
0
  0
XRECORD
  5
14D
102
{ACAD_REACTORS
330
13D
102
}
330
13D
100
AcDbXrecord
 70
     0
  0
XRECORD
  5
141
102
{ACAD_REACTORS
330
13D
102
}
330
13D
100
AcDbXrecord
  1

  0
XRECORD
  5
13E
102
{ACAD_REACTORS
330
13D
102
}
330
13D
100
AcDbXrecord
 90
        1
  0
XRECORD
  5
13F
102
{ACAD_REACTORS
330
13D
102
}
330
13D
100
AcDbXrecord
 90
       70
  0
XRECORD
  5
157
102
{ACAD_REACTORS
330
13D
102
}
330
13D
100
AcDbXrecord
340
0
  0
XRECORD
  5
15D
102
{ACAD_REACTORS
330
13D
102
}
330
13D
100
AcDbXrecord
 10
0.0
 20
0.0
 30
0.0
  0
XRECORD
  5
159
102
{ACAD_REACTORS
330
13D
102
}
330
13D
100
AcDbXrecord
 10
0.0
 20
0.0
 30
0.0
  0
XRECORD
  5
15C
102
{ACAD_REACTORS
330
13D
102
}
330
13D
100
AcDbXrecord
 10
0.0
 20
0.0
 30
0.0
  0
XRECORD
  5
15A
102
{ACAD_REACTORS
330
13D
102
}
330
13D
100
AcDbXrecord
 10
0.0
 20
0.0
 30
0.0
  0
XRECORD
  5
15B
102
{ACAD_REACTORS
330
13D
102
}
330
13D
100
AcDbXrecord
 10
0.0
 20
0.0
 30
0.0
  0
XRECORD
  5
158
102
{ACAD_REACTORS
330
13D
102
}
330
13D
100
AcDbXrecord
 10
0.0
 20
0.0
 30
0.0
  0
XRECORD
  5
155
102
{ACAD_REACTORS
330
13D
102
}
330
13D
100
AcDbXrecord
340
0
  0
XRECORD
  5
156
102
{ACAD_REACTORS
330
13D
102
}
330
13D
100
AcDbXrecord
 70
     0
  0
XRECORD
  5
149
102
{ACAD_REACTORS
330
13D
102
}
330
13D
100
AcDbXrecord
  1
{4B397B64-773B-41DE-AE95-2B3958975346}
  0
DICTIONARYVAR
  5
7B
102
{ACAD_REACTORS
330
79
102
}
330
79
100
DictionaryVariables
280
     0
  1
1
  0
DICTIONARYVAR
  5
7A
102
{ACAD_REACTORS
330
79
102
}
330
79
100
DictionaryVariables
280
     0
  1
1
  0
XRECORD
  5
13
102
{ACAD_REACTORS
330
12
102
}
330
12
100
AcDbXrecord
  1
DIM-1_12
  1
DIM-1_12
  1
*
  1
*
 70
     0
  1
*
  1
*
  0
XRECORD
  5
14
102
{ACAD_REACTORS
330
12
102
}
330
12
100
AcDbXrecord
  1
dim-1_16
  1
*
  1
*
  1
*
 70
     0
  1
*
  1
*
  0
ENDSEC
  0
EOF
