  0
SECTION
  2
HEADER
  9
$ACADVER
  1
AC1014
  9
$ACADMAINTVER
 70
     9
  9
$DWGCODEPAGE
  3
ANSI_1252
  9
$INSBASE
 10
8.066990118330373
 20
-92.81792839295059
 30
0.0
  9
$EXTMIN
 10
-9.043248592896741
 20
-95.76135986209566
 30
-2.756241910343794
  9
$EXTMAX
 10
25.17201202847188
 20
-72.71020249026719
 30
2.756241961678103
  9
$LIMMIN
 10
0.0
 20
0.0
  9
$LIMMAX
 10
100.5024158491978
 20
51.69854817198938
  9
$ORTHOMODE
 70
     1
  9
$REGENMODE
 70
     1
  9
$FILLMODE
 70
     1
  9
$QTEXTMODE
 70
     0
  9
$MIRRTEXT
 70
     1
  9
$DRAGMODE
 70
     2
  9
$LTSCALE
 40
2.0
  9
$OSMODE
 70
    55
  9
$ATTMODE
 70
     1
  9
$TEXTSIZE
 40
0.06
  9
$TRACEWID
 40
1.0
  9
$TEXTSTYLE
  7
CARTOUCHE
  9
$CLAYER
  8
0
  9
$CELTYPE
  6
BYLAYER
  9
$CECOLOR
 62
   256
  9
$CELTSCALE
 40
1.0
  9
$DELOBJ
 70
     1
  9
$DISPSILH
 70
     0
  9
$DIMSCALE
 40
16.0
  9
$DIMASZ
 40
0.1
  9
$DIMEXO
 40
0.0625
  9
$DIMDLI
 40
0.25
  9
$DIMRND
 40
0.0
  9
$DIMDLE
 40
0.0
  9
$DIMEXE
 40
0.1
  9
$DIMTP
 40
0.0
  9
$DIMTM
 40
0.0
  9
$DIMTXT
 40
0.1
  9
$DIMCEN
 40
0.09
  9
$DIMTSZ
 40
0.0
  9
$DIMTOL
 70
     0
  9
$DIMLIM
 70
     0
  9
$DIMTIH
 70
     1
  9
$DIMTOH
 70
     1
  9
$DIMSE1
 70
     0
  9
$DIMSE2
 70
     0
  9
$DIMTAD
 70
     0
  9
$DIMZIN
 70
     4
  9
$DIMBLK
  1

  9
$DIMASO
 70
     1
  9
$DIMSHO
 70
     1
  9
$DIMPOST
  1
\X
  9
$DIMAPOST
  1
cm
  9
$DIMALT
 70
     1
  9
$DIMALTD
 70
     0
  9
$DIMALTF
 40
2.54
  9
$DIMLFAC
 40
1.0
  9
$DIMTOFL
 70
     0
  9
$DIMTVP
 40
0.0
  9
$DIMTIX
 70
     0
  9
$DIMSOXD
 70
     0
  9
$DIMSAH
 70
     0
  9
$DIMBLK1
  1

  9
$DIMBLK2
  1

  9
$DIMSTYLE
  2
STANDARD
  9
$DIMCLRD
 70
     0
  9
$DIMCLRE
 70
     0
  9
$DIMCLRT
 70
     0
  9
$DIMTFAC
 40
1.0
  9
$DIMGAP
 40
0.08
  9
$DIMJUST
 70
     0
  9
$DIMSD1
 70
     0
  9
$DIMSD2
 70
     0
  9
$DIMTOLJ
 70
     1
  9
$DIMTZIN
 70
     4
  9
$DIMALTZ
 70
     4
  9
$DIMALTTZ
 70
     4
  9
$DIMFIT
 70
     1
  9
$DIMUPT
 70
     0
  9
$DIMUNIT
 70
     5
  9
$DIMDEC
 70
     3
  9
$DIMTDEC
 70
     3
  9
$DIMALTU
 70
     2
  9
$DIMALTTD
 70
     0
  9
$DIMTXSTY
  7
ROMANS
  9
$DIMAUNIT
 70
     0
  9
$LUNITS
 70
     2
  9
$LUPREC
 70
     2
  9
$SKETCHINC
 40
1.0
  9
$FILLETRAD
 40
3.0
  9
$AUNITS
 70
     0
  9
$AUPREC
 70
     0
  9
$MENU
  1
.
  9
$ELEVATION
 40
0.0
  9
$PELEVATION
 40
0.0
  9
$THICKNESS
 40
0.0
  9
$LIMCHECK
 70
     0
  9
$BLIPMODE
 70
     0
  9
$CHAMFERA
 40
10.0
  9
$CHAMFERB
 40
10.0
  9
$CHAMFERC
 40
20.0
  9
$CHAMFERD
 40
0.0
  9
$SKPOLY
 70
     0
  9
$TDCREATE
 40
2452062.343093518
  9
$TDUPDATE
 40
2453689.564778263
  9
$TDINDWG
 40
0.6764924190
  9
$TDUSRTIMER
 40
0.6764924190
  9
$USRTIMER
 70
     1
  9
$ANGBASE
 50
0.0
  9
$ANGDIR
 70
     0
  9
$PDMODE
 70
    33
  9
$PDSIZE
 40
0.25
  9
$PLINEWID
 40
0.0
  9
$COORDS
 70
     1
  9
$SPLFRAME
 70
     0
  9
$SPLINETYPE
 70
     6
  9
$SPLINESEGS
 70
     8
  9
$ATTDIA
 70
     0
  9
$ATTREQ
 70
     1
  9
$HANDLING
 70
 22529
  9
$HANDSEED
  5
6C2
  9
$SURFTAB1
 70
     6
  9
$SURFTAB2
 70
     6
  9
$SURFTYPE
 70
     6
  9
$SURFU
 70
     6
  9
$SURFV
 70
     6
  9
$UCSNAME
  2

  9
$UCSORG
 10
0.0
 20
0.0
 30
0.0
  9
$UCSXDIR
 10
1.0
 20
0.0
 30
0.0
  9
$UCSYDIR
 10
0.0
 20
1.0
 30
0.0
  9
$PUCSNAME
  2

  9
$PUCSORG
 10
0.0
 20
0.0
 30
0.0
  9
$PUCSXDIR
 10
1.0
 20
0.0
 30
0.0
  9
$PUCSYDIR
 10
0.0
 20
1.0
 30
0.0
  9
$USERI1
 70
     0
  9
$USERI2
 70
     0
  9
$USERI3
 70
     0
  9
$USERI4
 70
     0
  9
$USERI5
 70
     0
  9
$USERR1
 40
0.0
  9
$USERR2
 40
0.0
  9
$USERR3
 40
0.0
  9
$USERR4
 40
0.0
  9
$USERR5
 40
0.0
  9
$WORLDVIEW
 70
     1
  9
$SHADEDGE
 70
     3
  9
$SHADEDIF
 70
    70
  9
$TILEMODE
 70
     1
  9
$MAXACTVP
 70
    48
  9
$PINSBASE
 10
0.0
 20
0.0
 30
0.0
  9
$PLIMCHECK
 70
     0
  9
$PEXTMIN
 10
0.0
 20
0.0
 30
0.0
  9
$PEXTMAX
 10
0.0
 20
0.0
 30
0.0
  9
$PLIMMIN
 10
0.0
 20
0.0
  9
$PLIMMAX
 10
12.0
 20
9.0
  9
$UNITMODE
 70
     0
  9
$VISRETAIN
 70
     1
  9
$PLINEGEN
 70
     0
  9
$PSLTSCALE
 70
     1
  9
$TREEDEPTH
 70
  3020
  9
$PICKSTYLE
 70
     1
  9
$CMLSTYLE
  2
STANDARD
  9
$CMLJUST
 70
     0
  9
$CMLSCALE
 40
20.0
  9
$PROXYGRAPHICS
 70
     1
  9
$MEASUREMENT
 70
     0
  0
ENDSEC
  0
SECTION
  2
CLASSES
  0
CLASS
  1
ACDBDICTIONARYWDFLT
  2
AcDbDictionaryWithDefault
  3
AutoCAD 2000
 90
        0
280
     0
281
     0
  0
CLASS
  1
ACDBPLACEHOLDER
  2
AcDbPlaceHolder
  3
AutoCAD 2000
 90
        0
280
     0
281
     0
  0
CLASS
  1
LAYOUT
  2
AcDbLayout
  3
AutoCAD 2000
 90
        0
280
     0
281
     0
  0
CLASS
  1
DICTIONARYVAR
  2
AcDbDictionaryVar
  3
AutoCAD 2000
 90
        0
280
     0
281
     0
  0
CLASS
  1
IMAGEDEF
  2
AcDbRasterImageDef
  3
ISM
 90
        0
280
     0
281
     0
  0
CLASS
  1
LONG_TRANSACTION
  2
AcDbLongTransaction
  3
AutoCAD 2000
 90
        0
280
     0
281
     0
  0
CLASS
  1
LWPOLYLINE
  2
AcDbPolyline
  3
AutoCAD 2000
 90
        0
280
     0
281
     1
  0
CLASS
  1
HATCH
  2
AcDbHatch
  3
AutoCAD 2000
 90
        0
280
     0
281
     1
  0
CLASS
  1
XRECORD
  2
AcDbXrecord
  3
AutoCAD 2000
 90
        0
280
     0
281
     0
  0
CLASS
  1
LONG_TRANSACTION
  2
AcDbLongTransaction
  3
AutoCAD 2000
 90
        0
280
     0
281
     0
  0
CLASS
  1
LWPOLYLINE
  2
AcDbPolyline
  3
AutoCAD 2000
 90
        0
280
     0
281
     1
  0
CLASS
  1
HATCH
  2
AcDbHatch
  3
AutoCAD 2000
 90
        0
280
     0
281
     1
  0
CLASS
  1
XRECORD
  2
AcDbXrecord
  3
AutoCAD 2000
 90
        0
280
     0
281
     0
  0
CLASS
  1
LONG_TRANSACTION
  2
AcDbLongTransaction
  3
AutoCAD 2000
 90
        0
280
     0
281
     0
  0
CLASS
  1
LWPOLYLINE
  2
AcDbPolyline
  3
AutoCAD 2000
 90
        0
280
     0
281
     1
  0
CLASS
  1
HATCH
  2
AcDbHatch
  3
AutoCAD 2000
 90
        0
280
     0
281
     1
  0
CLASS
  1
XRECORD
  2
AcDbXrecord
  3
AutoCAD 2000
 90
        0
280
     0
281
     0
  0
CLASS
  1
LONG_TRANSACTION
  2
AcDbLongTransaction
  3
AutoCAD 2000
 90
        0
280
     0
281
     0
  0
CLASS
  1
LWPOLYLINE
  2
AcDbPolyline
  3
AutoCAD 2000
 90
        0
280
     0
281
     1
  0
CLASS
  1
HATCH
  2
AcDbHatch
  3
AutoCAD 2000
 90
        0
280
     0
281
     1
  0
CLASS
  1
XRECORD
  2
AcDbXrecord
  3
AutoCAD 2000
 90
        0
280
     0
281
     0
  0
ENDSEC
  0
SECTION
  2
TABLES
  0
TABLE
  2
VPORT
  5
1D
330
0
100
AcDbSymbolTable
 70
     3
  0
VPORT
  5
69E
330
1D
100
AcDbSymbolTableRecord
100
AcDbViewportTableRecord
  2
*ACTIVE
 70
     0
 10
0.0
 20
0.0
 11
1.0
 21
1.0
 12
8.06438169034922
 22
-84.23578123028452
 13
0.0
 23
0.0
 14
10.0
 24
10.0
 15
10.0
 25
10.0
 16
0.0
 26
0.0
 36
1.0
 17
0.0
 27
0.0
 37
0.0
 40
30.07199294705002
 41
1.786792452830188
 42
50.0
 43
0.0
 44
0.0
 50
0.0
 51
0.0
 71
     0
 72
   100
 73
     1
 74
     3
 75
     0
 76
     0
 77
     0
 78
     2
  0
ENDTAB
  0
TABLE
  2
LTYPE
  5
18
330
0
100
AcDbSymbolTable
 70
     2
  0
LTYPE
  5
19
330
18
100
AcDbSymbolTableRecord
100
AcDbLinetypeTableRecord
  2
BYBLOCK
 70
     0
  3

 72
    65
 73
     0
 40
0.0
  0
LTYPE
  5
1A
330
18
100
AcDbSymbolTableRecord
100
AcDbLinetypeTableRecord
  2
BYLAYER
 70
     0
  3

 72
    65
 73
     0
 40
0.0
  0
LTYPE
  5
8
330
18
100
AcDbSymbolTableRecord
100
AcDbLinetypeTableRecord
  2
CONTINUOUS
 70
     0
  3
Solid line
 72
    65
 73
     0
 40
0.0
  0
LTYPE
  5
1B6
330
18
100
AcDbSymbolTableRecord
100
AcDbLinetypeTableRecord
  2
CENTER
 70
     0
  3
Center ____ _ ____ _ ____ _ ____ _ ____ _ ____
 72
    65
 73
     4
 40
50.8
 49
31.75
 74
     0
 49
-6.349999999999999
 74
     0
 49
6.349999999999999
 74
     0
 49
-6.349999999999999
 74
     0
  0
ENDTAB
  0
TABLE
  2
LAYER
  5
10
102
{ACAD_XDICTIONARY
360
11
102
}
330
0
100
AcDbSymbolTable
 70
     3
  0
LAYER
  5
4
330
10
100
AcDbSymbolTableRecord
100
AcDbLayerTableRecord
  2
0
 70
     0
 62
     7
  6
CONTINUOUS
  0
LAYER
  5
1E2
330
10
100
AcDbSymbolTableRecord
100
AcDbLayerTableRecord
  2
CENTER
 70
     0
 62
     1
  6
CENTER
  0
LAYER
  5
60F
330
10
100
AcDbSymbolTableRecord
100
AcDbLayerTableRecord
  2
DEFPOINTS
 70
     0
 62
     7
  6
CONTINUOUS
  0
ENDTAB
  0
TABLE
  2
STYLE
  5
15
330
0
100
AcDbSymbolTable
 70
     3
  0
STYLE
  5
16
330
15
100
AcDbSymbolTableRecord
100
AcDbTextStyleTableRecord
  2
STANDARD
 70
     0
 40
0.0
 41
1.0
 50
0.0
 71
     0
 42
0.125
  3
txt
  4

  0
STYLE
  5
2A
330
15
100
AcDbSymbolTableRecord
100
AcDbTextStyleTableRecord
  2
CARTOUCHE
 70
     0
 40
0.0
 41
1.0
 50
0.0
 71
     0
 42
0.06
  3
romans.shx
  4

  0
STYLE
  5
23
330
15
100
AcDbSymbolTableRecord
100
AcDbTextStyleTableRecord
  2
ROMANS
 70
     0
 40
0.0
 41
1.0
 50
0.0
 71
     0
 42
1.0
  3
romans.shx
  4

  0
ENDTAB
  0
TABLE
  2
VIEW
  5
1B
330
0
100
AcDbSymbolTable
 70
     0
  0
ENDTAB
  0
TABLE
  2
UCS
  5
1C
330
0
100
AcDbSymbolTable
 70
     0
  0
ENDTAB
  0
TABLE
  2
APPID
  5
1F
330
0
100
AcDbSymbolTable
 70
     1
  0
APPID
  5
20
330
1F
100
AcDbSymbolTableRecord
100
AcDbRegAppTableRecord
  2
ACAD
 70
     0
  0
ENDTAB
  0
TABLE
  2
DIMSTYLE
  5
21
330
0
100
AcDbSymbolTable
 70
     1
  0
DIMSTYLE
105
22
330
21
100
AcDbSymbolTableRecord
100
AcDbDimStyleTableRecord
  2
STANDARD
 70
     0
  3
\X
  4
cm
  5

  6

  7

 40
16.0
 41
0.1
 42
0.0625
 43
0.25
 44
0.1
 45
0.0
 46
0.0
 47
0.0
 48
0.0
140
0.1
141
0.09
142
0.0
143
2.54
144
1.0
145
0.0
146
1.0
147
0.08
 71
     0
 72
     0
 73
     1
 74
     1
 75
     0
 76
     0
 77
     0
 78
     4
170
     1
171
     0
172
     0
173
     0
174
     0
175
     0
176
     0
177
     0
178
     0
270
     5
271
     3
272
     3
273
     2
274
     0
340
23
275
     0
280
     0
281
     0
282
     0
283
     1
284
     4
285
     4
286
     4
287
     1
288
     0
  0
ENDTAB
  0
TABLE
  2
BLOCK_RECORD
  5
1
330
0
100
AcDbSymbolTable
 70
     5
  0
BLOCK_RECORD
  5
2
102
{ACAD_XDICTIONARY
360
535
102
}
330
1
100
AcDbSymbolTableRecord
100
AcDbBlockTableRecord
  2
*MODEL_SPACE
  0
BLOCK_RECORD
  5
525
102
{ACAD_XDICTIONARY
360
537
102
}
330
1
100
AcDbSymbolTableRecord
100
AcDbBlockTableRecord
  2
*PAPER_SPACE
  0
ENDTAB
  0
ENDSEC
  0
SECTION
  2
BLOCKS
  0
BLOCK
  5
3
330
2
100
AcDbEntity
  8
0
100
AcDbBlockBegin
  2
*MODEL_SPACE
 70
     0
 10
0.0
 20
0.0
 30
0.0
  3
*MODEL_SPACE
  1

  0
ENDBLK
  5
9
330
2
100
AcDbEntity
  8
0
100
AcDbBlockEnd
  0
BLOCK
  5
527
330
525
100
AcDbEntity
 67
     1
  8
0
100
AcDbBlockBegin
  2
*PAPER_SPACE
 70
     0
 10
0.0
 20
0.0
 30
0.0
  3
*PAPER_SPACE
  1

  0
ENDBLK
  5
528
330
525
100
AcDbEntity
 67
     1
  8
0
100
AcDbBlockEnd
  0
ENDSEC
  0
SECTION
  2
ENTITIES
  0
LINE
  5
2C
330
2
100
AcDbEntity
  8
0
100
AcDbLine
 10
23.06699011833039
 20
-72.81792839295061
 30
-2.755905511496999
 11
23.06699011833039
 21
-72.81792839295061
 31
2.755905511496999
210
0.0000000000000005
220
1.0
230
0.0
  0
LINE
  5
1A3
330
2
100
AcDbEntity
  8
0
 48
0.1
100
AcDbLine
 10
16.08636431489741
 20
-91.83459684335394
 30
0.0
 11
8.06699011833038
 21
-91.83459684335392
 31
0.0
  0
LINE
  5
1A4
330
2
100
AcDbEntity
  8
0
 48
0.1
100
AcDbLine
 10
25.06699011833039
 20
-74.31792839295062
 30
0.0
 11
8.06699011833038
 21
-74.3179283929506
 31
0.0
  0
LINE
  5
1A5
330
2
100
AcDbEntity
  8
0
 48
0.1
100
AcDbLine
 10
24.56699011833039
 20
-72.81792839295061
 30
0.0
 11
8.06699011833038
 21
-72.81792839295059
 31
0.0
  0
LINE
  5
1A6
330
2
100
AcDbEntity
  8
0
 48
0.1
100
AcDbLine
 10
-8.933009881669605
 20
-74.3179283929506
 30
0.0
 11
8.066990118330394
 21
-74.3179283929506
 31
0.0
  0
LINE
  5
1A7
330
2
100
AcDbEntity
  8
0
 48
0.1
100
AcDbLine
 10
-8.433009881669605
 20
-72.81792839295059
 30
0.0
 11
8.06699011833038
 21
-72.81792839295059
 31
0.0
  0
ARC
  5
1A8
330
2
100
AcDbEntity
  8
0
 48
0.1
100
AcDbCircle
 10
-8.433009881669605
 20
-73.31792839295059
 30
0.0
 40
0.5
100
AcDbArc
 50
89.99999999999998
 51
180.0
  0
LINE
  5
1A9
330
2
100
AcDbEntity
  8
0
 48
0.1
100
AcDbLine
 10
-8.933009881669605
 20
-74.31792839295059
 30
0.0
 11
-8.933009881669605
 21
-73.31792839295059
 31
0.0
  0
LINE
  5
1AA
330
2
100
AcDbEntity
  8
0
 48
0.1
100
AcDbLine
 10
-2.935462371626897
 20
-89.0960640715969
 30
0.0
 11
-4.272126043319403
 21
-74.3179283929506
 31
0.0
  0
LINE
  5
1AB
330
2
100
AcDbEntity
  8
0
 48
0.1
100
AcDbLine
 10
2.55412439880223
 20
-91.83459684335394
 30
0.0
 11
2.227198036428816
 21
-92.5305240459714
 31
0.0
  0
LINE
  5
1AC
330
2
100
AcDbEntity
  8
0
 48
0.1
100
AcDbLine
 10
0.053121722648342
 20
-91.83459684335394
 30
0.0
 11
8.096553550253787
 21
-91.83459684335392
 31
0.0
  0
ARC
  5
1AD
330
2
100
AcDbEntity
  8
0
 48
0.1
100
AcDbCircle
 10
0.0531217226483403
 20
-88.83459684335395
 30
0.0
 40
3.0
100
AcDbArc
 50
185.0
 51
270.0
  0
ARC
  5
1AE
330
2
100
AcDbEntity
  8
0
 48
0.1
100
AcDbCircle
 10
1.774646284342179
 20
-92.31792839295058
 30
0.0
 40
0.5
100
AcDbArc
 50
270.0000000000008
 51
334.8372269395658
  0
LINE
  5
1AF
330
2
100
AcDbEntity
  8
0
 48
0.1
100
AcDbLine
 10
0.0558295566202389
 20
-91.83459684335394
 30
0.0
 11
0.382755918993638
 21
-92.5305240459714
 31
0.0
  0
ARC
  5
1B0
330
2
100
AcDbEntity
  8
0
 48
0.1
100
AcDbCircle
 10
0.8353076710802698
 20
-92.31792839295058
 30
0.0
 40
0.5
100
AcDbArc
 50
205.1627730604341
 51
269.9999999999992
  0
LINE
  5
1B1
330
2
100
AcDbEntity
  8
0
 48
0.1
100
AcDbLine
 10
1.77464628434221
 20
-92.81792839295059
 30
0.0
 11
0.835307671080244
 21
-92.81792839295059
 31
0.0
  0
LINE
  5
1B2
330
2
100
AcDbEntity
  8
0
 48
0.1
100
AcDbLine
 10
0.835307671080244
 20
-92.81792839295059
 30
0.0
 11
1.77464628434221
 21
-92.81792839295059
 31
0.0
  0
LINE
  5
1B3
330
2
100
AcDbEntity
  8
0
 48
0.1
100
AcDbLine
 10
0.835307671080244
 20
-92.81792839295059
 30
0.0
 11
1.77464628434221
 21
-92.81792839295059
 31
0.0
  0
LINE
  5
1B4
330
2
100
AcDbEntity
  8
CENTER
 48
0.05
100
AcDbLine
 10
8.066990118330359
 20
-89.88349606376111
 30
0.0
 11
8.066990118330387
 21
-95.75236072214005
 31
0.0
  0
LINE
  5
1B7
330
2
100
AcDbEntity
  8
0
 48
0.1
100
AcDbLine
 10
7.59732081169939
 20
-92.81792839295059
 30
0.0
 11
8.536659424961356
 21
-92.81792839295059
 31
0.0
  0
LINE
  5
1B8
330
2
100
AcDbEntity
  8
0
 48
0.1
100
AcDbLine
 10
6.795543508923657
 20
-92.26137353865055
 30
0.0
 11
9.338436727737104
 21
-92.26137353865055
 31
0.0
  0
LINE
  5
1B9
330
2
100
AcDbEntity
  8
0
 48
0.1
100
AcDbLine
 10
9.338436727737104
 20
-92.26137353865055
 30
0.0
 11
6.795543508923643
 21
-92.26137353865055
 31
0.0
  0
LINE
  5
1BA
330
2
100
AcDbEntity
  8
0
 48
0.1
100
AcDbLine
 10
8.536659424961356
 20
-92.81792839295059
 30
0.0
 11
7.59732081169939
 21
-92.81792839295059
 31
0.0
  0
ARC
  5
1BB
330
2
100
AcDbEntity
  8
0
 48
0.1
100
AcDbCircle
 10
6.795543508923654
 20
-92.01137353865055
 30
0.0
 40
0.25
100
AcDbArc
 50
225.0000000000005
 51
270.0
  0
ARC
  5
1BC
330
2
100
AcDbEntity
  8
0
 48
0.1
100
AcDbCircle
 10
5.995175049763671
 20
-92.27166525127044
 30
0.0
 40
0.5
100
AcDbArc
 50
45.00000000000112
 51
60.94298210333627
  0
LINE
  5
1BD
330
2
100
AcDbEntity
  8
0
 48
0.1
100
AcDbLine
 10
6.618766813627019
 20
-92.1881502339472
 30
0.0
 11
6.34872844035695
 21
-91.91811186067715
 31
0.0
  0
ARC
  5
1BE
330
2
100
AcDbEntity
  8
0
 48
0.1
100
AcDbCircle
 10
7.597320811699387
 20
-92.31792839295058
 30
0.0
 40
0.5
100
AcDbArc
 50
205.1627730604341
 51
270.0000000000021
  0
LINE
  5
1BF
330
2
100
AcDbEntity
  8
0
 48
0.1
100
AcDbLine
 10
7.018329978113442
 20
-92.26137353865055
 30
0.0
 11
7.144769059612784
 21
-92.5305240459714
 31
0.0
  0
ARC
  5
1C0
330
2
100
AcDbEntity
  8
0
 48
0.1
100
AcDbCircle
 10
6.795543508923654
 20
-92.01137353865055
 30
0.0
 40
0.25
100
AcDbArc
 50
225.0000000000005
 51
270.0
  0
LINE
  5
1C1
330
2
100
AcDbEntity
  8
0
 48
0.1
100
AcDbLine
 10
6.618766813627019
 20
-92.1881502339472
 30
0.0
 11
6.34872844035695
 21
-91.91811186067713
 31
0.0
  0
ARC
  5
1C2
330
2
100
AcDbEntity
  8
0
 48
0.1
100
AcDbCircle
 10
7.597320811699415
 20
-92.31792839295058
 30
0.0
 40
0.5
100
AcDbArc
 50
205.1627730604341
 51
269.9999999999992
  0
LINE
  5
1C3
330
2
100
AcDbEntity
  8
0
 48
0.1
100
AcDbLine
 10
7.018329978113456
 20
-92.26137353865055
 30
0.0
 11
7.144769059612812
 21
-92.5305240459714
 31
0.0
  0
ARC
  5
1C4
330
2
100
AcDbEntity
  8
0
 48
0.1
100
AcDbCircle
 10
8.536659424961353
 20
-92.31792839295058
 30
0.0
 40
0.5
100
AcDbArc
 50
270.0000000000008
 51
334.8372269395658
  0
ARC
  5
1C5
330
2
100
AcDbEntity
  8
0
 48
0.1
100
AcDbCircle
 10
9.3384367277371
 20
-92.01137353865055
 30
0.0
 40
0.25
100
AcDbArc
 50
270.0
 51
314.9999999999995
  0
LINE
  5
1C6
330
2
100
AcDbEntity
  8
0
 48
0.1
100
AcDbLine
 10
9.115650258547319
 20
-92.26137353865055
 30
0.0
 11
8.989211177047963
 21
-92.5305240459714
 31
0.0
  0
ARC
  5
1C7
330
2
100
AcDbEntity
  8
0
 48
0.1
100
AcDbCircle
 10
10.13880518689707
 20
-92.27166525127044
 30
0.0
 40
0.5
100
AcDbArc
 50
119.057017896663
 51
134.9999999999988
  0
ARC
  5
1C8
330
2
100
AcDbEntity
  8
0
 48
0.1
100
AcDbCircle
 10
9.3384367277371
 20
-92.01137353865055
 30
0.0
 40
0.25
100
AcDbArc
 50
270.0
 51
314.9999999999995
  0
LINE
  5
1C9
330
2
100
AcDbEntity
  8
0
 48
0.1
100
AcDbLine
 10
9.515213423033742
 20
-92.1881502339472
 30
0.0
 11
9.785251796303811
 21
-91.91811186067715
 31
0.0
  0
ARC
  5
1CA
330
2
100
AcDbEntity
  8
0
 48
0.1
100
AcDbCircle
 10
8.536659424961381
 20
-92.31792839295058
 30
0.0
 40
0.5
100
AcDbArc
 50
269.9999999999978
 51
334.8372269395657
  0
LINE
  5
1CB
330
2
100
AcDbEntity
  8
0
 48
0.1
100
AcDbLine
 10
9.115650258547333
 20
-92.26137353865055
 30
0.0
 11
8.989211177047991
 21
-92.5305240459714
 31
0.0
  0
LINE
  5
1CC
330
2
100
AcDbEntity
  8
CENTER
 48
0.05
100
AcDbLine
 10
8.06699011833038
 20
-73.4519412094611
 30
0.0
 11
8.066990118330409
 21
-79.32080586784003
 31
0.0
  0
CIRCLE
  5
1CD
330
2
100
AcDbEntity
  8
0
 48
0.1
100
AcDbCircle
 10
8.066990118330394
 20
-76.38637353865057
 30
0.0
 40
1.3125
  0
LINE
  5
1CE
330
2
100
AcDbEntity
  8
CENTER
 48
0.05
100
AcDbLine
 10
11.00142244751985
 20
-76.38637353865056
 30
0.0
 11
5.132557789140932
 21
-76.38637353865057
 31
0.0
  0
LINE
  5
1CF
330
2
100
AcDbEntity
  8
0
 48
0.1
100
AcDbLine
 10
19.06944260828767
 20
-89.09606407159692
 30
0.0
 11
20.40610627998018
 21
-74.31792839295062
 31
0.0
  0
ARC
  5
1D0
330
2
100
AcDbEntity
  8
0
 48
0.1
100
AcDbCircle
 10
16.08085851401243
 20
-88.83459684335395
 30
0.0
 40
3.0
100
AcDbArc
 50
269.9999999999998
 51
355.0
  0
ARC
  5
1D1
330
2
100
AcDbEntity
  8
0
 48
0.1
100
AcDbCircle
 10
15.35779942942731
 20
-92.31792839295058
 30
0.0
 40
0.5
100
AcDbArc
 50
270.0000000000008
 51
334.8372269395658
  0
LINE
  5
1D2
330
2
100
AcDbEntity
  8
0
 48
0.1
100
AcDbLine
 10
15.35779942942734
 20
-92.81792839295059
 30
0.0
 11
14.41846081616539
 21
-92.81792839295059
 31
0.0
  0
LINE
  5
1D3
330
2
100
AcDbEntity
  8
0
 48
0.1
100
AcDbLine
 10
14.41846081616539
 20
-92.81792839295059
 30
0.0
 11
15.35779942942734
 21
-92.81792839295059
 31
0.0
  0
LINE
  5
1D4
330
2
100
AcDbEntity
  8
0
 48
0.1
100
AcDbLine
 10
15.35779942942734
 20
-92.81792839295059
 30
0.0
 11
14.41846081616539
 21
-92.81792839295059
 31
0.0
  0
ARC
  5
1D5
330
2
100
AcDbEntity
  8
0
 48
0.1
100
AcDbCircle
 10
14.41846081616541
 20
-92.31792839295058
 30
0.0
 40
0.5
100
AcDbArc
 50
205.1627730604341
 51
269.9999999999992
  0
LINE
  5
1D6
330
2
100
AcDbEntity
  8
0
 48
0.1
100
AcDbLine
 10
13.63898270170537
 20
-91.83459684335394
 30
0.0
 11
13.96590906407878
 21
-92.5305240459714
 31
0.0
  0
LINE
  5
1D7
330
2
100
AcDbEntity
  8
0
 48
0.1
100
AcDbLine
 10
16.13727754388736
 20
-91.83459684335394
 30
0.0
 11
15.81035118151395
 21
-92.5305240459714
 31
0.0
  0
LINE
  5
1D8
330
2
100
AcDbEntity
  8
0
100
AcDbLine
 10
21.98431295350239
 20
-72.81792839295061
 30
-0.0000000000000001
 11
24.14966728315838
 21
-72.81792839295061
 31
0.0
210
0.0000000000000005
220
1.0
230
0.0
  0
ARC
  5
1D9
330
2
100
AcDbEntity
  8
0
 48
0.1
100
AcDbCircle
 10
24.56699011833039
 20
-73.31792839295059
 30
0.0
 40
0.5
100
AcDbArc
 50
0.0
 51
89.99999999999998
  0
LINE
  5
1DA
330
2
100
AcDbEntity
  8
0
 48
0.1
100
AcDbLine
 10
25.06699011833039
 20
-74.3179283929506
 30
0.0
 11
25.06699011833039
 21
-73.31792839295061
 31
0.0
  0
ENDSEC
  0
SECTION
  2
OBJECTS
  0
DICTIONARY
  5
7
330
0
100
AcDbDictionary
  3
ACAD_GROUP
350
27
  3
ACAD_LAYOUT
350
B
  3
ACAD_MLINESTYLE
350
28
  3
ACAD_PLOTSETTINGS
350
29
  3
ACAD_PLOTSTYLENAME
350
6
  3
ACDBHEADERROUNDTRIPXREC
350
69F
  3
ACDBVARIABLEDICTIONARY
350
1DB
  0
DICTIONARY
  5
11
330
10
100
AcDbDictionary
280
     1
  3
ACAD_LAYERFILTERS
360
12
  0
DICTIONARY
  5
535
330
2
100
AcDbDictionary
280
     1
  3
ACAD_LAYOUTSELFREF
360
6C0
  0
DICTIONARY
  5
537
330
525
100
AcDbDictionary
280
     1
  3
ACAD_LAYOUTSELFREF
360
6C1
  0
DICTIONARY
  5
27
102
{ACAD_REACTORS
330
7
102
}
330
7
100
AcDbDictionary
  0
DICTIONARY
  5
B
102
{ACAD_REACTORS
330
7
102
}
330
7
100
AcDbDictionary
  0
DICTIONARY
  5
28
102
{ACAD_REACTORS
330
7
102
}
330
7
100
AcDbDictionary
  3
STANDARD
350
2B
  0
DICTIONARY
  5
29
102
{ACAD_REACTORS
330
7
102
}
330
7
100
AcDbDictionary
  0
ACDBDICTIONARYWDFLT
  5
6
102
{ACAD_REACTORS
330
7
102
}
330
7
100
AcDbDictionary
281
     1
  3
Normal
350
5
100
AcDbDictionaryWithDefault
340
5
  0
DICTIONARY
  5
69F
102
{ACAD_REACTORS
330
7
102
}
330
7
100
AcDbDictionary
  3
CEPSNTYPE
350
6A9
  3
DIMSTYLEDATA
350
6AD
  3
FINGERPRINTGUID
350
6AA
  3
HYPERLINKBASE
350
6A2
  3
INSUNITS
350
6A8
  3
LAYOUTDICT
350
6A4
  3
LWETCUNION
350
6A7
  3
PLOTSETDICT
350
6A5
  3
PLOTSTYLNAMDICT
350
6A6
  3
PSVPSCALE
350
6AC
  3
PUCSBASE
350
6B0
  3
PUCSORGBACK
350
6B6
  3
PUCSORGBOTTOM
350
6B2
  3
PUCSORGFRONT
350
6B5
  3
PUCSORGLEFT
350
6B3
  3
PUCSORGRIGHT
350
6B4
  3
PUCSORGTOP
350
6B1
  3
PUCSORTHOREF
350
6AE
  3
PUCSORTHOVIEW
350
6AF
  3
STYLESHEET
350
6A3
  3
TSTACKALIGN
350
6A0
  3
TSTACKSIZE
350
6A1
  3
UCSBASE
350
6B9
  3
UCSORGBACK
350
6BF
  3
UCSORGBOTTOM
350
6BB
  3
UCSORGFRONT
350
6BE
  3
UCSORGLEFT
350
6BC
  3
UCSORGRIGHT
350
6BD
  3
UCSORGTOP
350
6BA
  3
UCSORTHOREF
350
6B7
  3
UCSORTHOVIEW
350
6B8
  3
VERSIONGUID
350
6AB
  0
DICTIONARY
  5
1DB
102
{ACAD_REACTORS
330
7
102
}
330
7
100
AcDbDictionary
  3
DIMASSOC
350
1DD
  3
HIDETEXT
350
1DC
  0
DICTIONARY
  5
12
102
{ACAD_REACTORS
330
11
102
}
330
11
100
AcDbDictionary
280
     1
  3
DIM-1_12
360
13
  3
DIM-1_16
360
14
  0
XRECORD
  5
6C0
102
{ACAD_REACTORS
330
535
102
}
330
535
100
AcDbXrecord
340
2
  0
XRECORD
  5
6C1
102
{ACAD_REACTORS
330
537
102
}
330
537
100
AcDbXrecord
340
525
  0
MLINESTYLE
  5
2B
102
{ACAD_REACTORS
330
28
102
}
330
28
100
AcDbMlineStyle
  2
STANDARD
 70
     0
  3

 62
   256
 51
90.0
 52
90.0
 71
     2
 49
0.5
 62
   256
  6
BYLAYER
 49
-0.5
 62
   256
  6
BYLAYER
  0
ACDBPLACEHOLDER
  5
5
102
{ACAD_REACTORS
330
6
102
}
330
6
100
AcDbPlaceHolder
280
     0
  0
XRECORD
  5
6A9
102
{ACAD_REACTORS
330
69F
102
}
330
69F
100
AcDbXrecord
 90
        0
  0
XRECORD
  5
6AD
102
{ACAD_REACTORS
330
69F
102
}
330
69F
100
AcDbXrecord
1000
DSTYLE
1002
{
1070
    79
 70
     1
1070
   276
 70
     1
1070
   277
 70
     5
1070
   289
 70
     1
1002
}
  0
XRECORD
  5
6AA
102
{ACAD_REACTORS
330
69F
102
}
330
69F
100
AcDbXrecord
  1
{6A4AC8E0-4F58-11D5-8420-0003476D26AB}
  0
XRECORD
  5
6A2
102
{ACAD_REACTORS
330
69F
102
}
330
69F
100
AcDbXrecord
  1

  0
XRECORD
  5
6A8
102
{ACAD_REACTORS
330
69F
102
}
330
69F
100
AcDbXrecord
 90
        1
  0
XRECORD
  5
6A4
102
{ACAD_REACTORS
330
69F
102
}
330
69F
100
AcDbXrecord
340
B
  0
XRECORD
  5
6A7
102
{ACAD_REACTORS
330
69F
102
}
330
69F
100
AcDbXrecord
 90
    10781
  0
XRECORD
  5
6A5
102
{ACAD_REACTORS
330
69F
102
}
330
69F
100
AcDbXrecord
340
29
  0
XRECORD
  5
6A6
102
{ACAD_REACTORS
330
69F
102
}
330
69F
100
AcDbXrecord
340
6
  0
XRECORD
  5
6AC
102
{ACAD_REACTORS
330
69F
102
}
330
69F
100
AcDbXrecord
 40
0.0
  0
XRECORD
  5
6B0
102
{ACAD_REACTORS
330
69F
102
}
330
69F
100
AcDbXrecord
340
0
  0
XRECORD
  5
6B6
102
{ACAD_REACTORS
330
69F
102
}
330
69F
100
AcDbXrecord
 10
0.0
 20
0.0
 30
0.0
  0
XRECORD
  5
6B2
102
{ACAD_REACTORS
330
69F
102
}
330
69F
100
AcDbXrecord
 10
0.0
 20
0.0
 30
0.0
  0
XRECORD
  5
6B5
102
{ACAD_REACTORS
330
69F
102
}
330
69F
100
AcDbXrecord
 10
0.0
 20
0.0
 30
0.0
  0
XRECORD
  5
6B3
102
{ACAD_REACTORS
330
69F
102
}
330
69F
100
AcDbXrecord
 10
0.0
 20
0.0
 30
0.0
  0
XRECORD
  5
6B4
102
{ACAD_REACTORS
330
69F
102
}
330
69F
100
AcDbXrecord
 10
0.0
 20
0.0
 30
0.0
  0
XRECORD
  5
6B1
102
{ACAD_REACTORS
330
69F
102
}
330
69F
100
AcDbXrecord
 10
0.0
 20
0.0
 30
0.0
  0
XRECORD
  5
6AE
102
{ACAD_REACTORS
330
69F
102
}
330
69F
100
AcDbXrecord
340
0
  0
XRECORD
  5
6AF
102
{ACAD_REACTORS
330
69F
102
}
330
69F
100
AcDbXrecord
 70
     0
  0
XRECORD
  5
6A3
102
{ACAD_REACTORS
330
69F
102
}
330
69F
100
AcDbXrecord
  1

  0
XRECORD
  5
6A0
102
{ACAD_REACTORS
330
69F
102
}
330
69F
100
AcDbXrecord
 90
        1
  0
XRECORD
  5
6A1
102
{ACAD_REACTORS
330
69F
102
}
330
69F
100
AcDbXrecord
 90
       70
  0
XRECORD
  5
6B9
102
{ACAD_REACTORS
330
69F
102
}
330
69F
100
AcDbXrecord
340
0
  0
XRECORD
  5
6BF
102
{ACAD_REACTORS
330
69F
102
}
330
69F
100
AcDbXrecord
 10
0.0
 20
0.0
 30
0.0
  0
XRECORD
  5
6BB
102
{ACAD_REACTORS
330
69F
102
}
330
69F
100
AcDbXrecord
 10
0.0
 20
0.0
 30
0.0
  0
XRECORD
  5
6BE
102
{ACAD_REACTORS
330
69F
102
}
330
69F
100
AcDbXrecord
 10
0.0
 20
0.0
 30
0.0
  0
XRECORD
  5
6BC
102
{ACAD_REACTORS
330
69F
102
}
330
69F
100
AcDbXrecord
 10
0.0
 20
0.0
 30
0.0
  0
XRECORD
  5
6BD
102
{ACAD_REACTORS
330
69F
102
}
330
69F
100
AcDbXrecord
 10
0.0
 20
0.0
 30
0.0
  0
XRECORD
  5
6BA
102
{ACAD_REACTORS
330
69F
102
}
330
69F
100
AcDbXrecord
 10
0.0
 20
0.0
 30
0.0
  0
XRECORD
  5
6B7
102
{ACAD_REACTORS
330
69F
102
}
330
69F
100
AcDbXrecord
340
0
  0
XRECORD
  5
6B8
102
{ACAD_REACTORS
330
69F
102
}
330
69F
100
AcDbXrecord
 70
     1
  0
XRECORD
  5
6AB
102
{ACAD_REACTORS
330
69F
102
}
330
69F
100
AcDbXrecord
  1
{6D0467B6-C9DF-43A9-A3FA-1F3137F03D45}
  0
DICTIONARYVAR
  5
1DD
102
{ACAD_REACTORS
330
1DB
102
}
330
1DB
100
DictionaryVariables
280
     0
  1
1
  0
DICTIONARYVAR
  5
1DC
102
{ACAD_REACTORS
330
1DB
102
}
330
1DB
100
DictionaryVariables
280
     0
  1
1
  0
XRECORD
  5
13
102
{ACAD_REACTORS
330
12
102
}
330
12
100
AcDbXrecord
  1
DIM-1_12
  1
DIM-1_12
  1
*
  1
*
 70
     0
  1
*
  1
*
  0
XRECORD
  5
14
102
{ACAD_REACTORS
330
12
102
}
330
12
100
AcDbXrecord
  1
dim-1_16
  1
*
  1
*
  1
*
 70
     0
  1
*
  1
*
  0
ENDSEC
  0
EOF
