  0
SECTION
  2
HEADER
  9
$ACADVER
  1
AC1015
  9
$ACADMAINTVER
 70
    20
  9
$DWGCODEPAGE
  3
ANSI_1252
  9
$INSBASE
 10
0.0
 20
0.0
 30
0.0
  9
$EXTMIN
 10
23.124124293
 20
21.5600852343
 30
0.0
  9
$EXTMAX
 10
89.12412429299999
 20
54.78871992322815
 30
0.0
  9
$LIMMIN
 10
0.0
 20
0.0
  9
$LIMMAX
 10
181.3333333333
 20
117.3333333333
  9
$ORTHOMODE
 70
     0
  9
$REGENMODE
 70
     1
  9
$FILLMODE
 70
     1
  9
$QTEXTMODE
 70
     0
  9
$MIRRTEXT
 70
     0
  9
$LTSCALE
 40
9.973333333300001
  9
$ATTMODE
 70
     1
  9
$TEXTSIZE
 40
0.2
  9
$TRACEWID
 40
0.05
  9
$TEXTSTYLE
  7
STANDARD
  9
$CLAYER
  8
0
  9
$CELTYPE
  6
BYLAYER
  9
$CECOLOR
 62
   256
  9
$CELTSCALE
 40
1.0
  9
$DISPSILH
 70
     0
  9
$DIMSCALE
 40
1.0
  9
$DIMASZ
 40
2.0
  9
$DIMEXO
 40
0.0625
  9
$DIMDLI
 40
6.890666666699999
  9
$DIMRND
 40
0.0
  9
$DIMDLE
 40
0.0
  9
$DIMEXE
 40
0.125
  9
$DIMTP
 40
0.0
  9
$DIMTM
 40
0.0
  9
$DIMTXT
 40
1.333333333299999
  9
$DIMCEN
 40
1.631999999999999
  9
$DIMTSZ
 40
0.0
  9
$DIMTOL
 70
     0
  9
$DIMLIM
 70
     0
  9
$DIMTIH
 70
     1
  9
$DIMTOH
 70
     1
  9
$DIMSE1
 70
     0
  9
$DIMSE2
 70
     0
  9
$DIMTAD
 70
     0
  9
$DIMZIN
 70
     0
  9
$DIMBLK
  1
_FILLED
  9
$DIMASO
 70
     1
  9
$DIMSHO
 70
     1
  9
$DIMPOST
  1

  9
$DIMAPOST
  1

  9
$DIMALT
 70
     0
  9
$DIMALTD
 70
     2
  9
$DIMALTF
 40
25.4
  9
$DIMLFAC
 40
1.0
  9
$DIMTOFL
 70
     0
  9
$DIMTVP
 40
0.0
  9
$DIMTIX
 70
     0
  9
$DIMSOXD
 70
     0
  9
$DIMSAH
 70
     0
  9
$DIMBLK1
  1

  9
$DIMBLK2
  1

  9
$DIMSTYLE
  2
STANDARD
  9
$DIMCLRD
 70
     0
  9
$DIMCLRE
 70
     0
  9
$DIMCLRT
 70
     0
  9
$DIMTFAC
 40
1.0
  9
$DIMGAP
 40
0.09
  9
$DIMJUST
 70
     0
  9
$DIMSD1
 70
     0
  9
$DIMSD2
 70
     0
  9
$DIMTOLJ
 70
     1
  9
$DIMTZIN
 70
     0
  9
$DIMALTZ
 70
     0
  9
$DIMALTTZ
 70
     0
  9
$DIMUPT
 70
     0
  9
$DIMDEC
 70
     4
  9
$DIMTDEC
 70
     4
  9
$DIMALTU
 70
     2
  9
$DIMALTTD
 70
     2
  9
$DIMTXSTY
  7
STANDARD
  9
$DIMAUNIT
 70
     0
  9
$DIMADEC
 70
     0
  9
$DIMALTRND
 40
0.0
  9
$DIMAZIN
 70
     0
  9
$DIMDSEP
 70
    46
  9
$DIMATFIT
 70
     3
  9
$DIMFRAC
 70
     0
  9
$DIMLDRBLK
  1

  9
$DIMLUNIT
 70
     2
  9
$DIMLWD
 70
    -2
  9
$DIMLWE
 70
    -2
  9
$DIMTMOVE
 70
     0
  9
$LUNITS
 70
     2
  9
$LUPREC
 70
     4
  9
$SKETCHINC
 40
0.1
  9
$FILLETRAD
 40
0.0
  9
$AUNITS
 70
     0
  9
$AUPREC
 70
     0
  9
$MENU
  1
.
  9
$ELEVATION
 40
0.0
  9
$PELEVATION
 40
0.0
  9
$THICKNESS
 40
0.0
  9
$LIMCHECK
 70
     0
  9
$CHAMFERA
 40
0.0
  9
$CHAMFERB
 40
0.0
  9
$CHAMFERC
 40
0.0
  9
$CHAMFERD
 40
0.0
  9
$SKPOLY
 70
     0
  9
$TDCREATE
 40
2456087.366228970
  9
$TDUCREATE
 40
2456087.532895637
  9
$TDUPDATE
 40
2456087.379355822
  9
$TDUUPDATE
 40
2456087.546022488
  9
$TDINDWG
 40
0.0085403009
  9
$TDUSRTIMER
 40
0.0085403009
  9
$USRTIMER
 70
     1
  9
$ANGBASE
 50
0.0
  9
$ANGDIR
 70
     0
  9
$PDMODE
 70
     3
  9
$PDSIZE
 40
0.03125
  9
$PLINEWID
 40
0.0
  9
$SPLFRAME
 70
     0
  9
$SPLINETYPE
 70
     6
  9
$SPLINESEGS
 70
     8
  9
$HANDSEED
  5
1B49
  9
$SURFTAB1
 70
     6
  9
$SURFTAB2
 70
     6
  9
$SURFTYPE
 70
     6
  9
$SURFU
 70
     6
  9
$SURFV
 70
     6
  9
$UCSBASE
  2

  9
$UCSNAME
  2

  9
$UCSORG
 10
0.0
 20
0.0
 30
0.0
  9
$UCSXDIR
 10
1.0
 20
0.0
 30
0.0
  9
$UCSYDIR
 10
0.0
 20
1.0
 30
0.0
  9
$UCSORTHOREF
  2

  9
$UCSORTHOVIEW
 70
     0
  9
$UCSORGTOP
 10
0.0
 20
0.0
 30
0.0
  9
$UCSORGBOTTOM
 10
0.0
 20
0.0
 30
0.0
  9
$UCSORGLEFT
 10
0.0
 20
0.0
 30
0.0
  9
$UCSORGRIGHT
 10
0.0
 20
0.0
 30
0.0
  9
$UCSORGFRONT
 10
0.0
 20
0.0
 30
0.0
  9
$UCSORGBACK
 10
0.0
 20
0.0
 30
0.0
  9
$PUCSBASE
  2

  9
$PUCSNAME
  2

  9
$PUCSORG
 10
0.0
 20
0.0
 30
0.0
  9
$PUCSXDIR
 10
1.0
 20
0.0
 30
0.0
  9
$PUCSYDIR
 10
0.0
 20
1.0
 30
0.0
  9
$PUCSORTHOREF
  2

  9
$PUCSORTHOVIEW
 70
     0
  9
$PUCSORGTOP
 10
0.0
 20
0.0
 30
0.0
  9
$PUCSORGBOTTOM
 10
0.0
 20
0.0
 30
0.0
  9
$PUCSORGLEFT
 10
0.0
 20
0.0
 30
0.0
  9
$PUCSORGRIGHT
 10
0.0
 20
0.0
 30
0.0
  9
$PUCSORGFRONT
 10
0.0
 20
0.0
 30
0.0
  9
$PUCSORGBACK
 10
0.0
 20
0.0
 30
0.0
  9
$USERI1
 70
     0
  9
$USERI2
 70
     0
  9
$USERI3
 70
     0
  9
$USERI4
 70
     0
  9
$USERI5
 70
     0
  9
$USERR1
 40
0.0
  9
$USERR2
 40
0.0
  9
$USERR3
 40
0.0
  9
$USERR4
 40
0.0
  9
$USERR5
 40
0.0
  9
$WORLDVIEW
 70
     1
  9
$SHADEDGE
 70
     3
  9
$SHADEDIF
 70
    70
  9
$TILEMODE
 70
     1
  9
$MAXACTVP
 70
    64
  9
$PINSBASE
 10
0.0
 20
0.0
 30
0.0
  9
$PLIMCHECK
 70
     0
  9
$PEXTMIN
 10
1.000000000000000E+20
 20
1.000000000000000E+20
 30
1.000000000000000E+20
  9
$PEXTMAX
 10
-1.000000000000000E+20
 20
-1.000000000000000E+20
 30
-1.000000000000000E+20
  9
$PLIMMIN
 10
0.0
 20
0.0
  9
$PLIMMAX
 10
12.0
 20
9.0
  9
$UNITMODE
 70
     0
  9
$VISRETAIN
 70
     1
  9
$PLINEGEN
 70
     0
  9
$PSLTSCALE
 70
     1
  9
$TREEDEPTH
 70
  3020
  9
$CMLSTYLE
  2
Standard
  9
$CMLJUST
 70
     0
  9
$CMLSCALE
 40
1.0
  9
$PROXYGRAPHICS
 70
     1
  9
$MEASUREMENT
 70
     0
  9
$CELWEIGHT
370
    -1
  9
$ENDCAPS
280
     0
  9
$JOINSTYLE
280
     0
  9
$LWDISPLAY
290
     0
  9
$INSUNITS
 70
     1
  9
$HYPERLINKBASE
  1

  9
$STYLESHEET
  1

  9
$XEDIT
290
     1
  9
$CEPSNTYPE
380
     0
  9
$PSTYLEMODE
290
     1
  9
$FINGERPRINTGUID
  2
{7AD2ADE5-3D2B-450E-934A-C2BE4DF901DD}
  9
$VERSIONGUID
  2
{AD8B7A89-DE0F-47DB-B450-1EBB88702361}
  9
$EXTNAMES
290
     1
  9
$PSVPSCALE
 40
0.0
  9
$OLESTARTUP
290
     0
  0
ENDSEC
  0
SECTION
  2
CLASSES
  0
CLASS
  1
ACDBDICTIONARYWDFLT
  2
AcDbDictionaryWithDefault
  3
ObjectDBX Classes
 90
        0
280
     0
281
     0
  0
CLASS
  1
ACDBPLACEHOLDER
  2
AcDbPlaceHolder
  3
ObjectDBX Classes
 90
        0
280
     0
281
     0
  0
CLASS
  1
LAYOUT
  2
AcDbLayout
  3
ObjectDBX Classes
 90
        0
280
     0
281
     0
  0
CLASS
  1
MATERIAL
  2
AcDbMaterial
  3
ObjectDBX Classes
 90
     1153
280
     0
281
     0
  0
CLASS
  1
VISUALSTYLE
  2
AcDbVisualStyle
  3
ObjectDBX Classes
 90
     4095
280
     0
281
     0
  0
CLASS
  1
TABLESTYLE
  2
AcDbTableStyle
  3
ObjectDBX Classes
 90
     4095
280
     0
281
     0
  0
CLASS
  1
SCALE
  2
AcDbScale
  3
ObjectDBX Classes
 90
     1153
280
     0
281
     0
  0
CLASS
  1
MLEADERSTYLE
  2
AcDbMLeaderStyle
  3
ACDB_MLEADERSTYLE_CLASS
 90
     4095
280
     0
281
     0
  0
CLASS
  1
CELLSTYLEMAP
  2
AcDbCellStyleMap
  3
ObjectDBX Classes
 90
     1152
280
     0
281
     0
  0
CLASS
  1
DICTIONARYVAR
  2
AcDbDictionaryVar
  3
ObjectDBX Classes
 90
        0
280
     0
281
     0
  0
ENDSEC
  0
SECTION
  2
TABLES
  0
TABLE
  2
VPORT
  5
8
102
{ACAD_XDICTIONARY
360
1A7B
102
}
330
0
100
AcDbSymbolTable
 70
     1
  0
VPORT
  5
1F4
330
8
100
AcDbSymbolTableRecord
100
AcDbViewportTableRecord
  2
*ACTIVE
 70
     0
 10
0.0
 20
0.0
 11
1.0
 21
1.0
 12
106.8204801985298
 22
71.49573488756042
 13
0.0
 23
0.0
 14
1.0
 24
1.0
 15
0.0
 25
0.0
 16
0.0
 26
0.0
 36
1.0
 17
0.0
 27
0.0
 37
0.0
 40
94.27769942799296
 41
2.280385078219013
 42
50.0
 43
0.0
 44
0.0
 50
0.0
 51
0.0
 71
     0
 72
   100
 73
     1
 74
     1
 75
     0
 76
     0
 77
     0
 78
     0
281
     0
 65
     1
110
0.0
120
0.0
130
0.0
111
1.0
121
0.0
131
0.0
112
0.0
122
1.0
132
0.0
 79
     0
146
0.0
  0
ENDTAB
  0
TABLE
  2
LTYPE
  5
5
330
0
100
AcDbSymbolTable
 70
     6
  0
LTYPE
  5
14
330
5
100
AcDbSymbolTableRecord
100
AcDbLinetypeTableRecord
  2
BYBLOCK
 70
     0
  3

 72
    65
 73
     0
 40
0.0
  0
LTYPE
  5
15
330
5
100
AcDbSymbolTableRecord
100
AcDbLinetypeTableRecord
  2
BYLAYER
 70
     0
  3

 72
    65
 73
     0
 40
0.0
  0
LTYPE
  5
16
330
5
100
AcDbSymbolTableRecord
100
AcDbLinetypeTableRecord
  2
CONTINUOUS
 70
     0
  3
Solid line
 72
    65
 73
     0
 40
0.0
  0
LTYPE
  5
1F5
330
5
100
AcDbSymbolTableRecord
100
AcDbLinetypeTableRecord
  2
CENTER
 70
     0
  3
____ _ ____ _ ____ _ ____ _ ____ _ ____ _ ____
 72
    65
 73
     4
 40
0.6
 49
0.375
 74
     0
 49
-0.075
 74
     0
 49
0.075
 74
     0
 49
-0.075
 74
     0
  0
LTYPE
  5
1F6
330
5
100
AcDbSymbolTableRecord
100
AcDbLinetypeTableRecord
  2
HIDDEN
 70
     0
  3
- - - - - - - - - - - - - - - - - - - -
 72
    65
 73
     2
 40
0.2
 49
0.1
 74
     0
 49
-0.1
 74
     0
  0
LTYPE
  5
1F7
330
5
100
AcDbSymbolTableRecord
100
AcDbLinetypeTableRecord
  2
PHANTOM
 70
     0
  3
_____ _ _ _____ _ _ _____ _ _ _____
 72
    65
 73
     6
 40
0.8
 49
0.45
 74
     0
 49
-0.05
 74
     0
 49
0.1
 74
     0
 49
-0.05
 74
     0
 49
0.1
 74
     0
 49
-0.05
 74
     0
  0
LTYPE
  5
1F8
330
5
100
AcDbSymbolTableRecord
100
AcDbLinetypeTableRecord
  2
DOT
 70
     0
  3
. . . . . . . . . . . . . . . . . . . .
 72
    65
 73
     2
 40
0.2
 49
0.1
 74
     0
 49
-0.1
 74
     0
  0
LTYPE
  5
1F9
330
5
100
AcDbSymbolTableRecord
100
AcDbLinetypeTableRecord
  2
DASHED
 70
     0
  3
- - - - - - - - - - - - - - - - - - - -
 72
    65
 73
     2
 40
0.2
 49
0.1
 74
     0
 49
-0.1
 74
     0
  0
ENDTAB
  0
TABLE
  2
LAYER
  5
2
330
0
100
AcDbSymbolTable
 70
    44
  0
LAYER
  5
10
102
{ACAD_XDICTIONARY
360
1AC7
102
}
330
2
100
AcDbSymbolTableRecord
100
AcDbLayerTableRecord
  2
0
 70
     0
 62
     7
  6
CONTINUOUS
370
    -3
390
F
  0
LAYER
  5
1FA
102
{ACAD_XDICTIONARY
360
1AC9
102
}
330
2
100
AcDbSymbolTableRecord
100
AcDbLayerTableRecord
  2
DEFAULT_1
 70
     0
 62
     7
  6
CENTER
370
    -3
390
F
  0
LAYER
  5
1FB
102
{ACAD_XDICTIONARY
360
1ACB
102
}
330
2
100
AcDbSymbolTableRecord
100
AcDbLayerTableRecord
  2
DEFAULT_2
 70
     0
 62
     7
  6
HIDDEN
370
    -3
390
F
  0
LAYER
  5
1FC
102
{ACAD_XDICTIONARY
360
1ACD
102
}
330
2
100
AcDbSymbolTableRecord
100
AcDbLayerTableRecord
  2
DEFAULT_3
 70
     0
 62
     7
  6
PHANTOM
370
    -3
390
F
  0
LAYER
  5
1FD
102
{ACAD_XDICTIONARY
360
1ACF
102
}
330
2
100
AcDbSymbolTableRecord
100
AcDbLayerTableRecord
  2
1_CURVES
 70
     0
 62
     7
  6
CONTINUOUS
370
    -3
390
F
  0
LAYER
  5
1FE
102
{ACAD_XDICTIONARY
360
1AD1
102
}
330
2
100
AcDbSymbolTableRecord
100
AcDbLayerTableRecord
  2
1_CURVES-CONTOUR-REBORD
 70
     0
 62
     7
  6
CONTINUOUS
370
    -3
390
F
  0
LAYER
  5
1FF
102
{ACAD_XDICTIONARY
360
1AD3
102
}
330
2
100
AcDbSymbolTableRecord
100
AcDbLayerTableRecord
  2
1_CURVES-JETS
 70
     0
 62
     7
  6
CONTINUOUS
370
    -3
390
F
  0
LAYER
  5
200
102
{ACAD_XDICTIONARY
360
1AD5
102
}
330
2
100
AcDbSymbolTableRecord
100
AcDbLayerTableRecord
  2
1_CURVES-ROLL-EDGE
 70
     0
 62
     7
  6
CONTINUOUS
370
    -3
390
F
  0
LAYER
  5
201
102
{ACAD_XDICTIONARY
360
1AD7
102
}
330
2
100
AcDbSymbolTableRecord
100
AcDbLayerTableRecord
  2
1_CURVES-SPEC-FRONT
 70
     0
 62
     7
  6
CONTINUOUS
370
    -3
390
F
  0
LAYER
  5
202
102
{ACAD_XDICTIONARY
360
1AD9
102
}
330
2
100
AcDbSymbolTableRecord
100
AcDbLayerTableRecord
  2
1_CURVES_DRW
 70
     0
 62
     7
  6
CONTINUOUS
370
    -3
390
F
  0
LAYER
  5
203
102
{ACAD_XDICTIONARY
360
1ADB
102
}
330
2
100
AcDbSymbolTableRecord
100
AcDbLayerTableRecord
  2
2_PLANES
 70
     0
 62
     7
  6
CONTINUOUS
370
    -3
390
F
  0
LAYER
  5
204
102
{ACAD_XDICTIONARY
360
1ADD
102
}
330
2
100
AcDbSymbolTableRecord
100
AcDbLayerTableRecord
  2
3_POINTS
 70
     0
 62
     7
  6
CONTINUOUS
370
    -3
390
F
  0
LAYER
  5
205
102
{ACAD_XDICTIONARY
360
1ADF
102
}
330
2
100
AcDbSymbolTableRecord
100
AcDbLayerTableRecord
  2
3_POINTS-JETS
 70
     0
 62
     7
  6
CONTINUOUS
370
    -3
390
F
  0
LAYER
  5
206
102
{ACAD_XDICTIONARY
360
1AE1
102
}
330
2
100
AcDbSymbolTableRecord
100
AcDbLayerTableRecord
  2
4_CSYS
 70
     0
 62
     7
  6
CONTINUOUS
370
    -3
390
F
  0
LAYER
  5
207
102
{ACAD_XDICTIONARY
360
1AE3
102
}
330
2
100
AcDbSymbolTableRecord
100
AcDbLayerTableRecord
  2
5-AXIS-JETS
 70
     0
 62
     7
  6
CONTINUOUS
370
    -3
390
F
  0
LAYER
  5
208
102
{ACAD_XDICTIONARY
360
1AE5
102
}
330
2
100
AcDbSymbolTableRecord
100
AcDbLayerTableRecord
  2
5_AXIS
 70
     0
 62
     7
  6
CONTINUOUS
370
    -3
390
F
  0
LAYER
  5
209
102
{ACAD_XDICTIONARY
360
1AE7
102
}
330
2
100
AcDbSymbolTableRecord
100
AcDbLayerTableRecord
  2
6_COPIE-TOOLING
 70
     0
 62
     7
  6
CONTINUOUS
370
    -3
390
F
  0
LAYER
  5
20A
102
{ACAD_XDICTIONARY
360
1AE9
102
}
330
2
100
AcDbSymbolTableRecord
100
AcDbLayerTableRecord
  2
6_SURFACE-OFFSET-FIBRE-ACRYLIQU
 70
     0
 62
     7
  6
CONTINUOUS
370
    -3
390
F
  0
LAYER
  5
20B
102
{ACAD_XDICTIONARY
360
1AEB
102
}
330
2
100
AcDbSymbolTableRecord
100
AcDbLayerTableRecord
  2
6_SURFACES
 70
     0
 62
     7
  6
CONTINUOUS
370
    -3
390
F
  0
LAYER
  5
20C
102
{ACAD_XDICTIONARY
360
1AED
102
}
330
2
100
AcDbSymbolTableRecord
100
AcDbLayerTableRecord
  2
6_SURFACES-CELLA
 70
     0
 62
     7
  6
CONTINUOUS
370
    -3
390
F
  0
LAYER
  5
20D
102
{ACAD_XDICTIONARY
360
1AEF
102
}
330
2
100
AcDbSymbolTableRecord
100
AcDbLayerTableRecord
  2
6_SURFACES-OFFSET-FIBRE
 70
     0
 62
     7
  6
CONTINUOUS
370
    -3
390
F
  0
LAYER
  5
20E
102
{ACAD_XDICTIONARY
360
1AF1
102
}
330
2
100
AcDbSymbolTableRecord
100
AcDbLayerTableRecord
  2
6_SURFACES-PATINS-PR-CELLA
 70
     0
 62
     7
  6
CONTINUOUS
370
    -3
390
F
  0
LAYER
  5
20F
102
{ACAD_XDICTIONARY
360
1AF3
102
}
330
2
100
AcDbSymbolTableRecord
100
AcDbLayerTableRecord
  2
6_SURFACES-POUR-NAOS
 70
     0
 62
     7
  6
CONTINUOUS
370
    -3
390
F
  0
LAYER
  5
210
102
{ACAD_XDICTIONARY
360
1AF5
102
}
330
2
100
AcDbSymbolTableRecord
100
AcDbLayerTableRecord
  2
6_SURFACES-TOOLING
 70
     0
 62
     7
  6
CONTINUOUS
370
    -3
390
F
  0
LAYER
  5
211
102
{ACAD_XDICTIONARY
360
1AF7
102
}
330
2
100
AcDbSymbolTableRecord
100
AcDbLayerTableRecord
  2
6_SURFACES_AIRE
 70
     0
 62
     7
  6
CONTINUOUS
370
    -3
390
F
  0
LAYER
  5
212
102
{ACAD_XDICTIONARY
360
1AF9
102
}
330
2
100
AcDbSymbolTableRecord
100
AcDbLayerTableRecord
  2
6_SURFACES_OFFSET_CONDUIT
 70
     0
 62
     7
  6
CONTINUOUS
370
    -3
390
F
  0
LAYER
  5
213
102
{ACAD_XDICTIONARY
360
1AFB
102
}
330
2
100
AcDbSymbolTableRecord
100
AcDbLayerTableRecord
  2
6_SURFACES_OFFSET_CONDUIT-PREPA
 70
     0
 62
     7
  6
CONTINUOUS
370
    -3
390
F
  0
LAYER
  5
214
102
{ACAD_XDICTIONARY
360
1AFD
102
}
330
2
100
AcDbSymbolTableRecord
100
AcDbLayerTableRecord
  2
6_SURFACES_POUR_HFL
 70
     0
 62
     7
  6
CONTINUOUS
370
    -3
390
F
  0
LAYER
  5
215
102
{ACAD_XDICTIONARY
360
1AFF
102
}
330
2
100
AcDbSymbolTableRecord
100
AcDbLayerTableRecord
  2
6_SURFACES_PR_LEVRES_DECOUPE
 70
     0
 62
     7
  6
CONTINUOUS
370
    -3
390
F
  0
LAYER
  5
216
102
{ACAD_XDICTIONARY
360
1B01
102
}
330
2
100
AcDbSymbolTableRecord
100
AcDbLayerTableRecord
  2
6_SURFACES_TOOLING
 70
     0
 62
     7
  6
CONTINUOUS
370
    -3
390
F
  0
LAYER
  5
217
102
{ACAD_XDICTIONARY
360
1B03
102
}
330
2
100
AcDbSymbolTableRecord
100
AcDbLayerTableRecord
  2
6_SURFACE_FLAT_EDGE
 70
     0
 62
     7
  6
CONTINUOUS
370
    -3
390
F
  0
LAYER
  5
218
102
{ACAD_XDICTIONARY
360
1B05
102
}
330
2
100
AcDbSymbolTableRecord
100
AcDbLayerTableRecord
  2
6_SURFACE_ROLL_EDGE
 70
     0
 62
     7
  6
CONTINUOUS
370
    -3
390
F
  0
LAYER
  5
219
102
{ACAD_XDICTIONARY
360
1B07
102
}
330
2
100
AcDbSymbolTableRecord
100
AcDbLayerTableRecord
  2
6_SURF_OFFSET_FIBRE-FLAT
 70
     0
 62
     7
  6
CONTINUOUS
370
    -3
390
F
  0
LAYER
  5
21A
102
{ACAD_XDICTIONARY
360
1B09
102
}
330
2
100
AcDbSymbolTableRecord
100
AcDbLayerTableRecord
  2
6_SURF_OFFSET_FIBRE-ROLL
 70
     0
 62
     7
  6
CONTINUOUS
370
    -3
390
F
  0
LAYER
  5
21B
102
{ACAD_XDICTIONARY
360
1B0B
102
}
330
2
100
AcDbSymbolTableRecord
100
AcDbLayerTableRecord
  2
6_SURF_OFFSET_THICKEN
 70
     0
 62
     7
  6
CONTINUOUS
370
    -3
390
F
  0
LAYER
  5
21C
102
{ACAD_XDICTIONARY
360
1B0D
102
}
330
2
100
AcDbSymbolTableRecord
100
AcDbLayerTableRecord
  2
7_NOTES
 70
     0
 62
     7
  6
CONTINUOUS
370
    -3
390
F
  0
LAYER
  5
21D
102
{ACAD_XDICTIONARY
360
1B0F
102
}
330
2
100
AcDbSymbolTableRecord
100
AcDbLayerTableRecord
  2
8_COSMETIC
 70
     0
 62
     7
  6
CONTINUOUS
370
    -3
390
F
  0
LAYER
  5
21E
102
{ACAD_XDICTIONARY
360
1B11
102
}
330
2
100
AcDbSymbolTableRecord
100
AcDbLayerTableRecord
  2
8_TOL_GEOM
 70
     0
 62
     7
  6
CONTINUOUS
370
    -3
390
F
  0
LAYER
  5
21F
102
{ACAD_XDICTIONARY
360
1B13
102
}
330
2
100
AcDbSymbolTableRecord
100
AcDbLayerTableRecord
  2
8_ZONE-ROBINETERIE
 70
     0
 62
     7
  6
CONTINUOUS
370
    -3
390
F
  0
LAYER
  5
220
102
{ACAD_XDICTIONARY
360
1B15
102
}
330
2
100
AcDbSymbolTableRecord
100
AcDbLayerTableRecord
  2
8_ZONES_PLACAGE_FRONT
 70
     0
 62
     7
  6
CONTINUOUS
370
    -3
390
F
  0
LAYER
  5
221
102
{ACAD_XDICTIONARY
360
1B17
102
}
330
2
100
AcDbSymbolTableRecord
100
AcDbLayerTableRecord
  2
8_ZONE_PLACAGE_TOP
 70
     0
 62
     7
  6
CONTINUOUS
370
    -3
390
F
  0
LAYER
  5
222
102
{ACAD_XDICTIONARY
360
1B19
102
}
330
2
100
AcDbSymbolTableRecord
100
AcDbLayerTableRecord
  2
COSMETIC
 70
     0
 62
     7
  6
CONTINUOUS
370
    -3
390
F
  0
LAYER
  5
223
102
{ACAD_XDICTIONARY
360
1B1B
102
}
330
2
100
AcDbSymbolTableRecord
100
AcDbLayerTableRecord
  2
NONE
 70
     0
 62
     7
  6
CONTINUOUS
370
    -3
390
F
  0
LAYER
  5
224
102
{ACAD_XDICTIONARY
360
1B1D
102
}
330
2
100
AcDbSymbolTableRecord
100
AcDbLayerTableRecord
  2
XSEC_DATUMS
 70
     0
 62
     7
  6
CONTINUOUS
370
    -3
390
F
  0
ENDTAB
  0
TABLE
  2
STYLE
  5
3
330
0
100
AcDbSymbolTable
 70
     8
  0
STYLE
  5
11
330
3
100
AcDbSymbolTableRecord
100
AcDbTextStyleTableRecord
  2
STANDARD
 70
     0
 40
0.0
 41
0.8
 50
0.0
 71
     0
 42
0.2
  3
txt
  4

  0
STYLE
  5
225
330
3
100
AcDbSymbolTableRecord
100
AcDbTextStyleTableRecord
  2
TEXTSTYLE_1
 70
     0
 40
0.0
 41
0.8
 50
0.0
 71
     0
 42
0.2
  3
gdt
  4

  0
STYLE
  5
226
330
3
100
AcDbSymbolTableRecord
100
AcDbTextStyleTableRecord
  2
TEXTSTYLE_2
 70
     0
 40
0.0
 41
1.0
 50
0.0
 71
     0
 42
0.2
  3
trium.ttf
  4

  0
STYLE
  5
227
330
3
100
AcDbSymbolTableRecord
100
AcDbTextStyleTableRecord
  2
TEXTSTYLE_3
 70
     0
 40
0.0
 41
1.0
 50
0.0
 71
     0
 42
0.2
  3
trium.ttf
  4

  0
STYLE
  5
228
330
3
100
AcDbSymbolTableRecord
100
AcDbTextStyleTableRecord
  2
TEXTSTYLE_4
 70
     0
 40
0.0
 41
1.0
 50
0.0
 71
     0
 42
0.2
  3
txt_____.ttf
  4

1001
ACAD
1000
txt
1071
        2
  0
STYLE
  5
229
330
3
100
AcDbSymbolTableRecord
100
AcDbTextStyleTableRecord
  2
TEXTSTYLE_5
 70
     0
 40
0.0
 41
1.0
 50
0.0
 71
     0
 42
0.2
  3
txt_____.ttf
  4

1001
ACAD
1000
txt
1071
        2
  0
STYLE
  5
22A
330
3
100
AcDbSymbolTableRecord
100
AcDbTextStyleTableRecord
  2
TEXTSTYLE_6
 70
     0
 40
0.0
 41
1.0
 50
0.0
 71
     0
 42
0.2
  3
trium.ttf
  4

  0
STYLE
  5
22B
330
3
100
AcDbSymbolTableRecord
100
AcDbTextStyleTableRecord
  2
TEXTSTYLE_7
 70
     0
 40
0.0
 41
0.8
 50
0.0
 71
     0
 42
0.2
  3
txt_____.ttf
  4

1001
ACAD
1000
txt
1071
        2
  0
ENDTAB
  0
TABLE
  2
VIEW
  5
6
330
0
100
AcDbSymbolTable
 70
     0
  0
ENDTAB
  0
TABLE
  2
UCS
  5
7
330
0
100
AcDbSymbolTable
 70
     0
  0
ENDTAB
  0
TABLE
  2
APPID
  5
9
330
0
100
AcDbSymbolTable
 70
     2
  0
APPID
  5
22C
330
9
100
AcDbSymbolTableRecord
100
AcDbRegAppTableRecord
  2
ACAD
 70
     0
  0
APPID
  5
1AAB
330
9
100
AcDbSymbolTableRecord
100
AcDbRegAppTableRecord
  2
ACAD_MLEADERVER
 70
     0
  0
ENDTAB
  0
TABLE
  2
DIMSTYLE
  5
A
330
0
100
AcDbSymbolTable
 70
     5
100
AcDbDimStyleTable
 71
     0
  0
DIMSTYLE
105
24D
330
A
100
AcDbSymbolTableRecord
100
AcDbDimStyleTableRecord
  2
STANDARD
 70
     0
 41
2.0
 44
0.125
 47
0.00001
 48
0.00001
 78
     4
140
1.333333333299999
271
     5
272
     5
284
     4
340
11
341
22F
342
22F
343
22F
344
22F
  0
DIMSTYLE
105
24E
330
A
100
AcDbSymbolTableRecord
100
AcDbDimStyleTableRecord
  2
DIMSTYLE_1
 70
     0
 41
2.0
 44
0.125
 78
     4
140
1.333333333299999
147
0.0625
271
     3
272
     3
284
     4
340
11
341
22F
342
22F
343
22F
344
22F
  0
DIMSTYLE
105
24F
330
A
100
AcDbSymbolTableRecord
100
AcDbDimStyleTableRecord
  2
DIMSTYLE_2
 70
     0
 41
2.0
 44
0.125
 78
     4
140
1.333333333299999
271
     3
272
     3
284
     4
340
11
341
22F
342
22F
343
22F
344
22F
  0
DIMSTYLE
105
250
330
A
100
AcDbSymbolTableRecord
100
AcDbDimStyleTableRecord
  2
DIMSTYLE_3
 70
     0
 41
2.0
 44
0.125
 78
     4
140
1.333333333299999
271
     0
272
     0
284
     4
340
11
341
22F
342
22F
343
22F
344
22F
  0
DIMSTYLE
105
251
330
A
100
AcDbSymbolTableRecord
100
AcDbDimStyleTableRecord
  2
DIMSTYLE_4
 70
     0
 41
2.0
 44
0.125
 78
     4
140
1.333333333299999
147
0.0625
271
     2
272
     2
284
     4
340
11
341
22F
342
22F
343
22F
344
22F
  0
ENDTAB
  0
TABLE
  2
BLOCK_RECORD
  5
1
330
0
100
AcDbSymbolTable
 70
     5
  0
BLOCK_RECORD
  5
22D
330
1
100
AcDbSymbolTableRecord
100
AcDbBlockTableRecord
  2
*Model_Space
340
1A1D
  0
BLOCK_RECORD
  5
22E
330
1
100
AcDbSymbolTableRecord
100
AcDbBlockTableRecord
  2
*Paper_Space
340
1A1E
  0
BLOCK_RECORD
  5
22F
330
1
100
AcDbSymbolTableRecord
100
AcDbBlockTableRecord
  2
_FILLED
340
0
  0
BLOCK_RECORD
  5
249
330
1
100
AcDbSymbolTableRecord
100
AcDbBlockTableRecord
  2
SYMBOL_4_BL3
340
0
  0
BLOCK_RECORD
  5
24A
330
1
100
AcDbSymbolTableRecord
100
AcDbBlockTableRecord
  2
SYMBOL_3_BL2
340
0
  0
BLOCK_RECORD
  5
24B
330
1
100
AcDbSymbolTableRecord
100
AcDbBlockTableRecord
  2
SYMBOL_7_BL1
340
0
  0
BLOCK_RECORD
  5
24C
330
1
100
AcDbSymbolTableRecord
100
AcDbBlockTableRecord
  2
SYMBOL_0_BL0
340
0
  0
ENDTAB
  0
ENDSEC
  0
SECTION
  2
BLOCKS
  0
BLOCK
  5
20
330
22D
100
AcDbEntity
  8
0
100
AcDbBlockBegin
  2
*Model_Space
 70
     0
 10
0.0
 20
0.0
 30
0.0
  3
*Model_Space
  1

  0
ENDBLK
  5
21
330
22D
100
AcDbEntity
  8
0
100
AcDbBlockEnd
  0
BLOCK
  5
1C
330
22E
100
AcDbEntity
 67
     1
  8
0
100
AcDbBlockBegin
  2
*Paper_Space
 70
     0
 10
0.0
 20
0.0
 30
0.0
  3
*Paper_Space
  1

  0
ENDBLK
  5
1D
330
22E
100
AcDbEntity
 67
     1
  8
0
100
AcDbBlockEnd
  0
BLOCK
  5
329
330
22F
100
AcDbEntity
  8
0
100
AcDbBlockBegin
  2
_FILLED
 70
     0
 10
0.0
 20
0.0
 30
0.0
  3
_FILLED
  1

  0
SOLID
  5
32A
330
22F
100
AcDbEntity
  8
0
  6
ByBlock
 62
     0
100
AcDbTrace
 10
0.0
 20
0.0
 30
0.0
 11
-1.0
 21
0.1666666667
 31
0.0
 12
-1.0
 22
-0.1666666667
 32
0.0
 13
-1.0
 23
-0.1666666667
 33
0.0
  0
ENDBLK
  5
32B
330
22F
100
AcDbEntity
  8
0
  6
ByBlock
 62
     0
100
AcDbBlockEnd
  0
BLOCK
  5
252
330
249
100
AcDbEntity
  8
0
  6
Continuous
 62
     7
100
AcDbBlockBegin
  2
SYMBOL_4_BL3
 70
     0
 10
67.6852712302
 20
73.0158827716
 30
0.0
  3
SYMBOL_4_BL3
  1

  0
TEXT
  5
253
330
249
100
AcDbEntity
  8
0
  6
Continuous
 62
     7
100
AcDbText
 10
67.26206440760001
 20
72.2517063673
 30
0.0
 40
1.333333852099999
  1
L
 50
10.0
  7
TEXTSTYLE_2
100
AcDbText
  0
TEXT
  5
254
330
249
100
AcDbEntity
  8
0
  6
Continuous
 62
     7
100
AcDbText
 10
63.1279537757
 20
71.5353534067
 30
0.0
 40
1.333333852099999
  1
16
 50
10.0
  7
TEXTSTYLE_2
100
AcDbText
  0
TEXT
  5
255
330
249
100
AcDbEntity
  8
0
  6
Continuous
 62
     7
100
AcDbText
 10
70.46073415550001
 20
72.82832043129999
 30
0.0
 40
1.333333852099999
  1
15
 50
10.0
  7
TEXTSTYLE_2
100
AcDbText
  0
ELLIPSE
  5
256
330
249
100
AcDbEntity
  8
0
  6
Continuous
 62
     7
100
AcDbEllipse
 10
67.66666666669999
 20
73.0
 30
0.0
 11
-1.913370740099999
 21
-0.3373788856
 31
0.0
210
0.0
220
0.0
230
1.0
 40
0.6606458385
 41
0.0
 42
6.283185307179586
  0
ENDBLK
  5
257
330
249
100
AcDbEntity
  8
0
  6
ByBlock
 62
     0
100
AcDbBlockEnd
  0
BLOCK
  5
258
330
24A
100
AcDbEntity
  8
0
  6
Continuous
 62
     7
100
AcDbBlockBegin
  2
SYMBOL_3_BL2
 70
     0
 10
44.6852712302
 20
95.01588277160001
 30
0.0
  3
SYMBOL_3_BL2
  1

  0
TEXT
  5
259
330
24A
100
AcDbEntity
  8
0
  6
Continuous
 62
     7
100
AcDbText
 10
44.2620644076
 20
94.25170636729999
 30
0.0
 40
1.333333852099999
  1
L
 50
10.0
  7
TEXTSTYLE_2
100
AcDbText
  0
TEXT
  5
25A
330
24A
100
AcDbEntity
  8
0
  6
Continuous
 62
     7
100
AcDbText
 10
40.6313001564
 20
93.6241069543
 30
0.0
 40
1.333333852099999
  1
5
 50
10.0
  7
TEXTSTYLE_2
100
AcDbText
  0
TEXT
  5
25B
330
24A
100
AcDbEntity
  8
0
  6
Continuous
 62
     7
100
AcDbText
 10
47.9640805362
 20
94.91707397889999
 30
0.0
 40
1.333333852099999
  1
4
 50
10.0
  7
TEXTSTYLE_2
100
AcDbText
  0
ELLIPSE
  5
25C
330
24A
100
AcDbEntity
  8
0
  6
Continuous
 62
     7
100
AcDbEllipse
 10
44.6666666667
 20
95.0
 30
0.0
 11
-1.913370740099999
 21
-0.3373788856
 31
0.0
210
0.0
220
0.0
230
1.0
 40
0.6606458385
 41
0.0
 42
6.283185307179586
  0
ENDBLK
  5
25D
330
24A
100
AcDbEntity
  8
0
  6
ByBlock
 62
     0
100
AcDbBlockEnd
  0
BLOCK
  5
25E
330
24B
100
AcDbEntity
  8
0
  6
Continuous
 62
     7
100
AcDbBlockBegin
  2
SYMBOL_7_BL1
 70
     0
 10
129.4781412034
 20
55.8631248321
 30
0.0
  3
SYMBOL_7_BL1
  1

  0
TEXT
  5
25F
330
24B
100
AcDbEntity
  8
0
  6
Continuous
 62
     7
100
AcDbText
 10
122.7002863559
 20
57.90613537189999
 30
0.0
 40
1.1626666667
  1
INTERNAL USE 
 50
10.0
 41
0.9102564103
  7
TEXTSTYLE_4
100
AcDbText
  0
TEXT
  5
260
330
24B
100
AcDbEntity
  8
0
  6
Continuous
 62
     7
100
AcDbText
 10
122.1277847822
 20
56.05504226459999
 30
0.0
 40
1.1626666667
  1
DOCUMENT ONLY
 50
10.0
 41
0.9871794872
  7
TEXTSTYLE_4
100
AcDbText
  0
TEXT
  5
261
330
24B
100
AcDbEntity
  8
0
  6
Continuous
 62
     7
100
AcDbText
 10
128.2051242609
 20
55.8582095896
 30
0.0
 40
1.1626666667
  1
 
 50
10.0
  7
TEXTSTYLE_5
100
AcDbText
  0
TEXT
  5
262
330
24B
100
AcDbEntity
  8
0
  6
Continuous
 62
     7
100
AcDbText
 10
119.3491233953
 20
51.6085825539
 30
0.0
 40
1.1626666667
  1
DOCUMENT POUR USAGE
 50
10.0
 41
0.9736842104999999
  7
TEXTSTYLE_4
100
AcDbText
  0
TEXT
  5
263
330
24B
100
AcDbEntity
  8
0
  6
Continuous
 62
     7
100
AcDbText
 10
119.3776421464
 20
49.84270716800001
 30
0.0
 40
1.1626666667
  1
A L'INTERNE SEULEMENT
 50
10.0
 41
0.9037698412999999
  7
TEXTSTYLE_4
100
AcDbText
  0
LINE
  5
264
330
24B
100
AcDbEntity
  8
0
  6
Continuous
 62
     7
100
AcDbLine
 10
143.3346929267
 20
51.5195912141
 30
0.0
 11
143.3414518594
 21
51.5263501467
 31
0.0
  0
LINE
  5
265
330
24B
100
AcDbEntity
  8
0
  6
Continuous
 62
     7
100
AcDbLine
 10
142.6021233603
 20
51.3904194343
 30
0.0
 11
143.2510048054
 21
52.03930087939999
 31
0.0
  0
LINE
  5
266
330
24B
100
AcDbEntity
  8
0
  6
Continuous
 62
     7
100
AcDbLine
 10
141.8695537939
 20
51.2612476545
 30
0.0
 11
143.1605577515
 21
52.5522516121
 31
0.0
  0
LINE
  5
267
330
24B
100
AcDbEntity
  8
0
  6
Continuous
 62
     7
100
AcDbLine
 10
141.1369842275
 20
51.1320758747
 30
0.0
 11
143.0701106976
 21
53.0652023447
 31
0.0
  0
LINE
  5
268
330
24B
100
AcDbEntity
  8
0
  6
Continuous
 62
     7
100
AcDbLine
 10
140.4044146611
 20
51.0029040949
 30
0.0
 11
142.9796636436
 21
53.5781530774
 31
0.0
  0
LINE
  5
269
330
24B
100
AcDbEntity
  8
0
  6
Continuous
 62
     7
100
AcDbLine
 10
139.6718450946
 20
50.87373231499999
 30
0.0
 11
141.2128489094
 21
52.4147361298
 31
0.0
  0
LINE
  5
26A
330
24B
100
AcDbEntity
  8
0
  6
Continuous
 62
     7
100
AcDbLine
 10
141.8101941022
 20
53.01208132260001
 30
0.0
 11
142.8892165897
 21
54.0911038101
 31
0.0
  0
LINE
  5
26B
330
24B
100
AcDbEntity
  8
0
  6
Continuous
 62
     7
100
AcDbLine
 10
138.9392755282
 20
50.7445605352
 30
0.0
 11
140.480279343
 21
52.28556435
 31
0.0
  0
LINE
  5
26C
330
24B
100
AcDbEntity
  8
0
  6
Continuous
 62
     7
100
AcDbLine
 10
141.7197470482
 20
53.52503205520001
 30
0.0
 11
142.7987695357
 21
54.6040545427
 31
0.0
  0
LINE
  5
26D
330
24B
100
AcDbEntity
  8
0
  6
Continuous
 62
     7
100
AcDbLine
 10
138.2067059618
 20
50.6153887554
 30
0.0
 11
139.7477097766
 21
52.15639257020001
 31
0.0
  0
LINE
  5
26E
330
24B
100
AcDbEntity
  8
0
  6
Continuous
 62
     7
100
AcDbLine
 10
141.6292999943
 20
54.0379827879
 30
0.0
 11
142.7083224818
 21
55.1170052754
 31
0.0
  0
LINE
  5
26F
330
24B
100
AcDbEntity
  8
0
  6
Continuous
 62
     7
100
AcDbLine
 10
137.4741363954
 20
50.4862169756
 30
0.0
 11
139.0151402102
 21
52.0272207904
 31
0.0
  0
LINE
  5
270
330
24B
100
AcDbEntity
  8
0
  6
Continuous
 62
     7
100
AcDbLine
 10
141.5388529403
 20
54.5509335206
 30
0.0
 11
142.6178754278
 21
55.6299560081
 31
0.0
  0
LINE
  5
271
330
24B
100
AcDbEntity
  8
0
  6
Continuous
 62
     7
100
AcDbLine
 10
136.741566829
 20
50.3570451958
 30
0.0
 11
138.2825706438
 21
51.8980490106
 31
0.0
  0
LINE
  5
272
330
24B
100
AcDbEntity
  8
0
  6
Continuous
 62
     7
100
AcDbLine
 10
141.4484058864
 20
55.06388425319999
 30
0.0
 11
142.5274283739
 21
56.1429067407
 31
0.0
  0
LINE
  5
273
330
24B
100
AcDbEntity
  8
0
  6
Continuous
 62
     7
100
AcDbLine
 10
136.0089972626
 20
50.227873416
 30
0.0
 11
137.5500010772999
 21
51.7688772308
 31
0.0
  0
LINE
  5
274
330
24B
100
AcDbEntity
  8
0
  6
Continuous
 62
     7
100
AcDbLine
 10
141.3579588324
 20
55.5768349859
 30
0.0
 11
142.4369813199
 21
56.6558574734
 31
0.0
  0
LINE
  5
275
330
24B
100
AcDbEntity
  8
0
  6
Continuous
 62
     7
100
AcDbLine
 10
135.2764276961
 20
50.0987016362
 30
0.0
 11
136.8174315109
 21
51.639705451
 31
0.0
  0
LINE
  5
276
330
24B
100
AcDbEntity
  8
0
  6
Continuous
 62
     7
100
AcDbLine
 10
141.2675117785
 20
56.08978571859999
 30
0.0
 11
142.346534266
 21
57.1688082061
 31
0.0
  0
LINE
  5
277
330
24B
100
AcDbEntity
  8
0
  6
Continuous
 62
     7
100
AcDbLine
 10
134.5438581297
 20
49.9695298564
 30
0.0
 11
136.0848619445
 21
51.5105336712
 31
0.0
  0
LINE
  5
278
330
24B
100
AcDbEntity
  8
0
  6
Continuous
 62
     7
100
AcDbLine
 10
141.1770647245
 20
56.6027364512
 30
0.0
 11
142.2560872121
 21
57.6817589387
 31
0.0
  0
LINE
  5
279
330
24B
100
AcDbEntity
  8
0
  6
Continuous
 62
     7
100
AcDbLine
 10
133.8112885633
 20
49.84035807659999
 30
0.0
 11
135.3522923781
 21
51.3813618914
 31
0.0
  0
LINE
  5
27A
330
24B
100
AcDbEntity
  8
0
  6
Continuous
 62
     7
100
AcDbLine
 10
141.0866176706
 20
57.1156871839
 30
0.0
 11
142.1656401581
 21
58.1947096714
 31
0.0
  0
LINE
  5
27B
330
24B
100
AcDbEntity
  8
0
  6
Continuous
 62
     7
100
AcDbLine
 10
133.0787189969
 20
49.7111862968
 30
0.0
 11
134.6197228117
 21
51.2521901116
 31
0.0
  0
LINE
  5
27C
330
24B
100
AcDbEntity
  8
0
  6
Continuous
 62
     7
100
AcDbLine
 10
140.7837380708
 20
57.4162053707
 30
0.0
 11
142.0751931042
 21
58.7076604041
 31
0.0
  0
LINE
  5
27D
330
24B
100
AcDbEntity
  8
0
  6
Continuous
 62
     7
100
AcDbLine
 10
132.3461494305
 20
49.58201451699999
 30
0.0
 11
133.8871532452
 21
51.1230183318
 31
0.0
  0
LINE
  5
27E
330
24B
100
AcDbEntity
  8
0
  6
Continuous
 62
     7
100
AcDbLine
 10
140.0511685044
 20
57.2870335909
 30
0.0
 11
141.9847460502
 21
59.2206111368
 31
0.0
  0
LINE
  5
27F
330
24B
100
AcDbEntity
  8
0
  6
Continuous
 62
     7
100
AcDbLine
 10
131.6135798641
 20
49.4528427372
 30
0.0
 11
133.1545836787999
 21
50.993846552
 31
0.0
  0
LINE
  5
280
330
24B
100
AcDbEntity
  8
0
  6
Continuous
 62
     7
100
AcDbLine
 10
139.3185989379
 20
57.1578618111
 30
0.0
 11
140.3459412362
 21
58.1852041093
 31
0.0
  0
LINE
  5
281
330
24B
100
AcDbEntity
  8
0
  6
Continuous
 62
     7
100
AcDbLine
 10
140.8152765088
 20
58.65453938189999
 30
0.0
 11
141.8942989963
 21
59.7335618694
 31
0.0
  0
LINE
  5
282
330
24B
100
AcDbEntity
  8
0
  6
Continuous
 62
     7
100
AcDbLine
 10
130.8810102976
 20
49.3236709574
 30
0.0
 11
132.4220141124
 21
50.86467477220001
 31
0.0
  0
LINE
  5
283
330
24B
100
AcDbEntity
  8
0
  6
Continuous
 62
     7
100
AcDbLine
 10
138.5860293715
 20
57.0286900313
 30
0.0
 11
139.6133714602
 21
58.0560321199
 31
0.0
  0
LINE
  5
284
330
24B
100
AcDbEntity
  8
0
  6
Continuous
 62
     7
100
AcDbLine
 10
140.7248294548
 20
59.1674901146
 30
0.0
 11
141.8038519423
 21
60.24651260209999
 31
0.0
  0
LINE
  5
285
330
24B
100
AcDbEntity
  8
0
  6
Continuous
 62
     7
100
AcDbLine
 10
130.1484407312
 20
49.1944991776
 30
0.0
 11
131.689444546
 21
50.7355029924
 31
0.0
  0
LINE
  5
286
330
24B
100
AcDbEntity
  8
0
  6
Continuous
 62
     7
100
AcDbLine
 10
137.8534598051
 20
56.8995182515
 30
0.0
 11
138.8808016841
 21
57.9268601305
 31
0.0
  0
LINE
  5
287
330
24B
100
AcDbEntity
  8
0
  6
Continuous
 62
     7
100
AcDbLine
 10
140.6343824009
 20
59.6804408472
 30
0.0
 11
141.7134048884
 21
60.7594633348
 31
0.0
  0
LINE
  5
288
330
24B
100
AcDbEntity
  8
0
  6
Continuous
 62
     7
100
AcDbLine
 10
129.4158711648
 20
49.0653273978
 30
0.0
 11
130.9568749796
 21
50.6063312126
 31
0.0
  0
LINE
  5
289
330
24B
100
AcDbEntity
  8
0
  6
Continuous
 62
     7
100
AcDbLine
 10
137.1208902387
 20
56.7703464717
 30
0.0
 11
138.1482319081
 21
57.79768814109999
 31
0.0
  0
LINE
  5
28A
330
24B
100
AcDbEntity
  8
0
  6
Continuous
 62
     7
100
AcDbLine
 10
140.5439353469
 20
60.1933915799
 30
0.0
 11
141.6229578345
 21
61.2724140674
 31
0.0
  0
LINE
  5
28B
330
24B
100
AcDbEntity
  8
0
  6
Continuous
 62
     7
100
AcDbLine
 10
128.6833015984
 20
48.936155618
 30
0.0
 11
130.2243054132
 21
50.4771594327
 31
0.0
  0
LINE
  5
28C
330
24B
100
AcDbEntity
  8
0
  6
Continuous
 62
     7
100
AcDbLine
 10
136.3883206723
 20
56.64117469189999
 30
0.0
 11
137.4156621321
 21
57.66851615170001
 31
0.0
  0
LINE
  5
28D
330
24B
100
AcDbEntity
  8
0
  6
Continuous
 62
     7
100
AcDbLine
 10
140.453488293
 20
60.7063423126
 30
0.0
 11
141.5325107805
 21
61.7853648001
 31
0.0
  0
LINE
  5
28E
330
24B
100
AcDbEntity
  8
0
  6
Continuous
 62
     7
100
AcDbLine
 10
127.950732032
 20
48.8069838382
 30
0.0
 11
129.4917358467
 21
50.3479876529
 31
0.0
  0
LINE
  5
28F
330
24B
100
AcDbEntity
  8
0
  6
Continuous
 62
     7
100
AcDbLine
 10
135.6557511058
 20
56.512002912
 30
0.0
 11
136.6830923561
 21
57.53934416229999
 31
0.0
  0
LINE
  5
290
330
24B
100
AcDbEntity
  8
0
  6
Continuous
 62
     7
100
AcDbLine
 10
140.3630412391
 20
61.2192930453
 30
0.0
 11
141.4420637266
 21
62.2983155328
 31
0.0
  0
LINE
  5
291
330
24B
100
AcDbEntity
  8
0
  6
Continuous
 62
     7
100
AcDbLine
 10
127.2181624655
 20
48.6778120584
 30
0.0
 11
128.7591662803
 21
50.21881587310001
 31
0.0
  0
LINE
  5
292
330
24B
100
AcDbEntity
  8
0
  6
Continuous
 62
     7
100
AcDbLine
 10
134.9231815394
 20
56.3828311322
 30
0.0
 11
135.95052258
 21
57.41017217279999
 31
0.0
  0
LINE
  5
293
330
24B
100
AcDbEntity
  8
0
  6
Continuous
 62
     7
100
AcDbLine
 10
140.2725941851
 20
61.7322437779
 30
0.0
 11
141.3516166726
 21
62.8112662654
 31
0.0
  0
LINE
  5
294
330
24B
100
AcDbEntity
  8
0
  6
Continuous
 62
     7
100
AcDbLine
 10
126.4855928991
 20
48.54864027859999
 30
0.0
 11
128.0265967139
 21
50.0896440933
 31
0.0
  0
LINE
  5
295
330
24B
100
AcDbEntity
  8
0
  6
Continuous
 62
     7
100
AcDbLine
 10
134.190611973
 20
56.2536593524
 30
0.0
 11
135.217952804
 21
57.28100018340001
 31
0.0
  0
LINE
  5
296
330
24B
100
AcDbEntity
  8
0
  6
Continuous
 62
     7
100
AcDbLine
 10
140.1821471312
 20
62.2451945106
 30
0.0
 11
141.2611696187
 21
63.32421699810001
 31
0.0
  0
LINE
  5
297
330
24B
100
AcDbEntity
  8
0
  6
Continuous
 62
     7
100
AcDbLine
 10
125.7530233327
 20
48.4194684987
 30
0.0
 11
127.2940271475
 21
49.96047231350001
 31
0.0
  0
LINE
  5
298
330
24B
100
AcDbEntity
  8
0
  6
Continuous
 62
     7
100
AcDbLine
 10
133.4580424066
 20
56.12448757260001
 30
0.0
 11
134.485383028
 21
57.15182819399999
 31
0.0
  0
LINE
  5
299
330
24B
100
AcDbEntity
  8
0
  6
Continuous
 62
     7
100
AcDbLine
 10
140.0917000772
 20
62.7581452433
 30
0.0
 11
141.1707225647
 21
63.83716773079999
 31
0.0
  0
LINE
  5
29A
330
24B
100
AcDbEntity
  8
0
  6
Continuous
 62
     7
100
AcDbLine
 10
125.0204537663
 20
48.2902967189
 30
0.0
 11
126.5614575811
 21
49.8313005337
 31
0.0
  0
LINE
  5
29B
330
24B
100
AcDbEntity
  8
0
  6
Continuous
 62
     7
100
AcDbLine
 10
132.7254728402
 20
55.9953157928
 30
0.0
 11
133.7528132519
 21
57.0226562046
 31
0.0
  0
LINE
  5
29C
330
24B
100
AcDbEntity
  8
0
  6
Continuous
 62
     7
100
AcDbLine
 10
139.9168239758
 20
63.1866669285
 30
0.0
 11
141.0802755108
 21
64.35011846340001
 31
0.0
  0
LINE
  5
29D
330
24B
100
AcDbEntity
  8
0
  6
Continuous
 62
     7
100
AcDbLine
 10
124.2878841999
 20
48.1611249391
 30
0.0
 11
125.8288880147
 21
49.7021287539
 31
0.0
  0
LINE
  5
29E
330
24B
100
AcDbEntity
  8
0
  6
Continuous
 62
     7
100
AcDbLine
 10
131.9929032737999
 20
55.866144013
 30
0.0
 11
133.0202434759
 21
56.8934842152
 31
0.0
  0
LINE
  5
29F
330
24B
100
AcDbEntity
  8
0
  6
Continuous
 62
     7
100
AcDbLine
 10
139.1842544094
 20
63.0574951486
 30
0.0
 11
140.7252582242
 21
64.5984989634
 31
0.0
  0
LINE
  5
2A0
330
24B
100
AcDbEntity
  8
0
  6
Continuous
 62
     7
100
AcDbLine
 10
123.5553146335
 20
48.0319531593
 30
0.0
 11
125.0963184482
 21
49.5729569741
 31
0.0
  0
LINE
  5
2A1
330
24B
100
AcDbEntity
  8
0
  6
Continuous
 62
     7
100
AcDbLine
 10
131.2603337073
 20
55.73697223319999
 30
0.0
 11
132.2876736999
 21
56.76431222579999
 31
0.0
  0
LINE
  5
2A2
330
24B
100
AcDbEntity
  8
0
  6
Continuous
 62
     7
100
AcDbLine
 10
138.451684843
 20
62.9283233688
 30
0.0
 11
139.9926886577
 21
64.4693271836
 31
0.0
  0
LINE
  5
2A3
330
24B
100
AcDbEntity
  8
0
  6
Continuous
 62
     7
100
AcDbLine
 10
122.822745067
 20
47.90278137949999
 30
0.0
 11
124.3637488818
 21
49.4437851943
 31
0.0
  0
LINE
  5
2A4
330
24B
100
AcDbEntity
  8
0
  6
Continuous
 62
     7
100
AcDbLine
 10
130.5277641409
 20
55.6078004534
 30
0.0
 11
131.5551039239
 21
56.6351402363
 31
0.0
  0
LINE
  5
2A5
330
24B
100
AcDbEntity
  8
0
  6
Continuous
 62
     7
100
AcDbLine
 10
137.7191152765
 20
62.79915158899999
 30
0.0
 11
139.2601190913
 21
64.34015540379999
 31
0.0
  0
LINE
  5
2A6
330
24B
100
AcDbEntity
  8
0
  6
Continuous
 62
     7
100
AcDbLine
 10
122.0901755006
 20
47.7736095997
 30
0.0
 11
123.6311793154
 21
49.31461341449999
 31
0.0
  0
LINE
  5
2A7
330
24B
100
AcDbEntity
  8
0
  6
Continuous
 62
     7
100
AcDbLine
 10
129.7951945745
 20
55.4786286736
 30
0.0
 11
130.8225341478
 21
56.5059682469
 31
0.0
  0
LINE
  5
2A8
330
24B
100
AcDbEntity
  8
0
  6
Continuous
 62
     7
100
AcDbLine
 10
136.9865457101
 20
62.6699798092
 30
0.0
 11
138.5275495249
 21
64.21098362399999
 31
0.0
  0
LINE
  5
2A9
330
24B
100
AcDbEntity
  8
0
  6
Continuous
 62
     7
100
AcDbLine
 10
121.3576059342
 20
47.64443781989999
 30
0.0
 11
122.898609749
 21
49.1854416347
 31
0.0
  0
LINE
  5
2AA
330
24B
100
AcDbEntity
  8
0
  6
Continuous
 62
     7
100
AcDbLine
 10
129.0626250081
 20
55.3494568938
 30
0.0
 11
130.0899643718
 21
56.37679625749999
 31
0.0
  0
LINE
  5
2AB
330
24B
100
AcDbEntity
  8
0
  6
Continuous
 62
     7
100
AcDbLine
 10
136.2539761437
 20
62.54080802939999
 30
0.0
 11
137.7949799585
 21
64.0818118442
 31
0.0
  0
LINE
  5
2AC
330
24B
100
AcDbEntity
  8
0
  6
Continuous
 62
     7
100
AcDbLine
 10
120.6250363678
 20
47.5152660401
 30
0.0
 11
122.1660401826
 21
49.05626985489999
 31
0.0
  0
LINE
  5
2AD
330
24B
100
AcDbEntity
  8
0
  6
Continuous
 62
     7
100
AcDbLine
 10
128.3300554417
 20
55.220285114
 30
0.0
 11
129.3573945958
 21
56.24762426810001
 31
0.0
  0
LINE
  5
2AE
330
24B
100
AcDbEntity
  8
0
  6
Continuous
 62
     7
100
AcDbLine
 10
135.5214065773
 20
62.4116362496
 30
0.0
 11
137.0624103921
 21
63.95264006439999
 31
0.0
  0
LINE
  5
2AF
330
24B
100
AcDbEntity
  8
0
  6
Continuous
 62
     7
100
AcDbLine
 10
119.8924668014
 20
47.3860942603
 30
0.0
 11
121.4334706161
 21
48.92709807510001
 31
0.0
  0
LINE
  5
2B0
330
24B
100
AcDbEntity
  8
0
  6
Continuous
 62
     7
100
AcDbLine
 10
127.5974858753
 20
55.0911133342
 30
0.0
 11
128.6248248197
 21
56.11845227869999
 31
0.0
  0
LINE
  5
2B1
330
24B
100
AcDbEntity
  8
0
  6
Continuous
 62
     7
100
AcDbLine
 10
134.7888370109
 20
62.2824644698
 30
0.0
 11
136.3298408257
 21
63.8234682846
 31
0.0
  0
LINE
  5
2B2
330
24B
100
AcDbEntity
  8
0
  6
Continuous
 62
     7
100
AcDbLine
 10
119.1598972349
 20
47.2569224805
 30
0.0
 11
120.7009010497
 21
48.79792629529999
 31
0.0
  0
LINE
  5
2B3
330
24B
100
AcDbEntity
  8
0
  6
Continuous
 62
     7
100
AcDbLine
 10
126.8649163088
 20
54.9619415544
 30
0.0
 11
127.8922550437
 21
55.9892802893
 31
0.0
  0
LINE
  5
2B4
330
24B
100
AcDbEntity
  8
0
  6
Continuous
 62
     7
100
AcDbLine
 10
134.0562674445
 20
62.15329269
 30
0.0
 11
135.5972712592
 21
63.69429650479999
 31
0.0
  0
LINE
  5
2B5
330
24B
100
AcDbEntity
  8
0
  6
Continuous
 62
     7
100
AcDbLine
 10
118.4273276685
 20
47.1277507007
 30
0.0
 11
119.9683314833
 21
48.66875451550001
 31
0.0
  0
LINE
  5
2B6
330
24B
100
AcDbEntity
  8
0
  6
Continuous
 62
     7
100
AcDbLine
 10
126.1323467424
 20
54.8327697746
 30
0.0
 11
127.1596852677
 21
55.8601082998
 31
0.0
  0
LINE
  5
2B7
330
24B
100
AcDbEntity
  8
0
  6
Continuous
 62
     7
100
AcDbLine
 10
133.323697878
 20
62.02412091020001
 30
0.0
 11
134.8647016928
 21
63.565124725
 31
0.0
  0
LINE
  5
2B8
330
24B
100
AcDbEntity
  8
0
  6
Continuous
 62
     7
100
AcDbLine
 10
117.876006896
 20
47.1798277148
 30
0.0
 11
119.2357619169
 21
48.53958273569999
 31
0.0
  0
LINE
  5
2B9
330
24B
100
AcDbEntity
  8
0
  6
Continuous
 62
     7
100
AcDbLine
 10
125.399777176
 20
54.70359799479999
 30
0.0
 11
126.4271154917
 21
55.73093631039999
 31
0.0
  0
LINE
  5
2BA
330
24B
100
AcDbEntity
  8
0
  6
Continuous
 62
     7
100
AcDbLine
 10
132.5911283116
 20
61.8949491304
 30
0.0
 11
134.1321321264
 21
63.4359529452
 31
0.0
  0
LINE
  5
2BB
330
24B
100
AcDbEntity
  8
0
  6
Continuous
 62
     7
100
AcDbLine
 10
117.7855598421
 20
47.69277844749999
 30
0.0
 11
118.8645823296
 21
48.771800935
 31
0.0
  0
LINE
  5
2BC
330
24B
100
AcDbEntity
  8
0
  6
Continuous
 62
     7
100
AcDbLine
 10
124.6672076096
 20
54.574426215
 30
0.0
 11
125.6945457156
 21
55.601764321
 31
0.0
  0
LINE
  5
2BD
330
24B
100
AcDbEntity
  8
0
  6
Continuous
 62
     7
100
AcDbLine
 10
131.8585587452
 20
61.7657773506
 30
0.0
 11
133.39956256
 21
63.30678116539999
 31
0.0
  0
LINE
  5
2BE
330
24B
100
AcDbEntity
  8
0
  6
Continuous
 62
     7
100
AcDbLine
 10
117.6951127881
 20
48.2057291801
 30
0.0
 11
118.7741352756
 21
49.28475166760001
 31
0.0
  0
LINE
  5
2BF
330
24B
100
AcDbEntity
  8
0
  6
Continuous
 62
     7
100
AcDbLine
 10
123.9346380432
 20
54.4452544352
 30
0.0
 11
124.9619759396
 21
55.4725923316
 31
0.0
  0
LINE
  5
2C0
330
24B
100
AcDbEntity
  8
0
  6
Continuous
 62
     7
100
AcDbLine
 10
131.1259891788
 20
61.6366055708
 30
0.0
 11
132.6669929936
 21
63.17760938560001
 31
0.0
  0
LINE
  5
2C1
330
24B
100
AcDbEntity
  8
0
  6
Continuous
 62
     7
100
AcDbLine
 10
117.6046657342
 20
48.7186799128
 30
0.0
 11
118.6836882217
 21
49.79770240029999
 31
0.0
  0
LINE
  5
2C2
330
24B
100
AcDbEntity
  8
0
  6
Continuous
 62
     7
100
AcDbLine
 10
123.2020684767
 20
54.3160826554
 30
0.0
 11
124.2294061636
 21
55.3434203422
 31
0.0
  0
LINE
  5
2C3
330
24B
100
AcDbEntity
  8
0
  6
Continuous
 62
     7
100
AcDbLine
 10
130.3934196124
 20
61.507433791
 30
0.0
 11
131.9344234271
 21
63.04843760579999
 31
0.0
  0
LINE
  5
2C4
330
24B
100
AcDbEntity
  8
0
  6
Continuous
 62
     7
100
AcDbLine
 10
117.5142186802
 20
49.2316306455
 30
0.0
 11
118.5932411678
 21
50.310653133
 31
0.0
  0
LINE
  5
2C5
330
24B
100
AcDbEntity
  8
0
  6
Continuous
 62
     7
100
AcDbLine
 10
122.4694989103
 20
54.1869108756
 30
0.0
 11
123.4968363875
 21
55.2142483528
 31
0.0
  0
LINE
  5
2C6
330
24B
100
AcDbEntity
  8
0
  6
Continuous
 62
     7
100
AcDbLine
 10
129.660850046
 20
61.3782620112
 30
0.0
 11
131.2018538607
 21
62.91926582600001
 31
0.0
  0
LINE
  5
2C7
330
24B
100
AcDbEntity
  8
0
  6
Continuous
 62
     7
100
AcDbLine
 10
117.4237716263
 20
49.7445813781
 30
0.0
 11
118.5027941138
 21
50.82360386560001
 31
0.0
  0
LINE
  5
2C8
330
24B
100
AcDbEntity
  8
0
  6
Continuous
 62
     7
100
AcDbLine
 10
121.7369293439
 20
54.05773909569999
 30
0.0
 11
122.7642666115
 21
55.0850763634
 31
0.0
  0
LINE
  5
2C9
330
24B
100
AcDbEntity
  8
0
  6
Continuous
 62
     7
100
AcDbLine
 10
128.9282804795
 20
61.2490902314
 30
0.0
 11
130.4692842943
 21
62.7900940461
 31
0.0
  0
LINE
  5
2CA
330
24B
100
AcDbEntity
  8
0
  6
Continuous
 62
     7
100
AcDbLine
 10
117.3333245723
 20
50.2575321108
 30
0.0
 11
118.4123470599
 21
51.33655459829999
 31
0.0
  0
LINE
  5
2CB
330
24B
100
AcDbEntity
  8
0
  6
Continuous
 62
     7
100
AcDbLine
 10
121.0043597775
 20
53.92856731590001
 30
0.0
 11
122.0316968355
 21
54.9559043739
 31
0.0
  0
LINE
  5
2CC
330
24B
100
AcDbEntity
  8
0
  6
Continuous
 62
     7
100
AcDbLine
 10
128.1957109131
 20
61.1199184516
 30
0.0
 11
129.7367147279
 21
62.6609222663
 31
0.0
  0
LINE
  5
2CD
330
24B
100
AcDbEntity
  8
0
  6
Continuous
 62
     7
100
AcDbLine
 10
117.2428775184
 20
50.7704828435
 30
0.0
 11
118.3219000059
 21
51.849505331
 31
0.0
  0
LINE
  5
2CE
330
24B
100
AcDbEntity
  8
0
  6
Continuous
 62
     7
100
AcDbLine
 10
120.2717902111
 20
53.79939553609999
 30
0.0
 11
121.2991270595
 21
54.8267323845
 31
0.0
  0
LINE
  5
2CF
330
24B
100
AcDbEntity
  8
0
  6
Continuous
 62
     7
100
AcDbLine
 10
127.4631413467
 20
60.9907466718
 30
0.0
 11
129.0041451615
 21
62.5317504865
 31
0.0
  0
LINE
  5
2D0
330
24B
100
AcDbEntity
  8
0
  6
Continuous
 62
     7
100
AcDbLine
 10
117.1524304645
 20
51.28343357609999
 30
0.0
 11
118.231452952
 21
52.3624560637
 31
0.0
  0
LINE
  5
2D1
330
24B
100
AcDbEntity
  8
0
  6
Continuous
 62
     7
100
AcDbLine
 10
119.5392206447
 20
53.6702237563
 30
0.0
 11
120.5665572834
 21
54.6975603951
 31
0.0
  0
LINE
  5
2D2
330
24B
100
AcDbEntity
  8
0
  6
Continuous
 62
     7
100
AcDbLine
 10
126.7305717803
 20
60.861574892
 30
0.0
 11
128.2715755951
 21
62.40257870669999
 31
0.0
  0
LINE
  5
2D3
330
24B
100
AcDbEntity
  8
0
  6
Continuous
 62
     7
100
AcDbLine
 10
117.0619834105
 20
51.7963843088
 30
0.0
 11
118.141005898
 21
52.8754067963
 31
0.0
  0
LINE
  5
2D4
330
24B
100
AcDbEntity
  8
0
  6
Continuous
 62
     7
100
AcDbLine
 10
118.8066510782
 20
53.5410519765
 30
0.0
 11
119.8339875074
 21
54.5683884057
 31
0.0
  0
LINE
  5
2D5
330
24B
100
AcDbEntity
  8
0
  6
Continuous
 62
     7
100
AcDbLine
 10
125.9980022139
 20
60.73240311220001
 30
0.0
 11
127.5390060286
 21
62.27340692689999
 31
0.0
  0
LINE
  5
2D6
330
24B
100
AcDbEntity
  8
0
  6
Continuous
 62
     7
100
AcDbLine
 10
116.9715363566
 20
52.3093350415
 30
0.0
 11
118.0505588441
 21
53.38835752899999
 31
0.0
  0
LINE
  5
2D7
330
24B
100
AcDbEntity
  8
0
  6
Continuous
 62
     7
100
AcDbLine
 10
118.0740815118
 20
53.4118801967
 30
0.0
 11
119.1014177314
 21
54.4392164163
 31
0.0
  0
LINE
  5
2D8
330
24B
100
AcDbEntity
  8
0
  6
Continuous
 62
     7
100
AcDbLine
 10
125.2654326474
 20
60.60323133229999
 30
0.0
 11
126.8064364622
 21
62.14423514709999
 31
0.0
  0
LINE
  5
2D9
330
24B
100
AcDbEntity
  8
0
  6
Continuous
 62
     7
100
AcDbLine
 10
116.8810893026
 20
52.82228577409999
 30
0.0
 11
118.3688479553
 21
54.31004442689999
 31
0.0
  0
LINE
  5
2DA
330
24B
100
AcDbEntity
  8
0
  6
Continuous
 62
     7
100
AcDbLine
 10
124.532863081
 20
60.4740595525
 30
0.0
 11
126.0738668958
 21
62.01506336729999
 31
0.0
  0
LINE
  5
2DB
330
24B
100
AcDbEntity
  8
0
  6
Continuous
 62
     7
100
AcDbLine
 10
116.7906422487
 20
53.3352365068
 30
0.0
 11
117.8696647362
 21
54.41425899430001
 31
0.0
  0
LINE
  5
2DC
330
24B
100
AcDbEntity
  8
0
  6
Continuous
 62
     7
100
AcDbLine
 10
123.8002935146
 20
60.3448877727
 30
0.0
 11
125.3412973294
 21
61.8858915875
 31
0.0
  0
LINE
  5
2DD
330
24B
100
AcDbEntity
  8
0
  6
Continuous
 62
     7
100
AcDbLine
 10
116.7001951947
 20
53.8481872395
 30
0.0
 11
117.7792176823
 21
54.92720972699999
 31
0.0
  0
LINE
  5
2DE
330
24B
100
AcDbEntity
  8
0
  6
Continuous
 62
     7
100
AcDbLine
 10
123.0677239482
 20
60.2157159929
 30
0.0
 11
124.608727763
 21
61.7567198077
 31
0.0
  0
LINE
  5
2DF
330
24B
100
AcDbEntity
  8
0
  6
Continuous
 62
     7
100
AcDbLine
 10
116.6097481408
 20
54.3611379721
 30
0.0
 11
117.6887706283
 21
55.4401604597
 31
0.0
  0
LINE
  5
2E0
330
24B
100
AcDbEntity
  8
0
  6
Continuous
 62
     7
100
AcDbLine
 10
122.3351543818
 20
60.08654421310001
 30
0.0
 11
123.8761581966
 21
61.6275480279
 31
0.0
  0
LINE
  5
2E1
330
24B
100
AcDbEntity
  8
0
  6
Continuous
 62
     7
100
AcDbLine
 10
116.5193010869
 20
54.87408870479999
 30
0.0
 11
117.5983235744
 21
55.95311119229999
 31
0.0
  0
LINE
  5
2E2
330
24B
100
AcDbEntity
  8
0
  6
Continuous
 62
     7
100
AcDbLine
 10
121.6025848154
 20
59.9573724333
 30
0.0
 11
123.1435886301
 21
61.4983762481
 31
0.0
  0
LINE
  5
2E3
330
24B
100
AcDbEntity
  8
0
  6
Continuous
 62
     7
100
AcDbLine
 10
116.4288540329
 20
55.3870394375
 30
0.0
 11
117.5078765204
 21
56.466061925
 31
0.0
  0
LINE
  5
2E4
330
24B
100
AcDbEntity
  8
0
  6
Continuous
 62
     7
100
AcDbLine
 10
120.8700152489
 20
59.82820065350001
 30
0.0
 11
122.4110190637
 21
61.3692044683
 31
0.0
  0
LINE
  5
2E5
330
24B
100
AcDbEntity
  8
0
  6
Continuous
 62
     7
100
AcDbLine
 10
116.338406979
 20
55.89999017020001
 30
0.0
 11
117.4174294665
 21
56.9790126577
 31
0.0
  0
LINE
  5
2E6
330
24B
100
AcDbEntity
  8
0
  6
Continuous
 62
     7
100
AcDbLine
 10
120.1374456825
 20
59.6990288737
 30
0.0
 11
121.6784494973
 21
61.2400326885
 31
0.0
  0
LINE
  5
2E7
330
24B
100
AcDbEntity
  8
0
  6
Continuous
 62
     7
100
AcDbLine
 10
116.247959925
 20
56.41294090279999
 30
0.0
 11
117.3269824125
 21
57.4919633903
 31
0.0
  0
LINE
  5
2E8
330
24B
100
AcDbEntity
  8
0
  6
Continuous
 62
     7
100
AcDbLine
 10
119.4048761161
 20
59.5698570939
 30
0.0
 11
120.9458799309
 21
61.11086090869999
 31
0.0
  0
LINE
  5
2E9
330
24B
100
AcDbEntity
  8
0
  6
Continuous
 62
     7
100
AcDbLine
 10
116.1575128711
 20
56.9258916355
 30
0.0
 11
117.2365353586
 21
58.004914123
 31
0.0
  0
LINE
  5
2EA
330
24B
100
AcDbEntity
  8
0
  6
Continuous
 62
     7
100
AcDbLine
 10
118.6723065497
 20
59.4406853141
 30
0.0
 11
120.2133103645
 21
60.9816891289
 31
0.0
  0
LINE
  5
2EB
330
24B
100
AcDbEntity
  8
0
  6
Continuous
 62
     7
100
AcDbLine
 10
116.0670658171
 20
57.4388423682
 30
0.0
 11
117.1460883047
 21
58.51786485569999
 31
0.0
  0
LINE
  5
2EC
330
24B
100
AcDbEntity
  8
0
  6
Continuous
 62
     7
100
AcDbLine
 10
117.9397369833
 20
59.3115135343
 30
0.0
 11
119.480740798
 21
60.85251734909999
 31
0.0
  0
LINE
  5
2ED
330
24B
100
AcDbEntity
  8
0
  6
Continuous
 62
     7
100
AcDbLine
 10
115.9766187632
 20
57.95179310079999
 30
0.0
 11
117.0556412507
 21
59.0308155883
 31
0.0
  0
LINE
  5
2EE
330
24B
100
AcDbEntity
  8
0
  6
Continuous
 62
     7
100
AcDbLine
 10
117.2071674168
 20
59.1823417545
 30
0.0
 11
118.7481712316
 21
60.7233455693
 31
0.0
  0
LINE
  5
2EF
330
24B
100
AcDbEntity
  8
0
  6
Continuous
 62
     7
100
AcDbLine
 10
115.8861717092
 20
58.4647438335
 30
0.0
 11
118.0156016652
 21
60.5941737895
 31
0.0
  0
LINE
  5
2F0
330
24B
100
AcDbEntity
  8
0
  6
Continuous
 62
     7
100
AcDbLine
 10
115.7957246553
 20
58.9776945662
 30
0.0
 11
117.2830320988
 21
60.4650020097
 31
0.0
  0
LINE
  5
2F1
330
24B
100
AcDbEntity
  8
0
  6
Continuous
 62
     7
100
AcDbLine
 10
115.7052776014
 20
59.49064529880001
 30
0.0
 11
116.5504625324
 21
60.3358302298
 31
0.0
  0
LINE
  5
2F2
330
24B
100
AcDbEntity
  8
0
  6
Continuous
 62
     7
100
AcDbLine
 10
115.6148305474
 20
60.00359603149999
 30
0.0
 11
115.817892966
 21
60.20665844999999
 31
0.0
  0
ENDBLK
  5
2F3
330
24B
100
AcDbEntity
  8
0
  6
ByBlock
 62
     0
100
AcDbBlockEnd
  0
BLOCK
  5
2F4
330
24C
100
AcDbEntity
  8
0
  6
Continuous
 62
     7
100
AcDbBlockBegin
  2
SYMBOL_0_BL0
 70
     0
 10
160.6666666667
 20
55.33333333329999
 30
0.0
  3
SYMBOL_0_BL0
  1

  0
TEXT
  5
2F5
330
24C
100
AcDbEntity
  8
0
  6
Continuous
 62
     7
100
AcDbText
 10
144.4188815905
 20
63.10676672439999
 30
0.0
 40
0.5
  1
Infomations Techniques/Technical Infomations
  7
TEXTSTYLE_2
100
AcDbText
  0
TEXT
  5
2F6
330
24C
100
AcDbEntity
  8
0
  6
Continuous
 62
     7
100
AcDbText
 10
144.6666666667
 20
61.6666666667
 30
0.0
 40
0.6666666667
  1
NOMBRE DE JETS:     
  7
TEXTSTYLE_2
100
AcDbText
  0
TEXT
  5
2F7
330
24C
100
AcDbEntity
  8
0
  6
Continuous
 62
     7
100
AcDbText
 10
154.5111111111
 20
61.6666666667
 30
0.0
 40
0.6666666667
  1
38
  7
TEXTSTYLE_2
100
AcDbText
  0
TEXT
  5
2F8
330
24C
100
AcDbEntity
  8
0
  6
Continuous
 62
     7
100
AcDbText
 10
144.6666666667
 20
60.6666666667
 30
0.0
 40
0.6666666667
  1
 
  7
TEXTSTYLE_2
100
AcDbText
  0
TEXT
  5
2F9
330
24C
100
AcDbEntity
  8
0
  6
Continuous
 62
     7
100
AcDbText
 10
144.6666666667
 20
59.66666666670001
 30
0.0
 40
0.6666666667
  1
NIVEAU D'EAU              GALLONS(US)        LITRES        GALLONS(UK)
  7
TEXTSTYLE_2
100
AcDbText
  0
TEXT
  5
2FA
330
24C
100
AcDbEntity
  8
0
  6
Continuous
 62
     7
100
AcDbText
 10
144.6666666667
 20
58.6666666667
 30
0.0
 40
0.6666666667
  1
PLEIN
  7
TEXTSTYLE_2
100
AcDbText
  0
TEXT
  5
2FB
330
24C
100
AcDbEntity
  8
0
  6
Continuous
 62
     7
100
AcDbText
 10
144.6666666667
 20
57.6666666667
 30
0.0
 40
0.6666666667
  1
HAUT T.PLEIN
  7
TEXTSTYLE_2
100
AcDbText
  0
TEXT
  5
2FC
330
24C
100
AcDbEntity
  8
0
  6
Continuous
 62
     7
100
AcDbText
 10
144.6666666667
 20
56.6666666667
 30
0.0
 40
0.6666666667
  1
MILIEU T.PLEIN
  7
TEXTSTYLE_2
100
AcDbText
  0
TEXT
  5
2FD
330
24C
100
AcDbEntity
  8
0
  6
Continuous
 62
     7
100
AcDbText
 10
144.6666666667
 20
55.6666666667
 30
0.0
 40
0.6666666667
  1
BAS T.PLEIN
  7
TEXTSTYLE_2
100
AcDbText
  0
TEXT
  5
2FE
330
24C
100
AcDbEntity
  8
0
  6
Continuous
 62
     7
100
AcDbText
 10
144.6666666667
 20
54.66666666670001
 30
0.0
 40
0.6666666667
  1
3" EN BAS T.PLEIN
  7
TEXTSTYLE_2
100
AcDbText
  0
TEXT
  5
2FF
330
24C
100
AcDbEntity
  8
0
  6
Continuous
 62
     7
100
AcDbText
 10
144.6666666667
 20
53.6666666667
 30
0.0
 40
0.6666666667
  1
 
  7
TEXTSTYLE_2
100
AcDbText
  0
TEXT
  5
300
330
24C
100
AcDbEntity
  8
0
  6
Continuous
 62
     7
100
AcDbText
 10
144.4665051611
 20
53.1198797418
 30
0.0
 40
0.5
  1
Legende/Legend
  7
TEXTSTYLE_2
100
AcDbText
  0
TEXT
  5
301
330
24C
100
AcDbEntity
  8
0
  6
Continuous
 62
     7
100
AcDbText
 10
150.9953401051
 20
51.6086147641
 30
0.0
 40
0.6666666667
  1
ZONE DE ROBINETTERIE
  7
TEXTSTYLE_2
100
AcDbText
  0
TEXT
  5
302
330
24C
100
AcDbEntity
  8
0
  6
Continuous
 62
     7
100
AcDbText
 10
145.9156155382
 20
50.1133702497
 30
0.0
 40
0.6666666667
  1
L   :  SYSTEME LED       DC   :  DOUBLE DOSSIER CHAUFFANT
  7
TEXTSTYLE_2
100
AcDbText
  0
TEXT
  5
303
330
24C
100
AcDbEntity
  8
0
  6
Continuous
 62
     7
100
AcDbText
 10
145.9156155382
 20
48.7800369164
 30
0.0
 40
0.6666666667
  1
C   :  CONTROLE
  7
TEXTSTYLE_2
100
AcDbText
  0
TEXT
  5
304
330
24C
100
AcDbEntity
  8
0
  6
Continuous
 62
     7
100
AcDbText
 10
145.9156155382
 20
47.4467035831
 30
0.0
 40
0.6666666667
  1
T   :  MOTEUR
  7
TEXTSTYLE_2
100
AcDbText
  0
TEXT
  5
305
330
24C
100
AcDbEntity
  8
0
  6
Continuous
 62
     7
100
AcDbText
 10
157.499363366
 20
58.6666666667
 30
0.0
 40
0.6666666667
  1
82
  7
TEXTSTYLE_2
100
AcDbText
  0
TEXT
  5
306
330
24C
100
AcDbEntity
  8
0
  6
Continuous
 62
     7
100
AcDbText
 10
157.499363366
 20
57.6666666667
 30
0.0
 40
0.6666666667
  1
69
  7
TEXTSTYLE_2
100
AcDbText
  0
TEXT
  5
307
330
24C
100
AcDbEntity
  8
0
  6
Continuous
 62
     7
100
AcDbText
 10
157.499363366
 20
56.6666666667
 30
0.0
 40
0.6666666667
  1
63
  7
TEXTSTYLE_2
100
AcDbText
  0
TEXT
  5
308
330
24C
100
AcDbEntity
  8
0
  6
Continuous
 62
     7
100
AcDbText
 10
157.499363366
 20
55.6666666667
 30
0.0
 40
0.6666666667
  1
57
  7
TEXTSTYLE_2
100
AcDbText
  0
TEXT
  5
309
330
24C
100
AcDbEntity
  8
0
  6
Continuous
 62
     7
100
AcDbText
 10
157.499363366
 20
54.66666666670001
 30
0.0
 40
0.6666666667
  1
48
  7
TEXTSTYLE_2
100
AcDbText
  0
TEXT
  5
30A
330
24C
100
AcDbEntity
  8
0
  6
Continuous
 62
     7
100
AcDbText
 10
164.4195693097
 20
58.68374606879999
 30
0.0
 40
0.6666666667
  1
309
  7
TEXTSTYLE_2
100
AcDbText
  0
TEXT
  5
30B
330
24C
100
AcDbEntity
  8
0
  6
Continuous
 62
     7
100
AcDbText
 10
164.4195693097
 20
57.6837460688
 30
0.0
 40
0.6666666667
  1
262
  7
TEXTSTYLE_2
100
AcDbText
  0
TEXT
  5
30C
330
24C
100
AcDbEntity
  8
0
  6
Continuous
 62
     7
100
AcDbText
 10
164.4195693097
 20
56.6837460688
 30
0.0
 40
0.6666666667
  1
238
  7
TEXTSTYLE_2
100
AcDbText
  0
TEXT
  5
30D
330
24C
100
AcDbEntity
  8
0
  6
Continuous
 62
     7
100
AcDbText
 10
164.4195693097
 20
55.68374606879999
 30
0.0
 40
0.6666666667
  1
216
  7
TEXTSTYLE_2
100
AcDbText
  0
TEXT
  5
30E
330
24C
100
AcDbEntity
  8
0
  6
Continuous
 62
     7
100
AcDbText
 10
164.4195693097
 20
54.6837460688
 30
0.0
 40
0.6666666667
  1
183
  7
TEXTSTYLE_2
100
AcDbText
  0
TEXT
  5
30F
330
24C
100
AcDbEntity
  8
0
  6
Continuous
 62
     7
100
AcDbText
 10
171.3642082472
 20
58.6666666667
 30
0.0
 40
0.6666666667
  1
68
  7
TEXTSTYLE_2
100
AcDbText
  0
TEXT
  5
310
330
24C
100
AcDbEntity
  8
0
  6
Continuous
 62
     7
100
AcDbText
 10
171.3642082472
 20
57.6666666667
 30
0.0
 40
0.6666666667
  1
58
  7
TEXTSTYLE_2
100
AcDbText
  0
TEXT
  5
311
330
24C
100
AcDbEntity
  8
0
  6
Continuous
 62
     7
100
AcDbText
 10
171.3642082472
 20
56.6666666667
 30
0.0
 40
0.6666666667
  1
52
  7
TEXTSTYLE_2
100
AcDbText
  0
TEXT
  5
312
330
24C
100
AcDbEntity
  8
0
  6
Continuous
 62
     7
100
AcDbText
 10
171.3642082472
 20
55.6666666667
 30
0.0
 40
0.6666666667
  1
48
  7
TEXTSTYLE_2
100
AcDbText
  0
TEXT
  5
313
330
24C
100
AcDbEntity
  8
0
  6
Continuous
 62
     7
100
AcDbText
 10
171.3642082472
 20
54.66666666670001
 30
0.0
 40
0.6666666667
  1
40
  7
TEXTSTYLE_2
100
AcDbText
  0
LINE
  5
314
330
24C
100
AcDbEntity
  8
0
  6
Continuous
 62
     7
100
AcDbLine
 10
144.0
 20
64.0
 30
0.0
 11
144.0
 21
46.6666666667
 31
0.0
  0
LINE
  5
315
330
24C
100
AcDbEntity
  8
0
  6
Continuous
 62
     7
100
AcDbLine
 10
144.0
 20
64.0
 30
0.0
 11
177.3333333333
 21
64.0
 31
0.0
  0
LINE
  5
316
330
24C
100
AcDbEntity
  8
0
  6
Continuous
 62
     7
100
AcDbLine
 10
177.3333333333
 20
64.0
 30
0.0
 11
177.3333333333
 21
46.6666666667
 31
0.0
  0
LINE
  5
317
330
24C
100
AcDbEntity
  8
0
  6
Continuous
 62
     7
100
AcDbLine
 10
144.0
 20
46.6666666667
 30
0.0
 11
177.3333333333
 21
46.6666666667
 31
0.0
  0
LINE
  5
318
330
24C
100
AcDbEntity
  8
0
  6
Continuous
 62
     7
100
AcDbLine
 10
145.3333333333
 20
54.0
 30
0.0
 11
176.0
 21
54.0
 31
0.0
  0
LINE
  5
319
330
24C
100
AcDbEntity
  8
0
  6
Continuous
 62
     7
100
AcDbLine
 10
145.3333333333
 20
61.0
 30
0.0
 11
176.0
 21
61.0
 31
0.0
  0
LINE
  5
31A
330
24C
100
AcDbEntity
  8
0
  6
Continuous
 62
     7
100
AcDbLine
 10
144.8089065593
 20
52.3781645044
 30
0.0
 11
144.4398858169
 21
52.009143762
 31
0.0
  0
LINE
  5
31B
330
24C
100
AcDbEntity
  8
0
  6
Continuous
 62
     7
100
AcDbLine
 10
145.4755732259
 20
52.3781645044
 30
0.0
 11
144.6775574355
 21
51.5801487139
 31
0.0
  0
LINE
  5
31C
330
24C
100
AcDbEntity
  8
0
  6
Continuous
 62
     7
100
AcDbLine
 10
146.1422398926
 20
52.3781645044
 30
0.0
 11
145.3442241022
 21
51.5801487139
 31
0.0
  0
LINE
  5
31D
330
24C
100
AcDbEntity
  8
0
  6
Continuous
 62
     7
100
AcDbLine
 10
146.8089065593
 20
52.3781645044
 30
0.0
 11
146.0108907688
 21
51.5801487139
 31
0.0
  0
LINE
  5
31E
330
24C
100
AcDbEntity
  8
0
  6
Continuous
 62
     7
100
AcDbLine
 10
147.4755732259
 20
52.3781645044
 30
0.0
 11
146.6775574355
 21
51.5801487139
 31
0.0
  0
LINE
  5
31F
330
24C
100
AcDbEntity
  8
0
  6
Continuous
 62
     7
100
AcDbLine
 10
148.1422398926
 20
52.3781645044
 30
0.0
 11
147.3442241022
 21
51.5801487139
 31
0.0
  0
LINE
  5
320
330
24C
100
AcDbEntity
  8
0
  6
Continuous
 62
     7
100
AcDbLine
 10
148.8089065593
 20
52.3781645044
 30
0.0
 11
148.0108907688
 21
51.5801487139
 31
0.0
  0
LINE
  5
321
330
24C
100
AcDbEntity
  8
0
  6
Continuous
 62
     7
100
AcDbLine
 10
149.4755732259
 20
52.3781645044
 30
0.0
 11
148.6775574355
 21
51.5801487139
 31
0.0
  0
LINE
  5
322
330
24C
100
AcDbEntity
  8
0
  6
Continuous
 62
     7
100
AcDbLine
 10
150.1422398926
 20
52.3781645044
 30
0.0
 11
149.3442241022
 21
51.5801487139
 31
0.0
  0
LINE
  5
323
330
24C
100
AcDbEntity
  8
0
  6
Continuous
 62
     7
100
AcDbLine
 10
150.5857273268
 20
52.1549852718
 30
0.0
 11
150.0108907688
 21
51.5801487139
 31
0.0
  0
ELLIPSE
  5
324
330
24C
100
AcDbEntity
  8
0
  6
Continuous
 62
     7
100
AcDbEllipse
 10
146.1454024822
 20
50.43094770689999
 30
0.0
 11
1.0473539356
 21
0.0
 31
0.0
210
0.0
220
0.0
230
1.0
 40
0.4938647983
 41
0.0
 42
6.283185307179586
  0
ELLIPSE
  5
325
330
24C
100
AcDbEntity
  8
0
  6
Continuous
 62
     7
100
AcDbEllipse
 10
146.1454024822
 20
49.0976143736
 30
0.0
 11
1.0473539356
 21
0.0
 31
0.0
210
0.0
220
0.0
230
1.0
 40
0.4938647983
 41
0.0
 42
6.283185307179586
  0
ELLIPSE
  5
326
330
24C
100
AcDbEntity
  8
0
  6
Continuous
 62
     7
100
AcDbEllipse
 10
146.1454024822
 20
47.76428104029999
 30
0.0
 11
1.0473539356
 21
0.0
 31
0.0
210
0.0
220
0.0
230
1.0
 40
0.4938647983
 41
0.0
 42
6.283185307179586
  0
ELLIPSE
  5
327
330
24C
100
AcDbEntity
  8
0
  6
Continuous
 62
     7
100
AcDbEllipse
 10
157.1640380633
 20
50.45046906399999
 30
0.0
 11
1.0473539356
 21
0.0
 31
0.0
210
0.0
220
0.0
230
1.0
 40
0.4938647983
 41
0.0
 42
6.283185307179586
  0
ENDBLK
  5
328
330
24C
100
AcDbEntity
  8
0
  6
ByBlock
 62
     0
100
AcDbBlockEnd
  0
ENDSEC
  0
SECTION
  2
ENTITIES
  0
LWPOLYLINE
  5
4AD
330
22D
100
AcDbEntity
  8
DEFAULT_2
  6
HIDDEN
 62
     7
100
AcDbPolyline
 90
       64
 70
     0
 43
0.0
 10
35.5277136076
 20
30.7280364392
 10
35.5512425638
 20
30.6789794179
 10
35.5758346431
 20
30.6304436018
 10
35.6010304355
 20
30.5832695035
 10
35.6272291608
 20
30.536645843
 10
35.6539378681
 20
30.4913893112
 10
35.6815919066
 20
30.446704019
 10
35.70966370260001
 20
30.403387125
 10
35.7386237217
 20
30.3606590957
 10
35.767911854
 20
30.3192951647
 10
35.7980324213
 20
30.2785334709
 10
35.8283940309
 20
30.2391268323
 10
35.859533639
 20
30.2003321312
 10
35.890830046
 20
30.1628789074
 10
35.9228515741
 20
30.1260438009
 10
35.9549486497
 20
30.090532411
 10
35.9877196611
 20
30.0556420632
 10
36.0204879546
 20
30.0220539659
 10
36.0538808097
 20
29.9890868097
 10
36.0871958707
 20
29.9573969382
 10
36.1210880291
 20
29.9263251191
 10
36.1548306092
 20
29.8965024226
 10
36.1891048137
 20
29.8672923348
 10
36.2231609957
 20
29.8393003397
 10
36.2577053818
 20
29.8119131825
 10
36.2919666622
 20
29.7857105396
 10
36.3266748232
 20
29.7601028587
 10
36.3610381281
 20
29.7356438911
 10
36.3958091135
 20
29.7117681172
 10
36.4301750271
 20
29.6890044786
 10
36.4649115183
 20
29.6668105195
 10
36.4991690367
 20
29.6457004813
 10
36.5337618109
 20
29.6251445143
 10
36.5677943222
 20
29.6056464637
 10
36.6021284599
 20
29.586684674
 10
36.6358230041
 20
29.5687509419
 10
36.6697873445
 20
29.5513336669
 10
36.7030349991
 20
29.5349110273
 10
36.73652250510001
 20
29.5189832662
 10
36.8021559313
 20
29.4895028488
 10
36.86656393630001
 20
29.4627389865
 10
36.929639516
 20
29.4385371153
 10
36.9912875703
 20
29.416744337
 10
37.0514235774
 20
29.3972102701
 10
37.1098963235
 20
29.3798093116
 10
37.16640627090001
 20
29.3644523783
 10
37.2206354118
 20
29.3510387536
 10
37.2724549244
 20
29.3394119831
 10
37.32202501030001
 20
29.3293630771
 10
37.369556779
 20
29.3207002612
 10
37.4152100031
 20
29.313266381
 10
37.4584624812
 20
29.3070166369
 10
37.4985311
 20
29.3019091758
 10
37.5347413743
 20
29.29785293050001
 10
37.5667193646
 20
29.2947084104
 10
37.594762089
 20
29.2922852992
 10
37.6192391853
 20
29.2904225868
 10
37.6405432148
 20
29.288989624
 10
37.6589840496
 20
29.2878874863
 10
37.6747741484
 20
29.2870423778
 10
37.6882270998
 20
29.2863907726
 10
37.69972446420001
 20
29.2858805171
 10
37.7096999792
 20
29.2854695142
 10
37.7185487687
 20
29.285126655
  0
LINE
  5
4AE
330
22D
100
AcDbEntity
  8
DEFAULT_2
  6
HIDDEN
 62
     7
100
AcDbLine
 10
34.8914589268
 20
32.0927463705
 30
0.0
 11
34.8836842923
 21
32.1091617661
 31
0.0
  0
LINE
  5
4AF
330
22D
100
AcDbEntity
  8
DEFAULT_2
  6
HIDDEN
 62
     7
100
AcDbLine
 10
34.900412471
 20
32.0737576405
 30
0.0
 11
34.8914589268
 21
32.0927463705
 31
0.0
  0
LINE
  5
4B0
330
22D
100
AcDbEntity
  8
DEFAULT_2
  6
HIDDEN
 62
     7
100
AcDbLine
 10
34.9111943356
 20
32.0507723781
 30
0.0
 11
34.900412471
 21
32.0737576405
 31
0.0
  0
LINE
  5
4B1
330
22D
100
AcDbEntity
  8
DEFAULT_2
  6
HIDDEN
 62
     7
100
AcDbLine
 10
27.677997021
 20
47.56180797989999
 30
0.0
 11
34.883684465
 21
32.1091613892
 31
0.0
  0
LINE
  5
4B2
330
22D
100
AcDbEntity
  8
DEFAULT_2
  6
HIDDEN
 62
     7
100
AcDbLine
 10
34.949718218
 20
31.9675515489
 30
0.0
 11
35.5277136093
 21
30.7280364322
 31
0.0
  0
LINE
  5
4B3
330
22D
100
AcDbEntity
  8
DEFAULT_2
  6
HIDDEN
 62
     7
100
AcDbLine
 10
34.92277286010001
 20
32.0259418912
 30
0.0
 11
34.9111943356
 21
32.0507723781
 31
0.0
  0
LINE
  5
4B4
330
22D
100
AcDbEntity
  8
DEFAULT_2
  6
HIDDEN
 62
     7
100
AcDbLine
 10
34.9334354278
 20
32.0029389522
 30
0.0
 11
34.92277286010001
 21
32.0259418912
 31
0.0
  0
LINE
  5
4B5
330
22D
100
AcDbEntity
  8
DEFAULT_2
  6
HIDDEN
 62
     7
100
AcDbLine
 10
34.94971839570001
 20
31.9675511744
 30
0.0
 11
34.9334354278
 21
32.0029389522
 31
0.0
  0
LWPOLYLINE
  5
4BB
330
22D
100
AcDbEntity
  8
DEFAULT_2
  6
HIDDEN
 62
     7
100
AcDbPolyline
 90
       37
 70
     0
 43
0.0
 10
54.3190922976
 20
28.6437850189
 10
54.315369583
 20
28.6474314469
 10
54.3115704797
 20
28.6510004821
 10
54.307696981
 20
28.6544903293
 10
54.30375107999999
 20
28.6578991934
 10
54.29973477
 20
28.661225279
 10
54.2956500442
 20
28.6644667912
 10
54.2914989483
 20
28.6676219707
 10
54.2872832318
 20
28.6706895851
 10
54.2830046939
 20
28.6736684346
 10
54.2786651338
 20
28.6765573192
 10
54.27426635079999
 20
28.6793550391
 10
54.26981014409999
 20
28.6820603943
 10
54.26529843369999
 20
28.6846721631
 10
54.2607331345
 20
28.687189316
 10
54.2561162802
 20
28.6896107981
 10
54.25144990439999
 20
28.6919355546
 10
54.2467360407
 20
28.6941625307
 10
54.2419767227
 20
28.6962906716
 10
54.23717407539999
 20
28.6983189411
 10
54.23233016680001
 20
28.7002465546
 10
54.2274471552
 20
28.7020727429
 10
54.2225271987
 20
28.7037967371
 10
54.2175724554
 20
28.7054177682
 10
54.2125850834
 20
28.7069350673
 10
54.2075672836
 20
28.7083478964
 10
54.20252111859999
 20
28.7096557281
 10
54.197448693
 20
28.7108580636
 10
54.19235211149999
 20
28.7119544044
 10
54.1872334787
 20
28.7129442519
 10
54.1820948992
 20
28.7138271074
 10
54.17693859989999
 20
28.7146025127
 10
54.17176713159999
 20
28.7152701944
 10
54.1665831671
 20
28.7158299184
 10
54.1613893792
 20
28.7162814507
 10
54.1561884406
 20
28.716624557
 10
54.1509830241
 20
28.7168590034
  0
LINE
  5
4BC
330
22D
100
AcDbEntity
  8
DEFAULT_2
  6
HIDDEN
 62
     7
100
AcDbLine
 10
54.6759009883
 20
28.28668845280001
 30
0.0
 11
54.3181777825
 21
28.6444116585
 31
0.0
  0
LWPOLYLINE
  5
557
330
22D
100
AcDbEntity
  8
DEFAULT_2
  6
HIDDEN
 62
     7
100
AcDbPolyline
 90
       14
 70
     0
 43
0.0
 10
52.3235482735
 20
28.8274612907
 10
52.4656595359
 20
28.8235201486
 10
52.6226202216
 20
28.8192047245
 10
52.79452304260001
 20
28.8145307094
 10
52.9826922804
 20
28.8094877467
 10
53.1921297589
 20
28.8039819565
 10
53.4278809793
 20
28.797948106
 10
53.6932203057
 20
28.7914142445
 10
53.99515721109999
 20
28.7844018238
 10
54.3380148574
 20
28.7771505746
 10
54.70352717229999
 20
28.7705090669
 10
55.11495427939999
 20
28.7647223679
 10
55.58946395989999
 20
28.7605504147
 10
56.124124293
 20
28.758969787
  0
LINE
  5
558
330
22D
100
AcDbEntity
  8
DEFAULT_2
  6
HIDDEN
 62
     7
100
AcDbLine
 10
52.0778086892
 20
28.8343407838
 30
0.0
 11
52.3235482735
 21
28.8274612907
 31
0.0
  0
LINE
  5
559
330
22D
100
AcDbEntity
  8
DEFAULT_2
  6
HIDDEN
 62
     7
100
AcDbLine
 10
50.80520940939999
 20
28.8706048609
 30
0.0
 11
50.9437030637
 21
28.8667278377
 31
0.0
  0
LINE
  5
55A
330
22D
100
AcDbEntity
  8
DEFAULT_2
  6
HIDDEN
 62
     7
100
AcDbLine
 10
51.78093909850001
 20
28.8427394268
 30
0.0
 11
52.0778086892
 21
28.8343407838
 31
0.0
  0
LWPOLYLINE
  5
55B
330
22D
100
AcDbEntity
  8
DEFAULT_2
  6
HIDDEN
 62
     7
100
AcDbPolyline
 90
        3
 70
     0
 43
0.0
 10
50.6695383252
 20
28.8744615492
 10
50.7373570867
 20
28.8725227636
 10
50.80520940939999
 20
28.8706048609
  0
LINE
  5
55C
330
22D
100
AcDbEntity
  8
DEFAULT_2
  6
HIDDEN
 62
     7
100
AcDbLine
 10
51.61013932020001
 20
28.8476054937
 30
0.0
 11
51.78093909850001
 21
28.8427394268
 31
0.0
  0
LWPOLYLINE
  5
55D
330
22D
100
AcDbEntity
  8
DEFAULT_2
  6
HIDDEN
 62
     7
100
AcDbPolyline
 90
        6
 70
     0
 43
0.0
 10
50.9437030637
 20
28.8667278377
 10
51.08908319939999
 20
28.8625591211
 10
51.1619102851
 20
28.8604621745
 10
51.2347267161
 20
28.8583661843
 10
51.3076523047
 20
28.8562695479
 10
51.61013932020001
 20
28.8476054937
  0
LINE
  5
55E
330
22D
100
AcDbEntity
  8
DEFAULT_2
  6
HIDDEN
 62
     7
100
AcDbLine
 10
50.53410914189999
 20
28.8783876011
 30
0.0
 11
50.6695383252
 21
28.8744615492
 31
0.0
  0
LINE
  5
55F
330
22D
100
AcDbEntity
  8
DEFAULT_2
  6
HIDDEN
 62
     7
100
AcDbLine
 10
50.3962237061
 20
28.8824415594
 30
0.0
 11
50.53410914189999
 21
28.8783876011
 31
0.0
  0
LWPOLYLINE
  5
560
330
22D
100
AcDbEntity
  8
DEFAULT_2
  6
HIDDEN
 62
     7
100
AcDbPolyline
 90
        3
 70
     0
 43
0.0
 10
39.6956222674
 20
29.2227913289
 10
39.8942436888
 20
29.2167048075
 10
40.1259975186
 20
29.2096094556
  0
LINE
  5
561
330
22D
100
AcDbEntity
  8
DEFAULT_2
  6
HIDDEN
 62
     7
100
AcDbLine
 10
39.2560569077
 20
29.2363008625
 30
0.0
 11
39.6956222674
 21
29.2227913289
 31
0.0
  0
LINE
  5
562
330
22D
100
AcDbEntity
  8
DEFAULT_2
  6
HIDDEN
 62
     7
100
AcDbLine
 10
40.1259975186
 20
29.2096094556
 30
0.0
 11
41.2666279532
 21
29.1746229831
 31
0.0
  0
LINE
  5
563
330
22D
100
AcDbEntity
  8
DEFAULT_2
  6
HIDDEN
 62
     7
100
AcDbLine
 10
41.2666279532
 20
29.1746229831
 30
0.0
 11
41.742315325
 21
29.1599186524
 31
0.0
  0
LINE
  5
564
330
22D
100
AcDbEntity
  8
DEFAULT_2
  6
HIDDEN
 62
     7
100
AcDbLine
 10
38.9691829639
 20
29.2451649515
 30
0.0
 11
39.2560569077
 21
29.2363008625
 31
0.0
  0
LINE
  5
565
330
22D
100
AcDbEntity
  8
DEFAULT_2
  6
HIDDEN
 62
     7
100
AcDbLine
 10
41.742315325
 20
29.1599186524
 30
0.0
 11
42.0127267366
 21
29.1515093803
 31
0.0
  0
LINE
  5
566
330
22D
100
AcDbEntity
  8
DEFAULT_2
  6
HIDDEN
 62
     7
100
AcDbLine
 10
38.5599092893
 20
29.2579187333
 30
0.0
 11
38.9691829639
 21
29.2451649515
 31
0.0
  0
LINE
  5
567
330
22D
100
AcDbEntity
  8
DEFAULT_2
  6
HIDDEN
 62
     7
100
AcDbLine
 10
42.0127267366
 20
29.1515093803
 30
0.0
 11
42.2866284219
 21
29.1429463009
 31
0.0
  0
LINE
  5
568
330
22D
100
AcDbEntity
  8
DEFAULT_2
  6
HIDDEN
 62
     7
100
AcDbLine
 10
42.2866284219
 20
29.1429463009
 30
0.0
 11
42.5390145418
 21
29.1350098734
 31
0.0
  0
LINE
  5
569
330
22D
100
AcDbEntity
  8
DEFAULT_2
  6
HIDDEN
 62
     7
100
AcDbLine
 10
38.31482490320001
 20
29.2656505243
 30
0.0
 11
38.5599092893
 21
29.2579187333
 31
0.0
  0
LINE
  5
56A
330
22D
100
AcDbEntity
  8
DEFAULT_2
  6
HIDDEN
 62
     7
100
AcDbLine
 10
42.5390145418
 20
29.1350098734
 30
0.0
 11
42.7412381574
 21
29.128615535
 31
0.0
  0
LINE
  5
56B
330
22D
100
AcDbEntity
  8
DEFAULT_2
  6
HIDDEN
 62
     7
100
AcDbLine
 10
42.7412381574
 20
29.128615535
 30
0.0
 11
43.0079740301
 21
29.1201286166
 31
0.0
  0
LINE
  5
56C
330
22D
100
AcDbEntity
  8
DEFAULT_2
  6
HIDDEN
 62
     7
100
AcDbLine
 10
38.159940662
 20
29.2705902893
 30
0.0
 11
38.31482490320001
 21
29.2656505243
 31
0.0
  0
LINE
  5
56D
330
22D
100
AcDbEntity
  8
DEFAULT_2
  6
HIDDEN
 62
     7
100
AcDbLine
 10
43.0079740301
 20
29.1201286166
 30
0.0
 11
43.1870750815
 21
29.1143935278
 31
0.0
  0
LINE
  5
56E
330
22D
100
AcDbEntity
  8
DEFAULT_2
  6
HIDDEN
 62
     7
100
AcDbLine
 10
43.1870750815
 20
29.1143935278
 30
0.0
 11
43.4929243844
 21
29.1045258191
 31
0.0
  0
LINE
  5
56F
330
22D
100
AcDbEntity
  8
DEFAULT_2
  6
HIDDEN
 62
     7
100
AcDbLine
 10
37.9563929948
 20
29.277170755
 30
0.0
 11
38.159940662
 21
29.2705902893
 31
0.0
  0
LWPOLYLINE
  5
570
330
22D
100
AcDbEntity
  8
DEFAULT_2
  6
HIDDEN
 62
     7
100
AcDbPolyline
 90
       18
 70
     0
 43
0.0
 10
46.7407186542
 20
28.9980534804
 10
47.0337577413
 20
28.9885199821
 10
47.3507979799
 20
28.9782321639
 10
47.6868337113
 20
28.9673629555
 10
48.0231335206
 20
28.9565277969
 10
48.3344772517
 20
28.9465418789
 10
48.6083093063
 20
28.9378016394
 10
48.8513734331
 20
28.9300826141
 10
49.0704333514
 20
28.9231625282
 10
49.2709378547
 20
28.9168635357
 10
49.454206618
 20
28.9111394161
 10
49.6207871144
 20
28.9059680498
 10
49.7714920943
 20
28.9013188493
 10
49.9073828026
 20
28.8971536954
 10
50.0294658532
 20
28.893436544
 10
50.1384617235
 20
28.8901401452
 10
50.234989021
 20
28.8872403874
 10
50.3962237061
 20
28.8824415594
  0
LWPOLYLINE
  5
571
330
22D
100
AcDbEntity
  8
DEFAULT_2
  6
HIDDEN
 62
     7
100
AcDbPolyline
 90
        4
 70
     0
 43
0.0
 10
45.61972458199999
 20
29.0346917195
 10
45.8026950977
 20
29.0286963799
 10
46.0046330673
 20
29.0220856739
 10
46.7407186542
 20
28.9980534804
  0
LINE
  5
572
330
22D
100
AcDbEntity
  8
DEFAULT_2
  6
HIDDEN
 62
     7
100
AcDbLine
 10
43.4929243844
 20
29.1045258191
 30
0.0
 11
43.76204254100001
 21
29.095760981
 31
0.0
  0
LWPOLYLINE
  5
573
330
22D
100
AcDbEntity
  8
DEFAULT_2
  6
HIDDEN
 62
     7
100
AcDbPolyline
 90
       15
 70
     0
 43
0.0
 10
44.11598695699999
 20
29.0841193858
 10
44.1437224814
 20
29.0832057015
 10
44.17465633189999
 20
29.0821867127
 10
44.20893708609999
 20
29.0810575615
 10
44.246719136
 20
29.0798132096
 10
44.2881845544
 20
29.078447703
 10
44.33354755769999
 20
29.0769540313
 10
44.38329987270001
 20
29.0753160558
 10
44.43878570329999
 20
29.073489592
 10
44.501434966
 20
29.0714276694
 10
44.57181048
 20
29.0691118908
 10
44.64987799319999
 20
29.0665435294
 10
44.7356179435
 20
29.0637234077
 10
44.8292835667
 20
29.0606434211
 10
45.61972458199999
 20
29.0346917195
  0
LWPOLYLINE
  5
574
330
22D
100
AcDbEntity
  8
DEFAULT_2
  6
HIDDEN
 62
     7
100
AcDbPolyline
 90
       10
 70
     0
 43
0.0
 10
43.76204254100001
 20
29.095760981
 10
43.8769309693
 20
29.0919921417
 10
43.8883611784
 20
29.0916162765
 10
43.90016018559999
 20
29.0912281546
 10
43.91287070529999
 20
29.0908099184
 10
43.92704243999999
 20
29.0903434624
 10
43.94320332289999
 20
29.0898113842
 10
43.96185487989999
 20
29.0891971448
 10
43.98274692770001
 20
29.0885089739
 10
44.11598695699999
 20
29.0841193858
  0
LINE
  5
575
330
22D
100
AcDbEntity
  8
DEFAULT_2
  6
HIDDEN
 62
     7
100
AcDbLine
 10
37.8501493874
 20
29.2806663095
 30
0.0
 11
37.9563929948
 21
29.277170755
 31
0.0
  0
LWPOLYLINE
  5
576
330
22D
100
AcDbEntity
  8
DEFAULT_2
  6
HIDDEN
 62
     7
100
AcDbPolyline
 90
        3
 70
     0
 43
0.0
 10
37.7413237107
 20
29.28431413030001
 10
37.78666910670001
 20
29.2827919464
 10
37.8501493874
 20
29.2806663095
  0
LINE
  5
577
330
22D
100
AcDbEntity
  8
DEFAULT_2
  6
HIDDEN
 62
     7
100
AcDbLine
 10
54.1509830241
 20
28.7168590041
 30
0.0
 11
37.7265590397
 21
29.2848375108
 31
0.0
  0
LINE
  5
59C
330
22D
100
AcDbEntity
  8
DEFAULT_2
  6
HIDDEN
 62
     7
100
AcDbLine
 10
74.5323862318
 20
29.2853149083
 30
0.0
 11
74.5333585258
 21
29.2854071051
 31
0.0
  0
LINE
  5
59F
330
22D
100
AcDbEntity
  8
DEFAULT_2
  6
HIDDEN
 62
     7
100
AcDbLine
 10
74.5333585258
 20
29.2854071051
 30
0.0
 11
74.5338260147
 21
29.2854487223
 31
0.0
  0
LINE
  5
5A4
330
22D
100
AcDbEntity
  8
DEFAULT_2
  6
HIDDEN
 62
     7
100
AcDbLine
 10
74.5338260147
 20
29.2854487223
 30
0.0
 11
74.53426231849999
 21
29.2854839478
 31
0.0
  0
LINE
  5
5AD
330
22D
100
AcDbEntity
  8
DEFAULT_2
  6
HIDDEN
 62
     7
100
AcDbLine
 10
74.53426231849999
 20
29.2854839478
 30
0.0
 11
74.53465907729999
 21
29.2855126519
 31
0.0
  0
LWPOLYLINE
  5
5B3
330
22D
100
AcDbEntity
  8
DEFAULT_2
  6
HIDDEN
 62
     7
100
AcDbPolyline
 90
        6
 70
     0
 43
0.0
 10
74.53087272800001
 20
29.285197297
 10
74.53120683739999
 20
29.2852194333
 10
74.53152905899999
 20
29.2852425949
 10
74.53183861789999
 20
29.2852668399
 10
74.5321162302
 20
29.2852904621
 10
74.5323862318
 20
29.2853149083
  0
LINE
  5
5B7
330
22D
100
AcDbEntity
  8
DEFAULT_2
  6
HIDDEN
 62
     7
100
AcDbLine
 10
74.53465907729999
 20
29.2855126519
 30
0.0
 11
74.5350925142
 21
29.2855404935
 31
0.0
  0
LINE
  5
5BE
330
22D
100
AcDbEntity
  8
DEFAULT_2
  6
HIDDEN
 62
     7
100
AcDbLine
 10
74.53017194569999
 20
29.2851558677
 30
0.0
 11
74.53087272800001
 21
29.285197297
 31
0.0
  0
LINE
  5
5C1
330
22D
100
AcDbEntity
  8
DEFAULT_2
  6
HIDDEN
 62
     7
100
AcDbLine
 10
74.5350925142
 20
29.2855404935
 30
0.0
 11
74.5355687432
 21
29.2855672183
 31
0.0
  0
LINE
  5
5C5
330
22D
100
AcDbEntity
  8
DEFAULT_2
  6
HIDDEN
 62
     7
100
AcDbLine
 10
74.5294329116
 20
29.2851178424
 30
0.0
 11
74.53017194569999
 21
29.2851558677
 31
0.0
  0
LINE
  5
5C7
330
22D
100
AcDbEntity
  8
DEFAULT_2
  6
HIDDEN
 62
     7
100
AcDbLine
 10
74.5355687432
 20
29.2855672183
 30
0.0
 11
74.53602535279999
 21
29.2855894865
 31
0.0
  0
LWPOLYLINE
  5
5CA
330
22D
100
AcDbEntity
  8
DEFAULT_2
  6
HIDDEN
 62
     7
100
AcDbPolyline
 90
       37
 70
     0
 43
0.0
 10
58.0972655619
 20
28.7168590041
 10
58.09206014539999
 20
28.7166245577
 10
58.0868592068
 20
28.7162814512
 10
58.0816654189
 20
28.7158299189
 10
58.07648145449999
 20
28.7152701947
 10
58.07130998619999
 20
28.7146025129
 10
58.066153687
 20
28.7138271075
 10
58.0610151075
 20
28.7129442519
 10
58.05589647479999
 20
28.7119544043
 10
58.0507998933
 20
28.7108580634
 10
58.0457274677
 20
28.7096557278
 10
58.0406813027
 20
28.708347896
 10
58.0356635031
 20
28.7069350668
 10
58.03067613109999
 20
28.70541776760001
 10
58.0257213878
 20
28.7037967364
 10
58.0208014314
 20
28.7020727421
 10
58.01591841979999
 20
28.7002465537
 10
58.0110745114
 20
28.6983189402
 10
58.0062718641
 20
28.6962906706
 10
58.0015125462
 20
28.6941625297
 10
57.9967986826
 20
28.6919355535
 10
57.9921323068
 20
28.6896107969
 10
57.9875154525
 20
28.6871893147
 10
57.9829501534
 20
28.6846721618
 10
57.9784384431
 20
28.6820603929
 10
57.97398223640001
 20
28.6793550376
 10
57.9695834535
 20
28.67655731760001
 10
57.9652438935
 20
28.67366843300001
 10
57.9609653556
 20
28.6706895835
 10
57.95674963919999
 20
28.667621969
 10
57.9525985434
 20
28.6644667894
 10
57.9485138177
 20
28.6612252772
 10
57.94449750770001
 20
28.6578991915
 10
57.9405516068
 20
28.6544903274
 10
57.9366781081
 20
28.6510004802
 10
57.9328790049
 20
28.6474314449
 10
57.9291562904
 20
28.6437850168
  0
LINE
  5
5CB
330
22D
100
AcDbEntity
  8
DEFAULT_2
  6
HIDDEN
 62
     7
100
AcDbLine
 10
74.52866182520001
 20
29.2850827562
 30
0.0
 11
74.5294329116
 21
29.2851178424
 31
0.0
  0
LINE
  5
5CF
330
22D
100
AcDbEntity
  8
DEFAULT_2
  6
HIDDEN
 62
     7
100
AcDbLine
 10
74.53602535279999
 20
29.2855894865
 30
0.0
 11
74.53652350199999
 21
29.2856105345
 31
0.0
  0
LINE
  5
5D2
330
22D
100
AcDbEntity
  8
DEFAULT_2
  6
HIDDEN
 62
     7
100
AcDbLine
 10
74.52745865899998
 20
29.285034621
 30
0.0
 11
74.52866182520001
 21
29.2850827562
 31
0.0
  0
LINE
  5
5D7
330
22D
100
AcDbEntity
  8
DEFAULT_2
  6
HIDDEN
 62
     7
100
AcDbLine
 10
74.53652350199999
 20
29.2856105345
 30
0.0
 11
74.53706728649999
 21
29.2856301921
 31
0.0
  0
LWPOLYLINE
  5
5D8
330
22D
100
AcDbEntity
  8
DEFAULT_2
  6
HIDDEN
 62
     7
100
AcDbPolyline
 90
       20
 70
     0
 43
0.0
 10
74.5380347963
 20
29.2856589745
 10
74.5382213095
 20
29.2856654527
 10
74.53840343510001
 20
29.2856734158
 10
74.5385781243
 20
29.2856834098
 10
74.53869666060001
 20
29.2856920942
 10
74.5388087364
 20
29.2857022923
 10
74.5389132404
 20
29.2857142031
 10
74.5390090618
 20
29.2857280256
 10
74.53909508939999
 20
29.2857439587
 10
74.5391702121
 20
29.2857622014
 10
74.5392333189
 20
29.2857829526
 10
74.5392733834
 20
29.2858009542
 10
74.5393049842
 20
29.2858206873
 10
74.53932759850001
 20
29.28584224550001
 10
74.5393407034
 20
29.2858657225
 10
74.5393437763
 20
29.2858912119
 10
74.5393362944
 20
29.2859188072
 10
74.53931773479999
 20
29.2859486022
 10
74.539287575
 20
29.2859806904
 10
74.539245292
 20
29.2860151655
  0
LINE
  5
5D9
330
22D
100
AcDbEntity
  8
DEFAULT_2
  6
HIDDEN
 62
     7
100
AcDbLine
 10
58.0972655619
 20
28.7168590041
 30
0.0
 11
74.5228423121
 21
29.2848788587
 31
0.0
  0
LWPOLYLINE
  5
5DB
330
22D
100
AcDbEntity
  8
DEFAULT_2
  6
HIDDEN
 62
     7
100
AcDbPolyline
 90
        3
 70
     0
 43
0.0
 10
74.4613987485
 20
29.2827858597
 10
74.486820968
 20
29.2836398588
 10
74.50691644289999
 20
29.2843138433
  0
LINE
  5
5DC
330
22D
100
AcDbEntity
  8
DEFAULT_2
  6
HIDDEN
 62
     7
100
AcDbLine
 10
74.3639443696
 20
29.2795358036
 30
0.0
 11
74.4613987485
 21
29.2827858597
 31
0.0
  0
LWPOLYLINE
  5
5DD
330
22D
100
AcDbEntity
  8
DEFAULT_2
  6
HIDDEN
 62
     7
100
AcDbPolyline
 90
       15
 70
     0
 43
0.0
 10
67.0310569248
 20
29.0478980243
 10
67.16005491989999
 20
29.0521345689
 10
67.27778935519999
 20
29.0560028912
 10
67.3849162705
 20
29.0595240246
 10
67.4821002394
 20
29.0627193866
 10
67.57001812979999
 20
29.0656108948
 10
67.6496156592
 20
29.06822939
 10
67.7221129668
 20
29.0706148172
 10
67.7887382768
 20
29.0728074602
 10
67.850406881
 20
29.0748373448
 10
67.907163991
 20
29.0767058774
 10
67.9589119197
 20
29.0784097649
 10
68.00562517029999
 20
29.0799480956
 10
68.0472966629
 20
29.0813205703
 10
68.08402641319999
 20
29.0825304157
  0
LWPOLYLINE
  5
5DE
330
22D
100
AcDbEntity
  8
DEFAULT_2
  6
HIDDEN
 62
     7
100
AcDbPolyline
 90
        3
 70
     0
 43
0.0
 10
66.18955112800001
 20
29.0203169691
 10
66.3903412465
 20
29.0268882727
 10
67.0310569248
 20
29.0478980243
  0
LINE
  5
5DF
330
22D
100
AcDbEntity
  8
DEFAULT_2
  6
HIDDEN
 62
     7
100
AcDbLine
 10
68.08402641319999
 20
29.0825304157
 30
0.0
 11
68.47107612870001
 21
29.0952656506
 31
0.0
  0
LINE
  5
5E0
330
22D
100
AcDbEntity
  8
DEFAULT_2
  6
HIDDEN
 62
     7
100
AcDbLine
 10
74.5228423121
 20
29.2848788587
 30
0.0
 11
74.52745865899998
 21
29.285034621
 31
0.0
  0
LINE
  5
5E1
330
22D
100
AcDbEntity
  8
DEFAULT_2
  6
HIDDEN
 62
     7
100
AcDbLine
 10
74.25818129560001
 20
29.2760734553
 30
0.0
 11
74.3639443696
 21
29.2795358036
 31
0.0
  0
LINE
  5
5E2
330
22D
100
AcDbEntity
  8
DEFAULT_2
  6
HIDDEN
 62
     7
100
AcDbLine
 10
68.47107612870001
 20
29.0952656506
 30
0.0
 11
68.7947120816
 21
29.1058019892
 31
0.0
  0
LINE
  5
5E3
330
22D
100
AcDbEntity
  8
DEFAULT_2
  6
HIDDEN
 62
     7
100
AcDbLine
 10
74.13512965799999
 20
29.2720939225
 30
0.0
 11
74.25818129560001
 21
29.2760734553
 31
0.0
  0
LINE
  5
5E4
330
22D
100
AcDbEntity
  8
DEFAULT_2
  6
HIDDEN
 62
     7
100
AcDbLine
 10
68.7947120816
 20
29.1058019892
 30
0.0
 11
68.9609242879
 21
29.1111696597
 31
0.0
  0
LINE
  5
5E5
330
22D
100
AcDbEntity
  8
DEFAULT_2
  6
HIDDEN
 62
     7
100
AcDbLine
 10
68.9609242879
 20
29.1111696597
 30
0.0
 11
69.19116488350001
 21
29.1185590902
 31
0.0
  0
LINE
  5
5E6
330
22D
100
AcDbEntity
  8
DEFAULT_2
  6
HIDDEN
 62
     7
100
AcDbLine
 10
73.98934039470001
 20
29.2674282939
 30
0.0
 11
74.13512965799999
 21
29.2720939225
 31
0.0
  0
LINE
  5
5E7
330
22D
100
AcDbEntity
  8
DEFAULT_2
  6
HIDDEN
 62
     7
100
AcDbLine
 10
69.19116488350001
 20
29.1185590902
 30
0.0
 11
69.3736337136
 21
29.1243796042
 31
0.0
  0
LINE
  5
5E8
330
22D
100
AcDbEntity
  8
DEFAULT_2
  6
HIDDEN
 62
     7
100
AcDbLine
 10
73.74916320189999
 20
29.2598294557
 30
0.0
 11
73.98934039470001
 21
29.2674282939
 31
0.0
  0
LINE
  5
5E9
330
22D
100
AcDbEntity
  8
DEFAULT_2
  6
HIDDEN
 62
     7
100
AcDbLine
 10
69.3736337136
 20
29.1243796042
 30
0.0
 11
69.7369477279
 21
29.1358836641
 31
0.0
  0
LINE
  5
5EA
330
22D
100
AcDbEntity
  8
DEFAULT_2
  6
HIDDEN
 62
     7
100
AcDbLine
 10
69.7369477279
 20
29.1358836641
 30
0.0
 11
69.98101494869999
 21
29.1435542843
 31
0.0
  0
LINE
  5
5EB
330
22D
100
AcDbEntity
  8
DEFAULT_2
  6
HIDDEN
 62
     7
100
AcDbLine
 10
73.4959831357
 20
29.2519048822
 30
0.0
 11
73.74916320189999
 21
29.2598294557
 31
0.0
  0
LINE
  5
5EC
330
22D
100
AcDbEntity
  8
DEFAULT_2
  6
HIDDEN
 62
     7
100
AcDbLine
 10
69.98101494869999
 20
29.1435542843
 30
0.0
 11
70.25520865
 21
29.1521230231
 31
0.0
  0
LINE
  5
5ED
330
22D
100
AcDbEntity
  8
DEFAULT_2
  6
HIDDEN
 62
     7
100
AcDbLine
 10
70.25520865
 20
29.1521230231
 30
0.0
 11
70.6296367677
 21
29.1637525172
 31
0.0
  0
LWPOLYLINE
  5
5EF
330
22D
100
AcDbEntity
  8
DEFAULT_2
  6
HIDDEN
 62
     7
100
AcDbPolyline
 90
        3
 70
     0
 43
0.0
 10
72.87913882869999
 20
29.2328194013
 10
73.0029656991
 20
29.2366329529
 10
73.4959831357
 20
29.2519048822
  0
LINE
  5
5F0
330
22D
100
AcDbEntity
  8
DEFAULT_2
  6
HIDDEN
 62
     7
100
AcDbLine
 10
70.6296367677
 20
29.1637525172
 30
0.0
 11
71.0045679273
 21
29.1753299286
 31
0.0
  0
LWPOLYLINE
  5
5F1
330
22D
100
AcDbEntity
  8
DEFAULT_2
  6
HIDDEN
 62
     7
100
AcDbPolyline
 90
        6
 70
     0
 43
0.0
 10
71.0045679273
 20
29.1753299286
 10
71.69904127409999
 20
29.1966530306
 10
71.9141897503
 20
29.2032409515
 10
72.1483938735
 20
29.2104096637
 10
72.3765366933
 20
29.2173949283
 10
72.87913882869999
 20
29.2328194013
  0
LWPOLYLINE
  5
5F2
330
22D
100
AcDbEntity
  8
DEFAULT_2
  6
HIDDEN
 62
     7
100
AcDbPolyline
 90
       17
 70
     0
 43
0.0
 10
62.10747890850001
 20
28.8900705902
 10
62.212051966
 20
28.8932323487
 10
62.3290219518
 20
28.8967920024
 10
62.45928268890001
 20
28.9007817561
 10
62.60378025560001
 20
28.9052355556
 10
62.7634841813
 20
28.9101884061
 10
62.9391780217
 20
28.9156697448
 10
63.1313717026
 20
28.92170032780001
 10
63.3407567295
 20
28.9283063258
 10
63.57039276590001
 20
28.9355890165
 10
63.8247980909
 20
28.9436973062
 10
64.1084223917
 20
28.9527795253
 10
64.425781524
 20
28.9629874663
 10
64.7683849939
 20
28.974052908
 10
65.1069635856
 20
28.9850274851
 10
65.42337507790001
 20
28.9953134357
 10
66.18955112800001
 20
29.0203169691
  0
LINE
  5
5F3
330
22D
100
AcDbEntity
  8
DEFAULT_2
  6
HIDDEN
 62
     7
100
AcDbLine
 10
61.9317559265
 20
28.8848072614
 30
0.0
 11
62.10747890850001
 21
28.8900705902
 31
0.0
  0
LINE
  5
5F6
330
22D
100
AcDbEntity
  8
DEFAULT_2
  6
HIDDEN
 62
     7
100
AcDbLine
 10
61.78807601369999
 20
28.8805552581
 30
0.0
 11
61.9317559265
 21
28.8848072614
 31
0.0
  0
LINE
  5
5F8
330
22D
100
AcDbEntity
  8
DEFAULT_2
  6
HIDDEN
 62
     7
100
AcDbLine
 10
61.6556909408
 20
28.8766851314
 30
0.0
 11
61.78807601369999
 21
28.8805552581
 31
0.0
  0
LWPOLYLINE
  5
5F9
330
22D
100
AcDbEntity
  8
DEFAULT_2
  6
HIDDEN
 62
     7
100
AcDbPolyline
 90
        7
 70
     0
 43
0.0
 10
61.1733940537
 20
28.8629686311
 10
61.247271192
 20
28.865094111
 10
61.31947296609999
 20
28.8671496223
 10
61.388748764
 20
28.8690882967
 10
61.4560656587
 20
28.8709712149
 10
61.5226058918
 20
28.8728561814
 10
61.6556909408
 20
28.8766851314
  0
LINE
  5
5FA
330
22D
100
AcDbEntity
  8
DEFAULT_2
  6
HIDDEN
 62
     7
100
AcDbLine
 10
60.95282942619999
 20
28.8566210667
 30
0.0
 11
61.1733940537
 21
28.8629686311
 31
0.0
  0
LINE
  5
5FB
330
22D
100
AcDbEntity
  8
DEFAULT_2
  6
HIDDEN
 62
     7
100
AcDbLine
 10
60.63743783239999
 20
28.8475863244
 30
0.0
 11
60.95282942619999
 21
28.8566210667
 31
0.0
  0
LINE
  5
5FC
330
22D
100
AcDbEntity
  8
DEFAULT_2
  6
HIDDEN
 62
     7
100
AcDbLine
 10
60.3730688429
 20
28.8400643631
 30
0.0
 11
60.63743783239999
 21
28.8475863244
 31
0.0
  0
LINE
  5
5FD
330
22D
100
AcDbEntity
  8
DEFAULT_2
  6
HIDDEN
 62
     7
100
AcDbLine
 10
60.1713465652
 20
28.8343662997
 30
0.0
 11
60.3730688429
 21
28.8400643631
 31
0.0
  0
LINE
  5
5FE
330
22D
100
AcDbEntity
  8
DEFAULT_2
  6
HIDDEN
 62
     7
100
AcDbLine
 10
74.53706728649999
 20
29.2856301921
 30
0.0
 11
74.5380347963
 21
29.2856589745
 31
0.0
  0
LWPOLYLINE
  5
606
330
22D
100
AcDbEntity
  8
DEFAULT_2
  6
HIDDEN
 62
     7
100
AcDbPolyline
 90
       15
 70
     0
 43
0.0
 10
56.124124293
 20
28.758969787
 10
56.6619832688
 20
28.7605695637
 10
57.1377137197
 20
28.7647739981
 10
57.54914618419999
 20
28.770581604
 10
57.9150453002
 20
28.7772461141
 10
58.2579290052
 20
28.7845100034
 10
58.5595539405
 20
28.7915230394
 10
58.8246134601
 20
28.7980550274
 10
59.060093123
 20
28.804085253
 10
59.2692585099
 20
28.8095861439
 10
59.45717080459999
 20
28.814623794
 10
59.6287808091
 20
28.8192909727
 10
59.78542466859999
 20
28.8235984879
 10
59.9272362301
 20
28.8275318857
 10
60.1713465652
 20
28.8343662997
  0
LINE
  5
608
330
22D
100
AcDbEntity
  8
DEFAULT_2
  6
HIDDEN
 62
     7
100
AcDbLine
 10
57.39557090239999
 20
28.2134651481
 30
0.0
 11
54.85267768359999
 21
28.2134651481
 31
0.0
  0
LINE
  5
698
330
22D
100
AcDbEntity
  8
DEFAULT_2
  6
HIDDEN
 62
     7
100
AcDbLine
 10
26.9012186953
 20
48.05539050210001
 30
0.0
 11
23.8951442779
 21
48.2132501494
 31
0.0
  0
LINE
  5
6F4
330
22D
100
AcDbEntity
  8
DEFAULT_2
  6
HIDDEN
 62
     7
100
AcDbLine
 10
85.3470298907
 20
48.05539050210001
 30
0.0
 11
88.3531043081
 21
48.2132501494
 31
0.0
  0
LINE
  5
759
330
22D
100
AcDbEntity
  8
DEFAULT_2
  6
HIDDEN
 62
     7
100
AcDbLine
 10
77.3060525425
 20
31.9839394132
 30
0.0
 11
77.2985301902
 21
31.9675511744
 31
0.0
  0
LINE
  5
75A
330
22D
100
AcDbEntity
  8
DEFAULT_2
  6
HIDDEN
 62
     7
100
AcDbLine
 10
77.3148101761
 20
32.0029325004
 30
0.0
 11
77.3060525425
 21
31.9839394132
 31
0.0
  0
LINE
  5
75B
330
22D
100
AcDbEntity
  8
DEFAULT_2
  6
HIDDEN
 62
     7
100
AcDbLine
 10
77.32547509319999
 20
32.0259405304
 30
0.0
 11
77.3148101761
 21
32.0029325004
 31
0.0
  0
LINE
  5
75C
330
22D
100
AcDbEntity
  8
DEFAULT_2
  6
HIDDEN
 62
     7
100
AcDbLine
 10
76.72053497669999
 20
30.7280364322
 30
0.0
 11
77.298530368
 21
31.9675515489
 31
0.0
  0
LINE
  5
75D
330
22D
100
AcDbEntity
  8
DEFAULT_2
  6
HIDDEN
 62
     7
100
AcDbLine
 10
77.364564121
 20
32.1091613892
 30
0.0
 11
84.570251565
 21
47.56180797989999
 31
0.0
  0
LINE
  5
75E
330
22D
100
AcDbEntity
  8
DEFAULT_2
  6
HIDDEN
 62
     7
100
AcDbLine
 10
77.3370562261
 20
32.0507766021
 30
0.0
 11
77.32547509319999
 21
32.0259405304
 31
0.0
  0
LINE
  5
75F
330
22D
100
AcDbEntity
  8
DEFAULT_2
  6
HIDDEN
 62
     7
100
AcDbLine
 10
77.3478386767
 20
32.0737630862
 30
0.0
 11
77.3370562261
 21
32.0507766021
 31
0.0
  0
LINE
  5
760
330
22D
100
AcDbEntity
  8
DEFAULT_2
  6
HIDDEN
 62
     7
100
AcDbLine
 10
77.3645642936
 20
32.1091617661
 30
0.0
 11
77.3478386767
 21
32.0737630862
 31
0.0
  0
LWPOLYLINE
  5
761
330
22D
100
AcDbEntity
  8
DEFAULT_2
  6
HIDDEN
 62
     7
100
AcDbPolyline
 90
       46
 70
     0
 43
0.0
 10
76.72053497520001
 20
30.7280364329
 10
76.6940203634
 20
30.6729454204
 10
76.6661624422
 20
30.6185110662
 10
76.63698070889999
 20
30.564772006
 10
76.6064944525
 20
30.5117653745
 10
76.5747221364
 20
30.4595223111
 10
76.541682016
 20
30.4080724541
 10
76.50739287819999
 20
30.3574455361
 10
76.4718756483
 20
30.3076716833
 10
76.43515178289999
 20
30.2587811158
 10
76.39724304720001
 20
30.2108036848
 10
76.3581724586
 20
30.1637677894
 10
76.3179633429
 20
30.1177014595
 10
76.2766393663
 20
30.0726324466
 10
76.23422558369999
 20
30.0285874172
 10
76.19074739040001
 20
29.9855927595
 10
76.14623048359999
 20
29.9436745273
 10
76.10070180210001
 20
29.9028574717
 10
76.05418858680001
 20
29.8631660093
 10
76.0067183585
 20
29.8246242089
 10
75.9583198003
 20
29.7872547828
 10
75.90902187560001
 20
29.7510800953
 10
75.8588537992
 20
29.7161221403
 10
75.80784584209999
 20
29.6824014661
 10
75.756028527
 20
29.6499382507
 10
75.70343260029999
 20
29.6187522845
 10
75.65008976119999
 20
29.5888618418
 10
75.5960319332
 20
29.5602848092
 10
75.5412912313
 20
29.5330386703
 10
75.4859006003
 20
29.5071393264
 10
75.4298931772
 20
29.48260227510001
 10
75.3733022696
 20
29.4594425981
 10
75.31616193409999
 20
29.4376737394
 10
75.2585063983
 20
29.4173087266
 10
75.20036999520001
 20
29.398360159
 10
75.1417875466
 20
29.3808389454
 10
75.0827939801
 20
29.364755566
 10
75.02342442559999
 20
29.3501200686
 10
74.96371489080001
 20
29.3369407885
 10
74.9037015863
 20
29.3252256282
 10
74.8434204129
 20
29.3149820356
 10
74.78290610080001
 20
29.3062156507
 10
74.72219307100001
 20
29.2989316588
 10
74.66131719439999
 20
29.2931348467
 10
74.60032020629999
 20
29.2888284158
 10
74.5392452919
 20
29.2860151687
  0
LINE
  5
762
330
22D
100
AcDbEntity
  8
DEFAULT_2
  6
HIDDEN
 62
     7
100
AcDbLine
 10
57.5723475977
 20
28.28668845280001
 30
0.0
 11
57.9300708034
 21
28.6444116585
 31
0.0
  0
LINE
  5
1596
330
22D
100
AcDbEntity
  8
0
  6
Continuous
 62
     7
100
AcDbLine
 10
23.1595635654
 20
47.1185378857
 30
0.0
 11
23.124124293
 21
46.7134651481
 31
0.0
  0
LINE
  5
1597
330
22D
100
AcDbEntity
  8
0
  6
Continuous
 62
     7
100
AcDbLine
 10
26.5160895285
 20
41.0761075686
 30
0.0
 11
24.1241244031
 21
46.7134651481
 31
0.0
  0
LWPOLYLINE
  5
1598
330
22D
100
AcDbEntity
  8
0
  6
Continuous
 62
     7
100
AcDbPolyline
 90
       17
 70
     0
 43
0.0
 10
30.5846988454
 20
23.9623877934
 10
29.4829282143
 20
30.9191153339
 10
29.364415282
 20
31.6446507666
 10
29.2373664539
 20
32.3455580218
 10
29.1009201298
 20
33.0297676824
 10
28.9542807611
 20
33.703754676
 10
28.7954712117
 20
34.3774983367
 10
28.6251166821
 20
35.0480327968
 10
28.443044097
 20
35.7160366159
 10
28.2495185143
 20
36.3805206262
 10
28.0447631418
 20
37.0408160669
 10
27.8288918094
 20
37.69669099010001
 10
27.6039270114
 20
38.34260591239999
 10
27.3644560447
 20
38.993851956
 10
27.1055088073
 20
39.6614091993
 10
26.8233983172
 20
40.3509777703
 10
26.5160895285
 20
41.0761075686
  0
LINE
  5
1599
330
22D
100
AcDbEntity
  8
DEFAULT_1
  6
CENTER
 62
     7
100
AcDbLine
 10
32.999124293
 20
25.6551318147
 30
0.0
 11
32.999124293
 21
21.5600852343
 31
0.0
  0
LINE
  5
159A
330
22D
100
AcDbEntity
  8
0
  6
Continuous
 62
     7
100
AcDbLine
 10
34.93913796800001
 20
23.7606621204
 30
0.0
 11
38.79361400150001
 21
23.7707974047
 31
0.0
  0
LINE
  5
159B
330
22D
100
AcDbEntity
  8
0
  6
Continuous
 62
     7
100
AcDbLine
 10
32.3774259806
 20
23.754567692
 30
0.0
 11
34.9396442442
 21
23.7606639017
 31
0.0
  0
LINE
  5
159C
330
22D
100
AcDbEntity
  8
0
  6
Continuous
 62
     7
100
AcDbLine
 10
40.44857891449999
 20
23.7747024719
 30
0.0
 11
41.3581037748
 21
23.7766717789
 31
0.0
  0
LINE
  5
159D
330
22D
100
AcDbEntity
  8
0
  6
Continuous
 62
     7
100
AcDbLine
 10
38.7929381232
 20
23.7707957218
 30
0.0
 11
40.4491931334
 21
23.7747038168
 31
0.0
  0
LINE
  5
159E
330
22D
100
AcDbEntity
  8
0
  6
Continuous
 62
     7
100
AcDbLine
 10
30.8320484733
 20
23.7514967266
 30
0.0
 11
31.188868954
 21
23.7521342257
 31
0.0
  0
LINE
  5
159F
330
22D
100
AcDbEntity
  8
0
  6
Continuous
 62
     7
100
AcDbLine
 10
31.1889348382
 20
23.7521343492
 30
0.0
 11
32.3777249835
 21
23.7545683331
 31
0.0
  0
LINE
  5
15A0
330
22D
100
AcDbEntity
  8
0
  6
Continuous
 62
     7
100
AcDbLine
 10
61.762390611
 20
23.7756440897
 30
0.0
 11
70.2435763916
 21
23.7766372479
 31
0.0
  0
LWPOLYLINE
  5
15A1
330
22D
100
AcDbEntity
  8
0
  6
Continuous
 62
     7
100
AcDbPolyline
 90
        3
 70
     0
 43
0.0
 10
70.2435763916
 20
23.7766372479
 10
70.5708742302
 20
23.7766410394
 10
70.89014492310001
 20
23.7766717787
  0
LINE
  5
15A2
330
22D
100
AcDbEntity
  8
0
  6
Continuous
 62
     7
100
AcDbLine
 10
46.45894572729999
 20
23.7756408567
 30
0.0
 11
61.762390611
 21
23.7756440897
 31
0.0
  0
LINE
  5
15A3
330
22D
100
AcDbEntity
  8
0
  6
Continuous
 62
     7
100
AcDbLine
 10
41.3575348108
 20
23.7766711231
 30
0.0
 11
46.87664220579999
 21
23.7756140771
 31
0.0
  0
LWPOLYLINE
  5
15A4
330
22D
100
AcDbEntity
  8
0
  6
Continuous
 62
     7
100
AcDbPolyline
 90
        4
 70
     0
 43
0.0
 10
80.9035122997
 20
23.7524285684
 10
80.98485656479999
 20
23.7522735873
 10
81.05931381359999
 20
23.7521343491
 10
81.41620008510001
 20
23.7514967267
  0
LINE
  5
15A5
330
22D
100
AcDbEntity
  8
0
  6
Continuous
 62
     7
100
AcDbLine
 10
80.720366015
 20
23.752788267
 30
0.0
 11
80.9035122997
 21
23.7524285684
 31
0.0
  0
LINE
  5
15A6
330
22D
100
AcDbEntity
  8
0
  6
Continuous
 62
     7
100
AcDbLine
 10
80.14592435510001
 20
23.7539747505
 30
0.0
 11
80.720366015
 21
23.752788267
 31
0.0
  0
LWPOLYLINE
  5
15A7
330
22D
100
AcDbEntity
  8
0
  6
Continuous
 62
     7
100
AcDbPolyline
 90
        3
 70
     0
 43
0.0
 10
79.72322446609999
 20
23.7548937055
 10
79.87052371199999
 20
23.7545683329
 10
80.14592435510001
 20
23.7539747505
  0
LWPOLYLINE
  5
15A8
330
22D
100
AcDbEntity
  8
0
  6
Continuous
 62
     7
100
AcDbPolyline
 90
        4
 70
     0
 43
0.0
 10
78.7131102638
 20
23.7572349278
 10
78.89547619439999
 20
23.7567955499
 10
79.0725377893
 20
23.7563767408
 10
79.72322446609999
 20
23.7548937055
  0
LINE
  5
15A9
330
22D
100
AcDbEntity
  8
0
  6
Continuous
 62
     7
100
AcDbLine
 10
70.89014492310001
 20
23.7766717787
 30
0.0
 11
72.64672191569999
 21
23.7727597627
 31
0.0
  0
LWPOLYLINE
  5
15AA
330
22D
100
AcDbEntity
  8
0
  6
Continuous
 62
     7
100
AcDbPolyline
 90
        3
 70
     0
 43
0.0
 10
72.64672191569999
 20
23.7727597627
 10
72.9194334987
 20
23.7721085729
 10
73.1884257649
 20
23.7714554479
  0
LINE
  5
15AB
330
22D
100
AcDbEntity
  8
0
  6
Continuous
 62
     7
100
AcDbLine
 10
77.0920737031
 20
23.7612131476
 30
0.0
 11
78.7131102638
 21
23.7572349278
 31
0.0
  0
LINE
  5
15AC
330
22D
100
AcDbEntity
  8
0
  6
Continuous
 62
     7
100
AcDbLine
 10
73.1884257649
 20
23.7714554479
 30
0.0
 11
76.4216255099
 21
23.7630129599
 31
0.0
  0
LINE
  5
15AD
330
22D
100
AcDbEntity
  8
0
  6
Continuous
 62
     7
100
AcDbLine
 10
76.4216255099
 20
23.7630129599
 30
0.0
 11
77.0920737031
 21
23.7612131476
 31
0.0
  0
LWPOLYLINE
  5
15AE
330
22D
100
AcDbEntity
  8
0
  6
Continuous
 62
     7
100
AcDbPolyline
 90
        3
 70
     0
 43
0.0
 10
55.7296389324
 20
26.6285975946
 10
55.7413477045
 20
26.6317890539
 10
55.7541500447
 20
26.6351661617
  0
LINE
  5
15AF
330
22D
100
AcDbEntity
  8
0
  6
Continuous
 62
     7
100
AcDbLine
 10
55.74230699020001
 20
26.6217991026
 30
0.0
 11
55.7491995859
 21
26.6236211516
 31
0.0
  0
LINE
  5
15B0
330
22D
100
AcDbEntity
  8
0
  6
Continuous
 62
     7
100
AcDbLine
 10
55.7484588362
 20
26.6234265923
 30
0.0
 11
55.7602733202
 21
26.6264794788
 31
0.0
  0
LWPOLYLINE
  5
15B1
330
22D
100
AcDbEntity
  8
0
  6
Continuous
 62
     7
100
AcDbPolyline
 90
        4
 70
     0
 43
0.0
 10
55.7541500447
 20
26.6351661617
 10
55.7679769331
 20
26.6386859883
 10
55.78277143779999
 20
26.6423011535
 10
55.7984667049
 20
26.645969608
  0
LINE
  5
15B2
330
22D
100
AcDbEntity
  8
0
  6
Continuous
 62
     7
100
AcDbLine
 10
55.7585577915
 20
26.6260420452
 30
0.0
 11
55.7676319882
 21
26.6283314317
 31
0.0
  0
LWPOLYLINE
  5
15B3
330
22D
100
AcDbEntity
  8
0
  6
Continuous
 62
     7
100
AcDbPolyline
 90
        6
 70
     0
 43
0.0
 10
55.7027083927
 20
27.3436831517
 10
55.6955223483
 20
27.3418936286
 10
55.6895936634
 20
27.3404779605
 10
55.6849211833
 20
27.3394570688
 10
55.6815228812
 20
27.33884396300001
 10
55.6793927659
 20
27.3386388568
  0
LINE
  5
15B4
330
22D
100
AcDbEntity
  8
0
  6
Continuous
 62
     7
100
AcDbLine
 10
55.7654314504
 20
26.6277816732
 30
0.0
 11
55.7761284372
 21
26.6304233035
 31
0.0
  0
LINE
  5
15B5
330
22D
100
AcDbEntity
  8
0
  6
Continuous
 62
     7
100
AcDbLine
 10
55.7734709157
 20
26.6297743686
 30
0.0
 11
55.7857131859
 21
26.6327222815
 31
0.0
  0
LINE
  5
15B6
330
22D
100
AcDbEntity
  8
0
  6
Continuous
 62
     7
100
AcDbLine
 10
55.7826447691
 20
26.631993303
 30
0.0
 11
55.7963415935
 21
26.6351970205
 31
0.0
  0
LINE
  5
15B7
330
22D
100
AcDbEntity
  8
0
  6
Continuous
 62
     7
100
AcDbLine
 10
55.7929142072
 20
26.6344075794
 30
0.0
 11
55.80796551399999
 21
26.637813116
 31
0.0
  0
LINE
  5
15B8
330
22D
100
AcDbEntity
  8
0
  6
Continuous
 62
     7
100
AcDbLine
 10
55.7984667049
 20
26.645969608
 30
0.0
 11
55.8149958746
 21
26.649644411
 31
0.0
  0
LINE
  5
15B9
330
22D
100
AcDbEntity
  8
0
  6
Continuous
 62
     7
100
AcDbLine
 10
55.80423786369999
 20
26.6369844272
 30
0.0
 11
55.8205428012
 21
26.6405377715
 31
0.0
  0
LINE
  5
15BA
330
22D
100
AcDbEntity
  8
0
  6
Continuous
 62
     7
100
AcDbLine
 10
55.75167412189999
 20
27.3477205353
 30
0.0
 11
55.7937326288
 21
27.3567335359
 31
0.0
  0
LWPOLYLINE
  5
15BB
330
22D
100
AcDbEntity
  8
0
  6
Continuous
 62
     7
100
AcDbPolyline
 90
       31
 70
     0
 43
0.0
 10
55.8149958746
 20
26.649644411
 10
55.8323020333
 20
26.6532869127
 10
55.85032485560001
 20
26.6568558447
 10
55.86900771659999
 20
26.6603152581
 10
55.8882934857
 20
26.663628726
 10
55.90812335409999
 20
26.6667642169
 10
55.9284387497
 20
26.669689962
 10
55.9491818325
 20
26.6723794687
 10
55.9702920109
 20
26.6748066547
 10
55.991718968
 20
26.6769515564
 10
56.0134075205
 20
26.6787951242
 10
56.03531167529999
 20
26.6803232011
 10
56.0573808226
 20
26.6815232714
 10
56.07957362859999
 20
26.6823866744
 10
56.10184456999999
 20
26.6829069581
 10
56.1241556056
 20
26.6830804204
 10
56.1464669462
 20
26.6829059687
 10
56.16873831270001
 20
26.6823846955
 10
56.1909314675
 20
26.6815202831
 10
56.21300049649999
 20
26.680319244
 10
56.23490327439999
 20
26.6787903122
 10
56.2565901968
 20
26.676945938
 10
56.278016333
 20
26.6748002053
 10
56.2991255352
 20
26.6723722692
 10
56.3198664642
 20
26.6696822246
 10
56.3401797632
 20
26.6667559759
 10
56.36000838890001
 20
26.6636199536
 10
56.3792940621
 20
26.6603057718
 10
56.3979787658
 20
26.6568453127
 10
56.41600466999999
 20
26.6532750645
 10
56.4333154301
 20
26.6496308171
  0
LINE
  5
15BC
330
22D
100
AcDbEntity
  8
0
  6
Continuous
 62
     7
100
AcDbLine
 10
55.7456514287
 20
27.3464622263
 30
0.0
 11
55.7531237317
 21
27.348027404
 31
0.0
  0
LINE
  5
15BD
330
22D
100
AcDbEntity
  8
0
  6
Continuous
 62
     7
100
AcDbLine
 10
55.8165709809
 20
26.6396892797
 30
0.0
 11
55.8340282167
 21
26.6433364054
 31
0.0
  0
LINE
  5
15BE
330
22D
100
AcDbEntity
  8
0
  6
Continuous
 62
     7
100
AcDbLine
 10
55.7910915618
 20
27.35617576780001
 30
0.0
 11
55.8070610903
 21
27.3595069579
 31
0.0
  0
LINE
  5
15BF
330
22D
100
AcDbEntity
  8
0
  6
Continuous
 62
     7
100
AcDbLine
 10
55.7411113427
 20
27.3455385527
 30
0.0
 11
55.74698420539999
 21
27.3467379325
 31
0.0
  0
LINE
  5
15C0
330
22D
100
AcDbEntity
  8
0
  6
Continuous
 62
     7
100
AcDbLine
 10
55.8044606647
 20
27.3589716373
 30
0.0
 11
55.81901598209999
 21
27.36192748280001
 31
0.0
  0
LINE
  5
15C1
330
22D
100
AcDbEntity
  8
0
  6
Continuous
 62
     7
100
AcDbLine
 10
55.8298614433
 20
26.6424852045
 30
0.0
 11
55.8483876167
 21
26.6461769497
 31
0.0
  0
LINE
  5
15C2
330
22D
100
AcDbEntity
  8
0
  6
Continuous
 62
     7
100
AcDbLine
 10
55.73699527729999
 20
27.344726797
 30
0.0
 11
55.74273047430001
 21
27.3458649204
 31
0.0
  0
LINE
  5
15C3
330
22D
100
AcDbEntity
  8
0
  6
Continuous
 62
     7
100
AcDbLine
 10
55.81623912779999
 20
27.3613714404
 30
0.0
 11
55.82915588609999
 21
27.3639243189
 31
0.0
  0
LINE
  5
15C4
330
22D
100
AcDbEntity
  8
0
  6
Continuous
 62
     7
100
AcDbLine
 10
55.7341328682
 20
27.3441799323
 30
0.0
 11
55.7382388087
 21
27.3449691067
 31
0.0
  0
LINE
  5
15C5
330
22D
100
AcDbEntity
  8
0
  6
Continuous
 62
     7
100
AcDbLine
 10
55.8254150552
 20
27.3631938831
 30
0.0
 11
55.8391169609
 21
27.365832516
 31
0.0
  0
LINE
  5
15C6
330
22D
100
AcDbEntity
  8
0
  6
Continuous
 62
     7
100
AcDbLine
 10
55.84406236060001
 20
26.6453365023
 30
0.0
 11
55.8635574264
 21
26.649021374
 31
0.0
  0
LINE
  5
15C7
330
22D
100
AcDbEntity
  8
0
  6
Continuous
 62
     7
100
AcDbLine
 10
55.73122944539999
 20
27.3436426002
 30
0.0
 11
55.73537064579999
 21
27.3444144574
 31
0.0
  0
LINE
  5
15C8
330
22D
100
AcDbEntity
  8
0
  6
Continuous
 62
     7
100
AcDbLine
 10
55.836067609
 20
27.3652541667
 30
0.0
 11
55.8508468809
 21
27.36800794420001
 31
0.0
  0
LWPOLYLINE
  5
15C9
330
22D
100
AcDbEntity
  8
0
  6
Continuous
 62
     7
100
AcDbPolyline
 90
       10
 70
     0
 43
0.0
 10
55.86847995390001
 20
27.380883551
 10
55.8519702408
 20
27.3779013021
 10
55.8339825774
 20
27.3744368418
 10
55.8167034114
 20
27.370915287
 10
55.8001919266
 20
27.3673758144
 10
55.78451293829999
 20
27.3638648429
 10
55.7697324034
 20
27.3604251986
 10
55.7559060809
 20
27.35710403300001
 10
55.7431053213
 20
27.3539471676
 10
55.7027083927
 20
27.3436831517
  0
LINE
  5
15CA
330
22D
100
AcDbEntity
  8
0
  6
Continuous
 62
     7
100
AcDbLine
 10
55.8464340826
 20
27.3671988467
 30
0.0
 11
55.85873361199999
 21
27.3694255507
 31
0.0
  0
LINE
  5
15CB
330
22D
100
AcDbEntity
  8
0
  6
Continuous
 62
     7
100
AcDbLine
 10
55.7282413922
 20
27.3431103183
 30
0.0
 11
55.7324805466
 21
27.3438718464
 31
0.0
  0
LINE
  5
15CC
330
22D
100
AcDbEntity
  8
0
  6
Continuous
 62
     7
100
AcDbLine
 10
55.8590907641
 20
26.6482005239
 30
0.0
 11
55.879481046
 21
26.6518342759
 31
0.0
  0
LINE
  5
15CD
330
22D
100
AcDbEntity
  8
0
  6
Continuous
 62
     7
100
AcDbLine
 10
55.8540761733
 20
27.3685928313
 30
0.0
 11
55.8669645486
 21
27.3708654851
 31
0.0
  0
LINE
  5
15CE
330
22D
100
AcDbEntity
  8
0
  6
Continuous
 62
     7
100
AcDbLine
 10
55.72511894729999
 20
27.3425791544
 30
0.0
 11
55.7295243462
 21
27.343336129
 31
0.0
  0
LINE
  5
15CF
330
22D
100
AcDbEntity
  8
0
  6
Continuous
 62
     7
100
AcDbLine
 10
55.8620540231
 20
27.3700113377
 30
0.0
 11
55.8755471655
 21
27.3723230302
 31
0.0
  0
LINE
  5
15D0
330
22D
100
AcDbEntity
  8
0
  6
Continuous
 62
     7
100
AcDbLine
 10
55.8748536881
 20
26.6510351208
 30
0.0
 11
55.896094892
 21
26.6545802657
 31
0.0
  0
LINE
  5
15D1
330
22D
100
AcDbEntity
  8
0
  6
Continuous
 62
     7
100
AcDbLine
 10
55.8703745967
 20
27.3714500118
 30
0.0
 11
55.8844885853
 21
27.3737930005
 31
0.0
  0
LINE
  5
15D2
330
22D
100
AcDbEntity
  8
0
  6
Continuous
 62
     7
100
AcDbLine
 10
55.879044969
 20
27.372904004
 30
0.0
 11
55.8937953075
 21
27.3752697395
 31
0.0
  0
LINE
  5
15D3
330
22D
100
AcDbEntity
  8
0
  6
Continuous
 62
     7
100
AcDbLine
 10
55.8912975484
 20
26.6538071418
 30
0.0
 11
55.913336336
 21
26.6572260742
 31
0.0
  0
LINE
  5
15D4
330
22D
100
AcDbEntity
  8
0
  6
Continuous
 62
     7
100
AcDbLine
 10
55.88807302310001
 20
27.3743682297
 30
0.0
 11
55.903472961
 21
27.3767469738
 31
0.0
  0
LINE
  5
15D5
330
22D
100
AcDbEntity
  8
0
  6
Continuous
 62
     7
100
AcDbLine
 10
55.8974655075
 20
27.3758370168
 30
0.0
 11
55.9135269101
 21
27.3782178786
 31
0.0
  0
LINE
  5
15D6
330
22D
100
AcDbEntity
  8
0
  6
Continuous
 62
     7
100
AcDbLine
 10
55.9083564187
 20
26.6564832091
 30
0.0
 11
55.9311402085
 21
26.6597401219
 31
0.0
  0
LINE
  5
15D7
330
22D
100
AcDbEntity
  8
0
  6
Continuous
 62
     7
100
AcDbLine
 10
55.90722818779999
 20
27.3773040089
 30
0.0
 11
55.92395966189999
 21
27.3796747896
 31
0.0
  0
LINE
  5
15D8
330
22D
100
AcDbEntity
  8
0
  6
Continuous
 62
     7
100
AcDbLine
 10
55.91736548430001
 20
27.3787621823
 30
0.0
 11
55.9330695741
 21
27.380883551
 31
0.0
  0
LINE
  5
15D9
330
22D
100
AcDbEntity
  8
0
  6
Continuous
 62
     7
100
AcDbLine
 10
55.9278831696
 20
27.3802042785
 30
0.0
 11
55.9331051963
 21
27.380883551
 31
0.0
  0
LINE
  5
15DA
330
22D
100
AcDbEntity
  8
0
  6
Continuous
 62
     7
100
AcDbLine
 10
55.9259751322
 20
26.6590335945
 30
0.0
 11
55.94944171259999
 21
26.6620935205
 31
0.0
  0
LINE
  5
15DB
330
22D
100
AcDbEntity
  8
0
  6
Continuous
 62
     7
100
AcDbLine
 10
55.9440979244
 20
26.661430552
 30
0.0
 11
55.9681761883
 21
26.6642599792
 31
0.0
  0
LINE
  5
15DC
330
22D
100
AcDbEntity
  8
0
  6
Continuous
 62
     7
100
AcDbLine
 10
55.96266900759999
 20
26.663648612
 30
0.0
 11
55.9872749087
 21
26.6662159875
 31
0.0
  0
LINE
  5
15DD
330
22D
100
AcDbEntity
  8
0
  6
Continuous
 62
     7
100
AcDbLine
 10
55.9816343842
 20
26.6656648329
 30
0.0
 11
56.0066885454
 21
26.6679427175
 31
0.0
  0
LINE
  5
15DE
330
22D
100
AcDbEntity
  8
0
  6
Continuous
 62
     7
100
AcDbLine
 10
56.0009410221
 20
26.6674589953
 30
0.0
 11
56.0263625559
 21
26.6694237485
 31
0.0
  0
LINE
  5
15DF
330
22D
100
AcDbEntity
  8
0
  6
Continuous
 62
     7
100
AcDbLine
 10
56.0205368423
 20
26.6690133933
 30
0.0
 11
56.0462529225
 21
26.6706457307
 31
0.0
  0
LINE
  5
15E0
330
22D
100
AcDbEntity
  8
0
  6
Continuous
 62
     7
100
AcDbLine
 10
56.0403723731
 20
26.6703132833
 30
0.0
 11
56.0663146289
 21
26.671597973
 31
0.0
  0
LWPOLYLINE
  5
15E1
330
22D
100
AcDbEntity
  8
0
  6
Continuous
 62
     7
100
AcDbPolyline
 90
       10
 70
     0
 43
0.0
 10
55.68597447689999
 20
27.3387234321
 10
55.69170436180001
 20
27.3389332235
 10
55.6970267217
 20
27.3392408385
 10
55.7019588985
 20
27.339621765
 10
55.7065296434
 20
27.3400558742
 10
55.7107638072
 20
27.3405262166
 10
55.7147017702
 20
27.3410209384
 10
55.7183821137
 20
27.3415314502
 10
55.72184051549999
 20
27.3420517012
 10
55.726455752
 20
27.3428032625
  0
LINE
  5
15E2
330
22D
100
AcDbEntity
  8
0
  6
Continuous
 62
     7
100
AcDbLine
 10
56.06039867319999
 20
26.6713464286
 30
0.0
 11
56.08650439619999
 21
26.6722719351
 31
0.0
  0
LWPOLYLINE
  5
15E3
330
22D
100
AcDbEntity
  8
0
  6
Continuous
 62
     7
100
AcDbPolyline
 90
       10
 70
     0
 43
0.0
 10
55.68198880539999
 20
27.3386522969
 10
55.6880919285
 20
27.338786226
 10
55.6937580588
 20
27.3390391144
 10
55.6989998835
 20
27.3393822348
 10
55.70383377609999
 20
27.3397904768
 10
55.70829857029999
 20
27.3402444872
 10
55.7124261705
 20
27.3407284281
 10
55.71626364180001
 20
27.3412320207
 10
55.7198602702
 20
27.3417491249
 10
55.7232454212
 20
27.3422737743
  0
LINE
  5
15E4
330
22D
100
AcDbEntity
  8
0
  6
Continuous
 62
     7
100
AcDbLine
 10
56.0805682287
 20
26.6721033796
 30
0.0
 11
56.10678062939999
 21
26.6726618322
 31
0.0
  0
LINE
  5
15E5
330
22D
100
AcDbEntity
  8
0
  6
Continuous
 62
     7
100
AcDbLine
 10
55.6841905154
 20
27.338700612
 30
0.0
 11
55.68597447689999
 21
27.3387234321
 31
0.0
  0
LINE
  5
15E6
330
22D
100
AcDbEntity
  8
0
  6
Continuous
 62
     7
100
AcDbLine
 10
56.10083422189999
 20
26.6725772961
 30
0.0
 11
56.1270979847
 21
26.6727639414
 31
0.0
  0
LINE
  5
15E7
330
22D
100
AcDbEntity
  8
0
  6
Continuous
 62
     7
100
AcDbLine
 10
55.6793848817
 20
27.3386391371
 30
0.0
 11
55.68198880539999
 21
27.3386522969
 31
0.0
  0
LINE
  5
15E8
330
22D
100
AcDbEntity
  8
DEFAULT_1
  6
CENTER
 62
     7
100
AcDbLine
 10
56.124124293
 20
26.7134651481
 30
0.0
 11
54.1824576263
 21
26.7134651481
 31
0.0
  0
LINE
  5
15E9
330
22D
100
AcDbEntity
  8
DEFAULT_1
  6
CENTER
 62
     7
100
AcDbLine
 10
56.124124293
 20
26.7134651481
 30
0.0
 11
58.0657909596
 21
26.7134651481
 31
0.0
  0
LINE
  5
15EA
330
22D
100
AcDbEntity
  8
0
  6
Continuous
 62
     7
100
AcDbLine
 10
56.84192614739999
 20
27.2134651481
 30
0.0
 11
55.4063225536
 21
27.2134651481
 31
0.0
  0
LINE
  5
15EB
330
22D
100
AcDbEntity
  8
0
  6
Continuous
 62
     7
100
AcDbLine
 10
55.6793927659
 20
27.3386388568
 30
0.0
 11
55.5122370595
 21
27.3386388568
 31
0.0
  0
LINE
  5
15EC
330
22D
100
AcDbEntity
  8
0
  6
Continuous
 62
     7
100
AcDbLine
 10
55.5584836268
 20
27.380883551
 30
0.0
 11
56.68976528229999
 21
27.380883551
 31
0.0
  0
LINE
  5
15ED
330
22D
100
AcDbEntity
  8
0
  6
Continuous
 62
     7
100
AcDbLine
 10
56.1211497196
 20
26.6727639396
 30
0.0
 11
56.14741348039999
 21
26.6725773105
 31
0.0
  0
LINE
  5
15EE
330
22D
100
AcDbEntity
  8
0
  6
Continuous
 62
     7
100
AcDbLine
 10
56.14146707689999
 20
26.6726618429
 30
0.0
 11
56.1676794741
 21
26.6721034065
 31
0.0
  0
LINE
  5
15EF
330
22D
100
AcDbEntity
  8
0
  6
Continuous
 62
     7
100
AcDbLine
 10
56.16174331199999
 20
26.6722719583
 30
0.0
 11
56.18784903399999
 21
26.67134646780001
 31
0.0
  0
LINE
  5
15F0
330
22D
100
AcDbEntity
  8
0
  6
Continuous
 62
     7
100
AcDbLine
 10
56.1819330803
 20
26.6715980084
 30
0.0
 11
56.20787534449999
 21
26.6703133342
 31
0.0
  0
LINE
  5
15F1
330
22D
100
AcDbEntity
  8
0
  6
Continuous
 62
     7
100
AcDbLine
 10
56.2019947869
 20
26.6706457784
 30
0.0
 11
56.2277108936
 21
26.6690134549
 31
0.0
  0
LINE
  5
15F2
330
22D
100
AcDbEntity
  8
0
  6
Continuous
 62
     7
100
AcDbLine
 10
56.221885153
 20
26.6694238084
 30
0.0
 11
56.2473067415
 21
26.6674590661
 31
0.0
  0
LINE
  5
15F3
330
22D
100
AcDbEntity
  8
0
  6
Continuous
 62
     7
100
AcDbLine
 10
56.24155916239999
 20
26.6679427897
 30
0.0
 11
56.2666134193
 21
26.6656649109
 31
0.0
  0
LWPOLYLINE
  5
15F4
330
22D
100
AcDbEntity
  8
0
  6
Continuous
 62
     7
100
AcDbPolyline
 90
        6
 70
     0
 43
0.0
 10
56.5414883985
 20
27.3400798098
 10
56.54638810859999
 20
27.3396132704
 10
56.5516488625
 20
27.3392121799
 10
56.55724231649999
 20
27.3389009079
 10
56.56316065569999
 20
27.3387022868
 10
56.5687075691
 20
27.3386391823
  0
LWPOLYLINE
  5
15F5
330
22D
100
AcDbEntity
  8
0
  6
Continuous
 62
     7
100
AcDbPolyline
 90
        3
 70
     0
 43
0.0
 10
56.56885582010001
 20
27.3386388568
 10
56.5667253005
 20
27.3388439966
 10
56.5633271134
 20
27.33945712760001
  0
LWPOLYLINE
  5
15F6
330
22D
100
AcDbEntity
  8
0
  6
Continuous
 62
     7
100
AcDbPolyline
 90
        7
 70
     0
 43
0.0
 10
56.5403196614
 20
27.3402041327
 10
56.5451394882
 20
27.3397237158
 10
56.5503120156
 20
27.3393042086
 10
56.5558122234
 20
27.3389691149
 10
56.561624798
 20
27.338740847
 10
56.56772802329999
 20
27.3386416325
 10
56.7360114445
 20
27.3386388568
  0
LINE
  5
15F7
330
22D
100
AcDbEntity
  8
0
  6
Continuous
 62
     7
100
AcDbLine
 10
56.2609727971
 20
26.6662160717
 30
0.0
 11
56.28557884390001
 21
26.6636486949
 31
0.0
  0
LINE
  5
15F8
330
22D
100
AcDbEntity
  8
0
  6
Continuous
 62
     7
100
AcDbLine
 10
56.53589963209999
 20
27.3407188194
 30
0.0
 11
56.5414883985
 21
27.3400798098
 31
0.0
  0
LINE
  5
15F9
330
22D
100
AcDbEntity
  8
0
  6
Continuous
 62
     7
100
AcDbLine
 10
56.28007151600001
 20
26.66426007530001
 30
0.0
 11
56.3041499829
 21
26.6614306375
 31
0.0
  0
LINE
  5
15FA
330
22D
100
AcDbEntity
  8
0
  6
Continuous
 62
     7
100
AcDbLine
 10
56.3151824288
 20
27.380883551
 30
0.0
 11
56.32085275699999
 21
27.38013906
 31
0.0
  0
LINE
  5
15FB
330
22D
100
AcDbEntity
  8
0
  6
Continuous
 62
     7
100
AcDbLine
 10
56.5318173744
 20
27.3412551589
 30
0.0
 11
56.5369965382
 21
27.3405845923
 31
0.0
  0
LINE
  5
15FC
330
22D
100
AcDbEntity
  8
0
  6
Continuous
 62
     7
100
AcDbLine
 10
56.29880599159999
 20
26.6620936282
 30
0.0
 11
56.3222728288
 21
26.6590336811
 31
0.0
  0
LINE
  5
15FD
330
22D
100
AcDbEntity
  8
0
  6
Continuous
 62
     7
100
AcDbLine
 10
56.3167928159
 20
27.3806776163
 30
0.0
 11
56.3308297012
 21
27.3787696868
 31
0.0
  0
LINE
  5
15FE
330
22D
100
AcDbEntity
  8
0
  6
Continuous
 62
     7
100
AcDbLine
 10
56.3268424792
 20
27.3793247603
 30
0.0
 11
56.3404505751
 21
27.3773877395
 31
0.0
  0
LINE
  5
15FF
330
22D
100
AcDbEntity
  8
0
  6
Continuous
 62
     7
100
AcDbLine
 10
56.52803933659999
 20
27.3418015456
 30
0.0
 11
56.53285303979999
 21
27.3411136746
 31
0.0
  0
LINE
  5
1600
330
22D
100
AcDbEntity
  8
0
  6
Continuous
 62
     7
100
AcDbLine
 10
56.31710749989999
 20
26.6597402404
 30
0.0
 11
56.3398915871
 21
26.6564832966
 31
0.0
  0
LINE
  5
1601
330
22D
100
AcDbEntity
  8
0
  6
Continuous
 62
     7
100
AcDbLine
 10
56.3365347343
 20
27.3779574599
 30
0.0
 11
56.3497224416
 21
27.3759993522
 31
0.0
  0
LINE
  5
1602
330
22D
100
AcDbEntity
  8
0
  6
Continuous
 62
     7
100
AcDbLine
 10
56.34587820020001
 20
27.376581699
 30
0.0
 11
56.3586540034
 21
27.3746099629
 31
0.0
  0
LINE
  5
1603
330
22D
100
AcDbEntity
  8
0
  6
Continuous
 62
     7
100
AcDbLine
 10
56.52452842
 20
27.3423501728
 30
0.0
 11
56.5290282093
 21
27.3416540233
 31
0.0
  0
LINE
  5
1604
330
22D
100
AcDbEntity
  8
0
  6
Continuous
 62
     7
100
AcDbLine
 10
56.3349113832
 20
26.657226202
 30
0.0
 11
56.3569504874
 21
26.6538072313
 31
0.0
  0
LINE
  5
1605
330
22D
100
AcDbEntity
  8
0
  6
Continuous
 62
     7
100
AcDbLine
 10
56.3548808546
 20
27.3752030947
 30
0.0
 11
56.3672532739
 21
27.3732246436
 31
0.0
  0
LINE
  5
1606
330
22D
100
AcDbEntity
  8
0
  6
Continuous
 62
     7
100
AcDbLine
 10
56.52125459869999
 20
27.3428949063
 30
0.0
 11
56.52547967090001
 21
27.3421977763
 31
0.0
  0
LINE
  5
1607
330
22D
100
AcDbEntity
  8
0
  6
Continuous
 62
     7
100
AcDbLine
 10
56.3635517147
 20
27.373826647
 30
0.0
 11
56.37552863149999
 21
27.3718479009
 31
0.0
  0
LINE
  5
1608
330
22D
100
AcDbEntity
  8
0
  6
Continuous
 62
     7
100
AcDbLine
 10
56.3521528466
 20
26.6545804008
 30
0.0
 11
56.3733943539
 21
26.6510352156
 31
0.0
  0
LINE
  5
1609
330
22D
100
AcDbEntity
  8
0
  6
Continuous
 62
     7
100
AcDbLine
 10
56.3718994318
 20
27.372456909
 30
0.0
 11
56.38348934279999
 21
27.3704836948
 31
0.0
  0
LINE
  5
160A
330
22D
100
AcDbEntity
  8
0
  6
Continuous
 62
     7
100
AcDbLine
 10
56.5181673902
 20
27.343435436
 30
0.0
 11
56.5221710007
 21
27.342739353
 31
0.0
  0
LINE
  5
160B
330
22D
100
AcDbEntity
  8
0
  6
Continuous
 62
     7
100
AcDbLine
 10
56.3799331422
 20
27.3710978959
 30
0.0
 11
56.3911461636
 21
27.3691353668
 31
0.0
  0
LINE
  5
160C
330
22D
100
AcDbEntity
  8
0
  6
Continuous
 62
     7
100
AcDbLine
 10
56.3687667226
 20
26.6518344157
 30
0.0
 11
56.3891572709
 21
26.648200626
 31
0.0
  0
LINE
  5
160D
330
22D
100
AcDbEntity
  8
0
  6
Continuous
 62
     7
100
AcDbLine
 10
56.5152293202
 20
27.3439716458
 30
0.0
 11
56.5190589961
 21
27.3432768024
 31
0.0
  0
LINE
  5
160E
330
22D
100
AcDbEntity
  8
0
  6
Continuous
 62
     7
100
AcDbLine
 10
56.3876619074
 20
27.3697532826
 30
0.0
 11
56.4022425282
 21
27.3671197661
 31
0.0
  0
LINE
  5
160F
330
22D
100
AcDbEntity
  8
0
  6
Continuous
 62
     7
100
AcDbLine
 10
56.3985053427
 20
27.3678066528
 30
0.0
 11
56.41236093619999
 21
27.3652198732
 31
0.0
  0
LINE
  5
1610
330
22D
100
AcDbEntity
  8
0
  6
Continuous
 62
     7
100
AcDbLine
 10
56.51238157209999
 20
27.3445093568
 30
0.0
 11
56.5161116059
 21
27.3438085364
 31
0.0
  0
LINE
  5
1611
330
22D
100
AcDbEntity
  8
0
  6
Continuous
 62
     7
100
AcDbLine
 10
56.38469038270001
 20
26.6490215156
 30
0.0
 11
56.4041856479
 21
26.6453366154
 31
0.0
  0
LINE
  5
1612
330
22D
100
AcDbEntity
  8
0
  6
Continuous
 62
     7
100
AcDbLine
 10
56.50956251310001
 20
27.3450569068
 30
0.0
 11
56.5132675655
 21
27.344340302
 31
0.0
  0
LINE
  5
1613
330
22D
100
AcDbEntity
  8
0
  6
Continuous
 62
     7
100
AcDbLine
 10
56.4091077523
 20
27.3658370232
 30
0.0
 11
56.4220224347
 21
27.363352884
 31
0.0
  0
LINE
  5
1614
330
22D
100
AcDbEntity
  8
0
  6
Continuous
 62
     7
100
AcDbLine
 10
56.4188735859
 20
27.3639668736
 30
0.0
 11
56.4310936838
 21
27.3615552433
 31
0.0
  0
LINE
  5
1615
330
22D
100
AcDbEntity
  8
0
  6
Continuous
 62
     7
100
AcDbLine
 10
56.3998602455
 20
26.6461770893
 30
0.0
 11
56.4183865607
 21
26.6424853242
 31
0.0
  0
LINE
  5
1616
330
22D
100
AcDbEntity
  8
0
  6
Continuous
 62
     7
100
AcDbLine
 10
56.5048626395
 20
27.3459980496
 30
0.0
 11
56.5104663394
 21
27.3448798297
 31
0.0
  0
LINE
  5
1617
330
22D
100
AcDbEntity
  8
0
  6
Continuous
 62
     7
100
AcDbLine
 10
56.4280847268
 20
27.3621562003
 30
0.0
 11
56.4422956401
 21
27.3592791996
 31
0.0
  0
LINE
  5
1618
330
22D
100
AcDbEntity
  8
0
  6
Continuous
 62
     7
100
AcDbLine
 10
56.50101596399999
 20
27.3467895159
 30
0.0
 11
56.5067494204
 21
27.3456163925
 31
0.0
  0
LINE
  5
1619
330
22D
100
AcDbEntity
  8
0
  6
Continuous
 62
     7
100
AcDbLine
 10
56.4394471633
 20
27.3598635365
 30
0.0
 11
56.45472284989999
 21
27.3566899324
 31
0.0
  0
LINE
  5
161A
330
22D
100
AcDbEntity
  8
0
  6
Continuous
 62
     7
100
AcDbLine
 10
56.4142197052
 20
26.64333654
 30
0.0
 11
56.43167707609999
 21
26.6396893935
 31
0.0
  0
LINE
  5
161B
330
22D
100
AcDbEntity
  8
0
  6
Continuous
 62
     7
100
AcDbLine
 10
56.4931228309
 20
27.348453118
 30
0.0
 11
56.5020129918
 21
27.3465828479
 31
0.0
  0
LINE
  5
161C
330
22D
100
AcDbEntity
  8
0
  6
Continuous
 62
     7
100
AcDbLine
 10
56.452541398
 20
27.3571488792
 30
0.0
 11
56.4721240156
 21
27.352975967
 31
0.0
  0
LINE
  5
161D
330
22D
100
AcDbEntity
  8
0
  6
Continuous
 62
     7
100
AcDbLine
 10
56.470438269
 20
27.3533388831
 30
0.0
 11
56.49507683479999
 21
27.3480375902
 31
0.0
  0
LWPOLYLINE
  5
161E
330
22D
100
AcDbEntity
  8
0
  6
Continuous
 62
     7
100
AcDbPolyline
 90
        4
 70
     0
 43
0.0
 10
56.5633271134
 20
27.33945712760001
 10
56.55865508579999
 20
27.3404779219
 10
56.5527277364
 20
27.3418932616
 10
56.54554435659999
 20
27.3436821072
  0
LINE
  5
161F
330
22D
100
AcDbEntity
  8
0
  6
Continuous
 62
     7
100
AcDbLine
 10
56.4277051822
 20
26.6405378994
 30
0.0
 11
56.44401027479999
 21
26.6369845272
 31
0.0
  0
LINE
  5
1620
330
22D
100
AcDbEntity
  8
0
  6
Continuous
 62
     7
100
AcDbLine
 10
56.4333154301
 20
26.6496308171
 30
0.0
 11
56.4498485738
 21
26.6459544386
 31
0.0
  0
LINE
  5
1621
330
22D
100
AcDbEntity
  8
0
  6
Continuous
 62
     7
100
AcDbLine
 10
56.44028253350001
 20
26.637813235
 30
0.0
 11
56.4553340304
 21
26.6344076601
 31
0.0
  0
LWPOLYLINE
  5
1622
330
22D
100
AcDbEntity
  8
0
  6
Continuous
 62
     7
100
AcDbPolyline
 90
        4
 70
     0
 43
0.0
 10
56.4498485738
 20
26.6459544386
 10
56.46554535039999
 20
26.6422848384
 10
56.4803382506
 20
26.6386694278
 10
56.4941581787
 20
26.6351508077
  0
LINE
  5
1623
330
22D
100
AcDbEntity
  8
0
  6
Continuous
 62
     7
100
AcDbLine
 10
56.4519065195
 20
26.6351971288
 30
0.0
 11
56.4656035703
 21
26.6319933617
 31
0.0
  0
LINE
  5
1624
330
22D
100
AcDbEntity
  8
0
  6
Continuous
 62
     7
100
AcDbLine
 10
56.4625349947
 20
26.6327223774
 30
0.0
 11
56.4747775168
 21
26.6297744063
 31
0.0
  0
LWPOLYLINE
  5
1625
330
22D
100
AcDbEntity
  8
0
  6
Continuous
 62
     7
100
AcDbPolyline
 90
        9
 70
     0
 43
0.0
 10
56.5051710963
 20
27.3539402318
 10
56.4923755046
 20
27.35709599050001
 10
56.47855214859999
 20
27.3604166498
 10
56.4637736762
 20
27.36385615190001
 10
56.44809680569999
 20
27.3673670038
 10
56.431587346
 20
27.3709064621
 10
56.41431065049999
 20
27.3744280056
 10
56.3963248041
 20
27.3778926248
 10
56.37976991489999
 20
27.380883551
  0
LINE
  5
1626
330
22D
100
AcDbEntity
  8
0
  6
Continuous
 62
     7
100
AcDbLine
 10
56.47211981199999
 20
26.6304233855
 30
0.0
 11
56.4828170595
 21
26.6277816921
 31
0.0
  0
LINE
  5
1627
330
22D
100
AcDbEntity
  8
0
  6
Continuous
 62
     7
100
AcDbLine
 10
56.4806163311
 20
26.6283314981
 30
0.0
 11
56.4896907763
 21
26.62604205
 31
0.0
  0
LINE
  5
1628
330
22D
100
AcDbEntity
  8
0
  6
Continuous
 62
     7
100
AcDbLine
 10
56.54554435659999
 20
27.3436821072
 30
0.0
 11
56.5051710963
 21
27.3539402318
 31
0.0
  0
LINE
  5
1629
330
22D
100
AcDbEntity
  8
0
  6
Continuous
 62
     7
100
AcDbLine
 10
56.4879750718
 20
26.6264795281
 30
0.0
 11
56.4997897883
 21
26.6234265823
 31
0.0
  0
LWPOLYLINE
  5
162A
330
22D
100
AcDbEntity
  8
0
  6
Continuous
 62
     7
100
AcDbPolyline
 90
        6
 70
     0
 43
0.0
 10
56.4941581787
 20
26.6351508077
 10
56.5069511436
 20
26.63177563610001
 10
56.51864992
 20
26.6285865956
 10
56.5292251135
 20
26.62562201550001
 10
56.5386313591
 20
26.6229179677
 10
56.5468493438
 20
26.6205049632
  0
LINE
  5
162B
330
22D
100
AcDbEntity
  8
0
  6
Continuous
 62
     7
100
AcDbLine
 10
56.49904892470001
 20
26.6236211713
 30
0.0
 11
56.50594153050001
 21
26.62179912
 31
0.0
  0
LINE
  5
162C
330
22D
100
AcDbEntity
  8
0
  6
Continuous
 62
     7
100
AcDbLine
 10
56.5468493438
 20
26.6205049632
 30
0.0
 11
56.55961722649999
 21
26.6166608879
 31
0.0
  0
LINE
  5
162D
330
22D
100
AcDbEntity
  8
0
  6
Continuous
 62
     7
100
AcDbLine
 10
56.55961722649999
 20
26.6166608879
 30
0.0
 11
56.5699523918
 21
26.6134651481
 31
0.0
  0
LWPOLYLINE
  5
162E
330
22D
100
AcDbEntity
  8
0
  6
Continuous
 62
     7
100
AcDbPolyline
 90
       35
 70
     0
 43
0.0
 10
54.93812881170001
 20
44.65908620199999
 10
54.9408843185
 20
44.6146963191
 10
54.9467356074
 20
44.56072571039999
 10
54.9550521691
 20
44.5071361102
 10
54.9658212659
 20
44.4539818705
 10
54.97903432840001
 20
44.40132274149999
 10
54.99465569329999
 20
44.3493168183
 10
55.0126381612
 20
44.2981131616
 10
55.0329534869
 20
44.24778408579999
 10
55.0555725683
 20
44.1984070082
 10
55.0804388118
 20
44.15011107149999
 10
55.10749096439999
 20
44.10301359239999
 10
55.13667340529999
 20
44.0572081683
 10
55.1679184636
 20
44.0127975749
 10
55.2011740617
 20
43.969854527
 10
55.2363897953
 20
43.9284488246
 10
55.2734818565
 20
43.8886844142
 10
55.31236779140001
 20
43.8506520875
 10
55.35296280569999
 20
43.81443579839999
 10
55.3952030227
 20
43.7800955803
 10
55.43891731489999
 20
43.7477666555
 10
55.4839319436
 20
43.7175572962
 10
55.530128209
 20
43.68951900289999
 10
55.5774018013
 20
43.6636871439
 10
55.6255112482
 20
43.6401555231
 10
55.6741845423
 20
43.6189967039
 10
55.7233627131
 20
43.6001702168
 10
55.7729401581
 20
43.5836578574
 10
55.82280665109999
 20
43.56944002979999
 10
55.87282750399999
 20
43.55749852419999
 10
55.92299174789999
 20
43.54778515279999
 10
55.9732837762
 20
43.5402649663
 10
56.02361437859999
 20
43.53491987549999
 10
56.07392987549999
 20
43.53172759239999
 10
56.124124293
 20
43.5306688251
  0
LINE
  5
162F
330
22D
100
AcDbEntity
  8
0
  6
Continuous
 62
     7
100
AcDbLine
 10
54.9375102389
 20
44.65826158859999
 30
0.0
 11
54.9372846952
 21
44.6699000747
 31
0.0
  0
LINE
  5
1630
330
22D
100
AcDbEntity
  8
0
  6
Continuous
 62
     7
100
AcDbLine
 10
56.1241237791
 20
43.4869060839
 30
0.0
 11
56.1241238072
 21
43.5197742213
 31
0.0
  0
LINE
  5
1632
330
22D
100
AcDbEntity
  8
0
  6
Continuous
 62
     7
100
AcDbLine
 10
56.124124293
 20
26.6727489921
 30
0.0
 11
56.124124293
 21
25.8384651481
 31
0.0
  0
LINE
  5
1634
330
22D
100
AcDbEntity
  8
DEFAULT_1
  6
CENTER
 62
     7
100
AcDbLine
 10
56.124124293
 20
22.6467984814
 30
0.0
 11
56.124124293
 21
25.8384651481
 31
0.0
  0
LINE
  5
1635
330
22D
100
AcDbEntity
  8
DEFAULT_1
  6
CENTER
 62
     7
100
AcDbLine
 10
56.1241238072
 20
43.5197742213
 30
0.0
 11
56.124124293
 21
43.5306688251
 31
0.0
  0
LINE
  5
1637
330
22D
100
AcDbEntity
  8
DEFAULT_1
  6
CENTER
 62
     7
100
AcDbLine
 10
56.124124293
 20
26.6727489921
 30
0.0
 11
56.12412343367665
 21
54.78871992322815
 31
0.0
  0
LWPOLYLINE
  5
1639
330
22D
100
AcDbEntity
  8
0
  6
Continuous
 62
     7
100
AcDbPolyline
 90
       73
 70
     0
 43
0.0
 10
54.936624293
 20
44.6589928088
 10
54.9377582908
 20
44.7106426967
 10
54.94114308899999
 20
44.7620964143
 10
54.9467851194
 20
44.81340263109999
 10
54.9546650863
 20
44.86441533909999
 10
54.9647743594
 20
44.91503645609999
 10
54.9770873743
 20
44.9651708744
 10
54.9915869524
 20
45.01472163439999
 10
55.0082393058
 20
45.06359620979999
 10
55.0270188384
 20
45.1116995015
 10
55.04788379589999
 20
45.1589422689
 10
55.07080035939999
 20
45.20523199729999
 10
55.09571912600001
 20
45.2504834108
 10
55.1225983115
 20
45.29460728300001
 10
55.15138124039999
 20
45.3375229521
 10
55.18201848109999
 20
45.37914515879999
 10
55.2144465168
 20
45.4193984693
 10
55.24860864479999
 20
45.45820224039999
 10
55.2844349903
 20
45.4954868402
 10
55.3218620112
 20
45.5311768556
 10
55.36081400649999
 20
45.56520898649999
 10
55.401221078
 20
45.59751362359999
 10
55.44300227479999
 20
45.6280342804
 10
55.48608187479999
 20
45.65670768159999
 10
55.530374293
 20
45.6834845837
 10
55.5757985596
 20
45.7083085268
 10
55.6222651072
 20
45.7311378859
 10
55.6696883343
 20
45.7519234459
 10
55.7179753728
 20
45.77063151679999
 10
55.7670366411
 20
45.78722050289999
 10
55.8167766769
 20
45.8016649058
 10
55.86710260060001
 20
45.8139310659
 10
55.91791708199999
 20
45.82400187020001
 10
55.96912465029999
 20
45.8318518514
 10
56.0206268485
 20
45.8374724122
 10
56.07232634079999
 20
45.8408464714
 10
56.124124293
 20
45.84197401279999
 10
56.1759222451
 20
45.8408464714
 10
56.2276217375
 20
45.8374724122
 10
56.27912393569999
 20
45.8318518514
 10
56.33033150399999
 20
45.82400187020001
 10
56.38114598539999
 20
45.8139310659
 10
56.43147190899999
 20
45.8016649058
 10
56.48121194479999
 20
45.78722050289999
 10
56.53027321319999
 20
45.77063151679999
 10
56.5785602516
 20
45.7519234459
 10
56.6259834788
 20
45.7311378859
 10
56.6724500264
 20
45.7083085268
 10
56.717874293
 20
45.6834845837
 10
56.76216671119999
 20
45.65670768159999
 10
56.80524631109999
 20
45.6280342804
 10
56.8470275079
 20
45.59751362359999
 10
56.8874345795
 20
45.56520898649999
 10
56.9263865747
 20
45.5311768556
 10
56.9638135956
 20
45.4954868402
 10
56.99963994109999
 20
45.45820224039999
 10
57.0338020692
 20
45.4193984693
 10
57.0662301048
 20
45.37914515879999
 10
57.0968673456
 20
45.3375229521
 10
57.1256502744
 20
45.29460728300001
 10
57.15252945999999
 20
45.2504834108
 10
57.1774482265
 20
45.20523199729999
 10
57.2003647901
 20
45.1589422689
 10
57.2212297475
 20
45.1116995015
 10
57.2400092802
 20
45.06359620979999
 10
57.25666163359999
 20
45.01472163439999
 10
57.27116121169999
 20
44.9651708744
 10
57.2834742266
 20
44.91503645609999
 10
57.2935834997
 20
44.86441533909999
 10
57.30146346659999
 20
44.81340263109999
 10
57.30710549699999
 20
44.7620964143
 10
57.3104902951
 20
44.7106426967
 10
57.311624293
 20
44.6589928088
  0
LWPOLYLINE
  5
163A
330
22D
100
AcDbEntity
  8
0
  6
Continuous
 62
     7
100
AcDbPolyline
 90
       41
 70
     0
 43
0.0
 10
53.8565575763
 20
46.7134651481
 10
54.2597817591
 20
44.4343846659
 10
54.2720985913
 20
44.36574247649999
 10
54.284307994
 20
44.3003473576
 10
54.2976619234
 20
44.2367576219
 10
54.31339963
 20
44.17396917529999
 10
54.3316201621
 20
44.11103567869999
 10
54.35295332729999
 20
44.0461524677
 10
54.37704609859999
 20
43.98089042339999
 10
54.4038278167
 20
43.91610115029999
 10
54.4330811866
 20
43.8521378137
 10
54.4645228858
 20
43.7897443604
 10
54.4982803373
 20
43.72860005129999
 10
54.53443743729999
 20
43.66854435109999
 10
54.57284144409999
 20
43.6098405956
 10
54.6133722626
 20
43.55269782819999
 10
54.65601584899999
 20
43.4971183909
 10
54.70074326249999
 20
43.44314584350001
 10
54.7474790997
 20
43.3908655756
 10
54.7961698338
 20
43.3403478659
 10
54.8467208945
 20
43.2916816062
 10
54.89903757869999
 20
43.2449657144
 10
54.9530667578
 20
43.20024039039999
 10
55.0087548183
 20
43.157558223
 10
55.06600851249999
 20
43.11698096399999
 10
55.1247443196
 20
43.07857079549999
 10
55.1848794459
 20
43.0423790158
 10
55.2463301406
 20
43.0084660596
 10
55.3090157534
 20
42.9768666998
 10
55.3728648381
 20
42.9476198562
 10
55.4377660325
 20
42.92077352349999
 10
55.50360498859999
 20
42.8963832819
 10
55.57031921770001
 20
42.8744652939
 10
55.63785415989999
 20
42.85504289
 10
55.7060716814
 20
42.8381501459
 10
55.7748353094
 20
42.8238264491
 10
55.8440855006
 20
42.81207919469999
 10
55.9137592345
 20
42.80292594499999
 10
55.98373046899999
 20
42.7963755848
 10
56.05383377399999
 20
42.7924446955
 10
56.124124293
 20
42.79112774989999
  0
LINE
  5
163B
330
22D
100
AcDbEntity
  8
0
  6
Continuous
 62
     7
100
AcDbLine
 10
57.31096115199999
 20
44.66990018069999
 30
0.0
 11
57.3107309941
 21
44.65807234189999
 31
0.0
  0
LWPOLYLINE
  5
163C
330
22D
100
AcDbEntity
  8
0
  6
Continuous
 62
     7
100
AcDbPolyline
 90
       73
 70
     0
 43
0.0
 10
57.311385215
 20
44.6589980579
 10
57.3104902951
 20
44.6182373889
 10
57.30710549699999
 20
44.5667836712
 10
57.30146346659999
 20
44.5154774544
 10
57.2935834997
 20
44.4644647464
 10
57.2834742266
 20
44.4138436294
 10
57.27116121169999
 20
44.36370921109999
 10
57.25666163359999
 20
44.3141584512
 10
57.2400092802
 20
44.2652838757
 10
57.2212297475
 20
44.21718058409999
 10
57.2003647901
 20
44.16993781659999
 10
57.1774482265
 20
44.1236480883
 10
57.15252945999999
 20
44.0783966747
 10
57.1256502744
 20
44.03427280249999
 10
57.0968673456
 20
43.9913571334
 10
57.0662301048
 20
43.9497349267
 10
57.0338020692
 20
43.90948161629999
 10
56.99963994109999
 20
43.87067784510001
 10
56.9638135956
 20
43.83339324529999
 10
56.9263865747
 20
43.79770322989999
 10
56.8874345795
 20
43.7636710991
 10
56.8470275079
 20
43.73136646189999
 10
56.80524631109999
 20
43.7008458051
 10
56.76216671119999
 20
43.67217240399999
 10
56.717874293
 20
43.6453955018
 10
56.6724500264
 20
43.6205715587
 10
56.6259834788
 20
43.5977421996
 10
56.5785602516
 20
43.5769566396
 10
56.53027321319999
 20
43.5582485688
 10
56.48121194479999
 20
43.5416595826
 10
56.43147190899999
 20
43.5272151797
 10
56.38114598539999
 20
43.5149490196
 10
56.33033150399999
 20
43.50487821529999
 10
56.27912393569999
 20
43.4970282341
 10
56.2276217375
 20
43.49140767329999
 10
56.1759222451
 20
43.48803361409999
 10
56.124124293
 20
43.4869060727
 10
56.07232634079999
 20
43.48803361409999
 10
56.0206268485
 20
43.49140767329999
 10
55.96912465029999
 20
43.4970282341
 10
55.91791708199999
 20
43.50487821529999
 10
55.86710260060001
 20
43.5149490196
 10
55.8167766769
 20
43.5272151797
 10
55.7670366411
 20
43.5416595826
 10
55.7179753728
 20
43.5582485688
 10
55.6696883343
 20
43.5769566396
 10
55.6222651072
 20
43.5977421996
 10
55.5757985596
 20
43.6205715587
 10
55.530374293
 20
43.6453955018
 10
55.48608187479999
 20
43.67217240399999
 10
55.44300227479999
 20
43.7008458051
 10
55.401221078
 20
43.73136646189999
 10
55.36081400649999
 20
43.7636710991
 10
55.3218620112
 20
43.79770322989999
 10
55.2844349903
 20
43.83339324529999
 10
55.24860864479999
 20
43.87067784510001
 10
55.2144465168
 20
43.90948161629999
 10
55.18201848109999
 20
43.9497349267
 10
55.15138124039999
 20
43.9913571334
 10
55.1225983115
 20
44.03427280249999
 10
55.09571912600001
 20
44.0783966747
 10
55.07080035939999
 20
44.1236480883
 10
55.04788379589999
 20
44.16993781659999
 10
55.0270188384
 20
44.21718058409999
 10
55.0082393058
 20
44.2652838757
 10
54.9915869524
 20
44.3141584512
 10
54.9770873743
 20
44.36370921109999
 10
54.9647743594
 20
44.4138436294
 10
54.9546650863
 20
44.4644647464
 10
54.9467851194
 20
44.5154774544
 10
54.94114308899999
 20
44.5667836712
 10
54.9377582908
 20
44.6182373889
 10
54.936863371
 20
44.6589980579
  0
LWPOLYLINE
  5
163D
330
22D
100
AcDbEntity
  8
0
  6
Continuous
 62
     7
100
AcDbPolyline
 90
       73
 70
     0
 43
0.0
 10
57.311624293
 20
44.6589928088
 10
57.3104902951
 20
44.607342921
 10
57.30710549699999
 20
44.5558892034
 10
57.30146346659999
 20
44.5045829866
 10
57.2935834997
 20
44.4535702786
 10
57.2834742266
 20
44.4029491616
 10
57.27116121169999
 20
44.35281474329999
 10
57.25666163359999
 20
44.3032639833
 10
57.2400092802
 20
44.2543894079
 10
57.2212297475
 20
44.20628611619999
 10
57.2003647901
 20
44.15904334869999
 10
57.1774482265
 20
44.1127536204
 10
57.15252945999999
 20
44.06750220689999
 10
57.1256502744
 20
44.0233783347
 10
57.0968673456
 20
43.9804626656
 10
57.0662301048
 20
43.9388404589
 10
57.0338020692
 20
43.8985871484
 10
56.99963994109999
 20
43.8597833773
 10
56.9638135956
 20
43.8224987775
 10
56.9263865747
 20
43.78680876199999
 10
56.8874345795
 20
43.7527766312
 10
56.8470275079
 20
43.72047199399999
 10
56.80524631109999
 20
43.6899513372
 10
56.76216671119999
 20
43.6612779361
 10
56.717874293
 20
43.63450103399999
 10
56.6724500264
 20
43.60967709079999
 10
56.6259834788
 20
43.58684773180001
 10
56.5785602516
 20
43.5660621718
 10
56.53027321319999
 20
43.54735410089999
 10
56.48121194479999
 20
43.5307651148
 10
56.43147190899999
 20
43.51632071189999
 10
56.38114598539999
 20
43.5040545518
 10
56.33033150399999
 20
43.4939837475
 10
56.27912393569999
 20
43.4861337663
 10
56.2276217375
 20
43.4805132055
 10
56.1759222451
 20
43.4771391463
 10
56.124124293
 20
43.4760116049
 10
56.07232634079999
 20
43.4771391463
 10
56.0206268485
 20
43.4805132055
 10
55.96912465029999
 20
43.4861337663
 10
55.91791708199999
 20
43.4939837475
 10
55.86710260060001
 20
43.5040545518
 10
55.8167766769
 20
43.51632071189999
 10
55.7670366411
 20
43.5307651148
 10
55.7179753728
 20
43.54735410089999
 10
55.6696883343
 20
43.5660621718
 10
55.6222651072
 20
43.58684773180001
 10
55.5757985596
 20
43.60967709079999
 10
55.530374293
 20
43.63450103399999
 10
55.48608187479999
 20
43.6612779361
 10
55.44300227479999
 20
43.6899513372
 10
55.401221078
 20
43.72047199399999
 10
55.36081400649999
 20
43.7527766312
 10
55.3218620112
 20
43.78680876199999
 10
55.2844349903
 20
43.8224987775
 10
55.24860864479999
 20
43.8597833773
 10
55.2144465168
 20
43.8985871484
 10
55.18201848109999
 20
43.9388404589
 10
55.15138124039999
 20
43.9804626656
 10
55.1225983115
 20
44.0233783347
 10
55.09571912600001
 20
44.06750220689999
 10
55.07080035939999
 20
44.1127536204
 10
55.04788379589999
 20
44.15904334869999
 10
55.0270188384
 20
44.20628611619999
 10
55.0082393058
 20
44.2543894079
 10
54.9915869524
 20
44.3032639833
 10
54.9770873743
 20
44.35281474329999
 10
54.9647743594
 20
44.4029491616
 10
54.9546650863
 20
44.4535702786
 10
54.9467851194
 20
44.5045829866
 10
54.94114308899999
 20
44.5558892034
 10
54.9377582908
 20
44.607342921
 10
54.936624293
 20
44.6589928088
  0
LWPOLYLINE
  5
163E
330
22D
100
AcDbEntity
  8
0
  6
Continuous
 62
     7
100
AcDbPolyline
 90
       35
 70
     0
 43
0.0
 10
57.3107309941
 20
44.65807234189999
 10
57.30737374010001
 20
44.6039121689
 10
57.3015298764
 20
44.54995863989999
 10
57.2932230631
 20
44.49638981909999
 10
57.2824655867
 20
44.4432554221
 10
57.2692645048
 20
44.3906098448
 10
57.2536566742
 20
44.33861743589999
 10
57.2356880737
 20
44.2874237731
 10
57.21539633209999
 20
44.2371239778
 10
57.1928380842
 20
44.1878452481
 10
57.1680318049
 20
44.13962398729999
 10
57.1409875905
 20
44.09249848089999
 10
57.1117683009
 20
44.04660141859999
 10
57.08041700859999
 20
44.0020201388
 10
57.0470377423
 20
43.9589141292
 10
57.0117529535
 20
43.917434979
 10
56.9746225424
 20
43.8776417855
 10
56.9357284487
 20
43.8396148171
 10
56.89514579529999
 20
43.8034216376
 10
56.85292511260001
 20
43.76910726729999
 10
56.80923457310001
 20
43.73680364720001
 10
56.7642367766
 20
43.70661147009999
 10
56.7180559358
 20
43.67858706789999
 10
56.6707991213
 20
43.6527677127
 10
56.6227064294
 20
43.6292465141
 10
56.5740510785
 20
43.6080966896
 10
56.5248869892
 20
43.589275921
 10
56.47531278899999
 20
43.5727645306
 10
56.42544459189999
 20
43.5585460696
 10
56.3754215663
 20
43.5466039889
 10
56.32525329619999
 20
43.5368899185
 10
56.27495329600001
 20
43.5293688787
 10
56.22461753039999
 20
43.5240238524
 10
56.1743066178
 20
43.52083247569999
 10
56.124124293
 20
43.5197742208
  0
LINE
  5
163F
330
22D
100
AcDbEntity
  8
0
  6
Continuous
 62
     7
100
AcDbLine
 10
58.3916910264
 20
46.7134651481
 30
0.0
 11
57.9909080843
 21
44.44846510749999
 31
0.0
  0
LWPOLYLINE
  5
1640
330
22D
100
AcDbEntity
  8
0
  6
Continuous
 62
     7
100
AcDbPolyline
 90
       39
 70
     0
 43
0.0
 10
57.9909080843
 20
44.44846510749999
 10
57.9667253011
 20
44.3144101773
 10
57.9537402703
 20
44.25052128229999
 10
57.93837029529999
 20
44.1872870052
 10
57.9205252713
 20
44.12384873699999
 10
57.8995619774
 20
44.05852381259999
 10
57.87581349779999
 20
43.99280008469999
 10
57.8493198069
 20
43.92746682939999
 10
57.8203170138
 20
43.8629371117
 10
57.7890997366
 20
43.8000025031
 10
57.7555324231
 20
43.73831675939999
 10
57.7195251894
 20
43.6777052934
 10
57.68123564879999
 20
43.6184447048
 10
57.6407864316
 20
43.56075259479999
 10
57.5981926037
 20
43.5046313712
 10
57.5534853049
 20
43.4501275471
 10
57.50673894470001
 20
43.3973264088
 10
57.4580066679
 20
43.3462988867
 10
57.4073834096
 20
43.29713456199999
 10
57.35496252689999
 20
43.2499316092
 10
57.3008018983
 20
43.2047351794
 10
57.24496052350001
 20
43.16160347319999
 10
57.1875283968
 20
43.12059551599999
 10
57.12858619609999
 20
43.08177150779999
 10
57.06822087079999
 20
43.0451861247
 10
57.00651945619999
 20
43.0109025012
 10
56.9435623737
 20
42.9789554611
 10
56.8794209817
 20
42.9493844331
 10
56.8142095051
 20
42.9222387371
 10
56.7480447016
 20
42.8975752407
 10
56.6809903309
 20
42.8754107307
 10
56.6131028059
 20
42.855769549
 10
56.5445209252
 20
42.83868589879999
 10
56.47538140179999
 20
42.82419938039999
 10
56.40574690520001
 20
42.8123181452
 10
56.335683522
 20
42.8030606172
 10
56.2653177138
 20
42.7964355796
 10
56.1948165321
 20
42.7924598228
 10
56.124124293
 20
42.79112774989999
  0
LWPOLYLINE
  5
1641
330
22D
100
AcDbEntity
  8
0
  6
Continuous
 62
     7
100
AcDbPolyline
 90
       35
 70
     0
 43
0.0
 10
56.124124293
 20
43.5306688251
 10
56.1745388809
 20
43.5317369038
 10
56.2250916872
 20
43.53495873209999
 10
56.2756809509
 20
43.54035667859999
 10
56.3262343005
 20
43.54795315439999
 10
56.3766477399
 20
43.5577641632
 10
56.4268990842
 20
43.56982234479999
 10
56.4769703296
 20
43.58417244169999
 10
56.52671560569999
 20
43.60082630469999
 10
56.576011381
 20
43.61979406069999
 10
56.6247564783
 20
43.641089673
 10
56.6728920551
 20
43.66474779579999
 10
56.7201488745
 20
43.6906905693
 10
56.7662868912
 20
43.71881802909999
 10
56.81120900979999
 20
43.7490926588
 10
56.8547980708
 20
43.7814574198
 10
56.8968992641
 20
43.81581263899999
 10
56.9373575681
 20
43.852034005
 10
56.9761105358
 20
43.8900626327
 10
57.0130796237
 20
43.9298214454
 10
57.0481796408
 20
43.97121800559999
 10
57.0813279936
 20
44.0141510151
 10
57.11246870850001
 20
44.05854410999999
 10
57.1415438147
 20
44.1043143031
 10
57.1684932724
 20
44.1513687045
 10
57.1932663769
 20
44.1996230947
 10
57.2157985095
 20
44.2489549284
 10
57.2360327067
 20
44.29923440729999
 10
57.2539380478
 20
44.35037856060001
 10
57.26948694109999
 20
44.4023142367
 10
57.2826296016
 20
44.45487607229999
 10
57.2933298751
 20
44.50788391209999
 10
57.3015875124
 20
44.5612925085
 10
57.3073944868
 20
44.6150516392
 10
57.3101188846
 20
44.6590859483
  0
LWPOLYLINE
  5
1642
330
22D
100
AcDbEntity
  8
0
  6
Continuous
 62
     7
100
AcDbPolyline
 90
       35
 70
     0
 43
0.0
 10
56.124124293
 20
43.5197742208
 10
56.07371443479999
 20
43.5208420984
 10
56.0231754208
 20
43.52406254539999
 10
55.97261104859999
 20
43.5294564887
 10
55.9220868746
 20
43.53704602199999
 10
55.8717001703
 20
43.5468479634
 10
55.82147514369999
 20
43.5588946462
 10
55.7714311715
 20
43.57323030769999
 10
55.7217093074
 20
43.58986823619999
 10
55.6724268868
 20
43.6088214972
 10
55.62369181560001
 20
43.63010232819999
 10
55.57556775430001
 20
43.6537432502
 10
55.5283221879
 20
43.67966701140001
 10
55.4821964352
 20
43.70777269709999
 10
55.4372832858
 20
43.7380253788
 10
55.3936954425
 20
43.77037186869999
 10
55.3515915326
 20
43.8047106915
 10
55.3111377044
 20
43.84090785509999
 10
55.2723691098
 20
43.8789303214
 10
55.2353436143
 20
43.9187297639
 10
55.2001575177
 20
43.96021348489999
 10
55.1668779501
 20
44.003313818
 10
55.1356251725
 20
44.0478806546
 10
55.106503595
 20
44.09375255199999
 10
55.0795546113
 20
44.1408434625
 10
55.05484145189999
 20
44.18901831369999
 10
55.0323689868
 20
44.23824857479999
 10
55.01214972279999
 20
44.2885150745
 10
54.9942502695
 20
44.3396689792
 10
54.978712205
 20
44.3915990201
 10
54.965579558
 20
44.4441553737
 10
54.9548876889
 20
44.4971627599
 10
54.9466383417
 20
44.55057041289999
 10
54.940839958
 20
44.6043229562
 10
54.9375102389
 20
44.65826158859999
  0
LINE
  5
1643
330
22D
100
AcDbEntity
  8
0
  6
Continuous
 62
     7
100
AcDbLine
 10
23.1241242933
 20
46.7134651481
 30
0.0
 11
89.1241242927
 21
46.7134651481
 31
0.0
  0
LINE
  5
1644
330
22D
100
AcDbEntity
  8
0
  6
Continuous
 62
     7
100
AcDbLine
 10
23.1595635654
 20
47.1185378857
 30
0.0
 11
23.4399146842
 21
47.1215650605
 31
0.0
  0
LINE
  5
1645
330
22D
100
AcDbEntity
  8
0
  6
Continuous
 62
     7
100
AcDbLine
 10
23.4399146842
 20
47.1215650605
 30
0.0
 11
23.8437936936
 21
47.12532306439999
 31
0.0
  0
LWPOLYLINE
  5
1646
330
22D
100
AcDbEntity
  8
0
  6
Continuous
 62
     7
100
AcDbPolyline
 90
       41
 70
     0
 43
0.0
 10
25.4649683982
 20
49.2133841463
 10
25.38862384110001
 20
49.2127529841
 10
25.3028761389
 20
49.2090086612
 10
25.2173075571
 20
49.20206026069999
 10
25.1320568516
 20
49.1919192152
 10
25.0472624982
 20
49.1785997785
 10
24.9630263544
 20
49.162114578
 10
24.8794484537
 20
49.1424865851
 10
24.7966637959
 20
49.1197497671
 10
24.7148066791
 20
49.0939408384
 10
24.6339761436
 20
49.0650870766
 10
24.5542684123
 20
49.0332235231
 10
24.4758111864
 20
48.9984056041
 10
24.3987309962
 20
48.96069152689999
 10
24.3231210587
 20
48.92012414979999
 10
24.2490753532
 20
48.876750996
 10
24.1767035397
 20
48.8306417641
 10
24.1061113597
 20
48.78186684380001
 10
24.0373942549
 20
48.7304899273
 10
23.9706514419
 20
48.6765796939
 10
23.9059650903
 20
48.6202067671
 10
23.8434112788
 20
48.56143988
 10
23.7830932586
 20
48.50037251949999
 10
23.725112003
 20
48.4371005012
 10
23.6695362815
 20
48.3716996084
 10
23.6164299089
 20
48.3042503041
 10
23.5658794379
 20
48.2348616814
 10
23.5179691498
 20
48.1636445474
 10
23.4727584738
 20
48.0906825099
 10
23.430298303
 20
48.01606478930001
 10
23.3906561396
 20
47.93991309479999
 10
23.3538970101
 20
47.86235050770001
 10
23.3200683521
 20
47.7834680943
 10
23.2892089499
 20
47.70336066529999
 10
23.2613655828
 20
47.62215940899999
 10
23.2365822959
 20
47.53999646919999
 10
23.2148916424
 20
47.456969282
 10
23.1963210786
 20
47.37317642999999
 10
23.1808960013
 20
47.28875464479999
 10
23.168637716
 20
47.20383723749999
 10
23.1595635654
 20
47.1185378857
  0
LINE
  5
1647
330
22D
100
AcDbEntity
  8
0
  6
Continuous
 62
     7
100
AcDbLine
 10
23.8437936936
 20
47.12532306439999
 30
0.0
 11
24.4066118318
 21
47.12998312699999
 31
0.0
  0
LINE
  5
1648
330
22D
100
AcDbEntity
  8
0
  6
Continuous
 62
     7
100
AcDbLine
 10
24.4066118318
 20
47.12998312699999
 30
0.0
 11
25.1279787547
 21
47.1353828721
 31
0.0
  0
LINE
  5
1649
330
22D
100
AcDbEntity
  8
0
  6
Continuous
 62
     7
100
AcDbLine
 10
25.1279787547
 20
47.1353828721
 30
0.0
 11
26.1833575398
 21
47.1425705516
 31
0.0
  0
LINE
  5
164A
330
22D
100
AcDbEntity
  8
0
  6
Continuous
 62
     7
100
AcDbLine
 10
86.7832801878
 20
49.2133841463
 30
0.0
 11
86.57865710839999
 21
49.2119580845
 31
0.0
  0
LINE
  5
164B
330
22D
100
AcDbEntity
  8
0
  6
Continuous
 62
     7
100
AcDbLine
 10
26.1833575398
 20
47.1425705516
 30
0.0
 11
27.2966699182
 21
47.14952392499999
 31
0.0
  0
LINE
  5
164C
330
22D
100
AcDbEntity
  8
0
  6
Continuous
 62
     7
100
AcDbLine
 10
27.2966699182
 20
47.14952392499999
 30
0.0
 11
28.3980650829
 21
47.15591962709999
 31
0.0
  0
LINE
  5
164D
330
22D
100
AcDbEntity
  8
0
  6
Continuous
 62
     7
100
AcDbLine
 10
28.3980650829
 20
47.15591962709999
 30
0.0
 11
29.9707116845
 21
47.1643451417
 31
0.0
  0
LINE
  5
164E
330
22D
100
AcDbEntity
  8
0
  6
Continuous
 62
     7
100
AcDbLine
 10
29.9707116845
 20
47.1643451417
 30
0.0
 11
31.2012252444
 21
47.17036554829999
 31
0.0
  0
LINE
  5
164F
330
22D
100
AcDbEntity
  8
0
  6
Continuous
 62
     7
100
AcDbLine
 10
86.57865710839999
 20
49.2119580845
 30
0.0
 11
86.29420307450001
 21
49.21052284489999
 31
0.0
  0
LINE
  5
1650
330
22D
100
AcDbEntity
  8
0
  6
Continuous
 62
     7
100
AcDbLine
 10
31.2012252444
 20
47.17036554829999
 30
0.0
 11
32.6058295745
 21
47.17663396319999
 31
0.0
  0
LINE
  5
1651
330
22D
100
AcDbEntity
  8
0
  6
Continuous
 62
     7
100
AcDbLine
 10
32.6058295745
 20
47.17663396319999
 30
0.0
 11
34.2145020908
 21
47.1831217137
 31
0.0
  0
LINE
  5
1652
330
22D
100
AcDbEntity
  8
0
  6
Continuous
 62
     7
100
AcDbLine
 10
34.2145020908
 20
47.1831217137
 30
0.0
 11
35.5781603599
 21
47.1881012457
 31
0.0
  0
LINE
  5
1653
330
22D
100
AcDbEntity
  8
0
  6
Continuous
 62
     7
100
AcDbLine
 10
35.5781603599
 20
47.1881012457
 30
0.0
 11
37.0942152414
 21
47.1931140754
 31
0.0
  0
LINE
  5
1654
330
22D
100
AcDbEntity
  8
0
  6
Continuous
 62
     7
100
AcDbLine
 10
86.29420307450001
 20
49.21052284489999
 30
0.0
 11
86.01062283790001
 21
49.2095583833
 31
0.0
  0
LINE
  5
1655
330
22D
100
AcDbEntity
  8
0
  6
Continuous
 62
     7
100
AcDbLine
 10
37.0942152414
 20
47.1931140754
 30
0.0
 11
38.7863200369
 21
47.198080875
 31
0.0
  0
LINE
  5
1656
330
22D
100
AcDbEntity
  8
0
  6
Continuous
 62
     7
100
AcDbLine
 10
38.7863200369
 20
47.198080875
 30
0.0
 11
40.01788272819999
 21
47.2012872223
 31
0.0
  0
LINE
  5
1657
330
22D
100
AcDbEntity
  8
0
  6
Continuous
 62
     7
100
AcDbLine
 10
40.01788272819999
 20
47.2012872223
 30
0.0
 11
42.00250421289999
 21
47.2057316386
 31
0.0
  0
LINE
  5
1658
330
22D
100
AcDbEntity
  8
0
  6
Continuous
 62
     7
100
AcDbLine
 10
42.00250421289999
 20
47.2057316386
 30
0.0
 11
43.4138445406
 21
47.2083498614
 31
0.0
  0
LINE
  5
1659
330
22D
100
AcDbEntity
  8
0
  6
Continuous
 62
     7
100
AcDbLine
 10
43.4138445406
 20
47.2083498614
 30
0.0
 11
44.8940879922
 21
47.21061333509999
 31
0.0
  0
LINE
  5
165A
330
22D
100
AcDbEntity
  8
0
  6
Continuous
 62
     7
100
AcDbLine
 10
86.01062283790001
 20
49.2095583833
 30
0.0
 11
85.66959051800001
 21
49.2088926906
 31
0.0
  0
LINE
  5
165B
330
22D
100
AcDbEntity
  8
0
  6
Continuous
 62
     7
100
AcDbLine
 10
44.8940879922
 20
47.21061333509999
 30
0.0
 11
46.4481449428
 21
47.21250040100001
 31
0.0
  0
LINE
  5
165C
330
22D
100
AcDbEntity
  8
0
  6
Continuous
 62
     7
100
AcDbLine
 10
30.07858912090001
 20
49.2120933167
 30
0.0
 11
27.7860207006
 21
49.2090600063
 31
0.0
  0
LINE
  5
165D
330
22D
100
AcDbEntity
  8
0
  6
Continuous
 62
     7
100
AcDbLine
 10
46.4481449428
 20
47.21250040100001
 30
0.0
 11
49.0658533946
 21
47.21471307779999
 31
0.0
  0
LINE
  5
165E
330
22D
100
AcDbEntity
  8
0
  6
Continuous
 62
     7
100
AcDbLine
 10
31.3174432065
 20
49.21313186439999
 30
0.0
 11
30.07858912090001
 21
49.2120933167
 31
0.0
  0
LINE
  5
165F
330
22D
100
AcDbEntity
  8
0
  6
Continuous
 62
     7
100
AcDbLine
 10
49.0658533946
 20
47.21471307779999
 30
0.0
 11
51.02551668810001
 21
47.2157198043
 31
0.0
  0
LINE
  5
1660
330
22D
100
AcDbEntity
  8
0
  6
Continuous
 62
     7
100
AcDbLine
 10
85.66959051800001
 20
49.2088926906
 30
0.0
 11
85.27008615799999
 21
49.2086082787
 31
0.0
  0
LINE
  5
1661
330
22D
100
AcDbEntity
  8
0
  6
Continuous
 62
     7
100
AcDbLine
 10
27.7860207006
 20
49.2090600063
 30
0.0
 11
27.12488414840001
 21
49.2086059401
 31
0.0
  0
LINE
  5
1662
330
22D
100
AcDbEntity
  8
0
  6
Continuous
 62
     7
100
AcDbLine
 10
51.02551668810001
 20
47.2157198043
 30
0.0
 11
53.059605498
 21
47.2163003426
 31
0.0
  0
LINE
  5
1663
330
22D
100
AcDbEntity
  8
0
  6
Continuous
 62
     7
100
AcDbLine
 10
43.9881240713
 20
49.2134437653
 30
0.0
 11
41.5690608111
 21
49.2127833651
 31
0.0
  0
LINE
  5
1664
330
22D
100
AcDbEntity
  8
0
  6
Continuous
 62
     7
100
AcDbLine
 10
53.059605498
 20
47.2163003426
 30
0.0
 11
55.1031979229
 21
47.21654122100001
 31
0.0
  0
LWPOLYLINE
  5
1665
330
22D
100
AcDbEntity
  8
0
  6
Continuous
 62
     7
100
AcDbPolyline
 90
        4
 70
     0
 43
0.0
 10
78.7087839241
 20
49.21368558720001
 10
78.29511597879999
 20
49.21367595479999
 10
77.86872567979999
 20
49.2136434828
 10
72.3948558888
 20
49.2126353213
  0
LINE
  5
1666
330
22D
100
AcDbEntity
  8
0
  6
Continuous
 62
     7
100
AcDbLine
 10
47.223343459
 20
49.2140150118
 30
0.0
 11
43.9881240713
 21
49.2134437653
 31
0.0
  0
LINE
  5
1667
330
22D
100
AcDbEntity
  8
0
  6
Continuous
 62
     7
100
AcDbLine
 10
33.1383287768
 20
49.2136688265
 30
0.0
 11
31.3174432065
 21
49.21313186439999
 31
0.0
  0
LINE
  5
1668
330
22D
100
AcDbEntity
  8
0
  6
Continuous
 62
     7
100
AcDbLine
 10
41.5690608111
 20
49.2127833651
 30
0.0
 11
39.3013450987
 21
49.2127101067
 31
0.0
  0
LINE
  5
1669
330
22D
100
AcDbEntity
  8
0
  6
Continuous
 62
     7
100
AcDbLine
 10
34.3795228732
 20
49.2136434828
 30
0.0
 11
33.1383287768
 21
49.2136688265
 31
0.0
  0
LINE
  5
166A
330
22D
100
AcDbEntity
  8
0
  6
Continuous
 62
     7
100
AcDbLine
 10
50.7181345393
 20
49.2139820696
 30
0.0
 11
47.223343459
 21
49.2140150118
 31
0.0
  0
LINE
  5
166B
330
22D
100
AcDbEntity
  8
0
  6
Continuous
 62
     7
100
AcDbLine
 10
56.124124293
 20
49.2134627605
 30
0.0
 11
49.99586556979999
 21
49.2140311739
 31
0.0
  0
LINE
  5
166C
330
22D
100
AcDbEntity
  8
0
  6
Continuous
 62
     7
100
AcDbLine
 10
72.3948558888
 20
49.2126353213
 30
0.0
 11
71.2607920537
 21
49.2126833697
 31
0.0
  0
LINE
  5
166D
330
22D
100
AcDbEntity
  8
0
  6
Continuous
 62
     7
100
AcDbLine
 10
67.6326224205
 20
49.213603755
 30
0.0
 11
56.124124293
 21
49.2134627605
 31
0.0
  0
LINE
  5
166E
330
22D
100
AcDbEntity
  8
0
  6
Continuous
 62
     7
100
AcDbLine
 10
79.498551065
 20
49.21362182399999
 30
0.0
 11
78.7087839241
 21
49.21368558720001
 31
0.0
  0
LINE
  5
166F
330
22D
100
AcDbEntity
  8
0
  6
Continuous
 62
     7
100
AcDbLine
 10
61.22273189779999
 20
47.2157198043
 30
0.0
 11
55.1031979229
 21
47.21654122100001
 31
0.0
  0
LINE
  5
1670
330
22D
100
AcDbEntity
  8
0
  6
Continuous
 62
     7
100
AcDbLine
 10
39.8533927011
 20
49.2126353213
 30
0.0
 11
34.3795228732
 21
49.2136434828
 31
0.0
  0
LINE
  5
1671
330
22D
100
AcDbEntity
  8
0
  6
Continuous
 62
     7
100
AcDbLine
 10
71.2607920537
 20
49.2126833697
 30
0.0
 11
67.6326224205
 21
49.213603755
 31
0.0
  0
LINE
  5
1672
330
22D
100
AcDbEntity
  8
0
  6
Continuous
 62
     7
100
AcDbLine
 10
80.23877051520001
 20
49.2134358855
 30
0.0
 11
79.498551065
 21
49.21362182399999
 31
0.0
  0
LINE
  5
1673
330
22D
100
AcDbEntity
  8
0
  6
Continuous
 62
     7
100
AcDbLine
 10
63.1823951913
 20
47.21471307779999
 30
0.0
 11
61.22273189779999
 21
47.2157198043
 31
0.0
  0
LINE
  5
1674
330
22D
100
AcDbEntity
  8
0
  6
Continuous
 62
     7
100
AcDbLine
 10
27.12488414840001
 20
49.2086059401
 30
0.0
 11
26.7052322816
 21
49.208753624
 31
0.0
  0
LINE
  5
1675
330
22D
100
AcDbEntity
  8
0
  6
Continuous
 62
     7
100
AcDbLine
 10
85.27008615799999
 20
49.2086082787
 30
0.0
 11
84.80813476020001
 21
49.20874648689999
 31
0.0
  0
LINE
  5
1676
330
22D
100
AcDbEntity
  8
0
  6
Continuous
 62
     7
100
AcDbLine
 10
81.57479624350001
 20
49.2126761254
 30
0.0
 11
80.23877051520001
 21
49.2134358855
 31
0.0
  0
LINE
  5
1677
330
22D
100
AcDbEntity
  8
0
  6
Continuous
 62
     7
100
AcDbLine
 10
65.8001036432
 20
47.21250040100001
 30
0.0
 11
63.1823951913
 21
47.21471307779999
 31
0.0
  0
LINE
  5
1678
330
22D
100
AcDbEntity
  8
0
  6
Continuous
 62
     7
100
AcDbLine
 10
82.4485601109
 20
49.2117710846
 30
0.0
 11
81.57479624350001
 21
49.2126761254
 31
0.0
  0
LWPOLYLINE
  5
1679
330
22D
100
AcDbEntity
  8
0
  6
Continuous
 62
     7
100
AcDbPolyline
 90
        3
 70
     0
 43
0.0
 10
84.80813476020001
 20
49.20874648689999
 10
84.08319759079999
 20
49.2095202458
 10
83.8803121537
 20
49.20979701850001
  0
LWPOLYLINE
  5
167A
330
22D
100
AcDbEntity
  8
0
  6
Continuous
 62
     7
100
AcDbPolyline
 90
        3
 70
     0
 43
0.0
 10
83.2131756266
 20
49.2107551542
 10
82.9697847287
 20
49.2110966408
 10
82.4485601109
 20
49.2117710846
  0
LWPOLYLINE
  5
167B
330
22D
100
AcDbEntity
  8
0
  6
Continuous
 62
     7
100
AcDbPolyline
 90
        3
 70
     0
 43
0.0
 10
68.10320507260001
 20
47.2095272955
 10
67.3541605937
 20
47.21061333509999
 10
65.8001036432
 20
47.21250040100001
  0
LINE
  5
167C
330
22D
100
AcDbEntity
  8
0
  6
Continuous
 62
     7
100
AcDbLine
 10
83.8803121537
 20
49.20979701850001
 30
0.0
 11
83.2131756266
 21
49.2107551542
 31
0.0
  0
LINE
  5
167D
330
22D
100
AcDbEntity
  8
0
  6
Continuous
 62
     7
100
AcDbLine
 10
69.5488277969
 20
47.2070807646
 30
0.0
 11
68.10320507260001
 21
47.2095272955
 31
0.0
  0
LINE
  5
167E
330
22D
100
AcDbEntity
  8
0
  6
Continuous
 62
     7
100
AcDbLine
 10
26.7052322816
 20
49.208753624
 30
0.0
 11
26.3448760602
 21
49.2092965795
 31
0.0
  0
LINE
  5
167F
330
22D
100
AcDbEntity
  8
0
  6
Continuous
 62
     7
100
AcDbLine
 10
71.58588133079999
 20
47.20282793089999
 30
0.0
 11
69.5488277969
 21
47.2070807646
 31
0.0
  0
LINE
  5
1680
330
22D
100
AcDbEntity
  8
0
  6
Continuous
 62
     7
100
AcDbLine
 10
73.46192854899999
 20
47.198080875
 30
0.0
 11
71.58588133079999
 21
47.20282793089999
 31
0.0
  0
LINE
  5
1681
330
22D
100
AcDbEntity
  8
0
  6
Continuous
 62
     7
100
AcDbLine
 10
75.6775748533
 20
47.1914439091
 30
0.0
 11
73.46192854899999
 21
47.198080875
 31
0.0
  0
LINE
  5
1682
330
22D
100
AcDbEntity
  8
0
  6
Continuous
 62
     7
100
AcDbLine
 10
26.3448760602
 20
49.2092965795
 30
0.0
 11
26.042168408
 21
49.2101779376
 31
0.0
  0
LINE
  5
1683
330
22D
100
AcDbEntity
  8
0
  6
Continuous
 62
     7
100
AcDbLine
 10
77.14068886779999
 20
47.18643438339999
 30
0.0
 11
75.6775748533
 21
47.1914439091
 31
0.0
  0
LINE
  5
1684
330
22D
100
AcDbEntity
  8
0
  6
Continuous
 62
     7
100
AcDbLine
 10
78.03374649520001
 20
47.1831217137
 30
0.0
 11
77.14068886779999
 21
47.18643438339999
 31
0.0
  0
LINE
  5
1685
330
22D
100
AcDbEntity
  8
0
  6
Continuous
 62
     7
100
AcDbLine
 10
79.2607509262
 20
47.17823610619999
 30
0.0
 11
78.03374649520001
 21
47.1831217137
 31
0.0
  0
LINE
  5
1686
330
22D
100
AcDbEntity
  8
0
  6
Continuous
 62
     7
100
AcDbLine
 10
80.36837950659998
 20
47.17347006529999
 30
0.0
 11
79.2607509262
 21
47.17823610619999
 31
0.0
  0
LINE
  5
1687
330
22D
100
AcDbEntity
  8
0
  6
Continuous
 62
     7
100
AcDbLine
 10
81.0470233416
 20
47.17036554829999
 30
0.0
 11
80.36837950659998
 21
47.17347006529999
 31
0.0
  0
LINE
  5
1688
330
22D
100
AcDbEntity
  8
0
  6
Continuous
 62
     7
100
AcDbLine
 10
81.98472642810001
 20
47.1658239154
 30
0.0
 11
81.0470233416
 21
47.17036554829999
 31
0.0
  0
LINE
  5
1689
330
22D
100
AcDbEntity
  8
0
  6
Continuous
 62
     7
100
AcDbLine
 10
82.5609685717
 20
47.16288690479999
 30
0.0
 11
81.98472642810001
 21
47.1658239154
 31
0.0
  0
LINE
  5
168A
330
22D
100
AcDbEntity
  8
0
  6
Continuous
 62
     7
100
AcDbLine
 10
83.10129113949999
 20
47.16003355909999
 30
0.0
 11
82.5609685717
 21
47.16288690479999
 31
0.0
  0
LINE
  5
168B
330
22D
100
AcDbEntity
  8
0
  6
Continuous
 62
     7
100
AcDbLine
 10
26.042168408
 20
49.2101779376
 30
0.0
 11
25.7300839353
 21
49.21160671149999
 31
0.0
  0
LINE
  5
168C
330
22D
100
AcDbEntity
  8
0
  6
Continuous
 62
     7
100
AcDbLine
 10
83.60841052679999
 20
47.15726813949999
 30
0.0
 11
83.10129113949999
 21
47.16003355909999
 31
0.0
  0
LINE
  5
168D
330
22D
100
AcDbEntity
  8
0
  6
Continuous
 62
     7
100
AcDbLine
 10
84.0843960539
 20
47.1545949842
 30
0.0
 11
83.60841052679999
 21
47.15726813949999
 31
0.0
  0
LINE
  5
168E
330
22D
100
AcDbEntity
  8
0
  6
Continuous
 62
     7
100
AcDbLine
 10
84.53133960709999
 20
47.1520155026
 30
0.0
 11
84.0843960539
 21
47.1545949842
 31
0.0
  0
LINE
  5
168F
330
22D
100
AcDbEntity
  8
0
  6
Continuous
 62
     7
100
AcDbLine
 10
84.74462964869999
 20
47.1507594914
 30
0.0
 11
84.53133960709999
 21
47.1520155026
 31
0.0
  0
LINE
  5
1690
330
22D
100
AcDbEntity
  8
0
  6
Continuous
 62
     7
100
AcDbLine
 10
85.15217961160001
 20
47.1483099731
 30
0.0
 11
84.74462964869999
 21
47.1507594914
 31
0.0
  0
LINE
  5
1691
330
22D
100
AcDbEntity
  8
0
  6
Continuous
 62
     7
100
AcDbLine
 10
85.5346799746
 20
47.14594880109999
 30
0.0
 11
85.15217961160001
 21
47.1483099731
 31
0.0
  0
LINE
  5
1692
330
22D
100
AcDbEntity
  8
0
  6
Continuous
 62
     7
100
AcDbLine
 10
85.89357480370001
 20
47.1436758109
 30
0.0
 11
85.5346799746
 21
47.14594880109999
 31
0.0
  0
LINE
  5
1693
330
22D
100
AcDbEntity
  8
0
  6
Continuous
 62
     7
100
AcDbLine
 10
86.2309592585
 20
47.14148516789999
 30
0.0
 11
85.89357480370001
 21
47.1436758109
 31
0.0
  0
LINE
  5
1694
330
22D
100
AcDbEntity
  8
0
  6
Continuous
 62
     7
100
AcDbLine
 10
86.54781734910001
 20
47.1393711814
 30
0.0
 11
86.2309592585
 21
47.14148516789999
 31
0.0
  0
LINE
  5
1695
330
22D
100
AcDbEntity
  8
0
  6
Continuous
 62
     7
100
AcDbLine
 10
86.84385414679999
 20
47.1373375234
 30
0.0
 11
86.54781734910001
 21
47.1393711814
 31
0.0
  0
LINE
  5
1696
330
22D
100
AcDbEntity
  8
0
  6
Continuous
 62
     7
100
AcDbLine
 10
87.25175459459999
 20
47.13443556069999
 30
0.0
 11
86.84385414679999
 21
47.1373375234
 31
0.0
  0
LINE
  5
1697
330
22D
100
AcDbEntity
  8
0
  6
Continuous
 62
     7
100
AcDbLine
 10
87.50134776040001
 20
47.13259805729999
 30
0.0
 11
87.25175459459999
 21
47.13443556069999
 31
0.0
  0
LINE
  5
1698
330
22D
100
AcDbEntity
  8
0
  6
Continuous
 62
     7
100
AcDbLine
 10
25.7300839353
 20
49.21160671149999
 30
0.0
 11
25.481754841
 21
49.2132479009
 31
0.0
  0
LINE
  5
1699
330
22D
100
AcDbEntity
  8
0
  6
Continuous
 62
     7
100
AcDbLine
 10
88.0461199764
 20
47.1283398343
 30
0.0
 11
87.50134776040001
 21
47.13259805729999
 31
0.0
  0
LINE
  5
169A
330
22D
100
AcDbEntity
  8
0
  6
Continuous
 62
     7
100
AcDbLine
 10
25.481754841
 20
49.2132479009
 30
0.0
 11
25.4649683982
 21
49.2133841463
 31
0.0
  0
LWPOLYLINE
  5
169B
330
22D
100
AcDbEntity
  8
0
  6
Continuous
 62
     7
100
AcDbPolyline
 90
       41
 70
     0
 43
0.0
 10
86.7832801878
 20
49.2133841463
 10
86.85962474490001
 20
49.2127529841
 10
86.94537244700001
 20
49.2090086612
 10
87.03094102889998
 20
49.20206026069999
 10
87.1161917344
 20
49.1919192152
 10
87.20098608769999
 20
49.1785997785
 10
87.28522223149999
 20
49.162114578
 10
87.3688001322
 20
49.1424865851
 10
87.45158479009999
 20
49.1197497671
 10
87.5334419069
 20
49.0939408384
 10
87.6142724424
 20
49.0650870766
 10
87.69398017360002
 20
49.0332235231
 10
87.7724373995
 20
48.9984056041
 10
87.84951758970001
 20
48.96069152689999
 10
87.92512752719998
 20
48.92012414979999
 10
87.99917323269999
 20
48.876750996
 10
88.07154504629998
 20
48.8306417641
 10
88.14213722629999
 20
48.78186684380001
 10
88.21085433110001
 20
48.7304899273
 10
88.277597144
 20
48.6765796939
 10
88.3422834957
 20
48.6202067671
 10
88.4048373072
 20
48.56143988
 10
88.46515532739999
 20
48.50037251949999
 10
88.52313658299999
 20
48.4371005012
 10
88.57871230449999
 20
48.3716996084
 10
88.63181867700001
 20
48.3042503041
 10
88.68236914809999
 20
48.2348616814
 10
88.7302794362
 20
48.1636445474
 10
88.77549011209998
 20
48.0906825099
 10
88.81795028299999
 20
48.01606478930001
 10
88.85759244629999
 20
47.93991309479999
 10
88.8943515759
 20
47.86235050770001
 10
88.9281802338
 20
47.7834680943
 10
88.95903963610001
 20
47.70336066529999
 10
88.98688300309999
 20
47.62215940899999
 10
89.01166629009999
 20
47.53999646919999
 10
89.0333569436
 20
47.456969282
 10
89.0519275073
 20
47.37317642999999
 10
89.06735258469998
 20
47.28875464479999
 10
89.07961086989999
 20
47.20383723749999
 10
89.08868502049999
 20
47.1185378857
  0
LWPOLYLINE
  5
169C
330
22D
100
AcDbEntity
  8
0
  6
Continuous
 62
     7
100
AcDbPolyline
 90
        3
 70
     0
 43
0.0
 10
89.08868502049999
 20
47.1185378857
 10
89.0856210081
 20
47.11857944979999
 10
88.0461199764
 20
47.1283398343
  0
LINE
  5
169D
330
22D
100
AcDbEntity
  8
0
  6
Continuous
 62
     7
100
AcDbLine
 10
55.6782961942
 20
26.6134651481
 30
0.0
 11
55.68413375310001
 21
26.6152788724
 31
0.0
  0
LWPOLYLINE
  5
169E
330
22D
100
AcDbEntity
  8
0
  6
Continuous
 62
     7
100
AcDbPolyline
 90
        6
 70
     0
 43
0.0
 10
55.68413375310001
 20
26.6152788724
 10
55.69441346649999
 20
26.6184156752
 10
55.7014183511
 20
26.6205105829
 10
55.7096413697
 20
26.6229249141
 10
55.71905431800001
 20
26.6256307129
 10
55.7296389324
 20
26.6285975946
  0
LINE
  5
169F
330
22D
100
AcDbEntity
  8
DEFAULT_1
  6
CENTER
 62
     7
100
AcDbLine
 10
79.249124293
 20
25.6551318147
 30
0.0
 11
79.249124293
 21
21.8934185677
 31
0.0
  0
LINE
  5
16A0
330
22D
100
AcDbEntity
  8
0
  6
Continuous
 62
     7
100
AcDbLine
 10
81.66354974049999
 20
23.9623877934
 30
0.0
 11
82.76532037169999
 21
30.9191153339
 31
0.0
  0
LWPOLYLINE
  5
16A1
330
22D
100
AcDbEntity
  8
0
  6
Continuous
 62
     7
100
AcDbPolyline
 90
       17
 70
     0
 43
0.0
 10
82.76532037169999
 20
30.9191153339
 10
82.88383330390001
 20
31.6446507666
 10
83.01088213209999
 20
32.3455580218
 10
83.1473284561
 20
33.0297676824
 10
83.29396782489999
 20
33.703754676
 10
83.4527773742
 20
34.3774983367
 10
83.6231319038
 20
35.0480327968
 10
83.80520448890001
 20
35.7160366159
 10
83.99873007169999
 20
36.3805206262
 10
84.2034854441
 20
37.0408160669
 10
84.4193567766
 20
37.69669099010001
 10
84.6443215746
 20
38.34260591239999
 10
84.8837925413
 20
38.993851956
 10
85.14273977870001
 20
39.6614091993
 10
85.4248502687
 20
40.3509777703
 10
85.7321590575
 20
41.0761075686
 10
88.1241241829
 20
46.7134651481
  0
LINE
  5
16A2
330
22D
100
AcDbEntity
  8
0
  6
Continuous
 62
     7
100
AcDbLine
 10
89.08868502049999
 20
47.1185378857
 30
0.0
 11
89.12412429299999
 21
46.7134651481
 31
0.0
  0
ARC
  5
1A01
330
22D
100
AcDbEntity
  8
DEFAULT_2
  6
HIDDEN
 62
     7
100
AcDbCircle
 10
84.74912429300001
 20
48.15096514810001
 30
0.0
 40
0.5
100
AcDbArc
 50
266.7449723050999
 51
337.4552328933
  0
ARC
  5
1A02
330
22D
100
AcDbEntity
  8
DEFAULT_2
  6
HIDDEN
 62
     7
100
AcDbCircle
 10
27.499124293
 20
48.15096514810001
 30
0.0
 40
0.5
100
AcDbArc
 50
202.5447671067
 51
273.2550276949
  0
ARC
  5
1A05
330
22D
100
AcDbEntity
  8
DEFAULT_2
  6
HIDDEN
 62
     7
100
AcDbCircle
 10
57.39557090239999
 20
28.4634651481
 30
0.0
 40
0.25
100
AcDbArc
 50
270.0
 51
315.0
  0
ARC
  5
1A06
330
22D
100
AcDbEntity
  8
DEFAULT_2
  6
HIDDEN
 62
     7
100
AcDbCircle
 10
54.85267768359999
 20
28.4634651481
 30
0.0
 40
0.25
100
AcDbArc
 50
225.0
 51
270.0
  0
ARC
  5
1A09
330
22D
100
AcDbEntity
  8
DEFAULT_2
  6
HIDDEN
 62
     7
100
AcDbCircle
 10
85.3552238312
 20
47.8993554996
 30
0.0
 40
0.1562500003
100
AcDbArc
 50
93.00603939709999
 51
157.4552318949
  0
ARC
  5
1A0A
330
22D
100
AcDbEntity
  8
DEFAULT_2
  6
HIDDEN
 62
     7
100
AcDbCircle
 10
84.7118621635
 20
47.49577388369999
 30
0.0
 40
0.1562500003
100
AcDbArc
 50
86.74497421759999
 51
155.0000034215
  0
ARC
  5
1A0B
330
22D
100
AcDbEntity
  8
DEFAULT_2
  6
HIDDEN
 62
     7
100
AcDbCircle
 10
27.5363864225
 20
47.49577388369999
 30
0.0
 40
0.1562500003
100
AcDbArc
 50
24.9999965785
 51
93.2550257824
  0
ARC
  5
1A0C
330
22D
100
AcDbEntity
  8
DEFAULT_2
  6
HIDDEN
 62
     7
100
AcDbCircle
 10
26.8930247548
 20
47.8993554996
 30
0.0
 40
0.1562500003
100
AcDbArc
 50
22.5447681051
 51
86.9939606029
  0
CIRCLE
  5
1A11
330
22D
100
AcDbEntity
  8
0
  6
Continuous
 62
     7
100
AcDbCircle
 10
56.124124293
 20
26.7134651481
 30
0.0
 40
0.875
  0
ARC
  5
1A12
330
22D
100
AcDbEntity
  8
0
  6
Continuous
 62
     7
100
AcDbCircle
 10
81.41662764180001
 20
24.001496361
 30
0.0
 40
0.25
100
AcDbArc
 50
269.9020174849
 51
351.0000114909
  0
ARC
  5
1A13
330
22D
100
AcDbEntity
  8
0
  6
Continuous
 62
     7
100
AcDbCircle
 10
30.8316209442
 20
24.001496361
 30
0.0
 40
0.25
100
AcDbArc
 50
188.9999885091
 51
270.0979825153
  0
ARC
  5
1A14
330
22D
100
AcDbEntity
  8
0
  6
Continuous
 62
     7
100
AcDbCircle
 10
55.6782964341
 20
26.863465277
 30
0.0
 40
0.2499999234
100
AcDbArc
 50
269.9999450089
 51
284.835363811
  0
ARC
  5
1A15
330
22D
100
AcDbEntity
  8
0
  6
Continuous
 62
     7
100
AcDbCircle
 10
56.5699521517
 20
26.8634652771
 30
0.0
 40
0.2499999234
100
AcDbArc
 50
255.1646207397
 51
270.0000550209
  0
ENDSEC
  0
SECTION
  2
OBJECTS
  0
DICTIONARY
  5
C
330
0
100
AcDbDictionary
281
     1
  3
ACAD_COLOR
350
1A4F
  3
ACAD_GROUP
350
D
  3
ACAD_LAYOUT
350
1A
  3
ACAD_MATERIAL
350
1A22
  3
ACAD_MLEADERSTYLE
350
1A74
  3
ACAD_MLINESTYLE
350
17
  3
ACAD_PLOTSETTINGS
350
19
  3
ACAD_PLOTSTYLENAME
350
E
  3
ACAD_SCALELIST
350
1A52
  3
ACAD_TABLESTYLE
350
1A50
  3
ACAD_VISUALSTYLE
350
1A3B
  3
ACDB_RECOMPOSE_DATA
350
1A7A
  3
AcDbVariableDictionary
350
1AAC
  3
DWGPROPS
350
1B40
  0
DICTIONARY
  5
1A7B
330
8
100
AcDbDictionary
280
     1
281
     1
  0
DICTIONARY
  5
1AC7
330
10
100
AcDbDictionary
280
     1
281
     1
  3
ADSK_XREC_LAYER_RECONCILED
360
1AC8
  0
DICTIONARY
  5
1AC9
330
1FA
100
AcDbDictionary
280
     1
281
     1
  3
ADSK_XREC_LAYER_RECONCILED
360
1ACA
  0
DICTIONARY
  5
1ACB
330
1FB
100
AcDbDictionary
280
     1
281
     1
  3
ADSK_XREC_LAYER_RECONCILED
360
1ACC
  0
DICTIONARY
  5
1ACD
330
1FC
100
AcDbDictionary
280
     1
281
     1
  3
ADSK_XREC_LAYER_RECONCILED
360
1ACE
  0
DICTIONARY
  5
1ACF
330
1FD
100
AcDbDictionary
280
     1
281
     1
  3
ADSK_XREC_LAYER_RECONCILED
360
1AD0
  0
DICTIONARY
  5
1AD1
330
1FE
100
AcDbDictionary
280
     1
281
     1
  3
ADSK_XREC_LAYER_RECONCILED
360
1AD2
  0
DICTIONARY
  5
1AD3
330
1FF
100
AcDbDictionary
280
     1
281
     1
  3
ADSK_XREC_LAYER_RECONCILED
360
1AD4
  0
DICTIONARY
  5
1AD5
330
200
100
AcDbDictionary
280
     1
281
     1
  3
ADSK_XREC_LAYER_RECONCILED
360
1AD6
  0
DICTIONARY
  5
1AD7
330
201
100
AcDbDictionary
280
     1
281
     1
  3
ADSK_XREC_LAYER_RECONCILED
360
1AD8
  0
DICTIONARY
  5
1AD9
330
202
100
AcDbDictionary
280
     1
281
     1
  3
ADSK_XREC_LAYER_RECONCILED
360
1ADA
  0
DICTIONARY
  5
1ADB
330
203
100
AcDbDictionary
280
     1
281
     1
  3
ADSK_XREC_LAYER_RECONCILED
360
1ADC
  0
DICTIONARY
  5
1ADD
330
204
100
AcDbDictionary
280
     1
281
     1
  3
ADSK_XREC_LAYER_RECONCILED
360
1ADE
  0
DICTIONARY
  5
1ADF
330
205
100
AcDbDictionary
280
     1
281
     1
  3
ADSK_XREC_LAYER_RECONCILED
360
1AE0
  0
DICTIONARY
  5
1AE1
330
206
100
AcDbDictionary
280
     1
281
     1
  3
ADSK_XREC_LAYER_RECONCILED
360
1AE2
  0
DICTIONARY
  5
1AE3
330
207
100
AcDbDictionary
280
     1
281
     1
  3
ADSK_XREC_LAYER_RECONCILED
360
1AE4
  0
DICTIONARY
  5
1AE5
330
208
100
AcDbDictionary
280
     1
281
     1
  3
ADSK_XREC_LAYER_RECONCILED
360
1AE6
  0
DICTIONARY
  5
1AE7
330
209
100
AcDbDictionary
280
     1
281
     1
  3
ADSK_XREC_LAYER_RECONCILED
360
1AE8
  0
DICTIONARY
  5
1AE9
330
20A
100
AcDbDictionary
280
     1
281
     1
  3
ADSK_XREC_LAYER_RECONCILED
360
1AEA
  0
DICTIONARY
  5
1AEB
330
20B
100
AcDbDictionary
280
     1
281
     1
  3
ADSK_XREC_LAYER_RECONCILED
360
1AEC
  0
DICTIONARY
  5
1AED
330
20C
100
AcDbDictionary
280
     1
281
     1
  3
ADSK_XREC_LAYER_RECONCILED
360
1AEE
  0
DICTIONARY
  5
1AEF
330
20D
100
AcDbDictionary
280
     1
281
     1
  3
ADSK_XREC_LAYER_RECONCILED
360
1AF0
  0
DICTIONARY
  5
1AF1
330
20E
100
AcDbDictionary
280
     1
281
     1
  3
ADSK_XREC_LAYER_RECONCILED
360
1AF2
  0
DICTIONARY
  5
1AF3
330
20F
100
AcDbDictionary
280
     1
281
     1
  3
ADSK_XREC_LAYER_RECONCILED
360
1AF4
  0
DICTIONARY
  5
1AF5
330
210
100
AcDbDictionary
280
     1
281
     1
  3
ADSK_XREC_LAYER_RECONCILED
360
1AF6
  0
DICTIONARY
  5
1AF7
330
211
100
AcDbDictionary
280
     1
281
     1
  3
ADSK_XREC_LAYER_RECONCILED
360
1AF8
  0
DICTIONARY
  5
1AF9
330
212
100
AcDbDictionary
280
     1
281
     1
  3
ADSK_XREC_LAYER_RECONCILED
360
1AFA
  0
DICTIONARY
  5
1AFB
330
213
100
AcDbDictionary
280
     1
281
     1
  3
ADSK_XREC_LAYER_RECONCILED
360
1AFC
  0
DICTIONARY
  5
1AFD
330
214
100
AcDbDictionary
280
     1
281
     1
  3
ADSK_XREC_LAYER_RECONCILED
360
1AFE
  0
DICTIONARY
  5
1AFF
330
215
100
AcDbDictionary
280
     1
281
     1
  3
ADSK_XREC_LAYER_RECONCILED
360
1B00
  0
DICTIONARY
  5
1B01
330
216
100
AcDbDictionary
280
     1
281
     1
  3
ADSK_XREC_LAYER_RECONCILED
360
1B02
  0
DICTIONARY
  5
1B03
330
217
100
AcDbDictionary
280
     1
281
     1
  3
ADSK_XREC_LAYER_RECONCILED
360
1B04
  0
DICTIONARY
  5
1B05
330
218
100
AcDbDictionary
280
     1
281
     1
  3
ADSK_XREC_LAYER_RECONCILED
360
1B06
  0
DICTIONARY
  5
1B07
330
219
100
AcDbDictionary
280
     1
281
     1
  3
ADSK_XREC_LAYER_RECONCILED
360
1B08
  0
DICTIONARY
  5
1B09
330
21A
100
AcDbDictionary
280
     1
281
     1
  3
ADSK_XREC_LAYER_RECONCILED
360
1B0A
  0
DICTIONARY
  5
1B0B
330
21B
100
AcDbDictionary
280
     1
281
     1
  3
ADSK_XREC_LAYER_RECONCILED
360
1B0C
  0
DICTIONARY
  5
1B0D
330
21C
100
AcDbDictionary
280
     1
281
     1
  3
ADSK_XREC_LAYER_RECONCILED
360
1B0E
  0
DICTIONARY
  5
1B0F
330
21D
100
AcDbDictionary
280
     1
281
     1
  3
ADSK_XREC_LAYER_RECONCILED
360
1B10
  0
DICTIONARY
  5
1B11
330
21E
100
AcDbDictionary
280
     1
281
     1
  3
ADSK_XREC_LAYER_RECONCILED
360
1B12
  0
DICTIONARY
  5
1B13
330
21F
100
AcDbDictionary
280
     1
281
     1
  3
ADSK_XREC_LAYER_RECONCILED
360
1B14
  0
DICTIONARY
  5
1B15
330
220
100
AcDbDictionary
280
     1
281
     1
  3
ADSK_XREC_LAYER_RECONCILED
360
1B16
  0
DICTIONARY
  5
1B17
330
221
100
AcDbDictionary
280
     1
281
     1
  3
ADSK_XREC_LAYER_RECONCILED
360
1B18
  0
DICTIONARY
  5
1B19
330
222
100
AcDbDictionary
280
     1
281
     1
  3
ADSK_XREC_LAYER_RECONCILED
360
1B1A
  0
DICTIONARY
  5
1B1B
330
223
100
AcDbDictionary
280
     1
281
     1
  3
ADSK_XREC_LAYER_RECONCILED
360
1B1C
  0
DICTIONARY
  5
1B1D
330
224
100
AcDbDictionary
280
     1
281
     1
  3
ADSK_XREC_LAYER_RECONCILED
360
1B1E
  0
DICTIONARY
  5
1A4F
102
{ACAD_REACTORS
330
C
102
}
330
C
100
AcDbDictionary
281
     1
  0
DICTIONARY
  5
D
102
{ACAD_REACTORS
330
C
102
}
330
C
100
AcDbDictionary
281
     1
  0
DICTIONARY
  5
1A
102
{ACAD_REACTORS
330
C
102
}
330
C
100
AcDbDictionary
281
     1
  3
Layout1
350
1A1E
  3
Model
350
1A1D
  0
DICTIONARY
  5
1A22
102
{ACAD_REACTORS
330
C
102
}
330
C
100
AcDbDictionary
281
     1
  3
ByBlock
350
1A2B
  3
ByLayer
350
1A23
  3
Global
350
1A33
  0
DICTIONARY
  5
1A74
102
{ACAD_REACTORS
330
C
102
}
330
C
100
AcDbDictionary
281
     1
  3
Standard
350
1A75
  0
DICTIONARY
  5
17
102
{ACAD_REACTORS
330
C
102
}
330
C
100
AcDbDictionary
281
     1
  3
Standard
350
18
  0
DICTIONARY
  5
19
102
{ACAD_REACTORS
330
C
102
}
330
C
100
AcDbDictionary
281
     1
  0
ACDBDICTIONARYWDFLT
  5
E
102
{ACAD_REACTORS
330
C
102
}
330
C
100
AcDbDictionary
281
     1
  3
Normal
350
F
100
AcDbDictionaryWithDefault
340
F
  0
DICTIONARY
  5
1A52
102
{ACAD_REACTORS
330
C
102
}
330
C
100
AcDbDictionary
281
     1
  3
A0
350
1A53
  3
A1
350
1A54
  3
A2
350
1A55
  3
A3
350
1A56
  3
A4
350
1A57
  3
A5
350
1A58
  3
A6
350
1A59
  3
A7
350
1A5A
  3
A8
350
1A5B
  3
A9
350
1A5C
  3
B0
350
1A5D
  3
B1
350
1A5E
  3
B2
350
1A5F
  3
B3
350
1A60
  3
B4
350
1A61
  3
B5
350
1A62
  3
B6
350
1A63
  3
B7
350
1A64
  3
B8
350
1A65
  3
B9
350
1A66
  3
C0
350
1A67
  3
C1
350
1A68
  3
C2
350
1A69
  3
C3
350
1A6A
  3
C4
350
1A6B
  3
C5
350
1A6C
  3
C6
350
1A6D
  3
C7
350
1A6E
  3
C8
350
1A6F
  3
C9
350
1A70
  3
D0
350
1A71
  3
D1
350
1A72
  3
D2
350
1A73
  0
DICTIONARY
  5
1A50
102
{ACAD_REACTORS
330
C
102
}
330
C
100
AcDbDictionary
281
     1
  3
Standard
350
1A51
  0
DICTIONARY
  5
1A3B
102
{ACAD_REACTORS
330
C
102
}
330
C
100
AcDbDictionary
281
     1
  3
2dWireframe
350
1A41
  3
3D Hidden
350
1A43
  3
3dWireframe
350
1A42
  3
Basic
350
1A40
  3
Brighten
350
1A47
  3
ColorChange
350
1A4B
  3
Conceptual
350
1A44
  3
Dim
350
1A46
  3
EdgeColorOff
350
1A4E
  3
Facepattern
350
1A4A
  3
Flat
350
1A3C
  3
FlatWithEdges
350
1A3D
  3
Gouraud
350
1A3E
  3
GouraudWithEdges
350
1A3F
  3
JitterOff
350
1A4C
  3
Linepattern
350
1A49
  3
OverhangOff
350
1A4D
  3
Realistic
350
1A45
  3
Thicken
350
1A48
  0
XRECORD
  5
1A7A
102
{ACAD_REACTORS
330
C
102
}
330
C
100
AcDbXrecord
280
     1
 90
        1
330
1A51
  0
DICTIONARY
  5
1AAC
102
{ACAD_REACTORS
330
C
102
}
330
C
100
AcDbDictionary
281
     1
  3
CANNOSCALE
350
1AAF
  3
CMLEADERSTYLE
350
1AAE
  3
CTABLESTYLE
350
1AAD
  3
DIMASSOC
350
1AB2
  3
INDEXCTL
350
1AB1
  3
SORTENTS
350
1AB0
  3
XCLIPFRAME
350
1AB3
  0
XRECORD
  5
1B40
102
{ACAD_REACTORS
330
C
102
}
330
C
100
AcDbXrecord
280
     1
  1
DWGPROPS COOKIE
  2

  3

  4

  6

  7

  8
francoisbu
  9

300
=
301
=
302
=
303
=
304
=
305
=
306
=
307
=
308
=
309
=
 40
0.0085402662037037
 41
2456087.36622897
 42
2456087.379355822
  1

 90
        0
  0
XRECORD
  5
1AC8
102
{ACAD_REACTORS
330
1AC7
102
}
330
1AC7
100
AcDbXrecord
280
     1
290
     1
  0
XRECORD
  5
1ACA
102
{ACAD_REACTORS
330
1AC9
102
}
330
1AC9
100
AcDbXrecord
280
     1
290
     1
  0
XRECORD
  5
1ACC
102
{ACAD_REACTORS
330
1ACB
102
}
330
1ACB
100
AcDbXrecord
280
     1
290
     1
  0
XRECORD
  5
1ACE
102
{ACAD_REACTORS
330
1ACD
102
}
330
1ACD
100
AcDbXrecord
280
     1
290
     1
  0
XRECORD
  5
1AD0
102
{ACAD_REACTORS
330
1ACF
102
}
330
1ACF
100
AcDbXrecord
280
     1
290
     1
  0
XRECORD
  5
1AD2
102
{ACAD_REACTORS
330
1AD1
102
}
330
1AD1
100
AcDbXrecord
280
     1
290
     1
  0
XRECORD
  5
1AD4
102
{ACAD_REACTORS
330
1AD3
102
}
330
1AD3
100
AcDbXrecord
280
     1
290
     1
  0
XRECORD
  5
1AD6
102
{ACAD_REACTORS
330
1AD5
102
}
330
1AD5
100
AcDbXrecord
280
     1
290
     1
  0
XRECORD
  5
1AD8
102
{ACAD_REACTORS
330
1AD7
102
}
330
1AD7
100
AcDbXrecord
280
     1
290
     1
  0
XRECORD
  5
1ADA
102
{ACAD_REACTORS
330
1AD9
102
}
330
1AD9
100
AcDbXrecord
280
     1
290
     1
  0
XRECORD
  5
1ADC
102
{ACAD_REACTORS
330
1ADB
102
}
330
1ADB
100
AcDbXrecord
280
     1
290
     1
  0
XRECORD
  5
1ADE
102
{ACAD_REACTORS
330
1ADD
102
}
330
1ADD
100
AcDbXrecord
280
     1
290
     1
  0
XRECORD
  5
1AE0
102
{ACAD_REACTORS
330
1ADF
102
}
330
1ADF
100
AcDbXrecord
280
     1
290
     1
  0
XRECORD
  5
1AE2
102
{ACAD_REACTORS
330
1AE1
102
}
330
1AE1
100
AcDbXrecord
280
     1
290
     1
  0
XRECORD
  5
1AE4
102
{ACAD_REACTORS
330
1AE3
102
}
330
1AE3
100
AcDbXrecord
280
     1
290
     1
  0
XRECORD
  5
1AE6
102
{ACAD_REACTORS
330
1AE5
102
}
330
1AE5
100
AcDbXrecord
280
     1
290
     1
  0
XRECORD
  5
1AE8
102
{ACAD_REACTORS
330
1AE7
102
}
330
1AE7
100
AcDbXrecord
280
     1
290
     1
  0
XRECORD
  5
1AEA
102
{ACAD_REACTORS
330
1AE9
102
}
330
1AE9
100
AcDbXrecord
280
     1
290
     1
  0
XRECORD
  5
1AEC
102
{ACAD_REACTORS
330
1AEB
102
}
330
1AEB
100
AcDbXrecord
280
     1
290
     1
  0
XRECORD
  5
1AEE
102
{ACAD_REACTORS
330
1AED
102
}
330
1AED
100
AcDbXrecord
280
     1
290
     1
  0
XRECORD
  5
1AF0
102
{ACAD_REACTORS
330
1AEF
102
}
330
1AEF
100
AcDbXrecord
280
     1
290
     1
  0
XRECORD
  5
1AF2
102
{ACAD_REACTORS
330
1AF1
102
}
330
1AF1
100
AcDbXrecord
280
     1
290
     1
  0
XRECORD
  5
1AF4
102
{ACAD_REACTORS
330
1AF3
102
}
330
1AF3
100
AcDbXrecord
280
     1
290
     1
  0
XRECORD
  5
1AF6
102
{ACAD_REACTORS
330
1AF5
102
}
330
1AF5
100
AcDbXrecord
280
     1
290
     1
  0
XRECORD
  5
1AF8
102
{ACAD_REACTORS
330
1AF7
102
}
330
1AF7
100
AcDbXrecord
280
     1
290
     1
  0
XRECORD
  5
1AFA
102
{ACAD_REACTORS
330
1AF9
102
}
330
1AF9
100
AcDbXrecord
280
     1
290
     1
  0
XRECORD
  5
1AFC
102
{ACAD_REACTORS
330
1AFB
102
}
330
1AFB
100
AcDbXrecord
280
     1
290
     1
  0
XRECORD
  5
1AFE
102
{ACAD_REACTORS
330
1AFD
102
}
330
1AFD
100
AcDbXrecord
280
     1
290
     1
  0
XRECORD
  5
1B00
102
{ACAD_REACTORS
330
1AFF
102
}
330
1AFF
100
AcDbXrecord
280
     1
290
     1
  0
XRECORD
  5
1B02
102
{ACAD_REACTORS
330
1B01
102
}
330
1B01
100
AcDbXrecord
280
     1
290
     1
  0
XRECORD
  5
1B04
102
{ACAD_REACTORS
330
1B03
102
}
330
1B03
100
AcDbXrecord
280
     1
290
     1
  0
XRECORD
  5
1B06
102
{ACAD_REACTORS
330
1B05
102
}
330
1B05
100
AcDbXrecord
280
     1
290
     1
  0
XRECORD
  5
1B08
102
{ACAD_REACTORS
330
1B07
102
}
330
1B07
100
AcDbXrecord
280
     1
290
     1
  0
XRECORD
  5
1B0A
102
{ACAD_REACTORS
330
1B09
102
}
330
1B09
100
AcDbXrecord
280
     1
290
     1
  0
XRECORD
  5
1B0C
102
{ACAD_REACTORS
330
1B0B
102
}
330
1B0B
100
AcDbXrecord
280
     1
290
     1
  0
XRECORD
  5
1B0E
102
{ACAD_REACTORS
330
1B0D
102
}
330
1B0D
100
AcDbXrecord
280
     1
290
     1
  0
XRECORD
  5
1B10
102
{ACAD_REACTORS
330
1B0F
102
}
330
1B0F
100
AcDbXrecord
280
     1
290
     1
  0
XRECORD
  5
1B12
102
{ACAD_REACTORS
330
1B11
102
}
330
1B11
100
AcDbXrecord
280
     1
290
     1
  0
XRECORD
  5
1B14
102
{ACAD_REACTORS
330
1B13
102
}
330
1B13
100
AcDbXrecord
280
     1
290
     1
  0
XRECORD
  5
1B16
102
{ACAD_REACTORS
330
1B15
102
}
330
1B15
100
AcDbXrecord
280
     1
290
     1
  0
XRECORD
  5
1B18
102
{ACAD_REACTORS
330
1B17
102
}
330
1B17
100
AcDbXrecord
280
     1
290
     1
  0
XRECORD
  5
1B1A
102
{ACAD_REACTORS
330
1B19
102
}
330
1B19
100
AcDbXrecord
280
     1
290
     1
  0
XRECORD
  5
1B1C
102
{ACAD_REACTORS
330
1B1B
102
}
330
1B1B
100
AcDbXrecord
280
     1
290
     1
  0
XRECORD
  5
1B1E
102
{ACAD_REACTORS
330
1B1D
102
}
330
1B1D
100
AcDbXrecord
280
     1
290
     1
  0
LAYOUT
  5
1A1E
102
{ACAD_XDICTIONARY
360
1B43
102
}
102
{ACAD_REACTORS
330
1A
102
}
330
1A
100
AcDbPlotSettings
  1

  2
none_device
  4
ANSI_B_(17.00_x_11.00_Inches)
  6

 40
0.0
 41
0.0
 42
0.0
 43
0.0
 44
431.8
 45
279.4
 46
0.0
 47
0.0
 48
0.0
 49
0.0
140
0.0
141
0.0
142
1.0
143
1.0
 70
     0
 72
     0
 73
     0
 74
     0
  7

 75
     0
147
1.0
148
0.0
149
0.0
100
AcDbLayout
  1
Layout1
 70
     1
 71
     1
 10
0.0
 20
0.0
 11
12.0
 21
9.0
 12
0.0
 22
0.0
 32
0.0
 14
1.000000000000000E+20
 24
1.000000000000000E+20
 34
1.000000000000000E+20
 15
-1.000000000000000E+20
 25
-1.000000000000000E+20
 35
-1.000000000000000E+20
146
0.0
 13
0.0
 23
0.0
 33
0.0
 16
1.0
 26
0.0
 36
0.0
 17
0.0
 27
1.0
 37
0.0
 76
     0
330
22E
  0
LAYOUT
  5
1A1D
102
{ACAD_XDICTIONARY
360
1B41
102
}
102
{ACAD_REACTORS
330
1A
102
}
330
1A
100
AcDbPlotSettings
  1

  2
none_device
  4
ANSI_B_(17.00_x_11.00_Inches)
  6

 40
0.0
 41
0.0
 42
0.0
 43
0.0
 44
431.8
 45
279.4
 46
0.0
 47
0.0
 48
0.0
 49
0.0
140
0.0
141
0.0
142
1.0
143
1.0
 70
  1024
 72
     0
 73
     0
 74
     0
  7

 75
     0
147
1.0
148
0.0
149
0.0
100
AcDbLayout
  1
Model
 70
     0
 71
     0
 10
0.0
 20
0.0
 11
17.0
 21
11.0
 12
0.0
 22
0.0
 32
0.0
 14
0.0
 24
0.0
 34
0.0
 15
0.0
 25
0.0
 35
0.0
146
0.0
 13
0.0
 23
0.0
 33
0.0
 16
1.0
 26
0.0
 36
0.0
 17
0.0
 27
1.0
 37
0.0
 76
     0
330
22D
331
1F4
  0
MATERIAL
  5
1A2B
102
{ACAD_XDICTIONARY
360
1A2C
102
}
102
{ACAD_REACTORS
330
1A22
102
}
330
1A22
100
AcDbMaterial
  1
ByBlock
 72
     0
 43
0.0208333333333333
 43
0.0
 43
0.0
 43
0.0
 43
0.0
 43
0.0208333333333333
 43
0.0
 43
0.0
 43
0.0
 43
0.0
 43
1.0
 43
0.0
 43
0.0
 43
0.0
 43
0.0
 43
1.0
 77
     0
 47
0.0208333333333333
 47
0.0
 47
0.0
 47
0.0
 47
0.0
 47
0.0208333333333333
 47
0.0
 47
0.0
 47
0.0
 47
0.0
 47
1.0
 47
0.0
 47
0.0
 47
0.0
 47
0.0
 47
1.0
171
     0
 49
0.0208333333333333
 49
0.0
 49
0.0
 49
0.0
 49
0.0
 49
0.0208333333333333
 49
0.0
 49
0.0
 49
0.0
 49
0.0
 49
1.0
 49
0.0
 49
0.0
 49
0.0
 49
0.0
 49
1.0
175
     0
142
0.0208333333333333
142
0.0
142
0.0
142
0.0
142
0.0
142
0.0208333333333333
142
0.0
142
0.0
142
0.0
142
0.0
142
1.0
142
0.0
142
0.0
142
0.0
142
0.0
142
1.0
179
     0
144
0.0208333333333333
144
0.0
144
0.0
144
0.0
144
0.0
144
0.0208333333333333
144
0.0
144
0.0
144
0.0
144
0.0
144
1.0
144
0.0
144
0.0
144
0.0
144
0.0
144
1.0
147
0.0208333333333333
147
0.0
147
0.0
147
0.0
147
0.0
147
0.0208333333333333
147
0.0
147
0.0
147
0.0
147
0.0
147
1.0
147
0.0
147
0.0
147
0.0
147
0.0
147
1.0
  0
MATERIAL
  5
1A23
102
{ACAD_XDICTIONARY
360
1A24
102
}
102
{ACAD_REACTORS
330
1A22
102
}
330
1A22
100
AcDbMaterial
  1
ByLayer
 72
     0
 43
0.0208333333333333
 43
0.0
 43
0.0
 43
0.0
 43
0.0
 43
0.0208333333333333
 43
0.0
 43
0.0
 43
0.0
 43
0.0
 43
1.0
 43
0.0
 43
0.0
 43
0.0
 43
0.0
 43
1.0
 77
     0
 47
0.0208333333333333
 47
0.0
 47
0.0
 47
0.0
 47
0.0
 47
0.0208333333333333
 47
0.0
 47
0.0
 47
0.0
 47
0.0
 47
1.0
 47
0.0
 47
0.0
 47
0.0
 47
0.0
 47
1.0
171
     0
 49
0.0208333333333333
 49
0.0
 49
0.0
 49
0.0
 49
0.0
 49
0.0208333333333333
 49
0.0
 49
0.0
 49
0.0
 49
0.0
 49
1.0
 49
0.0
 49
0.0
 49
0.0
 49
0.0
 49
1.0
175
     0
142
0.0208333333333333
142
0.0
142
0.0
142
0.0
142
0.0
142
0.0208333333333333
142
0.0
142
0.0
142
0.0
142
0.0
142
1.0
142
0.0
142
0.0
142
0.0
142
0.0
142
1.0
179
     0
144
0.0208333333333333
144
0.0
144
0.0
144
0.0
144
0.0
144
0.0208333333333333
144
0.0
144
0.0
144
0.0
144
0.0
144
1.0
144
0.0
144
0.0
144
0.0
144
0.0
144
1.0
147
0.0208333333333333
147
0.0
147
0.0
147
0.0
147
0.0
147
0.0208333333333333
147
0.0
147
0.0
147
0.0
147
0.0
147
1.0
147
0.0
147
0.0
147
0.0
147
0.0
147
1.0
  0
MATERIAL
  5
1A33
102
{ACAD_XDICTIONARY
360
1A34
102
}
102
{ACAD_REACTORS
330
1A22
102
}
330
1A22
100
AcDbMaterial
  1
Global
 72
     0
 43
0.0208333333333333
 43
0.0
 43
0.0
 43
0.0
 43
0.0
 43
0.0208333333333333
 43
0.0
 43
0.0
 43
0.0
 43
0.0
 43
1.0
 43
0.0
 43
0.0
 43
0.0
 43
0.0
 43
1.0
 77
     0
 47
0.0208333333333333
 47
0.0
 47
0.0
 47
0.0
 47
0.0
 47
0.0208333333333333
 47
0.0
 47
0.0
 47
0.0
 47
0.0
 47
1.0
 47
0.0
 47
0.0
 47
0.0
 47
0.0
 47
1.0
171
     0
 49
0.0208333333333333
 49
0.0
 49
0.0
 49
0.0
 49
0.0
 49
0.0208333333333333
 49
0.0
 49
0.0
 49
0.0
 49
0.0
 49
1.0
 49
0.0
 49
0.0
 49
0.0
 49
0.0
 49
1.0
175
     0
142
0.0208333333333333
142
0.0
142
0.0
142
0.0
142
0.0
142
0.0208333333333333
142
0.0
142
0.0
142
0.0
142
0.0
142
1.0
142
0.0
142
0.0
142
0.0
142
0.0
142
1.0
179
     0
144
0.0208333333333333
144
0.0
144
0.0
144
0.0
144
0.0
144
0.0208333333333333
144
0.0
144
0.0
144
0.0
144
0.0
144
1.0
144
0.0
144
0.0
144
0.0
144
0.0
144
1.0
147
0.0208333333333333
147
0.0
147
0.0
147
0.0
147
0.0
147
0.0208333333333333
147
0.0
147
0.0
147
0.0
147
0.0
147
1.0
147
0.0
147
0.0
147
0.0
147
0.0
147
1.0
  0
MLEADERSTYLE
  5
1A75
102
{ACAD_REACTORS
330
1A74
102
}
330
1A74
100
AcDbMLeaderStyle
170
     2
171
     1
172
     0
 90
        2
 40
0.0
 41
0.0
173
     1
 91
-1056964608
340
14
 92
       -2
290
     1
 42
0.09
291
     1
 43
0.36
  3
Standard
 44
0.18
300

342
11
174
     1
178
     6
175
     1
176
     0
 93
-1056964608
 45
0.18
292
     0
297
     0
 46
0.18
 94
-1056964608
 47
1.0
 49
1.0
140
1.0
293
     1
141
0.0
294
     1
177
     0
142
1.0
295
     0
296
     0
143
0.125
1001
ACAD_MLEADERVER
1070
     2
  0
MLINESTYLE
  5
18
102
{ACAD_REACTORS
330
17
102
}
330
17
100
AcDbMlineStyle
  2
STANDARD
 70
     0
  3

 62
   256
 51
90.0
 52
90.0
 71
     2
 49
0.5
 62
   256
  6
BYLAYER
 49
-0.5
 62
   256
  6
BYLAYER
  0
ACDBPLACEHOLDER
  5
F
102
{ACAD_REACTORS
330
E
102
}
330
E
  0
SCALE
  5
1A53
102
{ACAD_REACTORS
330
1A52
102
}
330
1A52
100
AcDbScale
 70
     0
300
1:1
140
1.0
141
1.0
290
     1
  0
SCALE
  5
1A54
102
{ACAD_REACTORS
330
1A52
102
}
330
1A52
100
AcDbScale
 70
     0
300
1:2
140
1.0
141
2.0
290
     0
  0
SCALE
  5
1A55
102
{ACAD_REACTORS
330
1A52
102
}
330
1A52
100
AcDbScale
 70
     0
300
1:4
140
1.0
141
4.0
290
     0
  0
SCALE
  5
1A56
102
{ACAD_REACTORS
330
1A52
102
}
330
1A52
100
AcDbScale
 70
     0
300
1:5
140
1.0
141
5.0
290
     0
  0
SCALE
  5
1A57
102
{ACAD_REACTORS
330
1A52
102
}
330
1A52
100
AcDbScale
 70
     0
300
1:8
140
1.0
141
8.0
290
     0
  0
SCALE
  5
1A58
102
{ACAD_REACTORS
330
1A52
102
}
330
1A52
100
AcDbScale
 70
     0
300
1:10
140
1.0
141
10.0
290
     0
  0
SCALE
  5
1A59
102
{ACAD_REACTORS
330
1A52
102
}
330
1A52
100
AcDbScale
 70
     0
300
1:16
140
1.0
141
16.0
290
     0
  0
SCALE
  5
1A5A
102
{ACAD_REACTORS
330
1A52
102
}
330
1A52
100
AcDbScale
 70
     0
300
1:20
140
1.0
141
20.0
290
     0
  0
SCALE
  5
1A5B
102
{ACAD_REACTORS
330
1A52
102
}
330
1A52
100
AcDbScale
 70
     0
300
1:30
140
1.0
141
30.0
290
     0
  0
SCALE
  5
1A5C
102
{ACAD_REACTORS
330
1A52
102
}
330
1A52
100
AcDbScale
 70
     0
300
1:40
140
1.0
141
40.0
290
     0
  0
SCALE
  5
1A5D
102
{ACAD_REACTORS
330
1A52
102
}
330
1A52
100
AcDbScale
 70
     0
300
1:50
140
1.0
141
50.0
290
     0
  0
SCALE
  5
1A5E
102
{ACAD_REACTORS
330
1A52
102
}
330
1A52
100
AcDbScale
 70
     0
300
1:100
140
1.0
141
100.0
290
     0
  0
SCALE
  5
1A5F
102
{ACAD_REACTORS
330
1A52
102
}
330
1A52
100
AcDbScale
 70
     0
300
2:1
140
2.0
141
1.0
290
     0
  0
SCALE
  5
1A60
102
{ACAD_REACTORS
330
1A52
102
}
330
1A52
100
AcDbScale
 70
     0
300
4:1
140
4.0
141
1.0
290
     0
  0
SCALE
  5
1A61
102
{ACAD_REACTORS
330
1A52
102
}
330
1A52
100
AcDbScale
 70
     0
300
8:1
140
8.0
141
1.0
290
     0
  0
SCALE
  5
1A62
102
{ACAD_REACTORS
330
1A52
102
}
330
1A52
100
AcDbScale
 70
     0
300
10:1
140
10.0
141
1.0
290
     0
  0
SCALE
  5
1A63
102
{ACAD_REACTORS
330
1A52
102
}
330
1A52
100
AcDbScale
 70
     0
300
100:1
140
100.0
141
1.0
290
     0
  0
SCALE
  5
1A64
102
{ACAD_REACTORS
330
1A52
102
}
330
1A52
100
AcDbScale
 70
     0
300
1/128" = 1'-0"
140
0.0078125
141
12.0
290
     0
  0
SCALE
  5
1A65
102
{ACAD_REACTORS
330
1A52
102
}
330
1A52
100
AcDbScale
 70
     0
300
1/64" = 1'-0"
140
0.015625
141
12.0
290
     0
  0
SCALE
  5
1A66
102
{ACAD_REACTORS
330
1A52
102
}
330
1A52
100
AcDbScale
 70
     0
300
1/32" = 1'-0"
140
0.03125
141
12.0
290
     0
  0
SCALE
  5
1A67
102
{ACAD_REACTORS
330
1A52
102
}
330
1A52
100
AcDbScale
 70
     0
300
1/16" = 1'-0"
140
0.0625
141
12.0
290
     0
  0
SCALE
  5
1A68
102
{ACAD_REACTORS
330
1A52
102
}
330
1A52
100
AcDbScale
 70
     0
300
3/32" = 1'-0"
140
0.09375
141
12.0
290
     0
  0
SCALE
  5
1A69
102
{ACAD_REACTORS
330
1A52
102
}
330
1A52
100
AcDbScale
 70
     0
300
1/8" = 1'-0"
140
0.125
141
12.0
290
     0
  0
SCALE
  5
1A6A
102
{ACAD_REACTORS
330
1A52
102
}
330
1A52
100
AcDbScale
 70
     0
300
3/16" = 1'-0"
140
0.1875
141
12.0
290
     0
  0
SCALE
  5
1A6B
102
{ACAD_REACTORS
330
1A52
102
}
330
1A52
100
AcDbScale
 70
     0
300
1/4" = 1'-0"
140
0.25
141
12.0
290
     0
  0
SCALE
  5
1A6C
102
{ACAD_REACTORS
330
1A52
102
}
330
1A52
100
AcDbScale
 70
     0
300
3/8" = 1'-0"
140
0.375
141
12.0
290
     0
  0
SCALE
  5
1A6D
102
{ACAD_REACTORS
330
1A52
102
}
330
1A52
100
AcDbScale
 70
     0
300
1/2" = 1'-0"
140
0.5
141
12.0
290
     0
  0
SCALE
  5
1A6E
102
{ACAD_REACTORS
330
1A52
102
}
330
1A52
100
AcDbScale
 70
     0
300
3/4" = 1'-0"
140
0.75
141
12.0
290
     0
  0
SCALE
  5
1A6F
102
{ACAD_REACTORS
330
1A52
102
}
330
1A52
100
AcDbScale
 70
     0
300
1" = 1'-0"
140
1.0
141
12.0
290
     0
  0
SCALE
  5
1A70
102
{ACAD_REACTORS
330
1A52
102
}
330
1A52
100
AcDbScale
 70
     0
300
1-1/2" = 1'-0"
140
1.5
141
12.0
290
     0
  0
SCALE
  5
1A71
102
{ACAD_REACTORS
330
1A52
102
}
330
1A52
100
AcDbScale
 70
     0
300
3" = 1'-0"
140
3.0
141
12.0
290
     0
  0
SCALE
  5
1A72
102
{ACAD_REACTORS
330
1A52
102
}
330
1A52
100
AcDbScale
 70
     0
300
6" = 1'-0"
140
6.0
141
12.0
290
     0
  0
SCALE
  5
1A73
102
{ACAD_REACTORS
330
1A52
102
}
330
1A52
100
AcDbScale
 70
     0
300
1'-0" = 1'-0"
140
12.0
141
12.0
290
     0
  0
TABLESTYLE
  5
1A51
102
{ACAD_XDICTIONARY
360
1A78
102
}
102
{ACAD_REACTORS
330
1A50
102
}
330
1A50
100
AcDbTableStyle
  3
Standard
 70
     0
 71
     0
 40
0.06
 41
0.06
280
     0
281
     0
  7
STANDARD
140
0.18
170
     2
 62
     0
 63
     7
283
     0
274
    -2
284
     1
 64
     0
275
    -2
285
     1
 65
     0
276
    -2
286
     1
 66
     0
277
    -2
287
     1
 67
     0
278
    -2
288
     1
 68
     0
279
    -2
289
     1
 69
     0
  7
STANDARD
140
0.25
170
     5
 62
     0
 63
     7
283
     0
274
    -2
284
     1
 64
     0
275
    -2
285
     1
 65
     0
276
    -2
286
     1
 66
     0
277
    -2
287
     1
 67
     0
278
    -2
288
     1
 68
     0
279
    -2
289
     1
 69
     0
  7
STANDARD
140
0.18
170
     5
 62
     0
 63
     7
283
     0
274
    -2
284
     1
 64
     0
275
    -2
285
     1
 65
     0
276
    -2
286
     1
 66
     0
277
    -2
287
     1
 67
     0
278
    -2
288
     1
 68
     0
279
    -2
289
     1
 69
     0
  0
VISUALSTYLE
  5
1A41
102
{ACAD_XDICTIONARY
360
1A8E
102
}
102
{ACAD_REACTORS
330
1A3B
102
}
330
1A3B
100
AcDbVisualStyle
  2
2dWireframe
 70
     4
 71
     0
 72
     2
 73
     0
 90
        0
 40
-0.6
 41
-30.0
 62
     5
 63
     7
 74
     1
 91
        4
 64
     7
 65
   257
 75
     1
175
     1
 42
1.0
 92
        0
 66
   257
 43
1.0
 76
     1
 77
     6
 78
     2
 67
     7
 79
     5
170
     0
171
     0
290
     0
174
     0
 93
        1
 44
0.0
173
     0
291
     0
 45
0.0
1001
ACAD
1000
AcDbSavedByObjectVersion
1070
     0
  0
VISUALSTYLE
  5
1A43
102
{ACAD_XDICTIONARY
360
1A92
102
}
102
{ACAD_REACTORS
330
1A3B
102
}
330
1A3B
100
AcDbVisualStyle
  2
3D Hidden
 70
     6
 71
     1
 72
     2
 73
     2
 90
        0
 40
-0.6
 41
-30.0
 62
     5
 63
     7
 74
     2
 91
        2
 64
     7
 65
   257
 75
     2
175
     1
 42
179.0
 92
        0
 66
   257
 43
1.0
 76
     1
 77
     6
 78
     2
 67
     7
 79
     3
170
     0
171
     0
290
     0
174
     0
 93
        1
 44
0.0
173
     0
291
     0
 45
0.0
1001
ACAD
1000
AcDbSavedByObjectVersion
1070
     0
  0
VISUALSTYLE
  5
1A42
102
{ACAD_XDICTIONARY
360
1A90
102
}
102
{ACAD_REACTORS
330
1A3B
102
}
330
1A3B
100
AcDbVisualStyle
  2
3dWireframe
 70
     5
 71
     0
 72
     2
 73
     0
 90
        0
 40
-0.6
 41
-30.0
 62
     5
 63
     7
 74
     1
 91
        4
 64
     7
 65
   257
 75
     1
175
     1
 42
1.0
 92
        0
 66
   257
 43
1.0
 76
     1
 77
     6
 78
     2
 67
     7
 79
     5
170
     0
171
     0
290
     0
174
     0
 93
        1
 44
0.0
173
     0
291
     0
 45
0.0
1001
ACAD
1000
AcDbSavedByObjectVersion
1070
     0
  0
VISUALSTYLE
  5
1A40
102
{ACAD_XDICTIONARY
360
1A8C
102
}
102
{ACAD_REACTORS
330
1A3B
102
}
330
1A3B
100
AcDbVisualStyle
  2
Basic
 70
     7
 71
     1
 72
     0
 73
     1
 90
        0
 40
-0.6
 41
-30.0
 62
     5
 63
     7
 74
     0
 91
        4
 64
     7
 65
   257
 75
     1
175
     1
 42
1.0
 92
        8
 66
     7
 43
1.0
 76
     1
 77
     6
 78
     2
 67
     7
 79
     5
170
     0
171
     0
290
     0
174
     0
 93
        1
 44
0.0
173
     0
291
     1
 45
0.0
1001
ACAD
1000
AcDbSavedByObjectVersion
1070
     0
  0
VISUALSTYLE
  5
1A47
102
{ACAD_XDICTIONARY
360
1A9A
102
}
102
{ACAD_REACTORS
330
1A3B
102
}
330
1A3B
100
AcDbVisualStyle
  2
Brighten
 70
    12
 71
     2
 72
     2
 73
     0
 90
        0
 40
-0.6
 41
-30.0
 62
     5
 63
     7
 74
     1
 91
        4
 64
     7
 65
   257
 75
     1
175
     1
 42
1.0
 92
        8
 66
     7
 43
1.0
 76
     1
 77
     6
 78
     2
 67
     7
 79
     5
170
     0
171
     0
290
     0
174
     0
 93
        1
 44
50.0
173
     0
291
     1
 45
0.0
1001
ACAD
1000
AcDbSavedByObjectVersion
1070
     0
  0
VISUALSTYLE
  5
1A4B
102
{ACAD_XDICTIONARY
360
1AA2
102
}
102
{ACAD_REACTORS
330
1A3B
102
}
330
1A3B
100
AcDbVisualStyle
  2
ColorChange
 70
    16
 71
     2
 72
     2
 73
     3
 90
        0
 40
-0.6
 41
-30.0
 62
     5
 63
     8
 74
     1
 91
        4
 64
     7
 65
   257
 75
     1
175
     1
 42
1.0
 92
        8
 66
     8
 43
1.0
 76
     1
 77
     6
 78
     2
 67
     7
 79
     5
170
     0
171
     0
290
     0
174
     0
 93
        1
 44
0.0
173
     0
291
     1
 45
0.0
1001
ACAD
1000
AcDbSavedByObjectVersion
1070
     0
  0
VISUALSTYLE
  5
1A44
102
{ACAD_XDICTIONARY
360
1A94
102
}
102
{ACAD_REACTORS
330
1A3B
102
}
330
1A3B
100
AcDbVisualStyle
  2
Conceptual
 70
     9
 71
     3
 72
     2
 73
     0
 90
        0
 40
-0.6
 41
-30.0
 62
     5
 63
     7
 74
     2
 91
        2
 64
     7
 65
   257
 75
     1
175
     1
 42
179.0
 92
        8
 66
     7
 43
1.0
 76
     1
 77
     6
 78
     2
 67
     7
 79
     3
170
     0
171
     0
290
     0
174
     0
 93
        1
 44
0.0
173
     0
291
     0
 45
0.0
1001
ACAD
1000
AcDbSavedByObjectVersion
1070
     0
  0
VISUALSTYLE
  5
1A46
102
{ACAD_XDICTIONARY
360
1A98
102
}
102
{ACAD_REACTORS
330
1A3B
102
}
330
1A3B
100
AcDbVisualStyle
  2
Dim
 70
    11
 71
     2
 72
     2
 73
     0
 90
        0
 40
-0.6
 41
-30.0
 62
     5
 63
     7
 74
     1
 91
        4
 64
     7
 65
   257
 75
     1
175
     1
 42
1.0
 92
        8
 66
     7
 43
1.0
 76
     1
 77
     6
 78
     2
 67
     7
 79
     5
170
     0
171
     0
290
     0
174
     0
 93
        1
 44
-50.0
173
     0
291
     1
 45
0.0
1001
ACAD
1000
AcDbSavedByObjectVersion
1070
     0
  0
VISUALSTYLE
  5
1A4E
102
{ACAD_XDICTIONARY
360
1AA8
102
}
102
{ACAD_REACTORS
330
1A3B
102
}
330
1A3B
100
AcDbVisualStyle
  2
EdgeColorOff
 70
    22
 71
     2
 72
     2
 73
     0
 90
        0
 40
-0.6
 41
-30.0
 62
     5
 63
     7
 74
     1
 91
        4
 64
     7
 65
   257
 75
     1
175
     1
 42
1.0
 92
        8
 66
     7
 43
1.0
 76
     1
 77
     6
 78
     2
 67
     7
 79
     5
170
     0
171
     0
290
     0
174
     0
 93
        1
 44
0.0
173
     0
291
     1
 45
0.0
1001
ACAD
1000
AcDbSavedByObjectVersion
1070
     0
  0
VISUALSTYLE
  5
1A4A
102
{ACAD_XDICTIONARY
360
1AA0
102
}
102
{ACAD_REACTORS
330
1A3B
102
}
330
1A3B
100
AcDbVisualStyle
  2
Facepattern
 70
    15
 71
     2
 72
     2
 73
     0
 90
        0
 40
-0.6
 41
-30.0
 62
     5
 63
     7
 74
     1
 91
        4
 64
     7
 65
   257
 75
     1
175
     1
 42
1.0
 92
        8
 66
     7
 43
1.0
 76
     1
 77
     6
 78
     2
 67
     7
 79
     5
170
     0
171
     0
290
     0
174
     0
 93
        1
 44
0.0
173
     0
291
     1
 45
0.0
1001
ACAD
1000
AcDbSavedByObjectVersion
1070
     0
  0
VISUALSTYLE
  5
1A3C
102
{ACAD_XDICTIONARY
360
1A84
102
}
102
{ACAD_REACTORS
330
1A3B
102
}
330
1A3B
100
AcDbVisualStyle
  2
Flat
 70
     0
 71
     2
 72
     1
 73
     1
 90
        2
 40
-0.6
 41
30.0
 62
     5
 63
     7
 74
     0
 91
        4
 64
     7
 65
   257
 75
     1
175
     1
 42
1.0
 92
        8
 66
     7
 43
1.0
 76
     1
 77
     6
 78
     2
 67
     7
 79
     5
170
     0
171
     0
290
     0
174
     0
 93
       13
 44
0.0
173
     0
291
     1
 45
0.0
1001
ACAD
1000
AcDbSavedByObjectVersion
1070
     0
  0
VISUALSTYLE
  5
1A3D
102
{ACAD_XDICTIONARY
360
1A86
102
}
102
{ACAD_REACTORS
330
1A3B
102
}
330
1A3B
100
AcDbVisualStyle
  2
FlatWithEdges
 70
     1
 71
     2
 72
     1
 73
     1
 90
        2
 40
-0.6
 41
30.0
 62
     5
 63
     7
 74
     1
 91
        4
 64
     7
 65
   257
 75
     1
175
     1
 42
1.0
 92
        0
 66
   257
 43
1.0
 76
     1
 77
     6
 78
     2
 67
     7
 79
     5
170
     0
171
     0
290
     0
174
     0
 93
       13
 44
0.0
173
     0
291
     1
 45
0.0
1001
ACAD
1000
AcDbSavedByObjectVersion
1070
     0
  0
VISUALSTYLE
  5
1A3E
102
{ACAD_XDICTIONARY
360
1A88
102
}
102
{ACAD_REACTORS
330
1A3B
102
}
330
1A3B
100
AcDbVisualStyle
  2
Gouraud
 70
     2
 71
     2
 72
     2
 73
     1
 90
        2
 40
-0.6
 41
30.0
 62
     5
 63
     7
 74
     0
 91
        4
 64
     7
 65
   257
 75
     1
175
     1
 42
1.0
 92
        0
 66
     7
 43
1.0
 76
     1
 77
     6
 78
     2
 67
     7
 79
     5
170
     0
171
     0
290
     0
174
     0
 93
       13
 44
0.0
173
     0
291
     1
 45
0.0
1001
ACAD
1000
AcDbSavedByObjectVersion
1070
     0
  0
VISUALSTYLE
  5
1A3F
102
{ACAD_XDICTIONARY
360
1A8A
102
}
102
{ACAD_REACTORS
330
1A3B
102
}
330
1A3B
100
AcDbVisualStyle
  2
GouraudWithEdges
 70
     3
 71
     2
 72
     2
 73
     1
 90
        2
 40
-0.6
 41
30.0
 62
     5
 63
     7
 74
     1
 91
        4
 64
     7
 65
   257
 75
     1
175
     1
 42
1.0
 92
        0
 66
   257
 43
1.0
 76
     1
 77
     6
 78
     2
 67
     7
 79
     5
170
     0
171
     0
290
     0
174
     0
 93
       13
 44
0.0
173
     0
291
     1
 45
0.0
1001
ACAD
1000
AcDbSavedByObjectVersion
1070
     0
  0
VISUALSTYLE
  5
1A4C
102
{ACAD_XDICTIONARY
360
1AA4
102
}
102
{ACAD_REACTORS
330
1A3B
102
}
330
1A3B
100
AcDbVisualStyle
  2
JitterOff
 70
    20
 71
     2
 72
     2
 73
     0
 90
        0
 40
-0.6
 41
-30.0
 62
     5
 63
     7
 74
     1
 91
        4
 64
     7
 65
   257
 75
     1
175
     1
 42
1.0
 92
       10
 66
     7
 43
1.0
 76
     1
 77
     6
 78
     2
 67
     7
 79
     5
170
     0
171
     0
290
     0
174
     0
 93
        1
 44
0.0
173
     0
291
     1
 45
0.0
1001
ACAD
1000
AcDbSavedByObjectVersion
1070
     0
  0
VISUALSTYLE
  5
1A49
102
{ACAD_XDICTIONARY
360
1A9E
102
}
102
{ACAD_REACTORS
330
1A3B
102
}
330
1A3B
100
AcDbVisualStyle
  2
Linepattern
 70
    14
 71
     2
 72
     2
 73
     0
 90
        0
 40
-0.6
 41
-30.0
 62
     5
 63
     7
 74
     1
 91
        4
 64
     7
 65
   257
 75
     7
175
     7
 42
1.0
 92
        8
 66
     7
 43
1.0
 76
     1
 77
     6
 78
     2
 67
     7
 79
     5
170
     0
171
     0
290
     0
174
     0
 93
        1
 44
0.0
173
     0
291
     1
 45
0.0
1001
ACAD
1000
AcDbSavedByObjectVersion
1070
     0
  0
VISUALSTYLE
  5
1A4D
102
{ACAD_XDICTIONARY
360
1AA6
102
}
102
{ACAD_REACTORS
330
1A3B
102
}
330
1A3B
100
AcDbVisualStyle
  2
OverhangOff
 70
    21
 71
     2
 72
     2
 73
     0
 90
        0
 40
-0.6
 41
-30.0
 62
     5
 63
     7
 74
     1
 91
        4
 64
     7
 65
   257
 75
     1
175
     1
 42
1.0
 92
        9
 66
     7
 43
1.0
 76
     1
 77
     6
 78
     2
 67
     7
 79
     5
170
     0
171
     0
290
     0
174
     0
 93
        1
 44
0.0
173
     0
291
     1
 45
0.0
1001
ACAD
1000
AcDbSavedByObjectVersion
1070
     0
  0
VISUALSTYLE
  5
1A45
102
{ACAD_XDICTIONARY
360
1A96
102
}
102
{ACAD_REACTORS
330
1A3B
102
}
330
1A3B
100
AcDbVisualStyle
  2
Realistic
 70
     8
 71
     2
 72
     2
 73
     0
 90
        0
 40
-0.6
 41
-30.0
 62
     5
 63
     7
 74
     1
 91
        0
 64
     7
 65
   257
 75
     1
175
     1
 42
1.0
 92
        8
 66
     8
 43
1.0
 76
     1
 77
     6
 78
     2
 67
     7
 79
     5
170
     0
171
     0
290
     0
174
     0
 93
       13
 44
0.0
173
     0
291
     0
 45
0.0
1001
ACAD
1000
AcDbSavedByObjectVersion
1070
     0
  0
VISUALSTYLE
  5
1A48
102
{ACAD_XDICTIONARY
360
1A9C
102
}
102
{ACAD_REACTORS
330
1A3B
102
}
330
1A3B
100
AcDbVisualStyle
  2
Thicken
 70
    13
 71
     2
 72
     2
 73
     0
 90
        0
 40
-0.6
 41
-30.0
 62
     5
 63
     7
 74
     1
 91
        4
 64
     7
 65
   257
 75
     1
175
     1
 42
1.0
 92
       12
 66
     7
 43
1.0
 76
     1
 77
     6
 78
     2
 67
     7
 79
     5
170
     0
171
     0
290
     0
174
     0
 93
        1
 44
0.0
173
     0
291
     1
 45
0.0
1001
ACAD
1000
AcDbSavedByObjectVersion
1070
     0
  0
DICTIONARYVAR
  5
1AAF
102
{ACAD_REACTORS
330
1AAC
102
}
330
1AAC
100
DictionaryVariables
280
     0
  1
1:1
  0
DICTIONARYVAR
  5
1AAE
102
{ACAD_REACTORS
330
1AAC
102
}
330
1AAC
100
DictionaryVariables
280
     0
  1
STANDARD
  0
DICTIONARYVAR
  5
1AAD
102
{ACAD_REACTORS
330
1AAC
102
}
330
1AAC
100
DictionaryVariables
280
     0
  1
STANDARD
  0
DICTIONARYVAR
  5
1AB2
102
{ACAD_REACTORS
330
1AAC
102
}
330
1AAC
100
DictionaryVariables
280
     0
  1
1
  0
DICTIONARYVAR
  5
1AB1
102
{ACAD_REACTORS
330
1AAC
102
}
330
1AAC
100
DictionaryVariables
280
     0
  1
0
  0
DICTIONARYVAR
  5
1AB0
102
{ACAD_REACTORS
330
1AAC
102
}
330
1AAC
100
DictionaryVariables
280
     0
  1
127
  0
DICTIONARYVAR
  5
1AB3
102
{ACAD_REACTORS
330
1AAC
102
}
330
1AAC
100
DictionaryVariables
280
     0
  1
0
  0
DICTIONARY
  5
1B43
330
1A1E
100
AcDbDictionary
280
     1
281
     1
  3
ACAD_XREC_ROUNDTRIP
360
1B44
  0
DICTIONARY
  5
1B41
330
1A1D
100
AcDbDictionary
280
     1
281
     1
  3
ACAD_XREC_ROUNDTRIP
360
1B42
  0
DICTIONARY
  5
1A2C
330
1A2B
100
AcDbDictionary
280
     1
281
     1
  3
ACAD_XREC_ROUNDTRIP
360
1B46
  3
BUMPTILE
360
1A2E
  3
DIFFUSETILE
360
1A2D
  3
OPACITYTILE
360
1A31
  3
REFLECTIONTILE
360
1A30
  3
REFRACTIONTILE
360
1A32
  3
SPECULARTILE
360
1A2F
  0
DICTIONARY
  5
1A24
330
1A23
100
AcDbDictionary
280
     1
281
     1
  3
ACAD_XREC_ROUNDTRIP
360
1B45
  3
BUMPTILE
360
1A26
  3
DIFFUSETILE
360
1A25
  3
OPACITYTILE
360
1A29
  3
REFLECTIONTILE
360
1A28
  3
REFRACTIONTILE
360
1A2A
  3
SPECULARTILE
360
1A27
  0
DICTIONARY
  5
1A34
330
1A33
100
AcDbDictionary
280
     1
281
     1
  3
ACAD_XREC_ROUNDTRIP
360
1B47
  3
BUMPTILE
360
1A36
  3
DIFFUSETILE
360
1A35
  3
OPACITYTILE
360
1A39
  3
REFLECTIONTILE
360
1A38
  3
REFRACTIONTILE
360
1A3A
  3
SPECULARTILE
360
1A37
  0
DICTIONARY
  5
1A78
330
1A51
100
AcDbDictionary
280
     1
281
     1
  3
ACAD_ROUNDTRIP_2008_TABLESTYLE_CELLSTYLEMAP
360
1B3F
  3
ACAD_XREC_ROUNDTRIP
360
1B48
  0
DICTIONARY
  5
1A8E
330
1A41
100
AcDbDictionary
280
     1
281
     1
  3
ACAD_XREC_ROUNDTRIP
360
1A8F
  0
DICTIONARY
  5
1A92
330
1A43
100
AcDbDictionary
280
     1
281
     1
  3
ACAD_XREC_ROUNDTRIP
360
1A93
  0
DICTIONARY
  5
1A90
330
1A42
100
AcDbDictionary
280
     1
281
     1
  3
ACAD_XREC_ROUNDTRIP
360
1A91
  0
DICTIONARY
  5
1A8C
330
1A40
100
AcDbDictionary
280
     1
281
     1
  3
ACAD_XREC_ROUNDTRIP
360
1A8D
  0
DICTIONARY
  5
1A9A
330
1A47
100
AcDbDictionary
280
     1
281
     1
  3
ACAD_XREC_ROUNDTRIP
360
1A9B
  0
DICTIONARY
  5
1AA2
330
1A4B
100
AcDbDictionary
280
     1
281
     1
  3
ACAD_XREC_ROUNDTRIP
360
1AA3
  0
DICTIONARY
  5
1A94
330
1A44
100
AcDbDictionary
280
     1
281
     1
  3
ACAD_XREC_ROUNDTRIP
360
1A95
  0
DICTIONARY
  5
1A98
330
1A46
100
AcDbDictionary
280
     1
281
     1
  3
ACAD_XREC_ROUNDTRIP
360
1A99
  0
DICTIONARY
  5
1AA8
330
1A4E
100
AcDbDictionary
280
     1
281
     1
  3
ACAD_XREC_ROUNDTRIP
360
1AA9
  0
DICTIONARY
  5
1AA0
330
1A4A
100
AcDbDictionary
280
     1
281
     1
  3
ACAD_XREC_ROUNDTRIP
360
1AA1
  0
DICTIONARY
  5
1A84
330
1A3C
100
AcDbDictionary
280
     1
281
     1
  3
ACAD_XREC_ROUNDTRIP
360
1A85
  0
DICTIONARY
  5
1A86
330
1A3D
100
AcDbDictionary
280
     1
281
     1
  3
ACAD_XREC_ROUNDTRIP
360
1A87
  0
DICTIONARY
  5
1A88
330
1A3E
100
AcDbDictionary
280
     1
281
     1
  3
ACAD_XREC_ROUNDTRIP
360
1A89
  0
DICTIONARY
  5
1A8A
330
1A3F
100
AcDbDictionary
280
     1
281
     1
  3
ACAD_XREC_ROUNDTRIP
360
1A8B
  0
DICTIONARY
  5
1AA4
330
1A4C
100
AcDbDictionary
280
     1
281
     1
  3
ACAD_XREC_ROUNDTRIP
360
1AA5
  0
DICTIONARY
  5
1A9E
330
1A49
100
AcDbDictionary
280
     1
281
     1
  3
ACAD_XREC_ROUNDTRIP
360
1A9F
  0
DICTIONARY
  5
1AA6
330
1A4D
100
AcDbDictionary
280
     1
281
     1
  3
ACAD_XREC_ROUNDTRIP
360
1AA7
  0
DICTIONARY
  5
1A96
330
1A45
100
AcDbDictionary
280
     1
281
     1
  3
ACAD_XREC_ROUNDTRIP
360
1A97
  0
DICTIONARY
  5
1A9C
330
1A48
100
AcDbDictionary
280
     1
281
     1
  3
ACAD_XREC_ROUNDTRIP
360
1A9D
  0
XRECORD
  5
1B44
102
{ACAD_REACTORS
330
1B43
102
}
330
1B43
100
AcDbXrecord
280
     1
102
SHADEPLOT
 70
     0
102
SHADEPLOTRESLEVEL
 70
     2
102
SHADEPLOTCUSTOMDPI
 70
   300
  0
XRECORD
  5
1B42
102
{ACAD_REACTORS
330
1B41
102
}
330
1B41
100
AcDbXrecord
280
     1
102
SHADEPLOT
 70
     0
102
SHADEPLOTRESLEVEL
 70
     2
102
SHADEPLOTCUSTOMDPI
 70
   300
  0
XRECORD
  5
1B46
102
{ACAD_REACTORS
330
1A2C
102
}
330
1A2C
100
AcDbXrecord
280
     1
102
MATERIAL
148
0.0
149
0.0
149
0.0
 93
        0
 94
      127
282
     0
 72
     0
 77
     0
171
     0
175
     0
179
     0
273
     0
  0
XRECORD
  5
1A2E
102
{ACAD_REACTORS
330
1A2C
102
}
330
1A2C
100
AcDbXrecord
280
     1
270
     1
271
     1
  0
XRECORD
  5
1A2D
102
{ACAD_REACTORS
330
1A2C
102
}
330
1A2C
100
AcDbXrecord
280
     1
270
     1
271
     1
  0
XRECORD
  5
1A31
102
{ACAD_REACTORS
330
1A2C
102
}
330
1A2C
100
AcDbXrecord
280
     1
270
     1
271
     1
  0
XRECORD
  5
1A30
102
{ACAD_REACTORS
330
1A2C
102
}
330
1A2C
100
AcDbXrecord
280
     1
270
     1
271
     1
  0
XRECORD
  5
1A32
102
{ACAD_REACTORS
330
1A2C
102
}
330
1A2C
100
AcDbXrecord
280
     1
270
     1
271
     1
  0
XRECORD
  5
1A2F
102
{ACAD_REACTORS
330
1A2C
102
}
330
1A2C
100
AcDbXrecord
280
     1
270
     1
271
     1
  0
XRECORD
  5
1B45
102
{ACAD_REACTORS
330
1A24
102
}
330
1A24
100
AcDbXrecord
280
     1
102
MATERIAL
148
0.0
149
0.0
149
0.0
 93
        0
 94
      127
282
     0
 72
     0
 77
     0
171
     0
175
     0
179
     0
273
     0
  0
XRECORD
  5
1A26
102
{ACAD_REACTORS
330
1A24
102
}
330
1A24
100
AcDbXrecord
280
     1
270
     1
271
     1
  0
XRECORD
  5
1A25
102
{ACAD_REACTORS
330
1A24
102
}
330
1A24
100
AcDbXrecord
280
     1
270
     1
271
     1
  0
XRECORD
  5
1A29
102
{ACAD_REACTORS
330
1A24
102
}
330
1A24
100
AcDbXrecord
280
     1
270
     1
271
     1
  0
XRECORD
  5
1A28
102
{ACAD_REACTORS
330
1A24
102
}
330
1A24
100
AcDbXrecord
280
     1
270
     1
271
     1
  0
XRECORD
  5
1A2A
102
{ACAD_REACTORS
330
1A24
102
}
330
1A24
100
AcDbXrecord
280
     1
270
     1
271
     1
  0
XRECORD
  5
1A27
102
{ACAD_REACTORS
330
1A24
102
}
330
1A24
100
AcDbXrecord
280
     1
270
     1
271
     1
  0
XRECORD
  5
1B47
102
{ACAD_REACTORS
330
1A34
102
}
330
1A34
100
AcDbXrecord
280
     1
102
MATERIAL
148
0.0
149
0.0
149
0.0
 93
        0
 94
      127
282
     0
 72
     0
 77
     0
171
     0
175
     0
179
     0
273
     0
  0
XRECORD
  5
1A36
102
{ACAD_REACTORS
330
1A34
102
}
330
1A34
100
AcDbXrecord
280
     1
270
     1
271
     1
  0
XRECORD
  5
1A35
102
{ACAD_REACTORS
330
1A34
102
}
330
1A34
100
AcDbXrecord
280
     1
270
     1
271
     1
  0
XRECORD
  5
1A39
102
{ACAD_REACTORS
330
1A34
102
}
330
1A34
100
AcDbXrecord
280
     1
270
     1
271
     1
  0
XRECORD
  5
1A38
102
{ACAD_REACTORS
330
1A34
102
}
330
1A34
100
AcDbXrecord
280
     1
270
     1
271
     1
  0
XRECORD
  5
1A3A
102
{ACAD_REACTORS
330
1A34
102
}
330
1A34
100
AcDbXrecord
280
     1
270
     1
271
     1
  0
XRECORD
  5
1A37
102
{ACAD_REACTORS
330
1A34
102
}
330
1A34
100
AcDbXrecord
280
     1
270
     1
271
     1
  0
CELLSTYLEMAP
  5
1B3F
102
{ACAD_REACTORS
330
1A78
102
}
330
1A78
100
AcDbCellStyleMap
 90
        3
300
CELLSTYLE
  1
TABLEFORMAT_BEGIN
 90
        5
170
     1
 91
        0
 92
    32768
 62
   257
 93
        1
300
CONTENTFORMAT
  1
CONTENTFORMAT_BEGIN
 90
        0
 91
        0
 92
      512
 93
        0
300

 40
0.0
140
1.0
 94
        5
 62
     0
340
11
144
0.25
309
CONTENTFORMAT_END
171
     0
 94
        0
309
TABLEFORMAT_END
  1
CELLSTYLE_BEGIN
 90
        1
 91
        1
300
_TITLE
309
CELLSTYLE_END
300
CELLSTYLE
  1
TABLEFORMAT_BEGIN
 90
        5
170
     1
 91
        0
 92
        0
 62
   257
 93
        1
300
CONTENTFORMAT
  1
CONTENTFORMAT_BEGIN
 90
        0
 91
        0
 92
      512
 93
        0
300

 40
0.0
140
1.0
 94
        5
 62
     0
340
11
144
0.18
309
CONTENTFORMAT_END
171
     0
 94
        0
309
TABLEFORMAT_END
  1
CELLSTYLE_BEGIN
 90
        2
 91
        1
300
_HEADER
309
CELLSTYLE_END
300
CELLSTYLE
  1
TABLEFORMAT_BEGIN
 90
        5
170
     1
 91
        0
 92
        0
 62
   257
 93
        1
300
CONTENTFORMAT
  1
CONTENTFORMAT_BEGIN
 90
        0
 91
        0
 92
      512
 93
        0
300

 40
0.0
140
1.0
 94
        2
 62
     0
340
11
144
0.18
309
CONTENTFORMAT_END
171
     0
 94
        0
309
TABLEFORMAT_END
  1
CELLSTYLE_BEGIN
 90
        3
 91
        2
300
_DATA
309
CELLSTYLE_END
  0
XRECORD
  5
1B48
102
{ACAD_REACTORS
330
1A78
102
}
330
1A78
100
AcDbXrecord
280
     1
102
ACAD_ROUNDTRIP_PRE2007_TABLESTYLE
 90
      512
 91
        0
  1

 92
      512
 93
        0
  2

 94
      512
 95
        0
  3

  0
XRECORD
  5
1A8F
102
{ACAD_REACTORS
330
1A8E
102
}
330
1A8E
100
AcDbXrecord
280
     1
102
RTVSPropertyOp0
 70
     1
102
RTVSPropertyOp1
 70
     1
102
RTVSPropertyOp2
 70
     1
102
RTVSPropertyOp3
 70
     1
102
RTVSPropertyOp4
 70
     1
102
RTVSPropertyOp5
 70
     1
102
RTVSPropertyOp6
 70
     1
102
RTVSPropertyOp7
 70
     1
102
RTVSPropertyOp8
 70
     1
102
RTVSPropertyOp9
 70
     1
102
RTVSPropertyOp10
 70
     1
102
RTVSPropertyOp11
 70
     1
102
RTVSPropertyOp12
 70
     1
102
RTVSPropertyOp13
 70
     1
102
RTVSPropertyOp14
 70
     1
102
RTVSPropertyOp15
 70
     1
102
RTVSPropertyOp16
 70
     1
102
RTVSPropertyOp17
 70
     1
102
RTVSPropertyOp18
 70
     1
102
RTVSPropertyOp19
 70
     1
102
RTVSPropertyOp20
 70
     1
102
RTVSPropertyOp21
 70
     1
102
RTVSPropertyOp22
 70
     1
102
RTVSPropertyOp23
 70
     1
102
RTVSPropertyOp24
 70
     1
102
RTVSPropertyOp25
 70
     1
102
RTVSPropertyOp26
 70
     1
102
RTVSPropertyOp27
 70
     1
  0
XRECORD
  5
1A93
102
{ACAD_REACTORS
330
1A92
102
}
330
1A92
100
AcDbXrecord
280
     1
102
RTVSPropertyOp0
 70
     1
102
RTVSPropertyOp1
 70
     1
102
RTVSPropertyOp2
 70
     1
102
RTVSPropertyOp3
 70
     1
102
RTVSPropertyOp4
 70
     1
102
RTVSPropertyOp5
 70
     1
102
RTVSPropertyOp6
 70
     1
102
RTVSPropertyOp7
 70
     1
102
RTVSPropertyOp8
 70
     1
102
RTVSPropertyOp9
 70
     1
102
RTVSPropertyOp10
 70
     1
102
RTVSPropertyOp11
 70
     1
102
RTVSPropertyOp12
 70
     1
102
RTVSPropertyOp13
 70
     1
102
RTVSPropertyOp14
 70
     1
102
RTVSPropertyOp15
 70
     1
102
RTVSPropertyOp16
 70
     1
102
RTVSPropertyOp17
 70
     1
102
RTVSPropertyOp18
 70
     1
102
RTVSPropertyOp19
 70
     1
102
RTVSPropertyOp20
 70
     1
102
RTVSPropertyOp21
 70
     1
102
RTVSPropertyOp22
 70
     1
102
RTVSPropertyOp23
 70
     1
102
RTVSPropertyOp24
 70
     1
102
RTVSPropertyOp25
 70
     1
102
RTVSPropertyOp26
 70
     1
102
RTVSPropertyOp27
 70
     1
  0
XRECORD
  5
1A91
102
{ACAD_REACTORS
330
1A90
102
}
330
1A90
100
AcDbXrecord
280
     1
102
RTVSPropertyOp0
 70
     1
102
RTVSPropertyOp1
 70
     1
102
RTVSPropertyOp2
 70
     1
102
RTVSPropertyOp3
 70
     1
102
RTVSPropertyOp4
 70
     1
102
RTVSPropertyOp5
 70
     1
102
RTVSPropertyOp6
 70
     1
102
RTVSPropertyOp7
 70
     1
102
RTVSPropertyOp8
 70
     1
102
RTVSPropertyOp9
 70
     1
102
RTVSPropertyOp10
 70
     1
102
RTVSPropertyOp11
 70
     1
102
RTVSPropertyOp12
 70
     1
102
RTVSPropertyOp13
 70
     1
102
RTVSPropertyOp14
 70
     1
102
RTVSPropertyOp15
 70
     1
102
RTVSPropertyOp16
 70
     1
102
RTVSPropertyOp17
 70
     1
102
RTVSPropertyOp18
 70
     1
102
RTVSPropertyOp19
 70
     1
102
RTVSPropertyOp20
 70
     1
102
RTVSPropertyOp21
 70
     1
102
RTVSPropertyOp22
 70
     1
102
RTVSPropertyOp23
 70
     1
102
RTVSPropertyOp24
 70
     1
102
RTVSPropertyOp25
 70
     1
102
RTVSPropertyOp26
 70
     1
102
RTVSPropertyOp27
 70
     1
  0
XRECORD
  5
1A8D
102
{ACAD_REACTORS
330
1A8C
102
}
330
1A8C
100
AcDbXrecord
280
     1
102
RTVSPropertyOp0
 70
     1
102
RTVSPropertyOp1
 70
     1
102
RTVSPropertyOp2
 70
     1
102
RTVSPropertyOp3
 70
     1
102
RTVSPropertyOp4
 70
     1
102
RTVSPropertyOp5
 70
     1
102
RTVSPropertyOp6
 70
     1
102
RTVSPropertyOp7
 70
     1
102
RTVSPropertyOp8
 70
     1
102
RTVSPropertyOp9
 70
     1
102
RTVSPropertyOp10
 70
     1
102
RTVSPropertyOp11
 70
     1
102
RTVSPropertyOp12
 70
     1
102
RTVSPropertyOp13
 70
     1
102
RTVSPropertyOp14
 70
     1
102
RTVSPropertyOp15
 70
     1
102
RTVSPropertyOp16
 70
     1
102
RTVSPropertyOp17
 70
     1
102
RTVSPropertyOp18
 70
     1
102
RTVSPropertyOp19
 70
     1
102
RTVSPropertyOp20
 70
     1
102
RTVSPropertyOp21
 70
     1
102
RTVSPropertyOp22
 70
     1
102
RTVSPropertyOp23
 70
     1
102
RTVSPropertyOp24
 70
     1
102
RTVSPropertyOp25
 70
     1
102
RTVSPropertyOp26
 70
     1
102
RTVSPropertyOp27
 70
     1
  0
XRECORD
  5
1A9B
102
{ACAD_REACTORS
330
1A9A
102
}
330
1A9A
100
AcDbXrecord
280
     1
102
RTVSPropertyOp0
 70
     1
102
RTVSPropertyOp1
 70
     1
102
RTVSPropertyOp2
 70
     1
102
RTVSPropertyOp3
 70
     1
102
RTVSPropertyOp4
 70
     1
102
RTVSPropertyOp5
 70
     1
102
RTVSPropertyOp6
 70
     1
102
RTVSPropertyOp7
 70
     1
102
RTVSPropertyOp8
 70
     1
102
RTVSPropertyOp9
 70
     1
102
RTVSPropertyOp10
 70
     1
102
RTVSPropertyOp11
 70
     1
102
RTVSPropertyOp12
 70
     1
102
RTVSPropertyOp13
 70
     1
102
RTVSPropertyOp14
 70
     1
102
RTVSPropertyOp15
 70
     1
102
RTVSPropertyOp16
 70
     1
102
RTVSPropertyOp17
 70
     1
102
RTVSPropertyOp18
 70
     1
102
RTVSPropertyOp19
 70
     1
102
RTVSPropertyOp20
 70
     1
102
RTVSPropertyOp21
 70
     1
102
RTVSPropertyOp22
 70
     1
102
RTVSPropertyOp23
 70
     1
102
RTVSPropertyOp24
 70
     1
102
RTVSPropertyOp25
 70
     1
102
RTVSPropertyOp26
 70
     1
102
RTVSPropertyOp27
 70
     1
  0
XRECORD
  5
1AA3
102
{ACAD_REACTORS
330
1AA2
102
}
330
1AA2
100
AcDbXrecord
280
     1
102
RTVSPropertyOp0
 70
     1
102
RTVSPropertyOp1
 70
     1
102
RTVSPropertyOp2
 70
     1
102
RTVSPropertyOp3
 70
     1
102
RTVSPropertyOp4
 70
     1
102
RTVSPropertyOp5
 70
     1
102
RTVSPropertyOp6
 70
     1
102
RTVSPropertyOp7
 70
     1
102
RTVSPropertyOp8
 70
     1
102
RTVSPropertyOp9
 70
     1
102
RTVSPropertyOp10
 70
     1
102
RTVSPropertyOp11
 70
     1
102
RTVSPropertyOp12
 70
     1
102
RTVSPropertyOp13
 70
     1
102
RTVSPropertyOp14
 70
     1
102
RTVSPropertyOp15
 70
     1
102
RTVSPropertyOp16
 70
     1
102
RTVSPropertyOp17
 70
     1
102
RTVSPropertyOp18
 70
     1
102
RTVSPropertyOp19
 70
     1
102
RTVSPropertyOp20
 70
     1
102
RTVSPropertyOp21
 70
     1
102
RTVSPropertyOp22
 70
     1
102
RTVSPropertyOp23
 70
     1
102
RTVSPropertyOp24
 70
     1
102
RTVSPropertyOp25
 70
     1
102
RTVSPropertyOp26
 70
     1
102
RTVSPropertyOp27
 70
     1
  0
XRECORD
  5
1A95
102
{ACAD_REACTORS
330
1A94
102
}
330
1A94
100
AcDbXrecord
280
     1
102
RTVSPropertyOp0
 70
     1
102
RTVSPropertyOp1
 70
     1
102
RTVSPropertyOp2
 70
     1
102
RTVSPropertyOp3
 70
     1
102
RTVSPropertyOp4
 70
     1
102
RTVSPropertyOp5
 70
     1
102
RTVSPropertyOp6
 70
     1
102
RTVSPropertyOp7
 70
     1
102
RTVSPropertyOp8
 70
     1
102
RTVSPropertyOp9
 70
     1
102
RTVSPropertyOp10
 70
     1
102
RTVSPropertyOp11
 70
     1
102
RTVSPropertyOp12
 70
     1
102
RTVSPropertyOp13
 70
     1
102
RTVSPropertyOp14
 70
     1
102
RTVSPropertyOp15
 70
     1
102
RTVSPropertyOp16
 70
     1
102
RTVSPropertyOp17
 70
     1
102
RTVSPropertyOp18
 70
     1
102
RTVSPropertyOp19
 70
     1
102
RTVSPropertyOp20
 70
     1
102
RTVSPropertyOp21
 70
     1
102
RTVSPropertyOp22
 70
     1
102
RTVSPropertyOp23
 70
     1
102
RTVSPropertyOp24
 70
     1
102
RTVSPropertyOp25
 70
     1
102
RTVSPropertyOp26
 70
     1
102
RTVSPropertyOp27
 70
     1
  0
XRECORD
  5
1A99
102
{ACAD_REACTORS
330
1A98
102
}
330
1A98
100
AcDbXrecord
280
     1
102
RTVSPropertyOp0
 70
     1
102
RTVSPropertyOp1
 70
     1
102
RTVSPropertyOp2
 70
     1
102
RTVSPropertyOp3
 70
     1
102
RTVSPropertyOp4
 70
     1
102
RTVSPropertyOp5
 70
     1
102
RTVSPropertyOp6
 70
     1
102
RTVSPropertyOp7
 70
     1
102
RTVSPropertyOp8
 70
     1
102
RTVSPropertyOp9
 70
     1
102
RTVSPropertyOp10
 70
     1
102
RTVSPropertyOp11
 70
     1
102
RTVSPropertyOp12
 70
     1
102
RTVSPropertyOp13
 70
     1
102
RTVSPropertyOp14
 70
     1
102
RTVSPropertyOp15
 70
     1
102
RTVSPropertyOp16
 70
     1
102
RTVSPropertyOp17
 70
     1
102
RTVSPropertyOp18
 70
     1
102
RTVSPropertyOp19
 70
     1
102
RTVSPropertyOp20
 70
     1
102
RTVSPropertyOp21
 70
     1
102
RTVSPropertyOp22
 70
     1
102
RTVSPropertyOp23
 70
     1
102
RTVSPropertyOp24
 70
     1
102
RTVSPropertyOp25
 70
     1
102
RTVSPropertyOp26
 70
     1
102
RTVSPropertyOp27
 70
     1
  0
XRECORD
  5
1AA9
102
{ACAD_REACTORS
330
1AA8
102
}
330
1AA8
100
AcDbXrecord
280
     1
102
RTVSPropertyOp0
 70
     0
102
RTVSPropertyOp1
 70
     0
102
RTVSPropertyOp2
 70
     0
102
RTVSPropertyOp3
 70
     0
102
RTVSPropertyOp4
 70
     0
102
RTVSPropertyOp5
 70
     0
102
RTVSPropertyOp6
 70
     0
102
RTVSPropertyOp7
 70
     0
102
RTVSPropertyOp8
 70
     0
102
RTVSPropertyOp9
 70
     0
102
RTVSPropertyOp10
 70
     0
102
RTVSPropertyOp11
 70
     0
102
RTVSPropertyOp12
 70
     0
102
RTVSPropertyOp13
 70
     0
102
RTVSPropertyOp14
 70
     2
102
RTVSPropertyOp15
 70
     0
102
RTVSPropertyOp16
 70
     0
102
RTVSPropertyOp17
 70
     0
102
RTVSPropertyOp18
 70
     0
102
RTVSPropertyOp19
 70
     0
102
RTVSPropertyOp20
 70
     0
102
RTVSPropertyOp21
 70
     0
102
RTVSPropertyOp22
 70
     0
102
RTVSPropertyOp23
 70
     0
102
RTVSPropertyOp24
 70
     0
102
RTVSPropertyOp25
 70
     0
102
RTVSPropertyOp26
 70
     0
102
RTVSPropertyOp27
 70
     0
  0
XRECORD
  5
1AA1
102
{ACAD_REACTORS
330
1AA0
102
}
330
1AA0
100
AcDbXrecord
280
     1
102
RTVSPropertyOp0
 70
     1
102
RTVSPropertyOp1
 70
     1
102
RTVSPropertyOp2
 70
     1
102
RTVSPropertyOp3
 70
     1
102
RTVSPropertyOp4
 70
     1
102
RTVSPropertyOp5
 70
     1
102
RTVSPropertyOp6
 70
     1
102
RTVSPropertyOp7
 70
     1
102
RTVSPropertyOp8
 70
     1
102
RTVSPropertyOp9
 70
     1
102
RTVSPropertyOp10
 70
     1
102
RTVSPropertyOp11
 70
     1
102
RTVSPropertyOp12
 70
     1
102
RTVSPropertyOp13
 70
     1
102
RTVSPropertyOp14
 70
     1
102
RTVSPropertyOp15
 70
     1
102
RTVSPropertyOp16
 70
     1
102
RTVSPropertyOp17
 70
     1
102
RTVSPropertyOp18
 70
     1
102
RTVSPropertyOp19
 70
     1
102
RTVSPropertyOp20
 70
     1
102
RTVSPropertyOp21
 70
     1
102
RTVSPropertyOp22
 70
     1
102
RTVSPropertyOp23
 70
     1
102
RTVSPropertyOp24
 70
     1
102
RTVSPropertyOp25
 70
     1
102
RTVSPropertyOp26
 70
     1
102
RTVSPropertyOp27
 70
     1
  0
XRECORD
  5
1A85
102
{ACAD_REACTORS
330
1A84
102
}
330
1A84
100
AcDbXrecord
280
     1
102
RTVSPropertyOp0
 70
     1
102
RTVSPropertyOp1
 70
     1
102
RTVSPropertyOp2
 70
     1
102
RTVSPropertyOp3
 70
     1
102
RTVSPropertyOp4
 70
     1
102
RTVSPropertyOp5
 70
     1
102
RTVSPropertyOp6
 70
     1
102
RTVSPropertyOp7
 70
     1
102
RTVSPropertyOp8
 70
     1
102
RTVSPropertyOp9
 70
     1
102
RTVSPropertyOp10
 70
     1
102
RTVSPropertyOp11
 70
     1
102
RTVSPropertyOp12
 70
     1
102
RTVSPropertyOp13
 70
     1
102
RTVSPropertyOp14
 70
     1
102
RTVSPropertyOp15
 70
     1
102
RTVSPropertyOp16
 70
     1
102
RTVSPropertyOp17
 70
     1
102
RTVSPropertyOp18
 70
     1
102
RTVSPropertyOp19
 70
     1
102
RTVSPropertyOp20
 70
     1
102
RTVSPropertyOp21
 70
     1
102
RTVSPropertyOp22
 70
     1
102
RTVSPropertyOp23
 70
     1
102
RTVSPropertyOp24
 70
     1
102
RTVSPropertyOp25
 70
     1
102
RTVSPropertyOp26
 70
     1
102
RTVSPropertyOp27
 70
     1
  0
XRECORD
  5
1A87
102
{ACAD_REACTORS
330
1A86
102
}
330
1A86
100
AcDbXrecord
280
     1
102
RTVSPropertyOp0
 70
     1
102
RTVSPropertyOp1
 70
     1
102
RTVSPropertyOp2
 70
     1
102
RTVSPropertyOp3
 70
     1
102
RTVSPropertyOp4
 70
     1
102
RTVSPropertyOp5
 70
     1
102
RTVSPropertyOp6
 70
     1
102
RTVSPropertyOp7
 70
     1
102
RTVSPropertyOp8
 70
     1
102
RTVSPropertyOp9
 70
     1
102
RTVSPropertyOp10
 70
     1
102
RTVSPropertyOp11
 70
     1
102
RTVSPropertyOp12
 70
     1
102
RTVSPropertyOp13
 70
     1
102
RTVSPropertyOp14
 70
     1
102
RTVSPropertyOp15
 70
     1
102
RTVSPropertyOp16
 70
     1
102
RTVSPropertyOp17
 70
     1
102
RTVSPropertyOp18
 70
     1
102
RTVSPropertyOp19
 70
     1
102
RTVSPropertyOp20
 70
     1
102
RTVSPropertyOp21
 70
     1
102
RTVSPropertyOp22
 70
     1
102
RTVSPropertyOp23
 70
     1
102
RTVSPropertyOp24
 70
     1
102
RTVSPropertyOp25
 70
     1
102
RTVSPropertyOp26
 70
     1
102
RTVSPropertyOp27
 70
     1
  0
XRECORD
  5
1A89
102
{ACAD_REACTORS
330
1A88
102
}
330
1A88
100
AcDbXrecord
280
     1
102
RTVSPropertyOp0
 70
     1
102
RTVSPropertyOp1
 70
     1
102
RTVSPropertyOp2
 70
     1
102
RTVSPropertyOp3
 70
     1
102
RTVSPropertyOp4
 70
     1
102
RTVSPropertyOp5
 70
     1
102
RTVSPropertyOp6
 70
     1
102
RTVSPropertyOp7
 70
     1
102
RTVSPropertyOp8
 70
     1
102
RTVSPropertyOp9
 70
     1
102
RTVSPropertyOp10
 70
     1
102
RTVSPropertyOp11
 70
     1
102
RTVSPropertyOp12
 70
     1
102
RTVSPropertyOp13
 70
     1
102
RTVSPropertyOp14
 70
     1
102
RTVSPropertyOp15
 70
     1
102
RTVSPropertyOp16
 70
     1
102
RTVSPropertyOp17
 70
     1
102
RTVSPropertyOp18
 70
     1
102
RTVSPropertyOp19
 70
     1
102
RTVSPropertyOp20
 70
     1
102
RTVSPropertyOp21
 70
     1
102
RTVSPropertyOp22
 70
     1
102
RTVSPropertyOp23
 70
     1
102
RTVSPropertyOp24
 70
     1
102
RTVSPropertyOp25
 70
     1
102
RTVSPropertyOp26
 70
     1
102
RTVSPropertyOp27
 70
     1
  0
XRECORD
  5
1A8B
102
{ACAD_REACTORS
330
1A8A
102
}
330
1A8A
100
AcDbXrecord
280
     1
102
RTVSPropertyOp0
 70
     1
102
RTVSPropertyOp1
 70
     1
102
RTVSPropertyOp2
 70
     1
102
RTVSPropertyOp3
 70
     1
102
RTVSPropertyOp4
 70
     1
102
RTVSPropertyOp5
 70
     1
102
RTVSPropertyOp6
 70
     1
102
RTVSPropertyOp7
 70
     1
102
RTVSPropertyOp8
 70
     1
102
RTVSPropertyOp9
 70
     1
102
RTVSPropertyOp10
 70
     1
102
RTVSPropertyOp11
 70
     1
102
RTVSPropertyOp12
 70
     1
102
RTVSPropertyOp13
 70
     1
102
RTVSPropertyOp14
 70
     1
102
RTVSPropertyOp15
 70
     1
102
RTVSPropertyOp16
 70
     1
102
RTVSPropertyOp17
 70
     1
102
RTVSPropertyOp18
 70
     1
102
RTVSPropertyOp19
 70
     1
102
RTVSPropertyOp20
 70
     1
102
RTVSPropertyOp21
 70
     1
102
RTVSPropertyOp22
 70
     1
102
RTVSPropertyOp23
 70
     1
102
RTVSPropertyOp24
 70
     1
102
RTVSPropertyOp25
 70
     1
102
RTVSPropertyOp26
 70
     1
102
RTVSPropertyOp27
 70
     1
  0
XRECORD
  5
1AA5
102
{ACAD_REACTORS
330
1AA4
102
}
330
1AA4
100
AcDbXrecord
280
     1
102
RTVSPropertyOp0
 70
     0
102
RTVSPropertyOp1
 70
     0
102
RTVSPropertyOp2
 70
     0
102
RTVSPropertyOp3
 70
     0
102
RTVSPropertyOp4
 70
     0
102
RTVSPropertyOp5
 70
     0
102
RTVSPropertyOp6
 70
     0
102
RTVSPropertyOp7
 70
     0
102
RTVSPropertyOp8
 70
     0
102
RTVSPropertyOp9
 70
     0
102
RTVSPropertyOp10
 70
     0
102
RTVSPropertyOp11
 70
     0
102
RTVSPropertyOp12
 70
     0
102
RTVSPropertyOp13
 70
     0
102
RTVSPropertyOp14
 70
     2
102
RTVSPropertyOp15
 70
     0
102
RTVSPropertyOp16
 70
     0
102
RTVSPropertyOp17
 70
     0
102
RTVSPropertyOp18
 70
     0
102
RTVSPropertyOp19
 70
     0
102
RTVSPropertyOp20
 70
     0
102
RTVSPropertyOp21
 70
     0
102
RTVSPropertyOp22
 70
     0
102
RTVSPropertyOp23
 70
     0
102
RTVSPropertyOp24
 70
     0
102
RTVSPropertyOp25
 70
     0
102
RTVSPropertyOp26
 70
     0
102
RTVSPropertyOp27
 70
     0
  0
XRECORD
  5
1A9F
102
{ACAD_REACTORS
330
1A9E
102
}
330
1A9E
100
AcDbXrecord
280
     1
102
RTVSPropertyOp0
 70
     1
102
RTVSPropertyOp1
 70
     1
102
RTVSPropertyOp2
 70
     1
102
RTVSPropertyOp3
 70
     1
102
RTVSPropertyOp4
 70
     1
102
RTVSPropertyOp5
 70
     1
102
RTVSPropertyOp6
 70
     1
102
RTVSPropertyOp7
 70
     1
102
RTVSPropertyOp8
 70
     1
102
RTVSPropertyOp9
 70
     1
102
RTVSPropertyOp10
 70
     1
102
RTVSPropertyOp11
 70
     1
102
RTVSPropertyOp12
 70
     1
102
RTVSPropertyOp13
 70
     1
102
RTVSPropertyOp14
 70
     1
102
RTVSPropertyOp15
 70
     1
102
RTVSPropertyOp16
 70
     1
102
RTVSPropertyOp17
 70
     1
102
RTVSPropertyOp18
 70
     1
102
RTVSPropertyOp19
 70
     1
102
RTVSPropertyOp20
 70
     1
102
RTVSPropertyOp21
 70
     1
102
RTVSPropertyOp22
 70
     1
102
RTVSPropertyOp23
 70
     1
102
RTVSPropertyOp24
 70
     1
102
RTVSPropertyOp25
 70
     1
102
RTVSPropertyOp26
 70
     1
102
RTVSPropertyOp27
 70
     1
  0
XRECORD
  5
1AA7
102
{ACAD_REACTORS
330
1AA6
102
}
330
1AA6
100
AcDbXrecord
280
     1
102
RTVSPropertyOp0
 70
     0
102
RTVSPropertyOp1
 70
     0
102
RTVSPropertyOp2
 70
     0
102
RTVSPropertyOp3
 70
     0
102
RTVSPropertyOp4
 70
     0
102
RTVSPropertyOp5
 70
     0
102
RTVSPropertyOp6
 70
     0
102
RTVSPropertyOp7
 70
     0
102
RTVSPropertyOp8
 70
     0
102
RTVSPropertyOp9
 70
     0
102
RTVSPropertyOp10
 70
     0
102
RTVSPropertyOp11
 70
     0
102
RTVSPropertyOp12
 70
     0
102
RTVSPropertyOp13
 70
     0
102
RTVSPropertyOp14
 70
     2
102
RTVSPropertyOp15
 70
     0
102
RTVSPropertyOp16
 70
     0
102
RTVSPropertyOp17
 70
     0
102
RTVSPropertyOp18
 70
     0
102
RTVSPropertyOp19
 70
     0
102
RTVSPropertyOp20
 70
     0
102
RTVSPropertyOp21
 70
     0
102
RTVSPropertyOp22
 70
     0
102
RTVSPropertyOp23
 70
     0
102
RTVSPropertyOp24
 70
     0
102
RTVSPropertyOp25
 70
     0
102
RTVSPropertyOp26
 70
     0
102
RTVSPropertyOp27
 70
     0
  0
XRECORD
  5
1A97
102
{ACAD_REACTORS
330
1A96
102
}
330
1A96
100
AcDbXrecord
280
     1
102
RTVSPropertyOp0
 70
     1
102
RTVSPropertyOp1
 70
     1
102
RTVSPropertyOp2
 70
     1
102
RTVSPropertyOp3
 70
     1
102
RTVSPropertyOp4
 70
     1
102
RTVSPropertyOp5
 70
     1
102
RTVSPropertyOp6
 70
     1
102
RTVSPropertyOp7
 70
     1
102
RTVSPropertyOp8
 70
     1
102
RTVSPropertyOp9
 70
     1
102
RTVSPropertyOp10
 70
     1
102
RTVSPropertyOp11
 70
     1
102
RTVSPropertyOp12
 70
     1
102
RTVSPropertyOp13
 70
     1
102
RTVSPropertyOp14
 70
     1
102
RTVSPropertyOp15
 70
     1
102
RTVSPropertyOp16
 70
     1
102
RTVSPropertyOp17
 70
     1
102
RTVSPropertyOp18
 70
     1
102
RTVSPropertyOp19
 70
     1
102
RTVSPropertyOp20
 70
     1
102
RTVSPropertyOp21
 70
     1
102
RTVSPropertyOp22
 70
     1
102
RTVSPropertyOp23
 70
     1
102
RTVSPropertyOp24
 70
     1
102
RTVSPropertyOp25
 70
     1
102
RTVSPropertyOp26
 70
     1
102
RTVSPropertyOp27
 70
     1
  0
XRECORD
  5
1A9D
102
{ACAD_REACTORS
330
1A9C
102
}
330
1A9C
100
AcDbXrecord
280
     1
102
RTVSPropertyOp0
 70
     1
102
RTVSPropertyOp1
 70
     1
102
RTVSPropertyOp2
 70
     1
102
RTVSPropertyOp3
 70
     1
102
RTVSPropertyOp4
 70
     1
102
RTVSPropertyOp5
 70
     1
102
RTVSPropertyOp6
 70
     1
102
RTVSPropertyOp7
 70
     1
102
RTVSPropertyOp8
 70
     1
102
RTVSPropertyOp9
 70
     1
102
RTVSPropertyOp10
 70
     1
102
RTVSPropertyOp11
 70
     1
102
RTVSPropertyOp12
 70
     1
102
RTVSPropertyOp13
 70
     1
102
RTVSPropertyOp14
 70
     1
102
RTVSPropertyOp15
 70
     1
102
RTVSPropertyOp16
 70
     1
102
RTVSPropertyOp17
 70
     1
102
RTVSPropertyOp18
 70
     1
102
RTVSPropertyOp19
 70
     1
102
RTVSPropertyOp20
 70
     1
102
RTVSPropertyOp21
 70
     1
102
RTVSPropertyOp22
 70
     1
102
RTVSPropertyOp23
 70
     1
102
RTVSPropertyOp24
 70
     1
102
RTVSPropertyOp25
 70
     1
102
RTVSPropertyOp26
 70
     1
102
RTVSPropertyOp27
 70
     1
  0
ENDSEC
  0
EOF
