  0
SECTION
  2
HEADER
  9
$ACADVER
  1
AC1014
  9
$ACADMAINTVER
 70
     0
  9
$DWGCODEPAGE
  3
ANSI_1252
  9
$INSBASE
 10
0.936296
 20
-53.088509
 30
0.0
  9
$EXTMIN
 10
-51.102919
 20
-56.399308
 30
0.0
  9
$EXTMAX
 10
9.869871
 20
-32.713439
 30
0.0
  9
$LIMMIN
 10
0.0
 20
0.0
  9
$LIMMAX
 10
17.0
 20
11.0
  9
$ORTHOMODE
 70
     1
  9
$REGENMODE
 70
     1
  9
$FILLMODE
 70
     1
  9
$QTEXTMODE
 70
     0
  9
$MIRRTEXT
 70
     1
  9
$DRAGMODE
 70
     2
  9
$LTSCALE
 40
12.0
  9
$OSMODE
 70
    37
  9
$ATTMODE
 70
     1
  9
$TEXTSIZE
 40
1.0
  9
$TRACEWID
 40
0.05
  9
$TEXTSTYLE
  7
STANDARD
  9
$CLAYER
  8
0
  9
$CELTYPE
  6
BYLAYER
  9
$CECOLOR
 62
   256
  9
$CELTSCALE
 40
1.0
  9
$DELOBJ
 70
     1
  9
$DISPSILH
 70
     0
  9
$DIMSCALE
 40
16.0
  9
$DIMASZ
 40
0.1
  9
$DIMEXO
 40
0.0625
  9
$DIMDLI
 40
0.25
  9
$DIMRND
 40
0.0
  9
$DIMDLE
 40
0.0
  9
$DIMEXE
 40
0.1
  9
$DIMTP
 40
0.0
  9
$DIMTM
 40
0.0
  9
$DIMTXT
 40
0.1
  9
$DIMCEN
 40
0.09
  9
$DIMTSZ
 40
0.0
  9
$DIMTOL
 70
     0
  9
$DIMLIM
 70
     0
  9
$DIMTIH
 70
     1
  9
$DIMTOH
 70
     1
  9
$DIMSE1
 70
     0
  9
$DIMSE2
 70
     0
  9
$DIMTAD
 70
     0
  9
$DIMZIN
 70
     4
  9
$DIMBLK
  1

  9
$DIMASO
 70
     1
  9
$DIMSHO
 70
     1
  9
$DIMPOST
  1
\X
  9
$DIMAPOST
  1
cm
  9
$DIMALT
 70
     1
  9
$DIMALTD
 70
     1
  9
$DIMALTF
 40
2.54
  9
$DIMLFAC
 40
1.0
  9
$DIMTOFL
 70
     0
  9
$DIMTVP
 40
0.0
  9
$DIMTIX
 70
     0
  9
$DIMSOXD
 70
     0
  9
$DIMSAH
 70
     0
  9
$DIMBLK1
  1

  9
$DIMBLK2
  1

  9
$DIMSTYLE
  2
DIM-1_16
  9
$DIMCLRD
 70
     0
  9
$DIMCLRE
 70
     0
  9
$DIMCLRT
 70
     0
  9
$DIMTFAC
 40
1.0
  9
$DIMGAP
 40
0.08
  9
$DIMJUST
 70
     0
  9
$DIMSD1
 70
     0
  9
$DIMSD2
 70
     0
  9
$DIMTOLJ
 70
     1
  9
$DIMTZIN
 70
     4
  9
$DIMALTZ
 70
     4
  9
$DIMALTTZ
 70
     4
  9
$DIMFIT
 70
     1
  9
$DIMUPT
 70
     0
  9
$DIMUNIT
 70
     5
  9
$DIMDEC
 70
     3
  9
$DIMTDEC
 70
     3
  9
$DIMALTU
 70
     2
  9
$DIMALTTD
 70
     1
  9
$DIMTXSTY
  7
ROMANS
  9
$DIMAUNIT
 70
     0
  9
$LUNITS
 70
     2
  9
$LUPREC
 70
     4
  9
$SKETCHINC
 40
0.1
  9
$FILLETRAD
 40
0.0
  9
$AUNITS
 70
     0
  9
$AUPREC
 70
     0
  9
$MENU
  1
acad
  9
$ELEVATION
 40
0.0
  9
$PELEVATION
 40
0.0
  9
$THICKNESS
 40
0.0
  9
$LIMCHECK
 70
     0
  9
$BLIPMODE
 70
     0
  9
$CHAMFERA
 40
0.0
  9
$CHAMFERB
 40
0.0
  9
$CHAMFERC
 40
0.0
  9
$CHAMFERD
 40
0.0
  9
$SKPOLY
 70
     0
  9
$TDCREATE
 40
2444971.791666666
  9
$TDUPDATE
 40
2453689.673485810
  9
$TDINDWG
 40
0.4063475000
  9
$TDUSRTIMER
 40
0.4063475000
  9
$USRTIMER
 70
     1
  9
$ANGBASE
 50
0.0
  9
$ANGDIR
 70
     0
  9
$PDMODE
 70
     0
  9
$PDSIZE
 40
0.0
  9
$PLINEWID
 40
0.0
  9
$COORDS
 70
     1
  9
$SPLFRAME
 70
     0
  9
$SPLINETYPE
 70
     6
  9
$SPLINESEGS
 70
     8
  9
$ATTDIA
 70
     0
  9
$ATTREQ
 70
     1
  9
$HANDLING
 70
     1
  9
$HANDSEED
  5
117
  9
$SURFTAB1
 70
     6
  9
$SURFTAB2
 70
     6
  9
$SURFTYPE
 70
     6
  9
$SURFU
 70
     6
  9
$SURFV
 70
     6
  9
$UCSNAME
  2

  9
$UCSORG
 10
0.0
 20
0.0
 30
0.0
  9
$UCSXDIR
 10
1.0
 20
0.0
 30
0.0
  9
$UCSYDIR
 10
0.0
 20
1.0
 30
0.0
  9
$PUCSNAME
  2

  9
$PUCSORG
 10
0.0
 20
0.0
 30
0.0
  9
$PUCSXDIR
 10
1.0
 20
0.0
 30
0.0
  9
$PUCSYDIR
 10
0.0
 20
1.0
 30
0.0
  9
$USERI1
 70
     0
  9
$USERI2
 70
     0
  9
$USERI3
 70
     0
  9
$USERI4
 70
     0
  9
$USERI5
 70
     0
  9
$USERR1
 40
0.0
  9
$USERR2
 40
0.0
  9
$USERR3
 40
0.0
  9
$USERR4
 40
0.0
  9
$USERR5
 40
0.0
  9
$WORLDVIEW
 70
     1
  9
$SHADEDGE
 70
     3
  9
$SHADEDIF
 70
    70
  9
$TILEMODE
 70
     1
  9
$MAXACTVP
 70
    16
  9
$PINSBASE
 10
0.0
 20
0.0
 30
0.0
  9
$PLIMCHECK
 70
     0
  9
$PEXTMIN
 10
-0.088121
 20
-0.150733
 30
-0.001526
  9
$PEXTMAX
 10
21.926473
 20
11.621875
 30
0.0
  9
$PLIMMIN
 10
-0.166667
 20
-0.25
  9
$PLIMMAX
 10
16.833333
 20
10.75
  9
$UNITMODE
 70
     0
  9
$VISRETAIN
 70
     0
  9
$PLINEGEN
 70
     1
  9
$PSLTSCALE
 70
     0
  9
$TREEDEPTH
 70
  3020
  9
$PICKSTYLE
 70
     1
  9
$CMLSTYLE
  2
STANDARD
  9
$CMLJUST
 70
     0
  9
$CMLSCALE
 40
1.0
  9
$PROXYGRAPHICS
 70
     1
  9
$MEASUREMENT
 70
     0
  0
ENDSEC
  0
SECTION
  2
CLASSES
  0
CLASS
  1
LWPOLYLINE
  2
AcDbPolyline
  3
"AutoCAD"
 90
        0
280
     0
281
     1
  0
CLASS
  1
IMAGE
  2
AcDbRasterImage
  3
ISM
 90
      127
280
     1
281
     1
  0
CLASS
  1
OLE2FRAME
  2
AcDbOle2Frame
  3
""
 90
        0
280
     0
281
     1
  0
CLASS
  1
HATCH
  2
AcDbHatch
  3
"ACAD_SEDONA"
 90
        0
280
     0
281
     1
  0
CLASS
  1
DICTIONARYVAR
  2
AcDbDictionaryVar
  3
"AutoCAD"
 90
        0
280
     0
281
     0
  0
CLASS
  1
RASTERVARIABLES
  2
AcDbRasterVariables
  3
ISM
 90
        0
280
     1
281
     0
  0
CLASS
  1
IMAGEDEF
  2
AcDbRasterImageDef
  3
ISM
 90
        0
280
     1
281
     0
  0
CLASS
  1
IMAGEDEF_REACTOR
  2
AcDbRasterImageDefReactor
  3
ISM
 90
        1
280
     1
281
     0
  0
CLASS
  1
IDBUFFER
  2
AcDbIdBuffer
  3
"Acad"
 90
        0
280
     0
281
     0
  0
CLASS
  1
SPATIAL_FILTER
  2
AcDbSpatialFilter
  3
"Acad"
 90
        0
280
     0
281
     0
  0
CLASS
  1
XRECORD
  2
AcDbXrecord
  3
"<Built In>"
 90
        0
280
     0
281
     0
  0
CLASS
  1
SORTENTSTABLE
  2
AcDbSortentsTable
  3
"AutoCAD"
 90
        0
280
     0
281
     0
  0
CLASS
  1
LAYER_INDEX
  2
AcDbLayerIndex
  3
"Acad"
 90
        0
280
     0
281
     0
  0
CLASS
  1
SPATIAL_INDEX
  2
AcDbSpatialIndex
  3
"Acad"
 90
        0
280
     0
281
     0
  0
CLASS
  1
OBJECT_PTR
  2
CAseDLPNTableRecord
  3
ASE-LPNTableRecord
 90
        1
280
     0
281
     0
  0
CLASS
  1
LAYOUT
  2
AcDbLayout
  3
AutoCAD 2000
 90
        0
280
     1
281
     0
  0
CLASS
  1
PLOTSETTINGS
  2
AcDbPlotSettings
  3
AutoCAD 2000
 90
        0
280
     1
281
     0
  0
CLASS
  1
ACDBDICTIONARYWDFLT
  2
AcDbDictionaryWithDefault
  3
AutoCAD 2000
 90
        0
280
     1
281
     0
  0
CLASS
  1
ACDBPLACEHOLDER
  2
AcDbPlaceHolder
  3
AutoCAD 2000
 90
        0
280
     1
281
     0
  0
CLASS
  1
VBA_PROJECT
  2
AcDbVbaProject
  3
acadvba
 90
        0
280
     1
281
     0
  0
CLASS
  1
WIPEOUT
  2
AcDbWipeout
  3
"WipeOut|Version(1.0.0.0) Product Desc: Object Enabler for WipeOut entity^I^I^I^I^I^I|Company: Autodesk, Inc.^I^I^I^I^I^I|WEB Address: www.autodesk.com"
 90
      127
280
     1
281
     1
  0
CLASS
  1
WIPEOUTVARIABLES
  2
AcDbWipeoutVariables
  3
WipeOut|AutoCAD Express Tool|expresstools@autodesk.com
 90
        0
280
     1
281
     0
  0
CLASS
  1
RTEXT
  2
RText
  3
RText|AutoCAD Express Tool|expresstools@autodesk.com
 90
        0
280
     1
281
     1
  0
CLASS
  1
ARCALIGNEDTEXT
  2
AcDbArcAlignedText
  3
ATEXT|AutoCAD Express Tool|expresstools@autodesk.com
 90
        0
280
     1
281
     1
  0
CLASS
  1
LONG_TRANSACTION
  2
AcDbLongTransaction
  3
AutoCAD 2000
 90
        0
280
     1
281
     0
  0
CLASS
  1
LWPOLYLINE
  2
AcDbPolyline
  3
"AutoCAD"
 90
        0
280
     0
281
     1
  0
CLASS
  1
HATCH
  2
AcDbHatch
  3
"ACAD_SEDONA"
 90
        0
280
     0
281
     1
  0
CLASS
  1
XRECORD
  2
AcDbXrecord
  3
"<Built In>"
 90
        0
280
     0
281
     0
  0
ENDSEC
  0
SECTION
  2
TABLES
  0
TABLE
  2
VPORT
  5
1C
100
AcDbSymbolTable
 70
     3
  0
VPORT
  5
116
100
AcDbSymbolTableRecord
100
AcDbViewportTableRecord
  2
*ACTIVE
 70
     0
 10
0.0
 20
0.0
 11
1.0
 21
1.0
 12
-20.616524
 22
-44.556373
 13
0.0
 23
0.0
 14
1.0
 24
1.0
 15
0.0
 25
0.0
 16
0.0
 26
0.0
 36
1.0
 17
0.0
 27
0.0
 37
0.0
 40
44.058232
 41
1.487748
 42
50.0
 43
0.0
 44
0.0
 50
0.0
 51
0.0
 71
     0
 72
   100
 73
     1
 74
     1
 75
     0
 76
     0
 77
     0
 78
     0
  0
ENDTAB
  0
TABLE
  2
LTYPE
  5
17
100
AcDbSymbolTable
 70
     3
  0
LTYPE
  5
18
100
AcDbSymbolTableRecord
100
AcDbLinetypeTableRecord
  2
BYBLOCK
 70
     0
  3

 72
    65
 73
     0
 40
0.0
  0
LTYPE
  5
19
100
AcDbSymbolTableRecord
100
AcDbLinetypeTableRecord
  2
BYLAYER
 70
     0
  3

 72
    65
 73
     0
 40
0.0
  0
LTYPE
  5
7
100
AcDbSymbolTableRecord
100
AcDbLinetypeTableRecord
  2
CONTINUOUS
 70
     0
  3
Solid line
 72
    65
 73
     0
 40
0.0
  0
LTYPE
  5
4E
100
AcDbSymbolTableRecord
100
AcDbLinetypeTableRecord
  2
CENTER
 70
     0
  3
____ _ ____ _ ____ _ ____ _ ____ _ ____ _ ____
 72
    65
 73
     4
 40
0.6
 49
0.375
 74
     0
 49
-0.075
 74
     0
 49
0.075
 74
     0
 49
-0.075
 74
     0
  0
LTYPE
  5
BD
100
AcDbSymbolTableRecord
100
AcDbLinetypeTableRecord
  2
HIDDEN
 70
     0
  3
- - - - - - - - - - - - - - - - - - - -
 72
    65
 73
     2
 40
0.2
 49
0.1
 74
     0
 49
-0.1
 74
     0
  0
ENDTAB
  0
TABLE
  2
LAYER
  5
E
102
{ACAD_XDICTIONARY
360
F
102
}
100
AcDbSymbolTable
 70
     1
  0
LAYER
  5
6
100
AcDbSymbolTableRecord
100
AcDbLayerTableRecord
  2
0
 70
     0
 62
     7
  6
CONTINUOUS
  0
ENDTAB
  0
TABLE
  2
STYLE
  5
15
100
AcDbSymbolTable
 70
     2
  0
STYLE
  5
16
100
AcDbSymbolTableRecord
100
AcDbTextStyleTableRecord
  2
STANDARD
 70
     0
 40
0.0
 41
1.0
 50
0.0
 71
     0
 42
1.0
  3
txt
  4

  0
STYLE
  5
27
102
{ACAD_XDICTIONARY
360
28
102
}
100
AcDbSymbolTableRecord
100
AcDbTextStyleTableRecord
  2
ROMANS
 70
     0
 40
0.0
 41
1.0
 50
0.0
 71
     0
 42
1.0
  3
romans.shx
  4

  0
ENDTAB
  0
TABLE
  2
VIEW
  5
1A
100
AcDbSymbolTable
 70
     0
  0
ENDTAB
  0
TABLE
  2
UCS
  5
1B
100
AcDbSymbolTable
 70
     0
  0
ENDTAB
  0
TABLE
  2
APPID
  5
1E
100
AcDbSymbolTable
 70
     1
  0
APPID
  5
1F
100
AcDbSymbolTableRecord
100
AcDbRegAppTableRecord
  2
ACAD
 70
     0
  0
ENDTAB
  0
TABLE
  2
DIMSTYLE
  5
20
100
AcDbSymbolTable
 70
     1
  0
DIMSTYLE
105
2B
102
{ACAD_XDICTIONARY
360
2C
102
}
100
AcDbSymbolTableRecord
100
AcDbDimStyleTableRecord
  2
DIM-1_16
 70
     0
  3
\X
  4
cm
  5

  6

  7

 40
16.0
 41
0.1
 42
0.0625
 43
0.25
 44
0.1
 45
0.0
 46
0.0
 47
0.0
 48
0.0
140
0.1
141
0.09
142
0.0
143
2.54
144
1.0
145
0.0
146
1.0
147
0.08
 71
     0
 72
     0
 73
     1
 74
     1
 75
     0
 76
     0
 77
     0
 78
     4
170
     1
171
     1
172
     0
173
     0
174
     0
175
     0
176
     0
177
     0
178
     0
270
     5
271
     3
272
     3
273
     2
274
     1
340
27
275
     0
280
     0
281
     0
282
     0
283
     1
284
     4
285
     4
286
     4
287
     1
288
     0
  0
ENDTAB
  0
TABLE
  2
BLOCK_RECORD
  5
1
100
AcDbSymbolTable
 70
     0
  0
BLOCK_RECORD
  5
2
102
{ACAD_XDICTIONARY
360
3
102
}
100
AcDbSymbolTableRecord
100
AcDbBlockTableRecord
  2
*MODEL_SPACE
  0
BLOCK_RECORD
  5
9
102
{ACAD_XDICTIONARY
360
A
102
}
100
AcDbSymbolTableRecord
100
AcDbBlockTableRecord
  2
*PAPER_SPACE
  0
ENDTAB
  0
ENDSEC
  0
SECTION
  2
BLOCKS
  0
BLOCK
  5
5
100
AcDbEntity
  8
0
100
AcDbBlockBegin
  2
*MODEL_SPACE
 70
     0
 10
0.0
 20
0.0
 30
0.0
  3
*MODEL_SPACE
  1

  0
ENDBLK
  5
8
100
AcDbEntity
  8
0
100
AcDbBlockEnd
  0
BLOCK
  5
C
100
AcDbEntity
 67
     1
  8
0
100
AcDbBlockBegin
  2
*PAPER_SPACE
 70
     0
 10
0.0
 20
0.0
 30
0.0
  3
*PAPER_SPACE
  1

  0
ENDBLK
  5
D
100
AcDbEntity
 67
     1
  8
0
100
AcDbBlockEnd
  0
ENDSEC
  0
SECTION
  2
ENTITIES
  0
LINE
  5
2E
100
AcDbEntity
  8
0
  6
CONTINUOUS
100
AcDbLine
 10
8.689374
 20
-33.588509
 30
0.0
 11
-50.816783
 21
-33.588509
 31
0.0
  0
LINE
  5
2F
100
AcDbEntity
  8
0
  6
CONTINUOUS
100
AcDbLine
 10
-51.063704
 20
-32.715073
 30
0.0
 11
8.936296
 21
-32.715073
 31
0.0
  0
LINE
  5
32
100
AcDbEntity
  8
0
  6
CONTINUOUS
100
AcDbLine
 10
-51.063704
 20
-35.088509
 30
0.0
 11
-51.063704
 21
-32.715073
 31
0.0
  0
LINE
  5
3A
100
AcDbEntity
  8
0
  6
CONTINUOUS
100
AcDbLine
 10
-50.974333
 20
-32.715073
 30
0.0
 11
-50.869386
 21
-33.377621
 31
0.0
  0
ARC
  5
3B
100
AcDbEntity
  8
0
  6
CONTINUOUS
100
AcDbCircle
 10
-50.816783
 20
-33.838509
 30
0.0
 40
0.25
100
AcDbArc
 50
90.0
 51
170.99913
  0
ARC
  5
3C
100
AcDbEntity
  8
0
  6
CONTINUOUS
100
AcDbCircle
 10
-50.622464
 20
-33.338509
 30
0.0
 40
0.25
100
AcDbArc
 50
189.00087
 51
270.0
  0
LINE
  5
3D
100
AcDbEntity
  8
0
  6
CONTINUOUS
100
AcDbLine
 10
6.485521
 20
-38.401009
 30
0.0
 11
4.895554
 21
-49.321675
 31
0.0
  0
LINE
  5
3E
100
AcDbEntity
  8
0
  6
CONTINUOUS
100
AcDbLine
 10
-46.33082
 20
-35.090073
 30
0.0
 11
-39.509261
 21
-49.412347
 31
0.0
  0
LINE
  5
3F
100
AcDbEntity
  8
0
  6
CONTINUOUS
100
AcDbLine
 10
2.316556
 20
-53.088509
 30
0.0
 11
-0.443965
 21
-53.088509
 31
0.0
  0
LINE
  5
40
100
AcDbEntity
  8
0
  6
CONTINUOUS
100
AcDbLine
 10
-37.000726
 20
-51.838509
 30
0.0
 11
2.385611
 21
-51.838509
 31
0.0
  0
SPLINE
  5
41
100
AcDbEntity
  8
0
  6
CONTINUOUS
100
AcDbSpline
210
0.0
220
0.0
230
-1.0
 70
     8
 71
     3
 72
    10
 73
     6
 74
     4
 42
0.0000001
 43
0.0000001
 44
0.0000000001
 40
0.0
 40
0.0
 40
0.0
 40
0.0
 40
1.603271750530787
 40
3.191105116978762
 40
4.75773674044994
 40
4.75773674044994
 40
4.75773674044994
 40
4.75773674044994
 10
-27.17902014699999
 20
-49.40745169687679
 30
0.0
 10
-26.64459623020636
 20
-49.40744434777236
 30
0.0
 10
-25.58089452464624
 20
-49.40742972033021
 30
0.0
 10
-23.99498227786498
 20
-49.40741716900799
 30
0.0
 10
-22.94349394789089
 20
-49.40741579909581
 30
0.0
 10
-22.42128340673332
 20
-49.40741511874346
 30
0.0
 11
-27.17902014699999
 21
-49.40745169687679
 31
0.0
 11
-25.5757483966
 21
-49.40743121687678
 31
0.0
 11
-23.98791503019999
 21
-49.40741887447678
 31
0.0
 11
-22.42128340673332
 21
-49.40741511874346
 31
0.0
  0
ARC
  5
42
100
AcDbEntity
  8
0
  6
CONTINUOUS
100
AcDbCircle
 10
-37.000726
 20
-49.328575
 30
0.0
 40
2.509934
100
AcDbArc
 50
181.912687
 51
270.0
  0
SPLINE
  5
43
100
AcDbEntity
  8
0
  6
CONTINUOUS
100
AcDbSpline
210
0.0
220
0.0
230
-1.0
 70
     8
 71
     3
 72
    13
 73
     9
 74
     7
 42
0.0000001
 43
0.0000001
 44
0.0000000001
 40
0.0
 40
0.0
 40
0.0
 40
0.0
 40
0.1838988009821047
 40
0.5557748406602388
 40
1.101076610845288
 40
1.797914064683133
 40
2.61724745267463
 40
3.525780883574461
 40
3.525780883574461
 40
3.525780883574461
 40
3.525780883574461
 10
-39.30276202966666
 20
-49.40927939287679
 30
0.0
 10
-39.2414689998135
 20
-49.40832175986185
 30
0.0
 10
-39.05623057673352
 20
-49.40542762279599
 30
0.0
 10
-38.68918943789262
 20
-49.4068676876172
 30
0.0
 10
-38.15119780322759
 20
-49.41104359185431
 30
0.0
 10
-37.46404943253219
 20
-49.4044155429319
 30
0.0
 10
-36.65581151869429
 20
-49.40355769912357
 30
0.0
 10
-36.0798616127729
 20
-49.40638838173094
 30
0.0
 10
-35.77702013313333
 20
-49.40787678914346
 30
0.0
 11
-39.30276202966666
 21
-49.40927939287679
 31
0.0
 11
-39.1188799038
 21
-49.40680294594345
 31
0.0
 11
-38.7470038654
 21
-49.40683377794346
 31
0.0
 11
-38.2017075038
 21
-49.40926247981012
 31
0.0
 11
-37.50487902486666
 21
-49.40572581207678
 31
0.0
 11
-36.68554676993332
 21
-49.40436320301012
 31
0.0
 11
-35.77702013313333
 21
-49.40787678914346
 31
0.0
  0
LINE
  5
44
100
AcDbEntity
  8
0
  6
CONTINUOUS
100
AcDbLine
 10
-39.509261
 20
-49.412347
 30
0.0
 11
-39.486136
 21
-49.412338
 31
0.0
  0
LINE
  5
45
100
AcDbEntity
  8
0
  6
CONTINUOUS
100
AcDbLine
 10
-39.486136
 20
-49.412338
 30
0.0
 11
-39.301258
 21
-49.412505
 31
0.0
  0
SPLINE
  5
46
100
AcDbEntity
  8
0
  6
CONTINUOUS
100
AcDbSpline
210
0.0
220
0.0
230
-1.0
 70
     8
 71
     3
 72
    10
 73
     6
 74
     4
 42
0.0000001
 43
0.0000001
 44
0.0000000001
 40
0.0
 40
0.0
 40
0.0
 40
0.0
 40
0.6677888391137356
 40
1.340184033258265
 40
2.016396898044459
 40
2.016396898044459
 40
2.016396898044459
 40
2.016396898044459
 10
-32.07004770326666
 20
-49.40698534167679
 30
0.0
 10
-31.84745143099682
 20
-49.40690949798675
 30
0.0
 10
-31.4007234348315
 20
-49.40675728744287
 30
0.0
 10
-30.72859113698282
 20
-49.40694564931181
 30
0.0
 10
-30.27905514330773
 20
-49.40708844547824
 30
0.0
 10
-30.05365086806667
 20
-49.40716004567679
 30
0.0
 11
-32.07004770326666
 21
-49.40698534167679
 31
0.0
 11
-31.402258883
 21
-49.40682668567679
 31
0.0
 11
-30.72986370006665
 21
-49.40694947287679
 31
0.0
 11
-30.05365086806667
 21
-49.40716004567679
 31
0.0
  0
LINE
  5
47
100
AcDbEntity
  8
0
  6
CONTINUOUS
100
AcDbLine
 10
-35.77702
 20
-49.407877
 30
0.0
 11
-33.298891
 21
-49.40724
 31
0.0
  0
SPLINE
  5
48
100
AcDbEntity
  8
0
  6
CONTINUOUS
100
AcDbSpline
210
0.0
220
0.0
230
-1.0
 70
     8
 71
     3
 72
    10
 73
     6
 74
     4
 42
0.0000001
 43
0.0000001
 44
0.0000000001
 40
0.0
 40
0.0
 40
0.0
 40
0.0
 40
0.3292906160489946
 40
0.6600642858929799
 40
0.9922238779705942
 40
0.9922238779705942
 40
0.9922238779705942
 40
0.9922238779705942
 10
-33.06227156246666
 20
-49.40715558487679
 30
0.0
 10
-32.9525080289177
 20
-49.40712172552911
 30
0.0
 10
-32.73248661057788
 20
-49.40705385433854
 30
0.0
 10
-32.40174532119164
 20
-49.4069983282269
 30
0.0
 10
-32.18076756726758
 20
-49.40698967655586
 30
0.0
 10
-32.07004770326666
 20
-49.40698534167679
 30
0.0
 11
-33.06227156246666
 21
-49.40715558487679
 31
0.0
 11
-32.7329809598
 21
-49.40706170541012
 31
0.0
 11
-32.40220729473333
 21
-49.40700548781013
 31
0.0
 11
-32.07004770326666
 21
-49.40698534167679
 31
0.0
  0
SPLINE
  5
49
100
AcDbEntity
  8
0
  6
CONTINUOUS
100
AcDbSpline
210
0.0
220
0.0
230
-1.0
 70
     8
 71
     3
 72
    10
 73
     6
 74
     4
 42
0.0000001
 43
0.0000001
 44
0.0000000001
 40
0.0
 40
0.0
 40
0.0
 40
0.0
 40
0.078780054254016
 40
0.1576535632562384
 40
0.2366193291388105
 40
0.2366193291388105
 40
0.2366193291388105
 40
0.2366193291388105
 10
-33.29889087659999
 20
-49.40723984301012
 30
0.0
 10
-33.27263086025716
 20
-49.40723027826628
 30
0.0
 10
-33.22007967599081
 20
-49.40721113743219
 30
0.0
 10
-33.14120657128024
 20
-49.40718304301896
 30
0.0
 10
-33.08859348283504
 20
-49.40716474115665
 30
0.0
 10
-33.06227156246666
 20
-49.40715558487679
 30
0.0
 11
-33.29889087659999
 21
-49.40723984301012
 31
0.0
 11
-33.22011082753333
 21
-49.40721125421013
 31
0.0
 11
-33.14123732353333
 21
-49.40718316354345
 31
0.0
 11
-33.06227156246666
 21
-49.40715558487679
 31
0.0
  0
SPLINE
  5
4A
100
AcDbEntity
  8
0
  6
CONTINUOUS
100
AcDbSpline
210
0.0
220
0.0
230
-1.0
 70
     8
 71
     3
 72
    10
 73
     6
 74
     4
 42
0.0000001
 43
0.0000001
 44
0.0000000001
 40
0.0
 40
0.0
 40
0.0
 40
0.0
 40
0.9547337400228164
 40
1.913684291380127
 40
2.874630754343188
 40
2.874630754343188
 40
2.874630754343188
 40
2.874630754343188
 10
-30.05365086806667
 20
-49.40716004567679
 30
0.0
 10
-29.73540628807762
 20
-49.40712824916866
 30
0.0
 10
-29.09751152432145
 20
-49.40706451571549
 30
0.0
 10
-28.13930128077812
 20
-49.40723735528393
 30
0.0
 10
-27.49933562620971
 20
-49.40738020017898
 30
0.0
 10
-27.17902014699999
 20
-49.40745169687679
 30
0.0
 11
-30.05365086806667
 21
-49.40716004567679
 31
0.0
 11
-29.0989171294
 21
-49.40710915821012
 31
0.0
 11
-28.13996658753334
 21
-49.40724407341012
 31
0.0
 11
-27.17902014699999
 21
-49.40745169687679
 31
0.0
  0
LINE
  5
4B
100
AcDbEntity
  8
0
  6
CONTINUOUS
100
AcDbLine
 10
-0.443965
 20
-53.088509
 30
0.0
 11
-0.787715
 21
-51.830975
 31
0.0
  0
LINE
  5
4C
100
AcDbEntity
  8
0
  6
CONTINUOUS
100
AcDbLine
 10
-22.421283
 20
-49.407415
 30
0.0
 11
-20.750136
 21
-49.407415
 31
0.0
  0
LINE
  5
4D
100
AcDbEntity
  8
0
  6
CENTER
 62
     1
 48
0.5
100
AcDbLine
 10
0.936296
 20
-56.398549
 30
0.0
 11
0.936296
 21
-48.770034
 31
0.0
  0
ARC
  5
4F
100
AcDbEntity
  8
0
  6
CONTINUOUS
100
AcDbCircle
 10
2.38562
 20
-49.320975
 30
0.0
 40
2.509934
100
AcDbArc
 50
270.0
 51
359.984023
  0
LINE
  5
50
100
AcDbEntity
  8
0
  6
CONTINUOUS
100
AcDbLine
 10
2.316556
 20
-53.088509
 30
0.0
 11
2.660306
 21
-51.830975
 31
0.0
  0
SPLINE
  5
51
100
AcDbEntity
  8
0
  6
CONTINUOUS
100
AcDbSpline
210
0.0
220
0.0
230
1.0
 70
     8
 71
     3
 72
    15
 73
    11
 74
     9
 42
0.0000001
 43
0.0000001
 44
0.0000000001
 40
0.0
 40
0.0
 40
0.0
 40
0.0
 40
0.2493511657270572
 40
0.5278798330701508
 40
0.838077142862957
 40
1.183477533825985
 40
1.566844621812898
 40
1.991741090633671
 40
2.462584933980493
 40
2.6614985366069
 40
2.6614985366069
 40
2.6614985366069
 40
2.6614985366069
 10
-40.27210004673333
 20
-43.02291678331057
 30
0.0
 10
-40.18899423633486
 20
-43.02154961463787
 30
0.0
 10
-40.01305809746666
 20
-43.01865529983239
 30
0.0
 10
-39.7337368573704
 20
-43.01405939741762
 30
0.0
 10
-39.42240355406791
 20
-43.00893603185158
 30
0.0
 10
-39.07612885858096
 20
-43.00323662018979
 30
0.0
 10
-38.69162630916801
 20
-42.99690671017906
 30
0.0
 10
-38.26531496860665
 20
-42.98988682321514
 30
0.0
 10
-37.90047981497206
 20
-42.98387767058346
 30
0.0
 10
-37.67725762495603
 20
-42.98020008990484
 30
0.0
 10
-37.61096208726667
 20
-42.97910787237723
 30
0.0
 11
-40.27210004673333
 21
-43.02291678331057
 31
0.0
 11
-40.02278261739999
 21
-43.01881516411056
 31
0.0
 11
-39.7442916446
 21
-43.01423295931057
 31
0.0
 11
-39.43413632833333
 21
-43.0091289614439
 31
0.0
 11
-39.0887827134
 21
-43.0034447086439
 31
0.0
 11
-38.70546756459999
 21
-42.99713433211056
 31
0.0
 11
-38.28062868886667
 21
-42.9901386990439
 31
0.0
 11
-37.80984870166666
 21
-42.98238444411057
 31
0.0
 11
-37.61096208726667
 21
-42.97910787237723
 31
0.0
  0
SPLINE
  5
52
100
AcDbEntity
  8
0
  6
CONTINUOUS
100
AcDbSpline
210
0.0
220
0.0
230
1.0
 70
     8
 71
     3
 72
    14
 73
    10
 74
     8
 42
0.0000001
 43
0.0000001
 44
0.0000000001
 40
0.0
 40
0.0
 40
0.0
 40
0.0
 40
0.416599669629932
 40
0.8735698917283036
 40
1.289776518128553
 40
1.625941504959085
 40
1.92681365553273
 40
2.231839633441112
 40
2.510332773362304
 40
2.510332773362304
 40
2.510332773362304
 40
2.510332773362304
 10
-37.62269995606667
 20
-42.8666944910439
 30
0.0
 10
-37.76153150010645
 20
-42.86981268713783
 30
0.0
 10
-38.05264804612539
 20
-42.87635124782986
 30
0.0
 10
-38.48246823900059
 20
-42.88586683458984
 30
0.0
 10
-38.88548380813197
 20
-42.89477211321925
 30
0.0
 10
-39.23648086574607
 20
-42.90246069343432
 30
0.0
 10
-39.55042731923398
 20
-42.90930442574098
 30
0.0
 10
-39.84515459659435
 20
-42.91571978724506
 30
0.0
 10
-40.0396158371167
 20
-42.91990967242836
 30
0.0
 10
-40.1324253438
 20
-42.92190935717723
 30
0.0
 11
-37.62269995606667
 21
-42.8666944910439
 31
0.0
 11
-38.03919506326667
 21
-42.8760277870439
 31
0.0
 11
-38.49605284886667
 21
-42.88616423717724
 31
0.0
 11
-38.91215816726667
 21
-42.89534682171057
 31
0.0
 11
-39.24824245953333
 21
-42.90271206864391
 31
0.0
 11
-39.54904307393333
 21
-42.9092726606439
 31
0.0
 11
-39.85399703553332
 21
-42.91590051877724
 31
0.0
 11
-40.1324253438
 21
-42.92190935717723
 31
0.0
  0
SPLINE
  5
53
100
AcDbEntity
  8
0
  6
CONTINUOUS
100
AcDbSpline
210
-0.0174524063496475
220
0.999847695157921
230
0.0
 70
    24
 71
     3
 72
    15
 73
    11
 74
     9
 42
0.0000001
 43
0.0000001
 44
0.0000000001
 40
0.0
 40
0.0
 40
0.0
 40
0.0
 40
0.4118035068680014
 40
0.8632047769339543
 40
1.274263904834157
 40
1.606505028372526
 40
1.903869330662791
 40
2.205270441897465
 40
2.480453563225336
 40
2.666307480339736
 40
2.666307480339736
 40
2.666307480339736
 40
2.666307480339736
 10
-37.611811347
 20
-42.92696910757724
 30
0.0
 10
-37.7490582760666
 20
-42.92936476162557
 30
0.0
 10
-38.03674937828876
 20
-42.93438642847376
 30
0.0
 10
-38.46143932104706
 20
-42.9417994188932
 30
0.0
 10
-38.85961250860162
 20
-42.94874955797356
 30
0.0
 10
-39.20644786042044
 20
-42.95480359194579
 30
0.0
 10
-39.5167361071673
 20
-42.96021969377787
 30
0.0
 10
-39.80800791661433
 20
-42.96530386053314
 30
0.0
 10
-40.06211525881541
 20
-42.96973932165765
 30
0.0
 10
-40.21577086557693
 20
-42.97242138993699
 30
0.0
 10
-40.2777127358
 20
-42.97350258917723
 30
0.0
 11
-37.611811347
 21
-42.92696910757724
 31
0.0
 11
-38.0235521342
 21
-42.93415606971057
 31
0.0
 11
-38.47488465366666
 21
-42.94203410811056
 31
0.0
 11
-38.88588117526666
 21
-42.94920807931057
 31
0.0
 11
-39.21807169686667
 21
-42.95500648677724
 31
0.0
 11
-39.51539070913332
 21
-42.96019620944391
 31
0.0
 11
-39.81674591553333
 21
-42.96545638331057
 31
0.0
 11
-40.09188712513332
 21
-42.97025899131057
 31
0.0
 11
-40.2777127358
 21
-42.97350258917723
 31
0.0
  0
SPLINE
  5
54
100
AcDbEntity
  8
0
  6
CONTINUOUS
100
AcDbSpline
210
0.0
220
0.0
230
-1.0
 70
     8
 71
     3
 72
    12
 73
     8
 74
     6
 42
0.0000001
 43
0.0000001
 44
0.0000000001
 40
0.0
 40
0.0
 40
0.0
 40
0.0
 40
0.1238091376238368
 40
0.2417111261065731
 40
0.3529355178554296
 40
0.4619498362868287
 40
0.575456687511772
 40
0.575456687511772
 40
0.575456687511772
 40
0.575456687511772
 10
-41.7738215614
 20
-43.02948671611058
 30
0.0
 10
-41.73255545538125
 20
-43.02893978543509
 30
0.0
 10
-41.651992120984
 20
-43.02787201909725
 30
0.0
 10
-41.5343532767536
 20
-43.02663934358512
 30
0.0
 10
-41.42164413626742
 20
-43.02563861723466
 30
0.0
 10
-41.31039878524709
 20
-43.02479316648472
 30
0.0
 10
-41.23622646921165
 20
-43.02433515493663
 30
0.0
 10
-41.19839156993333
 20
-43.02410152571057
 30
0.0
 11
-41.7738215614
 21
-43.02948671611058
 31
0.0
 11
-41.65002253313332
 21
-43.02790457851057
 31
0.0
 11
-41.53212723713333
 21
-43.0266483662439
 31
0.0
 11
-41.42090727233333
 21
-43.0256560206439
 31
0.0
 11
-41.31189608406666
 21
-43.0248299118439
 31
0.0
 11
-41.19839156993333
 21
-43.02410152571057
 31
0.0
  0
SPLINE
  5
55
100
AcDbEntity
  8
0
  6
CONTINUOUS
100
AcDbSpline
210
0.0
220
0.0
230
1.0
 70
     8
 71
     3
 72
    10
 73
     6
 74
     4
 42
0.0000001
 43
0.0000001
 44
0.0000000001
 40
0.0
 40
0.0
 40
0.0
 40
0.0
 40
0.2311603654689795
 40
0.4081582185092029
 40
0.5422166445933266
 40
0.5422166445933266
 40
0.5422166445933266
 40
0.5422166445933266
 10
-41.17576307499999
 20
-42.94403520251057
 30
0.0
 10
-41.25279990740201
 20
-42.94563564716935
 30
0.0
 10
-41.38882329622565
 20
-42.9484615409571
 30
0.0
 10
-41.56952442332779
 20
-42.95215591814184
 30
0.0
 10
-41.67318914633531
 20
-42.95422788180259
 30
0.0
 10
-41.71786636566666
 20
-42.9551208526439
 30
0.0
 11
-41.17576307499999
 21
-42.94403520251057
 31
0.0
 11
-41.40687387073334
 21
-42.94882212837723
 31
0.0
 11
-41.58383488513334
 21
-42.9524331342439
 31
0.0
 11
-41.71786636566666
 21
-42.9551208526439
 31
0.0
  0
SPLINE
  5
56
100
AcDbEntity
  8
0
  6
CONTINUOUS
100
AcDbSpline
210
-0.0174524052252261
220
0.9998476951775478
230
0.0
 70
    24
 71
     3
 72
    11
 73
     7
 74
     5
 42
0.0000001
 43
0.0000001
 44
0.0000000001
 40
0.0
 40
0.0
 40
0.0
 40
0.0
 40
0.1758775123310117
 40
0.3505614327222966
 40
0.4828397222878869
 40
0.5840419358700208
 40
0.5840419358700208
 40
0.5840419358700208
 40
0.5840419358700208
 10
-41.17497554326667
 20
-42.98916437051057
 30
0.0
 10
-41.23359245170873
 20
-42.99018753260314
 30
0.0
 10
-41.35042846520955
 20
-42.99222691310339
 30
0.0
 10
-41.51135052639478
 20
-42.99503581629109
 30
0.0
 10
-41.64738461241333
 20
-42.99741030133127
 30
0.0
 10
-41.72519959339881
 20
-42.99876856649015
 30
0.0
 10
-41.75892852673334
 20
-42.99935730704389
 30
0.0
 11
-41.17497554326667
 21
-42.98916437051057
 31
0.0
 11
-41.3508262686
 21
-42.99223385637723
 31
0.0
 11
-41.52548358379999
 21
-42.9952825102439
 31
0.0
 11
-41.65774172673333
 21
-42.99759108517724
 31
0.0
 11
-41.75892852673334
 21
-42.99935730704389
 31
0.0
  0
SPLINE
  5
57
100
AcDbEntity
  8
0
  6
CONTINUOUS
100
AcDbSpline
210
0.0
220
0.0
230
-1.0
 70
     8
 71
     3
 72
    10
 73
     6
 74
     4
 42
0.0000001
 43
0.0000001
 44
0.0000000001
 40
0.0
 40
0.0
 40
0.0
 40
0.0
 40
0.083913182831855
 40
0.1928690494200234
 40
0.3139869057144446
 40
0.3139869057144446
 40
0.3139869057144446
 40
0.3139869057144446
 10
-42.08772882753334
 20
-43.03627003237724
 30
0.0
 10
-42.05977345425012
 20
-43.03532225100113
 30
0.0
 10
-41.99551982818849
 20
-43.03314383651488
 30
0.0
 10
-41.89087120547134
 20
-43.03126734928269
 30
0.0
 10
-41.81418927751429
 20
-43.03010081532433
 30
0.0
 10
-41.7738215614
 20
-43.02948671611058
 30
0.0
 11
-42.08772882753334
 21
-43.03627003237724
 31
0.0
 11
-42.00385747286667
 21
-43.03362085904391
 31
0.0
 11
-41.89492451286667
 21
-43.03138678437724
 31
0.0
 11
-41.7738215614
 21
-43.02948671611058
 31
0.0
  0
SPLINE
  5
58
100
AcDbEntity
  8
0
  6
CONTINUOUS
100
AcDbSpline
210
0.0
220
0.0
230
-1.0
 70
     8
 71
     3
 72
    12
 73
     8
 74
     6
 42
0.0000001
 43
0.0000001
 44
0.0000000001
 40
0.0
 40
0.0
 40
0.0
 40
0.0
 40
0.0444947769263045
 40
0.0886628816674623
 40
0.1317442476656947
 40
0.1725332586654467
 40
0.2089549873716744
 40
0.2089549873716744
 40
0.2089549873716744
 40
0.2089549873716744
 10
-41.88238382699999
 20
-43.0021721646439
 30
0.0
 10
-41.89719181970185
 20
-43.0030221448171
 30
0.0
 10
-41.92669908764102
 20
-43.00471586477086
 30
0.0
 10
-41.9704096634837
 20
-43.00920326048354
 30
0.0
 10
-42.0126006867708
 20
-43.01558111123649
 30
0.0
 10
-42.0520082103102
 20
-43.02352441016346
 30
0.0
 10
-42.07627603475281
 20
-43.03218390125715
 30
0.0
 10
-42.08772361473333
 20
-43.03626874277724
 30
0.0
 11
-41.88238382699999
 21
-43.0021721646439
 31
0.0
 11
-41.92678504299999
 21
-43.00505611877723
 31
0.0
 11
-41.97071957633333
 21
-43.00959244517724
 31
0.0
 11
-42.01331357739999
 21
-43.01605426917723
 31
0.0
 11
-42.05315250326665
 21
-43.0248066062439
 31
0.0
 11
-42.08772361473333
 21
-43.03626874277724
 31
0.0
  0
SPLINE
  5
59
100
AcDbEntity
  8
0
  6
CONTINUOUS
100
AcDbSpline
210
-0.0324482662041536
220
0.99947341636501
230
0.0
 70
    24
 71
     3
 72
     8
 73
     4
 74
     2
 42
0.0000001
 43
0.0000001
 44
0.0000000001
 40
0.0
 40
0.0
 40
0.0
 40
0.0
 40
0.0440029920555112
 40
0.0440029920555112
 40
0.0440029920555112
 40
0.0440029920555112
 10
-41.83840400619999
 20
-43.00074434384391
 30
0.0
 10
-41.85306394646666
 20
-43.00122028411057
 30
0.0
 10
-41.86772388673333
 20
-43.00169622437723
 30
0.0
 10
-41.88238382699999
 20
-43.0021721646439
 30
0.0
 11
-41.83840400619999
 21
-43.00074434384391
 31
0.0
 11
-41.88238382699999
 21
-43.0021721646439
 31
0.0
  0
SPLINE
  5
5A
100
AcDbEntity
  8
0
  6
CONTINUOUS
100
AcDbSpline
210
0.0
220
0.0
230
-1.0
 70
     8
 71
     3
 72
    13
 73
     9
 74
     7
 42
0.0000001
 43
0.0000001
 44
0.0000000001
 40
0.0
 40
0.0
 40
0.0
 40
0.0
 40
0.0346576887925909
 40
0.0692455899414593
 40
0.1036239363119555
 40
0.1380245683186603
 40
0.1729307908692223
 40
0.2091449684561143
 40
0.2091449684561143
 40
0.2091449684561143
 40
0.2091449684561143
 10
-41.90089492033332
 20
-42.9586872654439
 30
0.0
 10
-41.91244512714273
 20
-42.95919470621032
 30
0.0
 10
-41.93552228295799
 20
-42.96020856594693
 30
0.0
 10
-41.9696705507065
 20
-42.96594089862796
 30
0.0
 10
-42.00291856670527
 20
-42.97536360256809
 30
0.0
 10
-42.03451207900847
 20
-42.98957899647446
 30
0.0
 10
-42.06425014524675
 20
-43.00905546085965
 30
0.0
 10
-42.07980377743028
 20
-43.02708711049265
 30
0.0
 10
-42.08772361473333
 20
-43.03626874277724
 30
0.0
 11
-41.90089492033332
 21
-42.9586872654439
 31
0.0
 11
-41.93548092566667
 21
-42.9609151854439
 31
0.0
 11
-41.96960274753332
 21
-42.96657417637724
 31
0.0
 11
-42.00262023126666
 21
-42.9761510478439
 31
0.0
 11
-42.03396726700001
 21
-42.99032026917724
 31
0.0
 11
-42.06280003819999
 21
-43.0099955246439
 31
0.0
 11
-42.08772361473333
 21
-43.03626874277724
 31
0.0
  0
SPLINE
  5
5B
100
AcDbEntity
  8
0
  6
CONTINUOUS
100
AcDbSpline
210
0.0
220
0.0
230
1.0
 70
     8
 71
     3
 72
     9
 73
     5
 74
     3
 42
0.0000001
 43
0.0000001
 44
0.0000000001
 40
0.0
 40
0.0
 40
0.0
 40
0.0
 40
0.1025445239409149
 40
0.1830632630957816
 40
0.1830632630957816
 40
0.1830632630957816
 40
0.1830632630957816
 10
-41.71786636566666
 20
-42.9551208526439
 30
0.0
 10
-41.752041193596
 20
-42.95579664210813
 30
0.0
 10
-41.81305035601687
 20
-42.95700306659315
 30
0.0
 10
-41.8740602338436
 20
-42.95817273008422
 30
0.0
 10
-41.900894883
 20
-42.95868719611057
 30
0.0
 11
-41.71786636566666
 21
-42.9551208526439
 31
0.0
 11
-41.82039107393333
 21
-42.9571366862439
 31
0.0
 11
-41.900894883
 21
-42.95868719611057
 31
0.0
  0
SPLINE
  5
5C
100
AcDbEntity
  8
0
  6
CONTINUOUS
100
AcDbSpline
210
-0.0174523948319427
220
0.9998476953589634
230
0.0
 70
    24
 71
     3
 72
     8
 73
     4
 74
     2
 42
0.0000001
 43
0.0000001
 44
0.0000000001
 40
0.0
 40
0.0
 40
0.0
 40
0.0
 40
0.0794876049977993
 40
0.0794876049977993
 40
0.0794876049977993
 40
0.0794876049977993
 10
-41.75892852673334
 20
-42.99935730704389
 30
0.0
 10
-41.78542035962222
 20
-42.99981972339945
 30
0.0
 10
-41.8119121925111
 20
-43.000282139755
 30
0.0
 10
-41.83840402539999
 20
-43.00074455611056
 30
0.0
 11
-41.75892852673334
 21
-42.99935730704389
 31
0.0
 11
-41.83840402539999
 21
-43.00074455611056
 31
0.0
  0
SPLINE
  5
5D
100
AcDbEntity
  8
0
  6
CONTINUOUS
100
AcDbSpline
210
-0.0174524071941919
220
0.9998476951431793
230
0.0
 70
    24
 71
     3
 72
    10
 73
     6
 74
     4
 42
0.0000001
 43
0.0000001
 44
0.0000000001
 40
0.0
 40
0.0
 40
0.0
 40
0.0
 40
0.1392434005083445
 40
0.2715216900739348
 40
0.3088941298095537
 40
0.3088941298095537
 40
0.3088941298095537
 40
0.3088941298095537
 10
-41.38626139073332
 20
-42.99285237797723
 30
0.0
 10
-41.43266878842375
 20
-42.99366242197779
 30
0.0
 10
-41.52316223376361
 20
-42.99524199067016
 30
0.0
 10
-41.6261112616615
 20
-42.99703897347419
 30
0.0
 10
-41.6826528918887
 20
-42.99802591114278
 30
0.0
 10
-41.69510847446666
 20
-42.99824332411056
 30
0.0
 11
-41.38626139073332
 21
-42.99285237797723
 31
0.0
 11
-41.52548358379999
 21
-42.9952825102439
 31
0.0
 11
-41.65774172673333
 21
-42.99759108517724
 31
0.0
 11
-41.69510847446666
 21
-42.99824332411056
 31
0.0
  0
SPLINE
  5
5E
100
AcDbEntity
  8
0
  6
CONTINUOUS
100
AcDbSpline
210
-0.0174526887174156
220
0.9998476902291335
230
0.0
 70
    24
 71
     3
 72
    10
 73
     6
 74
     4
 42
0.0000001
 43
0.0000001
 44
0.0000000001
 40
0.0
 40
0.0
 40
0.0
 40
0.0
 40
0.1366088857074581
 40
0.2648454709254278
 40
0.3913858838943225
 40
0.3913858838943225
 40
0.3913858838943225
 40
0.3913858838943225
 10
-41.69510847339999
 20
-42.99824339557724
 30
0.0
 10
-41.6495791132149
 20
-42.99744869755899
 30
0.0
 10
-41.56131073464854
 20
-42.99590800589903
 30
0.0
 10
-41.43086864542745
 20
-42.99363101108194
 30
0.0
 10
-41.34595591453112
 20
-42.99214882086256
 30
0.0
 10
-41.30378220139999
 20
-42.99141265957724
 30
0.0
 11
-41.69510847339999
 21
-42.99824339557724
 31
0.0
 11
-41.5585203934
 21
-42.99585926971057
 31
0.0
 11
-41.4303033406
 21
-42.99362115451057
 31
0.0
 11
-41.30378220139999
 21
-42.99141265957724
 31
0.0
  0
SPLINE
  5
5F
100
AcDbEntity
  8
0
  6
CONTINUOUS
100
AcDbSpline
210
0.0
220
0.0
230
1.0
 70
     8
 71
     3
 72
    11
 73
     7
 74
     5
 42
0.0000001
 43
0.0000001
 44
0.0000000001
 40
0.0
 40
0.0
 40
0.0
 40
0.0
 40
0.1538969036164093
 40
0.2827486325538504
 40
0.3921797940362098
 40
0.4852866204273684
 40
0.4852866204273684
 40
0.4852866204273684
 40
0.4852866204273684
 10
-40.54419437846667
 20
-42.9307152590439
 30
0.0
 10
-40.59548173941621
 20
-42.93180645760786
 30
0.0
 10
-40.68970995866567
 20
-42.93381127313405
 30
0.0
 10
-40.8204072297801
 20
-42.93658016927324
 30
0.0
 10
-40.93084586040986
 20
-42.93891170726357
 30
0.0
 10
-40.99834364891199
 20
-42.94032880579099
 30
0.0
 10
-41.02937242006666
 20
-42.94098024677723
 30
0.0
 11
-40.54419437846667
 21
-42.9307152590439
 31
0.0
 11
-40.698056515
 21
-42.93398632677724
 31
0.0
 11
-40.82687933633333
 21
-42.93671556731057
 31
0.0
 11
-40.93628614166667
 21
-42.9390242574439
 31
0.0
 11
-41.02937242006666
 21
-42.94098024677723
 31
0.0
  0
SPLINE
  5
60
100
AcDbEntity
  8
0
  6
CONTINUOUS
100
AcDbSpline
210
0.0010690560658498
220
0.9999994285594009
230
0.0
 70
    24
 71
     3
 72
     8
 73
     4
 74
     2
 42
0.0000001
 43
0.0000001
 44
0.0000000001
 40
0.0
 40
0.0
 40
0.0
 40
0.0
 40
0.1621677342692343
 40
0.1621677342692343
 40
0.1621677342692343
 40
0.1621677342692343
 10
-40.56444656833334
 20
-43.0223273006439
 30
0.0
 10
-40.5103906878
 20
-43.0223850894439
 30
0.0
 10
-40.45633480726666
 20
-43.0224428782439
 30
0.0
 10
-40.40227892673333
 20
-43.02250066704391
 30
0.0
 11
-40.56444656833334
 21
-43.0223273006439
 31
0.0
 11
-40.40227892673333
 21
-43.02250066704391
 31
0.0
  0
SPLINE
  5
61
100
AcDbEntity
  8
0
  6
CONTINUOUS
100
AcDbSpline
210
0.002860901826572
220
0.9999959076119957
230
0.0
 70
    24
 71
     3
 72
     8
 73
     4
 74
     2
 42
0.0000001
 43
0.0000001
 44
0.0000000001
 40
0.0
 40
0.0
 40
0.0
 40
0.0
 40
0.0471053330399659
 40
0.0471053330399659
 40
0.0471053330399659
 40
0.0471053330399659
 10
-40.31930836673334
 20
-43.02268844091057
 30
0.0
 10
-40.30360665331111
 20
-43.02273336215501
 30
0.0
 10
-40.28790493988888
 20
-43.02277828339945
 30
0.0
 10
-40.27220322646667
 20
-43.0228232046439
 30
0.0
 11
-40.31930836673334
 21
-43.02268844091057
 31
0.0
 11
-40.27220322646667
 21
-43.0228232046439
 31
0.0
  0
SPLINE
  5
62
100
AcDbEntity
  8
0
  6
CONTINUOUS
100
AcDbSpline
210
0.0024416714762987
220
0.9999970191157581
230
0.0
 70
    24
 71
     3
 72
     8
 73
     4
 74
     2
 42
0.0000001
 43
0.0000001
 44
0.0000000001
 40
0.0
 40
0.0
 40
0.0
 40
0.0
 40
0.0432944949225351
 40
0.0432944949225351
 40
0.0432944949225351
 40
0.0432944949225351
 10
-40.36260273259999
 20
-43.02258272997724
 30
0.0
 10
-40.34817127731111
 20
-43.02261796695501
 30
0.0
 10
-40.33373982202222
 20
-43.02265320393279
 30
0.0
 10
-40.31930836673334
 20
-43.02268844091057
 30
0.0
 11
-40.36260273259999
 21
-43.02258272997724
 31
0.0
 11
-40.31930836673334
 21
-43.02268844091057
 31
0.0
  0
SPLINE
  5
63
100
AcDbEntity
  8
0
  6
CONTINUOUS
100
AcDbSpline
210
0.0020680691668046
220
0.9999978615426742
230
0.0
 70
    24
 71
     3
 72
     8
 73
     4
 74
     2
 42
0.0000001
 43
0.0000001
 44
0.0000000001
 40
0.0
 40
0.0
 40
0.0
 40
0.0
 40
0.0396763003127454
 40
0.0396763003127454
 40
0.0396763003127454
 40
0.0396763003127454
 10
-40.40227894806666
 20
-43.02250067664391
 30
0.0
 10
-40.3890535429111
 20
-43.02252802775501
 30
0.0
 10
-40.37582813775554
 20
-43.02255537886613
 30
0.0
 10
-40.36260273259999
 20
-43.02258272997724
 30
0.0
 11
-40.40227894806666
 21
-43.02250067664391
 31
0.0
 11
-40.36260273259999
 21
-43.02258272997724
 31
0.0
  0
SPLINE
  5
64
100
AcDbEntity
  8
0
  6
CONTINUOUS
100
AcDbSpline
210
-0.0174524059114344
220
0.99984769516557
230
0.0
 70
    24
 71
     3
 72
    11
 73
     7
 74
     5
 42
0.0000001
 43
0.0000001
 44
0.0000000001
 40
0.0
 40
0.0
 40
0.0
 40
0.0
 40
0.1519683476481374
 40
0.2792580203362298
 40
0.38739873496734
 40
0.4794080871026618
 40
0.4794080871026618
 40
0.4794080871026618
 40
0.4794080871026618
 10
-40.49864220566667
 20
-42.97735892837724
 30
0.0
 10
-40.54929060637549
 20
-42.9782429996189
 30
0.0
 10
-40.64236243570072
 20
-42.97986757466104
 30
0.0
 10
-40.77147567981535
 20
-42.98212125318761
 30
0.0
 10
-40.88060563605913
 20
-42.98402612489796
 30
0.0
 10
-40.94731216370994
 20
-42.98519049146702
 30
0.0
 10
-40.9779772766
 20
-42.98572575291057
 30
0.0
 11
-40.49864220566667
 21
-42.97735892837724
 31
0.0
 11
-40.6505874078
 21
-42.98001114171056
 31
0.0
 11
-40.77785769366667
 21
-42.98223265211057
 31
0.0
 11
-40.88598193793333
 21
-42.98411996837724
 31
0.0
 11
-40.9779772766
 21
-42.98572575291057
 31
0.0
  0
SPLINE
  5
65
100
AcDbEntity
  8
0
  6
CONTINUOUS
100
AcDbSpline
210
-0.0174524080817286
220
0.9998476951276874
230
0.0
 70
    24
 71
     3
 72
     8
 73
     4
 74
     2
 42
0.0000001
 43
0.0000001
 44
0.0000000001
 40
0.0
 40
0.0
 40
0.0
 40
0.0
 40
0.1834713611822409
 40
0.1834713611822409
 40
0.1834713611822409
 40
0.1834713611822409
 10
-40.31519878806666
 20
-42.97415691131057
 30
0.0
 10
-40.37634659393333
 20
-42.9752242503328
 30
0.0
 10
-40.4374943998
 20
-42.97629158935502
 30
0.0
 10
-40.49864220566667
 20
-42.97735892837724
 30
0.0
 11
-40.31519878806666
 21
-42.97415691131057
 31
0.0
 11
-40.49864220566667
 21
-42.97735892837724
 31
0.0
  0
SPLINE
  5
66
100
AcDbEntity
  8
0
  6
CONTINUOUS
100
AcDbSpline
210
-0.0174524239589649
220
0.9998476948505491
230
0.0
 70
    24
 71
     3
 72
     8
 73
     4
 74
     2
 42
0.0000001
 43
0.0000001
 44
0.0000000001
 40
0.0
 40
0.0
 40
0.0
 40
0.0
 40
0.0374917624551419
 40
0.0374917624551419
 40
0.0374917624551419
 40
0.0374917624551419
 10
-40.2777127358
 20
-42.97350258917723
 30
0.0
 10
-40.29020808655556
 20
-42.97372069655502
 30
0.0
 10
-40.30270343731111
 20
-42.97393880393279
 30
0.0
 10
-40.31519878806666
 20
-42.97415691131057
 30
0.0
 11
-40.2777127358
 21
-42.97350258917723
 31
0.0
 11
-40.31519878806666
 21
-42.97415691131057
 31
0.0
  0
SPLINE
  5
67
100
AcDbEntity
  8
0
  6
CONTINUOUS
100
AcDbSpline
210
-0.0213187160814599
220
0.9997727303465714
230
0.0
 70
    24
 71
     3
 72
     8
 73
     4
 74
     2
 42
0.0000001
 43
0.0000001
 44
0.0000000001
 40
0.0
 40
0.0
 40
0.0
 40
0.0
 40
0.1857865479110202
 40
0.1857865479110202
 40
0.1857865479110202
 40
0.1857865479110202
 10
-40.3584500542
 20
-42.92675452837723
 30
0.0
 10
-40.42036482895555
 20
-42.9280747719328
 30
0.0
 10
-40.48227960371111
 20
-42.92939501548835
 30
0.0
 10
-40.54419437846667
 20
-42.9307152590439
 30
0.0
 11
-40.3584500542
 21
-42.92675452837723
 31
0.0
 11
-40.54419437846667
 21
-42.9307152590439
 31
0.0
  0
SPLINE
  5
68
100
AcDbEntity
  8
0
  6
CONTINUOUS
100
AcDbSpline
210
-0.0214315432295254
220
0.999770318100513
230
0.0
 70
    24
 71
     3
 72
     8
 73
     4
 74
     2
 42
0.0000001
 43
0.0000001
 44
0.0000000001
 40
0.0
 40
0.0
 40
0.0
 40
0.0
 40
0.2260766361112089
 40
0.2260766361112089
 40
0.2260766361112089
 40
0.2260766361112089
 10
-40.1324253438
 20
-42.92190935717723
 30
0.0
 10
-40.20776691393334
 20
-42.9235244142439
 30
0.0
 10
-40.28310848406667
 20
-42.92513947131056
 30
0.0
 10
-40.3584500542
 20
-42.92675452837723
 30
0.0
 11
-40.1324253438
 21
-42.92190935717723
 31
0.0
 11
-40.3584500542
 21
-42.92675452837723
 31
0.0
  0
SPLINE
  5
69
100
AcDbEntity
  8
0
  6
CONTINUOUS
100
AcDbSpline
210
-0.0052298928913898
220
0.9999863240166561
230
0.0
 70
    24
 71
     3
 72
     8
 73
     4
 74
     2
 42
0.0000001
 43
0.0000001
 44
0.0000000001
 40
0.0
 40
0.0
 40
0.0
 40
0.0
 40
0.1283677022212195
 40
0.1283677022212195
 40
0.1283677022212195
 40
0.1283677022212195
 10
-41.19839156993333
 20
-43.02410152571057
 30
0.0
 10
-41.15560292104444
 20
-43.02387774259946
 30
0.0
 10
-41.11281427215556
 20
-43.02365395948835
 30
0.0
 10
-41.07002562326667
 20
-43.02343017637723
 30
0.0
 11
-41.19839156993333
 21
-43.02410152571057
 31
0.0
 11
-41.07002562326667
 21
-43.02343017637723
 31
0.0
  0
SPLINE
  5
6A
100
AcDbEntity
  8
0
  6
CONTINUOUS
100
AcDbSpline
210
-0.0207893344574263
220
0.9997838784321427
230
0.0
 70
    24
 71
     3
 72
     8
 73
     4
 74
     2
 42
0.0000001
 43
0.0000001
 44
0.0000000001
 40
0.0
 40
0.0
 40
0.0
 40
0.0
 40
0.0522501254456993
 40
0.0522501254456993
 40
0.0522501254456993
 40
0.0522501254456993
 10
-41.12352444033334
 20
-42.94294908411057
 30
0.0
 10
-41.1409373846889
 20
-42.94331116588835
 30
0.0
 10
-41.15835032904445
 20
-42.94367324766612
 30
0.0
 10
-41.17576327340001
 20
-42.9440353294439
 30
0.0
 11
-41.12352444033334
 21
-42.94294908411057
 31
0.0
 11
-41.17576327340001
 21
-42.9440353294439
 31
0.0
  0
SPLINE
  5
6B
100
AcDbEntity
  8
0
  6
CONTINUOUS
100
AcDbSpline
210
-0.0174524200886503
220
0.9998476949181057
230
0.0
 70
    24
 71
     3
 72
     8
 73
     4
 74
     2
 42
0.0000001
 43
0.0000001
 44
0.0000000001
 40
0.0
 40
0.0
 40
0.0
 40
0.0
 40
0.0524016418363441
 40
0.0524016418363441
 40
0.0524016418363441
 40
0.0524016418363441
 10
-41.12258188246667
 20
-42.98824983504391
 30
0.0
 10
-41.14004643606667
 20
-42.98855468019946
 30
0.0
 10
-41.15751098966667
 20
-42.98885952535502
 30
0.0
 10
-41.17497554326667
 20
-42.98916437051057
 30
0.0
 11
-41.12258188246667
 21
-42.98824983504391
 31
0.0
 11
-41.17497554326667
 21
-42.98916437051057
 31
0.0
  0
SPLINE
  5
6C
100
AcDbEntity
  8
0
  6
CONTINUOUS
100
AcDbSpline
210
-0.0174524183944427
220
0.9998476949476783
230
0.0
 70
    24
 71
     3
 72
     8
 73
     4
 74
     2
 42
0.0000001
 43
0.0000001
 44
0.0000000001
 40
0.0
 40
0.0
 40
0.0
 40
0.0
 40
0.0664705280639327
 40
0.0664705280639327
 40
0.0664705280639327
 40
0.0664705280639327
 10
-41.05612144086665
 20
-42.98708976357723
 30
0.0
 10
-41.07827490895554
 20
-42.98747645406613
 30
0.0
 10
-41.10042837704444
 20
-42.98786314455502
 30
0.0
 10
-41.12258184513334
 20
-42.98824983504391
 30
0.0
 11
-41.05612144086665
 21
-42.98708976357723
 31
0.0
 11
-41.12258184513334
 21
-42.98824983504391
 31
0.0
  0
SPLINE
  5
6D
100
AcDbEntity
  8
0
  6
CONTINUOUS
100
AcDbSpline
210
0.0
220
0.0
230
-1.0
 70
     8
 71
     3
 72
    10
 73
     6
 74
     4
 42
0.0000001
 43
0.0000001
 44
0.0000000001
 40
0.0
 40
0.0
 40
0.0
 40
0.0
 40
0.1520342696528021
 40
0.326402832017009
 40
0.5055807051748966
 40
0.5055807051748966
 40
0.5055807051748966
 40
0.5055807051748966
 10
-41.07002562326667
 20
-43.02343017637723
 30
0.0
 10
-41.0193479698406
 20
-43.02321876133347
 30
0.0
 10
-40.9105479628683
 20
-43.0227648737384
 30
0.0
 10
-40.74202136462642
 20
-43.02237077177659
 30
0.0
 10
-40.62417253504412
 20
-43.02234192183721
 30
0.0
 10
-40.56444656833334
 20
-43.0223273006439
 30
0.0
 11
-41.07002562326667
 21
-43.02343017637723
 31
0.0
 11
-40.91799250220001
 21
-43.02283920464391
 31
0.0
 11
-40.74362440939999
 21
-43.02243453904391
 31
0.0
 11
-40.56444656833334
 21
-43.0223273006439
 31
0.0
  0
SPLINE
  5
6E
100
AcDbEntity
  8
0
  6
CONTINUOUS
100
AcDbSpline
210
0.0
220
0.0
230
1.0
 70
     8
 71
     3
 72
     9
 73
     5
 74
     3
 42
0.0000001
 43
0.0000001
 44
0.0000000001
 40
0.0
 40
0.0
 40
0.0
 40
0.0
 40
0.0791027013486011
 40
0.0941726034832994
 40
0.0941726034832994
 40
0.0941726034832994
 40
0.0941726034832994
 10
-41.02937242006666
 20
-42.94098024677723
 30
0.0
 10
-41.05573420123894
 20
-42.94153259736085
 30
0.0
 10
-41.08711818083921
 20
-42.94219017657886
 30
0.0
 10
-41.11850223066721
 20
-42.94284439352181
 30
0.0
 10
-41.12352444033334
 20
-42.94294908411057
 30
0.0
 11
-41.02937242006666
 21
-42.94098024677723
 31
0.0
 11
-41.10845781313332
 21
-42.9426349262439
 31
0.0
 11
-41.12352444033334
 21
-42.94294908411057
 31
0.0
  0
SPLINE
  5
6F
100
AcDbEntity
  8
0
  6
CONTINUOUS
100
AcDbSpline
210
-0.0174523962764461
220
0.9998476953337494
230
0.0
 70
    24
 71
     3
 72
     8
 73
     4
 74
     2
 42
0.0000001
 43
0.0000001
 44
0.0000000001
 40
0.0
 40
0.0
 40
0.0
 40
0.0
 40
0.0781560678004826
 40
0.0781560678004826
 40
0.0781560678004826
 40
0.0781560678004826
 10
-40.9779772766
 20
-42.98572575291057
 30
0.0
 10
-41.00402533135555
 20
-42.98618042313279
 30
0.0
 10
-41.0300733861111
 20
-42.98663509335502
 30
0.0
 10
-41.05612144086665
 20
-42.98708976357723
 30
0.0
 11
-40.9779772766
 21
-42.98572575291057
 31
0.0
 11
-41.05612144086665
 21
-42.98708976357723
 31
0.0
  0
SPLINE
  5
70
100
AcDbEntity
  8
0
  6
CONTINUOUS
100
AcDbSpline
210
0.0
220
0.0
230
1.0
 70
     8
 71
     3
 72
    11
 73
     7
 74
     5
 42
0.0000001
 43
0.0000001
 44
0.0000000001
 40
0.0
 40
0.0
 40
0.0
 40
0.0
 40
0.6932650665226912
 40
1.305338456806335
 40
1.849050884223615
 40
2.328455420915954
 40
2.328455420915954
 40
2.328455420915954
 40
2.328455420915954
 10
-34.03888016406666
 20
-42.91575139237724
 30
0.0
 10
-33.80782821823295
 20
-42.9116493839324
 30
0.0
 10
-33.37278395452949
 20
-42.90392577339473
 30
0.0
 10
-32.75653209160445
 20
-42.89291084538805
 30
0.0
 10
-32.21155636089658
 20
-42.88313231308305
 30
0.0
 10
-31.87057280662355
 20
-42.87698355911026
 30
0.0
 10
-31.71079726913333
 20
-42.87410242171057
 30
0.0
 11
-34.03888016406666
 21
-42.91575139237724
 31
0.0
 11
-33.34572458966667
 21
-42.90343059131057
 31
0.0
 11
-32.7337488766
 21
-42.89249616357724
 31
0.0
 11
-32.19012400193332
 21
-42.8827391470439
 31
0.0
 11
-31.71079726913333
 21
-42.87410242171057
 31
0.0
  0
SPLINE
  5
71
100
AcDbEntity
  8
0
  6
CONTINUOUS
100
AcDbSpline
210
-0.0174524065058363
220
0.9998476951551946
230
0.0
 70
    24
 71
     3
 72
    13
 73
     9
 74
     7
 42
0.0000001
 43
0.0000001
 44
0.0000000001
 40
0.0
 40
0.0
 40
0.0
 40
0.0
 40
0.3145782104590399
 40
0.6731499063837796
 40
1.079394052404783
 40
1.536884901686754
 40
2.049102728274419
 40
2.389992768010944
 40
2.389992768010944
 40
2.389992768010944
 40
2.389992768010944
 10
-31.7129713086
 20
-42.7594236046439
 30
0.0
 10
-31.81781474148692
 20
-42.76125365382337
 30
0.0
 10
-32.04216386894174
 20
-42.76516968294704
 30
0.0
 10
-32.40190708745752
 20
-42.77144902256016
 30
0.0
 10
-32.80928059677961
 20
-42.77855975422814
 30
0.0
 10
-33.26786168263722
 20
-42.78656431759014
 30
0.0
 10
-33.70466138433397
 20
-42.79418868442976
 30
0.0
 10
-33.98898736228904
 20
-42.79915161281206
 30
0.0
 10
-34.10260006913333
 20
-42.80113472997724
 30
0.0
 11
-31.7129713086
 21
-42.7594236046439
 31
0.0
 11
-32.02750160726665
 21
-42.76491375184391
 31
0.0
 11
-32.386018691
 21
-42.77117168997723
 31
0.0
 11
-32.79220096406666
 21
-42.77826162811057
 31
0.0
 11
-33.24962213526666
 21
-42.78624594491057
 31
0.0
 11
-33.76176194859999
 21
-42.79518537851057
 31
0.0
 11
-34.10260006913333
 21
-42.80113472997724
 31
0.0
  0
SPLINE
  5
72
100
AcDbEntity
  8
0
  6
CONTINUOUS
100
AcDbSpline
210
-0.017452406311083
220
0.999847695158594
230
0.0
 70
    24
 71
     3
 72
    11
 73
     7
 74
     5
 42
0.0000001
 43
0.0000001
 44
0.0000000001
 40
0.0
 40
0.0
 40
0.0
 40
0.0
 40
0.6779451839359244
 40
1.290025553404404
 40
1.833744717545421
 40
2.318603456665088
 40
2.318603456665088
 40
2.318603456665088
 40
2.318603456665088
 10
-34.03977268459999
 20
-42.86461894117723
 30
0.0
 10
-33.81382537473447
 20
-42.86067501613433
 30
0.0
 10
-33.38388234931567
 20
-42.85317033256015
 30
0.0
 10
-32.77272720618751
 20
-42.84250258064842
 30
0.0
 10
-32.22592440870608
 20
-42.83295810072568
 30
0.0
 10
-31.88311732673577
 20
-42.82697438174819
 30
0.0
 10
-31.72152236246665
 20
-42.82415373157724
 30
0.0
 11
-34.03977268459999
 21
-42.86461894117723
 31
0.0
 11
-33.361930755
 21
-42.8527871662439
 31
0.0
 11
-32.74994360833332
 21
-42.84210489104391
 31
0.0
 11
-32.20630725526666
 21
-42.83261568251057
 31
0.0
 11
-31.72152236246665
 21
-42.82415373157724
 31
0.0
  0
SPLINE
  5
73
100
AcDbEntity
  8
0
  6
CONTINUOUS
100
AcDbSpline
210
-0.017452406307043
220
0.9998476951586646
230
0.0
 70
    24
 71
     3
 72
    14
 73
    10
 74
     8
 42
0.0000001
 43
0.0000001
 44
0.0000000001
 40
0.0
 40
0.0
 40
0.0
 40
0.0
 40
0.2775367608581272
 40
0.5894601381620721
 40
0.9384615018167531
 40
1.32701426108612
 40
1.757581079042299
 40
2.232540012791566
 40
2.390131167748278
 40
2.390131167748278
 40
2.390131167748278
 40
2.390131167748278
 10
-31.7117060094
 20
-42.82398238651057
 30
0.0
 10
-31.80420417295552
 20
-42.82559694793439
 30
0.0
 10
-32.00066095979915
 20
-42.82902611384744
 30
0.0
 10
-32.3134338163295
 20
-42.83448558424097
 30
0.0
 10
-32.66320636958562
 20
-42.84059088597171
 30
0.0
 10
-33.05252071304821
 20
-42.84738639340587
 30
0.0
 10
-33.483814518552
 20
-42.85491465551403
 30
0.0
 10
-33.83813284814685
 20
-42.86109930540994
 30
0.0
 10
-34.04895076424415
 20
-42.86477914528282
 30
0.0
 10
-34.1014731486
 20
-42.86569592677724
 30
0.0
 11
-31.7117060094
 21
-42.82398238651057
 31
0.0
 11
-31.98920050006666
 21
-42.82882607077723
 31
0.0
 11
-32.30107636993333
 21
-42.83426988411057
 31
0.0
 11
-32.650024579
 21
-42.84036079717724
 31
0.0
 11
-33.03851815979999
 21
-42.84714197797724
 31
0.0
 11
-33.46901940033333
 21
-42.85465640571056
 31
0.0
 11
-33.94390599553332
 21
-42.8629455822439
 31
0.0
 11
-34.1014731486
 21
-42.86569592677724
 31
0.0
  0
SPLINE
  5
74
100
AcDbEntity
  8
0
  6
CONTINUOUS
100
AcDbSpline
210
-0.0174524095497144
220
0.9998476951020634
230
0.0
 70
    24
 71
     3
 72
     8
 73
     4
 74
     2
 42
0.0000001
 43
0.0000001
 44
0.0000000001
 40
0.0
 40
0.0
 40
0.0
 40
0.0
 40
0.0561135276984431
 40
0.0561135276984431
 40
0.0561135276984431
 40
0.0561135276984431
 10
-35.02980866859999
 20
-42.88190008251057
 30
0.0
 10
-35.01110700815555
 20
-42.88157364375502
 30
0.0
 10
-34.99240534771111
 20
-42.88124720499946
 30
0.0
 10
-34.97370368726666
 20
-42.8809207662439
 30
0.0
 11
-35.02980866859999
 21
-42.88190008251057
 31
0.0
 11
-34.97370368726666
 21
-42.8809207662439
 31
0.0
  0
SPLINE
  5
75
100
AcDbEntity
  8
0
  6
CONTINUOUS
100
AcDbSpline
210
-0.0174524084504363
220
0.9998476951212516
230
0.0
 70
    24
 71
     3
 72
     8
 73
     4
 74
     2
 42
0.0000001
 43
0.0000001
 44
0.0000000001
 40
0.0
 40
0.0
 40
0.0
 40
0.0
 40
0.1376062530370145
 40
0.1376062530370145
 40
0.1376062530370145
 40
0.1376062530370145
 10
-34.9059093342
 20
-42.8797374126439
 30
0.0
 10
-34.95177109917778
 20
-42.88053793282168
 30
0.0
 10
-34.99763286415556
 20
-42.88133845299946
 30
0.0
 10
-35.04349462913333
 20
-42.88213897317723
 30
0.0
 11
-34.9059093342
 21
-42.8797374126439
 31
0.0
 11
-35.04349462913333
 21
-42.88213897317723
 31
0.0
  0
SPLINE
  5
76
100
AcDbEntity
  8
0
  6
CONTINUOUS
100
AcDbSpline
210
-0.0174524069698936
220
0.9998476951470946
230
0.0
 70
    24
 71
     3
 72
     8
 73
     4
 74
     2
 42
0.0000001
 43
0.0000001
 44
0.0000000001
 40
0.0
 40
0.0
 40
0.0
 40
0.0
 40
0.7261449431320841
 40
0.7261449431320841
 40
0.7261449431320841
 40
0.7261449431320841
 10
-34.96898997313333
 20
-42.81625762171056
 30
0.0
 10
-35.21100142237777
 20
-42.82048194739945
 30
0.0
 10
-35.45301287162222
 20
-42.82470627308835
 30
0.0
 10
-35.69502432086666
 20
-42.82893059877724
 30
0.0
 11
-34.96898997313333
 21
-42.81625762171056
 31
0.0
 11
-35.69502432086666
 21
-42.82893059877724
 31
0.0
  0
LINE
  5
77
100
AcDbEntity
  8
0
  6
CONTINUOUS
100
AcDbLine
 10
-35.076047
 20
-42.935797
 30
0.0
 11
-34.904898
 21
-42.932518
 31
0.0
  0
LINE
  5
78
100
AcDbEntity
  8
0
  6
CONTINUOUS
100
AcDbLine
 10
-36.751329
 20
-42.911949
 30
0.0
 11
-34.101473
 21
-42.865696
 31
0.0
  0
SPLINE
  5
79
100
AcDbEntity
  8
0
  6
CONTINUOUS
100
AcDbSpline
210
-0.0174524055542454
220
0.9998476951718048
230
0.0
 70
    24
 71
     3
 72
     8
 73
     4
 74
     2
 42
0.0000001
 43
0.0000001
 44
0.0000000001
 40
0.0
 40
0.0
 40
0.0
 40
0.0
 40
0.0557082019614688
 40
0.0557082019614688
 40
0.0557082019614688
 40
0.0557082019614688
 10
-35.08550838593333
 20
-42.8828723246439
 30
0.0
 10
-35.06694181348889
 20
-42.88254824393279
 30
0.0
 10
-35.04837524104444
 20
-42.88222416322168
 30
0.0
 10
-35.02980866859999
 20
-42.88190008251057
 30
0.0
 11
-35.08550838593333
 21
-42.8828723246439
 31
0.0
 11
-35.02980866859999
 21
-42.88190008251057
 31
0.0
  0
SPLINE
  5
7A
100
AcDbEntity
  8
0
  6
CONTINUOUS
100
AcDbSpline
210
-0.0174524001034568
220
0.9998476952669486
230
0.0
 70
    24
 71
     3
 72
     8
 73
     4
 74
     2
 42
0.0000001
 43
0.0000001
 44
0.0000000001
 40
0.0
 40
0.0
 40
0.0
 40
0.0
 40
0.0601407863930772
 40
0.0601407863930772
 40
0.0601407863930772
 40
0.0601407863930772
 10
-35.69502432086666
 20
-42.82893059877724
 30
0.0
 10
-35.71506819642222
 20
-42.82928046579946
 30
0.0
 10
-35.73511207197777
 20
-42.82963033282168
 30
0.0
 10
-35.75515594753332
 20
-42.82998019984391
 30
0.0
 11
-35.69502432086666
 21
-42.82893059877724
 31
0.0
 11
-35.75515594753332
 21
-42.82998019984391
 31
0.0
  0
SPLINE
  5
7B
100
AcDbEntity
  8
0
  6
CONTINUOUS
100
AcDbSpline
210
-0.0174524071128326
220
0.9998476951445995
230
0.0
 70
    24
 71
     3
 72
     9
 73
     5
 74
     3
 42
0.0000001
 43
0.0000001
 44
0.0000000001
 40
0.0
 40
0.0
 40
0.0
 40
0.0
 40
0.4159398787280532
 40
0.9177388480825541
 40
0.9177388480825541
 40
0.9177388480825541
 40
0.9177388480825541
 10
-35.75515594753332
 20
-42.82998019984391
 30
0.0
 10
-35.89378145722245
 20
-42.8323999171637
 30
0.0
 10
-36.19964781455756
 20
-42.83773883439505
 30
0.0
 10
-36.50551417188922
 20
-42.84307775182418
 30
0.0
 10
-36.67275501953332
 20
-42.8459969518439
 30
0.0
 11
-35.75515594753332
 21
-42.82998019984391
 31
0.0
 11
-36.1710324766
 21
-42.8372393518439
 31
0.0
 11
-36.67275501953332
 21
-42.8459969518439
 31
0.0
  0
SPLINE
  5
7C
100
AcDbEntity
  8
0
  6
CONTINUOUS
100
AcDbSpline
210
-0.0165444348971255
220
0.9998631314704702
230
0.0
 70
    24
 71
     3
 72
     8
 73
     4
 74
     2
 42
0.0000001
 43
0.0000001
 44
0.0000000001
 40
0.0
 40
0.0
 40
0.0
 40
0.0
 40
0.0214388948433505
 40
0.0214388948433505
 40
0.0214388948433505
 40
0.0214388948433505
 10
-35.69287504513333
 20
-42.94747719611057
 30
0.0
 10
-35.68572972495555
 20
-42.9473589646439
 30
0.0
 10
-35.67858440477777
 20
-42.94724073317723
 30
0.0
 10
-35.67143908459999
 20
-42.94712250171057
 30
0.0
 11
-35.69287504513333
 21
-42.94747719611057
 31
0.0
 11
-35.67143908459999
 21
-42.94712250171057
 31
0.0
  0
SPLINE
  5
7D
100
AcDbEntity
  8
0
  6
CONTINUOUS
100
AcDbSpline
210
-0.0165387722147472
220
0.9998632251531349
230
0.0
 70
    24
 71
     3
 72
     9
 73
     5
 74
     3
 42
0.0000001
 43
0.0000001
 44
0.0000000001
 40
0.0
 40
0.0
 40
0.0
 40
0.0
 40
0.0385141651094793
 40
0.0555894549726247
 40
0.0555894549726247
 40
0.0555894549726247
 40
0.0555894549726247
 10
-35.74845689686667
 20
-42.94839657744391
 30
0.0
 10
-35.73562059719079
 20
-42.94818428577578
 30
0.0
 10
-35.71709331246792
 20
-42.94787787440497
 30
0.0
 10
-35.69856602960806
 20
-42.94757135040828
 30
0.0
 10
-35.69287504513333
 20
-42.94747719611057
 30
0.0
 11
-35.74845689686667
 21
-42.94839657744391
 31
0.0
 11
-35.70994799873332
 21
-42.94775964837723
 31
0.0
 11
-35.69287504513333
 21
-42.94747719611057
 31
0.0
  0
SPLINE
  5
7E
100
AcDbEntity
  8
0
  6
CONTINUOUS
100
AcDbSpline
210
-0.0165270617128847
220
0.9998634187883556
230
0.0
 70
    24
 71
     3
 72
     8
 73
     4
 74
     2
 42
0.0000001
 43
0.0000001
 44
0.0000000001
 40
0.0
 40
0.0
 40
0.0
 40
0.0
 40
0.1072272553617897
 40
0.1072272553617897
 40
0.1072272553617897
 40
0.1072272553617897
 10
-35.855669507
 20
-42.95016872891057
 30
0.0
 10
-35.81993197028889
 20
-42.94957801175502
 30
0.0
 10
-35.78419443357778
 20
-42.94898729459947
 30
0.0
 10
-35.74845689686667
 20
-42.94839657744391
 30
0.0
 11
-35.855669507
 21
-42.95016872891057
 31
0.0
 11
-35.74845689686667
 21
-42.94839657744391
 31
0.0
  0
SPLINE
  5
7F
100
AcDbEntity
  8
0
  6
CONTINUOUS
100
AcDbSpline
210
-0.0165112048304848
220
0.9998636807660561
230
0.0
 70
    24
 71
     3
 72
     8
 73
     4
 74
     2
 42
0.0000001
 43
0.0000001
 44
0.0000000001
 40
0.0
 40
0.0
 40
0.0
 40
0.0
 40
0.1076761802010719
 40
0.1076761802010719
 40
0.1076761802010719
 40
0.1076761802010719
 10
-35.96333100886667
 20
-42.95194659237724
 30
0.0
 10
-35.92744384157778
 20
-42.95135397122169
 30
0.0
 10
-35.89155667428889
 20
-42.95076135006612
 30
0.0
 10
-35.855669507
 20
-42.95016872891057
 30
0.0
 11
-35.96333100886667
 21
-42.95194659237724
 31
0.0
 11
-35.855669507
 21
-42.95016872891057
 31
0.0
  0
SPLINE
  5
80
100
AcDbEntity
  8
0
  6
CONTINUOUS
100
AcDbSpline
210
-0.0164952531432082
220
0.9998639440562609
230
0.0
 70
    24
 71
     3
 72
     8
 73
     4
 74
     2
 42
0.0000001
 43
0.0000001
 44
0.0000000001
 40
0.0
 40
0.0
 40
0.0
 40
0.0
 40
0.1081260722614663
 40
0.1081260722614663
 40
0.1081260722614663
 40
0.1081260722614663
 10
-36.07144236993333
 20
-42.95373015931057
 30
0.0
 10
-36.03540524957777
 20
-42.95313563699946
 30
0.0
 10
-35.99936812922222
 20
-42.95254111468834
 30
0.0
 10
-35.96333100886667
 20
-42.95194659237724
 30
0.0
 11
-36.07144236993333
 21
-42.95373015931057
 31
0.0
 11
-35.96333100886667
 21
-42.95194659237724
 31
0.0
  0
SPLINE
  5
81
100
AcDbEntity
  8
0
  6
CONTINUOUS
100
AcDbSpline
210
-0.0164905115369591
220
0.9998640222696531
230
0.0
 70
    24
 71
     3
 72
     8
 73
     4
 74
     2
 42
0.0000001
 43
0.0000001
 44
0.0000000001
 40
0.0
 40
0.0
 40
0.0
 40
0.0
 40
0.0444786849106178
 40
0.0444786849106178
 40
0.0444786849106178
 40
0.0444786849106178
 10
-36.11591500673333
 20
-42.95446363557724
 30
0.0
 10
-36.10109079446667
 20
-42.95421914348835
 30
0.0
 10
-36.0862665822
 20
-42.95397465139946
 30
0.0
 10
-36.07144236993333
 20
-42.95373015931057
 30
0.0
 11
-36.11591500673333
 21
-42.95446363557724
 31
0.0
 11
-36.07144236993333
 21
-42.95373015931057
 31
0.0
  0
SPLINE
  5
82
100
AcDbEntity
  8
0
  6
CONTINUOUS
100
AcDbSpline
210
-0.0174524039001446
220
0.9998476952006772
230
0.0
 70
    24
 71
     3
 72
     8
 73
     4
 74
     2
 42
0.0000001
 43
0.0000001
 44
0.0000000001
 40
0.0
 40
0.0
 40
0.0
 40
0.0
 40
0.1072283228548642
 40
0.1072283228548642
 40
0.1072283228548642
 40
0.1072283228548642
 10
-35.86124101846667
 20
-42.8964127886439
 30
0.0
 10
-35.82550368797777
 20
-42.89578899131057
 30
0.0
 10
-35.78976635748889
 20
-42.89516519397723
 30
0.0
 10
-35.754029027
 20
-42.89454139664391
 30
0.0
 11
-35.86124101846667
 21
-42.8964127886439
 31
0.0
 11
-35.754029027
 21
-42.89454139664391
 31
0.0
  0
SPLINE
  5
83
100
AcDbEntity
  8
0
  6
CONTINUOUS
100
AcDbSpline
210
-0.0174524057721241
220
0.9998476951680016
230
0.0
 70
    24
 71
     3
 72
     8
 73
     4
 74
     2
 42
0.0000001
 43
0.0000001
 44
0.0000000001
 40
0.0
 40
0.0
 40
0.0
 40
0.0
 40
0.1076772274953701
 40
0.1076772274953701
 40
0.1076772274953701
 40
0.1076772274953701
 10
-35.96890184619999
 20
-42.89829201531057
 30
0.0
 10
-35.93301490362222
 20
-42.89766560642168
 30
0.0
 10
-35.89712796104444
 20
-42.89703919753279
 30
0.0
 10
-35.86124101846667
 20
-42.8964127886439
 30
0.0
 11
-35.96890184619999
 21
-42.89829201531057
 31
0.0
 11
-35.86124101846667
 21
-42.8964127886439
 31
0.0
  0
SPLINE
  5
84
100
AcDbEntity
  8
0
  6
CONTINUOUS
100
AcDbSpline
210
-0.0174524091156819
220
0.9998476951096396
230
0.0
 70
    24
 71
     3
 72
     8
 73
     4
 74
     2
 42
0.0000001
 43
0.0000001
 44
0.0000000001
 40
0.0
 40
0.0
 40
0.0
 40
0.0
 40
0.1081271008195747
 40
0.1081271008195747
 40
0.1081271008195747
 40
0.1081271008195747
 10
-36.07701247873333
 20
-42.90017909371057
 30
0.0
 10
-36.04097560122222
 20
-42.89955006757724
 30
0.0
 10
-36.0049387237111
 20
-42.8989210414439
 30
0.0
 10
-35.96890184619999
 20
-42.89829201531057
 30
0.0
 11
-36.07701247873333
 21
-42.90017909371057
 31
0.0
 11
-35.96890184619999
 21
-42.89829201531057
 31
0.0
  0
SPLINE
  5
85
100
AcDbEntity
  8
0
  6
CONTINUOUS
100
AcDbSpline
210
-0.0174524019202369
220
0.9998476952352365
230
0.0
 70
    24
 71
     3
 72
     8
 73
     4
 74
     2
 42
0.0000001
 43
0.0000001
 44
0.0000000001
 40
0.0
 40
0.0
 40
0.0
 40
0.0
 40
0.0397825966790341
 40
0.0397825966790341
 40
0.0397825966790341
 40
0.0397825966790341
 10
-36.11678901633334
 20
-42.90087339557724
 30
0.0
 10
-36.10353017046667
 20
-42.90064196162169
 30
0.0
 10
-36.0902713246
 20
-42.90041052766612
 30
0.0
 10
-36.07701247873333
 20
-42.90017909371057
 30
0.0
 11
-36.11678901633334
 21
-42.90087339557724
 31
0.0
 11
-36.07701247873333
 21
-42.90017909371057
 31
0.0
  0
SPLINE
  5
86
100
AcDbEntity
  8
0
  6
CONTINUOUS
100
AcDbSpline
210
-0.0174524099258506
220
0.999847695095498
230
0.0
 70
    24
 71
     3
 72
     8
 73
     4
 74
     2
 42
0.0000001
 43
0.0000001
 44
0.0000000001
 40
0.0
 40
0.0
 40
0.0
 40
0.0
 40
0.0602791861490264
 40
0.0602791861490264
 40
0.0602791861490264
 40
0.0602791861490264
 10
-35.69375902166666
 20
-42.89348937957724
 30
0.0
 10
-35.71384902344444
 20
-42.89384005193279
 30
0.0
 10
-35.73393902522222
 20
-42.89419072428834
 30
0.0
 10
-35.754029027
 20
-42.89454139664391
 30
0.0
 11
-35.69375902166666
 21
-42.89348937957724
 31
0.0
 11
-35.754029027
 21
-42.89454139664391
 31
0.0
  0
SPLINE
  5
87
100
AcDbEntity
  8
0
  6
CONTINUOUS
100
AcDbSpline
210
-0.0164836446375686
220
0.9998641355001501
230
0.0
 70
    24
 71
     3
 72
     8
 73
     4
 74
     2
 42
0.0000001
 43
0.0000001
 44
0.0000000001
 40
0.0
 40
0.0
 40
0.0
 40
0.0
 40
0.0521281479647422
 40
0.0521281479647422
 40
0.0521281479647422
 40
0.0521281479647422
 10
-36.71091906859999
 20
-42.96427467877723
 30
0.0
 10
-36.69354538006666
 20
-42.96398825815501
 30
0.0
 10
-36.67617169153333
 20
-42.96370183753279
 30
0.0
 10
-36.658798003
 20
-42.96341541691057
 30
0.0
 11
-36.71091906859999
 21
-42.96427467877723
 31
0.0
 11
-36.658798003
 21
-42.96341541691057
 31
0.0
  0
SPLINE
  5
88
100
AcDbEntity
  8
0
  6
CONTINUOUS
100
AcDbSpline
210
-0.0164870969546824
220
0.9998640785796872
230
0.0
 70
    24
 71
     3
 72
     8
 73
     4
 74
     2
 42
0.0000001
 43
0.0000001
 44
0.0000000001
 40
0.0
 40
0.0
 40
0.0
 40
0.0
 40
0.5429567957255132
 40
0.5429567957255132
 40
0.5429567957255132
 40
0.5429567957255132
 10
-36.658798003
 20
-42.96341541691057
 30
0.0
 10
-36.47783700424445
 20
-42.96043148979946
 30
0.0
 10
-36.29687600548889
 20
-42.95744756268836
 30
0.0
 10
-36.11591500673333
 20
-42.95446363557724
 30
0.0
 11
-36.658798003
 21
-42.96341541691057
 31
0.0
 11
-36.11591500673333
 21
-42.95446363557724
 31
0.0
  0
SPLINE
  5
89
100
AcDbEntity
  8
0
  6
CONTINUOUS
100
AcDbSpline
210
-0.0174524072783062
220
0.9998476951417112
230
0.0
 70
    24
 71
     3
 72
     8
 73
     4
 74
     2
 42
0.0000001
 43
0.0000001
 44
0.0000000001
 40
0.0
 40
0.0
 40
0.0
 40
0.0
 40
0.5443349475237005
 40
0.5443349475237005
 40
0.5443349475237005
 40
0.5443349475237005
 10
-36.661041059
 20
-42.91037335077724
 30
0.0
 10
-36.47962371144444
 20
-42.9072066990439
 30
0.0
 10
-36.29820636388889
 20
-42.90404004731057
 30
0.0
 10
-36.11678901633334
 20
-42.90087339557724
 30
0.0
 11
-36.661041059
 21
-42.91037335077724
 31
0.0
 11
-36.11678901633334
 21
-42.90087339557724
 31
0.0
  0
SPLINE
  5
8A
100
AcDbEntity
  8
0
  6
CONTINUOUS
100
AcDbSpline
210
-0.0174524064686349
220
0.9998476951558441
230
0.0
 70
    24
 71
     3
 72
    10
 73
     6
 74
     4
 42
0.0000001
 43
0.0000001
 44
0.0000000001
 40
0.0
 40
0.0
 40
0.0
 40
0.0
 40
0.2542514106589241
 40
0.5802091355987194
 40
0.9176004483266192
 40
0.9176004483266192
 40
0.9176004483266192
 40
0.9176004483266192
 10
-35.754029027
 20
-42.89454139664391
 30
0.0
 10
-35.83876658931078
 20
-42.896020496396
 30
0.0
 10
-36.03214017828581
 20
-42.89939584517539
 30
0.0
 10
-36.33796040939888
 20
-42.90473395706334
 30
0.0
 10
-36.55904307819991
 20
-42.90859296927101
 30
0.0
 10
-36.67148972033334
 20
-42.9105557326439
 30
0.0
 11
-35.754029027
 21
-42.89454139664391
 31
0.0
 11
-36.00824171393333
 21
-42.8989786958439
 31
0.0
 11
-36.33414979393333
 21
-42.90466744251057
 31
0.0
 11
-36.67148972033334
 21
-42.9105557326439
 31
0.0
  0
LINE
  5
8B
100
AcDbEntity
  8
0
  6
CONTINUOUS
100
AcDbLine
 10
-35.671439
 20
-42.947123
 30
0.0
 11
-35.076047
 21
-42.935797
 31
0.0
  0
SPLINE
  5
8C
100
AcDbEntity
  8
0
  6
CONTINUOUS
100
AcDbSpline
210
-0.0174524079845368
220
0.999847695129384
230
0.0
 70
    24
 71
     3
 72
    10
 73
     6
 74
     4
 42
0.0000001
 43
0.0000001
 44
0.0000000001
 40
0.0
 40
0.0
 40
0.0
 40
0.0
 40
0.2059939904220423
 40
0.4031896818782807
 40
0.5915933516155371
 40
0.5915933516155371
 40
0.5915933516155371
 40
0.5915933516155371
 10
-35.677011635
 20
-42.89319705317724
 30
0.0
 10
-35.60835742949009
 20
-42.891998689375
 30
0.0
 10
-35.47398133811754
 20
-42.88965314560836
 30
0.0
 10
-35.27681358841244
 20
-42.88621157035948
 30
0.0
 10
-35.14830004424296
 20
-42.88396835744002
 30
0.0
 10
-35.08550838593333
 20
-42.8828723246439
 30
0.0
 11
-35.677011635
 21
-42.89319705317724
 31
0.0
 11
-35.47104901846665
 21
-42.88960196197724
 31
0.0
 11
-35.27388336086666
 21
-42.88616042277723
 31
0.0
 11
-35.08550838593333
 21
-42.8828723246439
 31
0.0
  0
SPLINE
  5
8D
100
AcDbEntity
  8
0
  6
CONTINUOUS
100
AcDbSpline
210
-0.0174524052195988
220
0.9998476951776462
230
0.0
 70
    24
 71
     3
 72
     8
 73
     4
 74
     2
 42
0.0000001
 43
0.0000001
 44
0.0000000001
 40
0.0
 40
0.0
 40
0.0
 40
0.0
 40
0.6503634460224422
 40
0.6503634460224422
 40
0.6503634460224422
 40
0.6503634460224422
 10
-35.04349462913333
 20
-42.88213897317723
 30
0.0
 10
-35.26024942664444
 20
-42.88592244197724
 30
0.0
 10
-35.47700422415555
 20
-42.88970591077723
 30
0.0
 10
-35.69375902166666
 20
-42.89348937957724
 30
0.0
 11
-35.04349462913333
 21
-42.88213897317723
 31
0.0
 11
-35.69375902166666
 21
-42.89348937957724
 31
0.0
  0
SPLINE
  5
8E
100
AcDbEntity
  8
0
  6
CONTINUOUS
100
AcDbSpline
210
-0.0224529592692206
220
0.9997479005329568
230
0.0
 70
    24
 71
     3
 72
     8
 73
     4
 74
     2
 42
0.0000001
 43
0.0000001
 44
0.0000000001
 40
0.0
 40
0.0
 40
0.0
 40
0.0
 40
0.0095812047499434
 40
0.0095812047499434
 40
0.0095812047499434
 40
0.0095812047499434
 10
-37.61312113046666
 20
-42.86647933157723
 30
0.0
 10
-37.61631406024444
 20
-42.86655104037723
 30
0.0
 10
-37.61950699002222
 20
-42.86662274917723
 30
0.0
 10
-37.6226999198
 20
-42.86669445797723
 30
0.0
 11
-37.61312113046666
 21
-42.86647933157723
 31
0.0
 11
-37.6226999198
 21
-42.86669445797723
 31
0.0
  0
SPLINE
  5
8F
100
AcDbEntity
  8
0
  6
CONTINUOUS
100
AcDbSpline
210
0.0
220
0.0
230
1.0
 70
     8
 71
     3
 72
    10
 73
     6
 74
     4
 42
0.0000001
 43
0.0000001
 44
0.0000000001
 40
0.0
 40
0.0
 40
0.0
 40
0.0
 40
0.3102933336370873
 40
0.6004301362178569
 40
0.8615257579721786
 40
0.8615257579721786
 40
0.8615257579721786
 40
0.8615257579721786
 10
-36.75181467393332
 20
-42.8470418254439
 30
0.0
 10
-36.8552192515314
 20
-42.84938449567584
 30
0.0
 10
-37.05531128665511
 20
-42.85391765721685
 30
0.0
 10
-37.34241344502295
 20
-42.8603966027106
 30
0.0
 10
-37.52611121891078
 20
-42.86452424227181
 30
0.0
 10
-37.61312113046666
 20
-42.86647933157723
 30
0.0
 11
-36.75181467393332
 21
-42.8470418254439
 31
0.0
 11
-37.06202851393334
 21
-42.8540650990439
 31
0.0
 11
-37.35209148566666
 21
-42.86061006971057
 31
0.0
 11
-37.61312113046666
 21
-42.86647933157723
 31
0.0
  0
SPLINE
  5
90
100
AcDbEntity
  8
0
  6
CONTINUOUS
100
AcDbSpline
210
0.0
220
0.0
230
1.0
 70
     8
 71
     3
 72
     9
 73
     5
 74
     3
 42
0.0000001
 43
0.0000001
 44
0.0000000001
 40
0.0
 40
0.0
 40
0.0
 40
0.0
 40
0.3226443569964749
 40
0.8606229206330869
 40
0.8606229206330869
 40
0.8606229206330869
 40
0.8606229206330869
 10
-37.61096208726667
 20
-42.97910787237723
 30
0.0
 10
-37.50342856356154
 20
-42.97733609930975
 30
0.0
 10
-37.21659318823191
 20
-42.972610064346
 30
0.0
 10
-36.92975784645227
 20
-42.9678819935478
 30
0.0
 10
-36.75045601579999
 20
-42.9649264590439
 30
0.0
 11
-37.61096208726667
 21
-42.97910787237723
 31
0.0
 11
-37.28836152086666
 21
-42.9737922670439
 31
0.0
 11
-36.75045601579999
 21
-42.9649264590439
 31
0.0
  0
SPLINE
  5
91
100
AcDbEntity
  8
0
  6
CONTINUOUS
100
AcDbSpline
210
-0.0174524056189241
220
0.9998476951706757
230
0.0
 70
    24
 71
     3
 72
    10
 73
     6
 74
     4
 42
0.0000001
 43
0.0000001
 44
0.0000000001
 40
0.0
 40
0.0
 40
0.0
 40
0.0
 40
0.3063682229489142
 40
0.5928882176090536
 40
0.8606132622226752
 40
0.8606132622226752
 40
0.8606132622226752
 40
0.8606132622226752
 10
-36.75132916353334
 20
-42.91194933584391
 30
0.0
 10
-36.85343635073625
 20
-42.91373162296617
 30
0.0
 10
-37.05103565670571
 20
-42.91718073079142
 30
0.0
 10
-37.33786305223228
 20
-42.92218732302966
 30
0.0
 10
-37.52258326059803
 20
-42.925411625734
 30
0.0
 10
-37.6118113502
 20
-42.92696910757724
 30
0.0
 11
-36.75132916353334
 21
-42.91194933584391
 31
0.0
 11
-37.05765072513333
 21
-42.91729619771057
 31
0.0
 11
-37.3441270814
 21
-42.92229666171056
 31
0.0
 11
-37.6118113502
 21
-42.92696910757724
 31
0.0
  0
LINE
  5
92
100
AcDbEntity
  8
0
  6
CONTINUOUS
100
AcDbLine
 10
-36.672755
 20
-42.845997
 30
0.0
 11
-36.751793
 21
-42.847377
 31
0.0
  0
SPLINE
  5
93
100
AcDbEntity
  8
0
  6
CONTINUOUS
100
AcDbSpline
210
-0.016483106683697
220
0.9998641443686507
230
0.0
 70
    24
 71
     3
 72
     8
 73
     4
 74
     2
 42
0.0000001
 43
0.0000001
 44
0.0000000001
 40
0.0
 40
0.0
 40
0.0
 40
0.0
 40
0.0395423192467519
 40
0.0395423192467519
 40
0.0395423192467519
 40
0.0395423192467519
 10
-36.75045601579999
 20
-42.9649264590439
 30
0.0
 10
-36.73727703339999
 20
-42.96470919895501
 30
0.0
 10
-36.72409805099999
 20
-42.96449193886612
 30
0.0
 10
-36.71091906859999
 20
-42.96427467877723
 30
0.0
 11
-36.75045601579999
 21
-42.9649264590439
 31
0.0
 11
-36.71091906859999
 21
-42.96427467877723
 31
0.0
  0
SPLINE
  5
94
100
AcDbEntity
  8
0
  6
CONTINUOUS
100
AcDbSpline
210
-0.0174524027786296
220
0.9998476952202533
230
0.0
 70
    24
 71
     3
 72
     8
 73
     4
 74
     2
 42
0.0000001
 43
0.0000001
 44
0.0000000001
 40
0.0
 40
0.0
 40
0.0
 40
0.0
 40
0.0903018963437654
 40
0.0903018963437654
 40
0.0903018963437654
 40
0.0903018963437654
 10
-36.75132920193333
 20
-42.91194933584391
 30
0.0
 10
-36.72123315428888
 20
-42.91142400748834
 30
0.0
 10
-36.69113710664444
 20
-42.91089867913279
 30
0.0
 10
-36.661041059
 20
-42.91037335077724
 30
0.0
 11
-36.75132920193333
 21
-42.91194933584391
 31
0.0
 11
-36.661041059
 21
-42.91037335077724
 31
0.0
  0
SPLINE
  5
95
100
AcDbEntity
  8
0
  6
CONTINUOUS
100
AcDbSpline
210
-0.0174523644411606
220
0.9998476958894356
230
0.0
 70
    24
 71
     3
 72
     8
 73
     4
 74
     2
 42
0.0000001
 43
0.0000001
 44
0.0000000001
 40
0.0
 40
0.0
 40
0.0
 40
0.0
 40
0.0153271151826458
 40
0.0153271151826458
 40
0.0153271151826458
 40
0.0153271151826458
 10
-34.05509746539999
 20
-42.86488643557723
 30
0.0
 10
-34.04998920513333
 20
-42.86479727077725
 30
0.0
 10
-34.04488094486666
 20
-42.86470810597724
 30
0.0
 10
-34.03977268459999
 20
-42.86461894117723
 30
0.0
 11
-34.05509746539999
 21
-42.86488643557723
 31
0.0
 11
-34.03977268459999
 21
-42.86461894117723
 31
0.0
  0
SPLINE
  5
96
100
AcDbEntity
  8
0
  6
CONTINUOUS
100
AcDbSpline
210
-0.0174524227337882
220
0.9998476948719346
230
0.0
 70
    24
 71
     3
 72
     8
 73
     4
 74
     2
 42
0.0000001
 43
0.0000001
 44
0.0000000001
 40
0.0
 40
0.0
 40
0.0
 40
0.0
 40
0.0154457562012194
 40
0.0154457562012194
 40
0.0154457562012194
 40
0.0154457562012194
 10
-34.07054086913333
 20
-42.8651560014439
 30
0.0
 10
-34.06539306788889
 20
-42.86506614615501
 30
0.0
 10
-34.06024526664444
 20
-42.86497629086612
 30
0.0
 10
-34.05509746539999
 20
-42.86488643557723
 30
0.0
 11
-34.07054086913333
 21
-42.8651560014439
 31
0.0
 11
-34.05509746539999
 21
-42.86488643557723
 31
0.0
  0
SPLINE
  5
97
100
AcDbEntity
  8
0
  6
CONTINUOUS
100
AcDbSpline
210
-0.0174524189384614
220
0.9998476949381823
230
0.0
 70
    24
 71
     3
 72
     9
 73
     5
 74
     3
 42
0.0000001
 43
0.0000001
 44
0.0000000001
 40
0.0
 40
0.0
 40
0.0
 40
0.0
 40
0.0154760850828336
 40
0.030936991327045
 40
0.030936991327045
 40
0.030936991327045
 40
0.030936991327045
 10
-34.1014731486
 20
-42.86569592677724
 30
0.0
 10
-34.09631523926613
 20
-42.865605895164
 30
0.0
 10
-34.08600447944063
 20
-42.86542592023993
 30
0.0
 10
-34.07569371962168
 20
-42.86524594494172
 30
0.0
 10
-34.07054086913333
 20
-42.8651560014439
 30
0.0
 11
-34.1014731486
 21
-42.86569592677724
 31
0.0
 11
-34.0859994206
 21
-42.86542583184391
 31
0.0
 11
-34.07054086913333
 21
-42.8651560014439
 31
0.0
  0
SPLINE
  5
98
100
AcDbEntity
  8
0
  6
CONTINUOUS
100
AcDbSpline
210
-0.0174524011265287
220
0.9998476952490909
230
0.0
 70
    24
 71
     3
 72
     8
 73
     4
 74
     2
 42
0.0000001
 43
0.0000001
 44
0.0000000001
 40
0.0
 40
0.0
 40
0.0
 40
0.0
 40
0.0619631567498263
 40
0.0619631567498263
 40
0.0619631567498263
 40
0.0619631567498263
 10
-34.90703625366666
 20
-42.81517621584391
 30
0.0
 10
-34.92768749348889
 20
-42.81553668446612
 30
0.0
 10
-34.94833873331111
 20
-42.81589715308835
 30
0.0
 10
-34.96898997313333
 20
-42.81625762171056
 30
0.0
 11
-34.90703625366666
 21
-42.81517621584391
 31
0.0
 11
-34.96898997313333
 21
-42.81625762171056
 31
0.0
  0
SPLINE
  5
99
100
AcDbEntity
  8
0
  6
CONTINUOUS
100
AcDbSpline
210
-0.0174524455775712
220
0.9998476944731942
230
0.0
 70
    24
 71
     3
 72
     8
 73
     4
 74
     2
 42
0.0000001
 43
0.0000001
 44
0.0000000001
 40
0.0
 40
0.0
 40
0.0
 40
0.0
 40
0.0097194248554582
 40
0.0097194248554582
 40
0.0097194248554582
 40
0.0097194248554582
 10
-34.90590933526667
 20
-42.87973741157723
 30
0.0
 10
-34.90267002042223
 20
-42.87968086899946
 30
0.0
 10
-34.89943070557778
 20
-42.87962432642168
 30
0.0
 10
-34.89619139073333
 20
-42.8795677838439
 30
0.0
 11
-34.90590933526667
 21
-42.87973741157723
 31
0.0
 11
-34.89619139073333
 21
-42.8795677838439
 31
0.0
  0
SPLINE
  5
9A
100
AcDbEntity
  8
0
  6
CONTINUOUS
100
AcDbSpline
210
-0.0174524064808049
220
0.9998476951556316
230
0.0
 70
    24
 71
     3
 72
     9
 73
     5
 74
     3
 42
0.0000001
 43
0.0000001
 44
0.0000000001
 40
0.0
 40
0.0
 40
0.0
 40
0.0
 40
0.2291218680949155
 40
0.8045587227243796
 40
0.8045587227243796
 40
0.8045587227243796
 40
0.8045587227243796
 10
-34.10260006913333
 20
-42.80113472997724
 30
0.0
 10
-34.17896239304503
 20
-42.80246763909902
 30
0.0
 10
-34.44710778790194
 20
-42.80714813367355
 30
0.0
 10
-34.71525318273705
 20
-42.81182862949752
 30
0.0
 10
-34.90703625366666
 20
-42.81517621584391
 30
0.0
 11
-34.10260006913333
 21
-42.80113472997724
 31
0.0
 11
-34.33168704086666
 21
-42.80513345744391
 31
0.0
 11
-34.90703625366666
 21
-42.81517621584391
 31
0.0
  0
SPLINE
  5
9B
100
AcDbEntity
  8
0
  6
CONTINUOUS
100
AcDbSpline
210
-0.017452404684559
220
0.999847695186985
230
0.0
 70
    24
 71
     3
 72
    10
 73
     6
 74
     4
 42
0.0000001
 43
0.0000001
 44
0.0000000001
 40
0.0
 40
0.0
 40
0.0
 40
0.0
 40
0.2610097018336602
 40
0.5294089835439733
 40
0.7948392967838013
 40
0.7948392967838013
 40
0.7948392967838013
 40
0.7948392967838013
 10
-34.89619139073333
 20
-42.8795677838439
 30
0.0
 10
-34.80920140779898
 20
-42.87804936825816
 30
0.0
 10
-34.63275862379421
 20
-42.87496954844228
 30
0.0
 10
-34.36785254416546
 20
-42.87034559518753
 30
0.0
 10
-34.189936447446
 20
-42.86724005895496
 30
0.0
 10
-34.10147315180001
 20
-42.86569592677724
 30
0.0
 11
-34.89619139073333
 21
-42.8795677838439
 31
0.0
 11
-34.63522144193333
 21
-42.87501253691057
 31
0.0
 11
-34.36686303873333
 21
-42.87032832357724
 31
0.0
 11
-34.10147315180001
 21
-42.86569592677724
 31
0.0
  0
SPLINE
  5
9C
100
AcDbEntity
  8
0
  6
CONTINUOUS
100
AcDbSpline
210
-0.0174524064576704
220
0.9998476951560354
230
0.0
 70
    24
 71
     3
 72
     9
 73
     5
 74
     3
 42
0.0000001
 43
0.0000001
 44
0.0000000001
 40
0.0
 40
0.0
 40
0.0
 40
0.0
 40
0.3642019742520044
 40
0.804558723790884
 40
0.804558723790884
 40
0.804558723790884
 40
0.804558723790884
 10
-34.1014731486
 20
-42.86569592677724
 30
0.0
 10
-34.22285531677863
 20
-42.86781466023955
 30
0.0
 10
-34.49100071198506
 20
-42.87249515515997
 30
0.0
 10
-34.75914610717902
 20
-42.87717565079478
 30
0.0
 10
-34.9059093342
 20
-42.8797374126439
 30
0.0
 11
-34.1014731486
 21
-42.86569592677724
 31
0.0
 11
-34.46561965313333
 21
-42.87205212731057
 31
0.0
 11
-34.9059093342
 21
-42.8797374126439
 31
0.0
  0
LINE
  5
9D
100
AcDbEntity
  8
0
  6
CONTINUOUS
100
AcDbLine
 10
-34.904898
 20
-42.932518
 30
0.0
 11
-34.03888
 21
-42.915751
 31
0.0
  0
SPLINE
  5
9E
100
AcDbEntity
  8
0
  6
CONTINUOUS
100
AcDbSpline
210
-0.0174524083031956
220
0.9998476951238217
230
0.0
 70
    24
 71
     3
 72
     9
 73
     5
 74
     3
 42
0.0000001
 43
0.0000001
 44
0.0000000001
 40
0.0
 40
0.0
 40
0.0
 40
0.0
 40
1.896492181565313
 40
3.159508508818892
 40
3.159508508818892
 40
3.159508508818892
 40
3.159508508818892
 10
-27.70444327873332
 20
-42.68945448251058
 30
0.0
 10
-28.33651105757149
 20
-42.70048726864793
 30
0.0
 10
-29.389520157636
 20
-42.71886761422268
 30
0.0
 10
-30.44252925775276
 20
-42.73724795680339
 30
0.0
 10
-30.86347057899999
 20
-42.7445955150439
 30
0.0
 11
-27.70444327873332
 21
-42.68945448251058
 31
0.0
 11
-29.60064661526667
 21
-42.72255283984391
 31
0.0
 11
-30.86347057899999
 21
-42.7445955150439
 31
0.0
  0
SPLINE
  5
9F
100
AcDbEntity
  8
0
  6
CONTINUOUS
100
AcDbSpline
210
-0.0174524064794394
220
0.9998476951556554
230
0.0
 70
    24
 71
     3
 72
    10
 73
     6
 74
     4
 42
0.0000001
 43
0.0000001
 44
0.0000000001
 40
0.0
 40
0.0
 40
0.0
 40
0.0
 40
1.240115653225117
 40
2.576885851405537
 40
3.144361938355575
 40
3.144361938355575
 40
3.144361938355575
 40
3.144361938355575
 10
-27.70317797953333
 20
-42.75401326864391
 30
0.0
 10
-28.11648690540054
 20
-42.76122760283496
 30
0.0
 10
-28.97531803180155
 20
-42.7762185560222
 30
0.0
 10
-30.02327904405796
 20
-42.79451078416458
 30
0.0
 10
-30.6579311304662
 20
-42.80558867702596
 30
0.0
 10
-30.84706101633333
 20
-42.80888995131056
 30
0.0
 11
-27.70317797953333
 21
-42.75401326864391
 31
0.0
 11
-28.94310475713334
 21
-42.77565627131057
 31
0.0
 11
-30.27967135873334
 21
-42.79898612837723
 31
0.0
 11
-30.84706101633333
 21
-42.80888995131056
 31
0.0
  0
LINE
  5
A0
100
AcDbEntity
  8
0
  6
CONTINUOUS
100
AcDbLine
 10
-30.846196
 20
-42.858445
 30
0.0
 11
-26.226537
 21
-42.775636
 31
0.0
  0
SPLINE
  5
A1
100
AcDbEntity
  8
0
  6
CONTINUOUS
100
AcDbSpline
210
-0.9939455938151164
220
-0.1098733659060083
230
0.0
 70
    24
 71
     3
 72
     8
 73
     4
 74
     2
 42
0.0000001
 43
0.0000001
 44
0.0000000001
 40
0.0
 40
0.0
 40
0.0
 40
0.0
 40
0.0250984307610941
 40
0.0250984307610941
 40
0.0250984307610941
 40
0.0250984307610941
 10
-30.84895367766667
 20
-42.8334986030439
 30
0.0
 10
-30.84803446131111
 20
-42.84181409459946
 30
0.0
 10
-30.84711524495554
 20
-42.85012958615501
 30
0.0
 10
-30.84619602859999
 20
-42.85844507771057
 30
0.0
 11
-30.84895367766667
 21
-42.8334986030439
 31
0.0
 11
-30.84619602859999
 21
-42.85844507771057
 31
0.0
  0
SPLINE
  5
A2
100
AcDbEntity
  8
0
  6
CONTINUOUS
100
AcDbSpline
210
0.0
220
0.0
230
1.0
 70
     8
 71
     3
 72
     9
 73
     5
 74
     3
 42
0.0000001
 43
0.0000001
 44
0.0000000001
 40
0.0
 40
0.0
 40
0.0
 40
0.0
 40
0.0098879061814667
 40
0.0287455048483649
 40
0.0287455048483649
 40
0.0287455048483649
 40
0.0287455048483649
 10
-30.862343651
 20
-42.80915671077724
 30
0.0
 10
-30.85958274823268
 20
-42.81112665470678
 30
0.0
 10
-30.8515564237078
 20
-42.81685355297406
 30
0.0
 10
-30.84998473523752
 20
-42.82690479611057
 30
0.0
 10
-30.84895367766667
 20
-42.8334986030439
 30
0.0
 11
-30.862343651
 21
-42.80915671077724
 31
0.0
 11
-30.85482467393333
 21
-42.81557821157724
 31
0.0
 11
-30.84895367766667
 21
-42.8334986030439
 31
0.0
  0
SPLINE
  5
A3
100
AcDbEntity
  8
0
  6
CONTINUOUS
100
AcDbSpline
210
-0.0181629426178739
220
0.9998350401518541
230
0.0
 70
    24
 71
     3
 72
     8
 73
     4
 74
     2
 42
0.0000001
 43
0.0000001
 44
0.0000000001
 40
0.0
 40
0.0
 40
0.0
 40
0.0
 40
0.015242698966647
 40
0.015242698966647
 40
0.015242698966647
 40
0.015242698966647
 10
-30.86143626326666
 20
-42.85872193851058
 30
0.0
 10
-30.85635620175555
 20
-42.85862965442168
 30
0.0
 10
-30.85127614024444
 20
-42.85853737033279
 30
0.0
 10
-30.84619607873333
 20
-42.8584450862439
 30
0.0
 11
-30.86143626326666
 21
-42.85872193851058
 31
0.0
 11
-30.84619607873333
 21
-42.8584450862439
 31
0.0
  0
SPLINE
  5
A4
100
AcDbEntity
  8
0
  6
CONTINUOUS
100
AcDbSpline
210
-0.0181600916992076
220
0.9998350919374038
230
0.0
 70
    24
 71
     3
 72
     9
 73
     5
 74
     3
 42
0.0000001
 43
0.0000001
 44
0.0000000001
 40
0.0
 40
0.0
 40
0.0
 40
0.0
 40
0.0219694030051055
 40
0.0286961252891021
 40
0.0286961252891021
 40
0.0286961252891021
 40
0.0286961252891021
 10
-30.89012765633333
 20
-42.85924306277723
 30
0.0
 10
-30.88280572947258
 20
-42.85911008332438
 30
0.0
 10
-30.87324193156215
 20
-42.8589363874329
 30
0.0
 10
-30.86367813419013
 20
-42.85876266189798
 30
0.0
 10
-30.86143626326666
 20
-42.85872193851058
 30
0.0
 11
-30.89012765633333
 21
-42.85924306277723
 31
0.0
 11
-30.86816187606666
 21
-42.8588441070439
 31
0.0
 11
-30.86143626326666
 21
-42.85872193851058
 31
0.0
  0
SPLINE
  5
A5
100
AcDbEntity
  8
0
  6
CONTINUOUS
100
AcDbSpline
210
-0.9939627294735124
220
-0.1097182410429797
230
0.0
 70
    24
 71
     3
 72
     8
 73
     4
 74
     2
 42
0.0000001
 43
0.0000001
 44
0.0000000001
 40
0.0
 40
0.0
 40
0.0
 40
0.0
 40
0.0251116141412617
 40
0.0251116141412617
 40
0.0251116141412617
 40
0.0251116141412617
 10
-30.89288285846666
 20
-42.8342830542439
 30
0.0
 10
-30.89196445775555
 20
-42.84260305708834
 30
0.0
 10
-30.89104605704444
 20
-42.85092305993279
 30
0.0
 10
-30.89012765633333
 20
-42.85924306277723
 30
0.0
 11
-30.89288285846666
 21
-42.8342830542439
 31
0.0
 11
-30.89012765633333
 21
-42.85924306277723
 31
0.0
  0
SPLINE
  5
A6
100
AcDbEntity
  8
0
  6
CONTINUOUS
100
AcDbSpline
210
0.0
220
0.0
230
1.0
 70
     8
 71
     3
 72
     9
 73
     5
 74
     3
 42
0.0000001
 43
0.0000001
 44
0.0000000001
 40
0.0
 40
0.0
 40
0.0
 40
0.0
 40
0.0098933579420616
 40
0.0287631700018371
 40
0.0287631700018371
 40
0.0287631700018371
 40
0.0287631700018371
 10
-30.906276579
 20
-42.8099235630439
 30
0.0
 10
-30.90351458077371
 20
-42.81189515879694
 30
0.0
 10
-30.8954845645757
 20
-42.81762722107067
 30
0.0
 10
-30.89391352468128
 20
-42.82768484375876
 30
0.0
 10
-30.89288285846666
 20
-42.8342830542439
 30
0.0
 11
-30.906276579
 21
-42.8099235630439
 31
0.0
 11
-30.89875473259999
 21
-42.81635009851057
 31
0.0
 11
-30.89288285846666
 21
-42.8342830542439
 31
0.0
  0
SPLINE
  5
A7
100
AcDbEntity
  8
0
  6
CONTINUOUS
100
AcDbSpline
210
-0.0181571334407935
220
0.9998351456641307
230
0.0
 70
    24
 71
     3
 72
     8
 73
     4
 74
     2
 42
0.0000001
 43
0.0000001
 44
0.0000000001
 40
0.0
 40
0.0
 40
0.0
 40
0.0
 40
0.0152451670985618
 40
0.0152451670985618
 40
0.0152451670985618
 40
0.0152451670985618
 10
-30.9053703102
 20
-42.85951987131057
 30
0.0
 10
-30.90028942557777
 20
-42.85942760179946
 30
0.0
 10
-30.89520854095555
 20
-42.85933533228834
 30
0.0
 10
-30.89012765633333
 20
-42.85924306277723
 30
0.0
 11
-30.9053703102
 21
-42.85951987131057
 31
0.0
 11
-30.89012765633333
 21
-42.85924306277723
 31
0.0
  0
SPLINE
  5
A8
100
AcDbEntity
  8
0
  6
CONTINUOUS
100
AcDbSpline
210
-0.0174523891056155
220
0.9998476954589165
230
0.0
 70
    24
 71
     3
 72
     8
 73
     4
 74
     2
 42
0.0000001
 43
0.0000001
 44
0.0000000001
 40
0.0
 40
0.0
 40
0.0
 40
0.0
 40
0.0439396116690604
 40
0.0439396116690604
 40
0.0439396116690604
 40
0.0439396116690604
 10
-30.86347057899999
 20
-42.7445955150439
 30
0.0
 10
-30.87811488548888
 20
-42.74485113211056
 30
0.0
 10
-30.89275919197777
 20
-42.74510674917723
 30
0.0
 10
-30.90740349846666
 20
-42.7453623662439
 30
0.0
 11
-30.86347057899999
 21
-42.7445955150439
 31
0.0
 11
-30.90740349846666
 21
-42.7453623662439
 31
0.0
  0
SPLINE
  5
A9
100
AcDbEntity
  8
0
  6
CONTINUOUS
100
AcDbSpline
210
-0.0174523995503558
220
0.9998476952766029
230
0.0
 70
    24
 71
     3
 72
     8
 73
     4
 74
     2
 42
0.0000001
 43
0.0000001
 44
0.0000000001
 40
0.0
 40
0.0
 40
0.0
 40
0.0
 40
0.0152849124977083
 40
0.0152849124977083
 40
0.0152849124977083
 40
0.0152849124977083
 10
-30.862343651
 20
-42.80915671077724
 30
0.0
 10
-30.85724945615555
 20
-42.80906779131057
 30
0.0
 10
-30.85215526131111
 20
-42.8089788718439
 30
0.0
 10
-30.84706106646666
 20
-42.80888995237723
 30
0.0
 11
-30.862343651
 21
-42.80915671077724
 31
0.0
 11
-30.84706106646666
 21
-42.80888995237723
 31
0.0
  0
SPLINE
  5
AA
100
AcDbEntity
  8
0
  6
CONTINUOUS
100
AcDbSpline
210
-0.0174524456591401
220
0.9998476944717705
230
0.0
 70
    24
 71
     3
 72
     8
 73
     4
 74
     2
 42
0.0000001
 43
0.0000001
 44
0.0000000001
 40
0.0
 40
0.0
 40
0.0
 40
0.0
 40
0.0146617082592267
 40
0.0146617082592267
 40
0.0146617082592267
 40
0.0146617082592267
 10
-30.87700313366667
 20
-42.8094125934439
 30
0.0
 10
-30.87211664193334
 20
-42.80932729922168
 30
0.0
 10
-30.8672301502
 20
-42.80924200499946
 30
0.0
 10
-30.86234365846667
 20
-42.80915671077724
 30
0.0
 11
-30.87700313366667
 21
-42.8094125934439
 31
0.0
 11
-30.86234365846667
 21
-42.80915671077724
 31
0.0
  0
SPLINE
  5
AB
100
AcDbEntity
  8
0
  6
CONTINUOUS
100
AcDbSpline
210
-0.0174523965705465
220
0.9998476953286157
230
0.0
 70
    24
 71
     3
 72
     9
 73
     5
 74
     3
 42
0.0000001
 43
0.0000001
 44
0.0000000001
 40
0.0
 40
0.0
 40
0.0
 40
0.0
 40
0.0146313846915039
 40
0.0292779044949539
 40
0.0292779044949539
 40
0.0292779044949539
 40
0.0292779044949539
 10
-30.906276579
 20
-42.8099235630439
 30
0.0
 10
-30.90140019357722
 20
-42.8098384455652
 30
0.0
 10
-30.89164237846271
 20
-42.80966812255993
 30
0.0
 10
-30.88188456335499
 20
-42.80949779916528
 30
0.0
 10
-30.87700313366667
 20
-42.8094125934439
 30
0.0
 11
-30.906276579
 21
-42.8099235630439
 31
0.0
 11
-30.89164742273334
 21
-42.80966821051057
 31
0.0
 11
-30.87700313366667
 21
-42.8094125934439
 31
0.0
  0
SPLINE
  5
AC
100
AcDbEntity
  8
0
  6
CONTINUOUS
100
AcDbSpline
210
-0.0174524129503595
220
0.9998476950427052
230
0.0
 70
    24
 71
     3
 72
     8
 73
     4
 74
     2
 42
0.0000001
 43
0.0000001
 44
0.0000000001
 40
0.0
 40
0.0
 40
0.0
 40
0.0
 40
0.0439396127541806
 40
0.0439396127541806
 40
0.0439396127541806
 40
0.0439396127541806
 10
-30.86234365846667
 20
-42.80915671077724
 30
0.0
 10
-30.87698796531111
 20
-42.80941232819945
 30
0.0
 10
-30.89163227215556
 20
-42.80966794562168
 30
0.0
 10
-30.906276579
 20
-42.8099235630439
 30
0.0
 11
-30.86234365846667
 21
-42.80915671077724
 31
0.0
 11
-30.906276579
 21
-42.8099235630439
 31
0.0
  0
SPLINE
  5
AD
100
AcDbEntity
  8
0
  6
CONTINUOUS
100
AcDbSpline
210
-0.0174524035566882
220
0.9998476952066722
230
0.0
 70
    24
 71
     3
 72
     8
 73
     4
 74
     2
 42
0.0000001
 43
0.0000001
 44
0.0000000001
 40
0.0
 40
0.0
 40
0.0
 40
0.0
 40
0.0152849701075562
 40
0.0152849701075562
 40
0.0152849701075562
 40
0.0152849701075562
 10
-30.84706101633333
 20
-42.80888995131056
 30
0.0
 10
-30.85215523037777
 20
-42.80897887113279
 30
0.0
 10
-30.85724944442223
 20
-42.80906779095501
 30
0.0
 10
-30.86234365846667
 20
-42.80915671077724
 30
0.0
 11
-30.84706101633333
 21
-42.80888995131056
 31
0.0
 11
-30.86234365846667
 21
-42.80915671077724
 31
0.0
  0
SPLINE
  5
AE
100
AcDbEntity
  8
0
  6
CONTINUOUS
100
AcDbSpline
210
-0.9996829361221573
220
-0.0251798972631509
230
0.0
 70
    24
 71
     3
 72
     8
 73
     4
 74
     2
 42
0.0000001
 43
0.0000001
 44
0.0000000001
 40
0.0
 40
0.0
 40
0.0
 40
0.0
 40
0.0084314455734981
 40
0.0084314455734981
 40
0.0084314455734981
 40
0.0084314455734981
 10
-31.71191831233332
 20
-42.8155536142439
 30
0.0
 10
-31.71184754468888
 20
-42.81836320499945
 30
0.0
 10
-31.71177677704444
 20
-42.821172795755
 30
0.0
 10
-31.7117060094
 20
-42.82398238651057
 30
0.0
 11
-31.71191831233332
 21
-42.8155536142439
 31
0.0
 11
-31.7117060094
 21
-42.82398238651057
 31
0.0
  0
SPLINE
  5
AF
100
AcDbEntity
  8
0
  6
CONTINUOUS
100
AcDbSpline
210
0.0
220
0.0
230
-1.0
 70
     8
 71
     3
 72
     9
 73
     5
 74
     3
 42
0.0000001
 43
0.0000001
 44
0.0000000001
 40
0.0
 40
0.0
 40
0.0
 40
0.0
 40
0.0328072341971457
 40
0.0561398998599504
 40
0.0561398998599504
 40
0.0561398998599504
 40
0.0561398998599504
 10
-31.7129713086
 20
-42.7594236046439
 30
0.0
 10
-31.71277730027982
 20
-42.77035763256928
 30
0.0
 10
-31.712445312292
 20
-42.78906799471404
 30
0.0
 10
-31.71207303634103
 20
-42.80777759617658
 30
0.0
 10
-31.71191831233332
 20
-42.8155536142439
 30
0.0
 11
-31.7129713086
 21
-42.7594236046439
 31
0.0
 11
-31.71237552513332
 21
-42.79222542864391
 31
0.0
 11
-31.71191831233332
 21
-42.8155536142439
 31
0.0
  0
LINE
  5
B0
100
AcDbEntity
  8
0
  6
CONTINUOUS
100
AcDbLine
 10
-31.711706
 20
-42.823982
 30
0.0
 11
-30.906277
 21
-42.809924
 31
0.0
  0
SPLINE
  5
B1
100
AcDbEntity
  8
0
  6
CONTINUOUS
100
AcDbSpline
210
0.0
220
0.0
230
1.0
 70
     8
 71
     3
 72
    10
 73
     6
 74
     4
 42
0.0000001
 43
0.0000001
 44
0.0000000001
 40
0.0
 40
0.0
 40
0.0
 40
0.0
 40
0.0054474793278266
 40
0.4371699980528702
 40
0.8055589596213527
 40
0.8055589596213527
 40
0.8055589596213527
 40
0.8055589596213527
 10
-31.71079726913333
 20
-42.87410242171057
 30
0.0
 10
-31.70898173846312
 20
-42.87406964892974
 30
0.0
 10
-31.56328214204456
 20
-42.87143957441846
 30
0.0
 10
-31.29480635328035
 20
-42.86658620971728
 30
0.0
 10
-31.0281464208184
 20
-42.86174765058603
 30
0.0
 10
-30.9053703102
 20
-42.85951987131057
 30
0.0
 11
-31.71079726913333
 21
-42.87410242171057
 31
0.0
 11
-31.70535067713334
 21
-42.87400410277724
 31
0.0
 11
-31.27369871126666
 21
-42.8661993902439
 31
0.0
 11
-30.9053703102
 21
-42.85951987131057
 31
0.0
  0
SPLINE
  5
B2
100
AcDbEntity
  8
0
  6
CONTINUOUS
100
AcDbSpline
210
-0.0174524064001145
220
0.9998476951570401
230
0.0
 70
    24
 71
     3
 72
     8
 73
     4
 74
     2
 42
0.0000001
 43
0.0000001
 44
0.0000000001
 40
0.0
 40
0.0
 40
0.0
 40
0.0
 40
0.8056905207015695
 40
0.8056905207015695
 40
0.8056905207015695
 40
0.8056905207015695
 10
-30.90740349846666
 20
-42.7453623662439
 30
0.0
 10
-31.17592610184444
 20
-42.75004944571057
 30
0.0
 10
-31.44444870522222
 20
-42.75473652517724
 30
0.0
 10
-31.7129713086
 20
-42.7594236046439
 30
0.0
 11
-30.90740349846666
 21
-42.7453623662439
 31
0.0
 11
-31.7129713086
 21
-42.7594236046439
 31
0.0
  0
SPLINE
  5
B3
100
AcDbEntity
  8
0
  6
CONTINUOUS
100
AcDbSpline
210
-0.0174524070130363
220
0.9998476951463414
230
0.0
 70
    24
 71
     3
 72
     9
 73
     5
 74
     3
 42
0.0000001
 43
0.0000001
 44
0.0000000001
 40
0.0
 40
0.0
 40
0.0
 40
0.0
 40
0.4219115839840226
 40
0.805552119897732
 40
0.805552119897732
 40
0.805552119897732
 40
0.805552119897732
 10
-31.7117060094
 20
-42.82398238651057
 30
0.0
 10
-31.57109023446703
 20
-42.82152792888989
 30
0.0
 10
-31.30261375766897
 20
-42.81684165428974
 30
0.0
 10
-31.03413728086697
 20
-42.8121553799157
 30
0.0
 10
-30.906276579
 20
-42.8099235630439
 30
0.0
 11
-31.7117060094
 21
-42.82398238651057
 31
0.0
 11
-31.2898586846
 21
-42.81661901371057
 31
0.0
 11
-30.906276579
 21
-42.8099235630439
 31
0.0
  0
SPLINE
  5
B4
100
AcDbEntity
  8
0
  6
CONTINUOUS
100
AcDbSpline
210
-0.0162858240400496
220
0.9998673771732613
230
0.0
 70
    24
 71
     3
 72
     8
 73
     4
 74
     2
 42
0.0000001
 43
0.0000001
 44
0.0000000001
 40
0.0
 40
0.0
 40
0.0
 40
0.0
 40
0.0357783226222792
 40
0.0357783226222792
 40
0.0357783226222792
 40
0.0357783226222792
 10
-27.66866970113332
 20
-42.6888718030439
 30
0.0
 10
-27.68059422699999
 20
-42.68906602953279
 30
0.0
 10
-27.69251875286665
 20
-42.68926025602168
 30
0.0
 10
-27.70444327873332
 20
-42.68945448251058
 30
0.0
 11
-27.66866970113332
 21
-42.6888718030439
 31
0.0
 11
-27.70444327873332
 21
-42.68945448251058
 31
0.0
  0
SPLINE
  5
B5
100
AcDbEntity
  8
0
  6
CONTINUOUS
100
AcDbSpline
210
0.0
220
0.0
230
-1.0
 70
     8
 71
     3
 72
     9
 73
     5
 74
     3
 42
0.0000001
 43
0.0000001
 44
0.0000000001
 40
0.0
 40
0.0
 40
0.0
 40
0.0
 40
0.0337476676405311
 40
0.0685105529743671
 40
0.0685105529743671
 40
0.0685105529743671
 40
0.0685105529743671
 10
-27.6001650462
 20
-42.6879754830439
 30
0.0
 10
-27.61141352282592
 20
-42.68810562978852
 30
0.0
 10
-27.63424885953627
 20
-42.68836983843059
 30
0.0
 10
-27.65708329722217
 20
-42.68870283667093
 30
0.0
 10
-27.66866970113332
 20
-42.6888718030439
 30
0.0
 11
-27.6001650462
 21
-42.6879754830439
 31
0.0
 11
-27.63391025793334
 21
-42.68838261477724
 31
0.0
 11
-27.66866970113332
 21
-42.6888718030439
 31
0.0
  0
SPLINE
  5
B6
100
AcDbEntity
  8
0
  6
CONTINUOUS
100
AcDbSpline
210
0.0
220
0.0
230
-1.0
 70
     8
 71
     3
 72
    10
 73
     6
 74
     4
 42
0.0000001
 43
0.0000001
 44
0.0000000001
 40
0.0
 40
0.0
 40
0.0
 40
0.0
 40
0.0332702021893532
 40
0.0666052244488299
 40
0.0999577427408847
 40
0.0999577427408847
 40
0.0999577427408847
 40
0.0999577427408847
 10
-27.5002109438
 20
-42.6871370510439
 30
0.0
 10
-27.51130080876424
 20
-42.68720441604772
 30
0.0
 10
-27.53350214498838
 20
-42.68733927730208
 30
0.0
 10
-27.56682026334713
 20
-42.68761856808288
 30
0.0
 10
-27.58904817468972
 20
-42.68785649129429
 30
0.0
 10
-27.6001650462
 20
-42.68797548411057
 30
0.0
 11
-27.5002109438
 21
-42.6871370510439
 31
0.0
 11
-27.53348045206667
 21
-42.6873519310439
 31
0.0
 11
-27.56681430273333
 21
-42.68763141051056
 31
0.0
 11
-27.6001650462
 21
-42.68797548411057
 31
0.0
  0
SPLINE
  5
B7
100
AcDbEntity
  8
0
  6
CONTINUOUS
100
AcDbSpline
210
0.0
220
0.0
230
-1.0
 70
     8
 71
     3
 72
    10
 73
     6
 74
     4
 42
0.0000001
 43
0.0000001
 44
0.0000000001
 40
0.0
 40
0.0
 40
0.0
 40
0.0
 40
0.0330500447873847
 40
0.0661316702514099
 40
0.0992447031605906
 40
0.0992447031605906
 40
0.0992447031605906
 40
0.0992447031605906
 10
-27.50013217793332
 20
-42.75099900197724
 30
0.0
 10
-27.51114798797795
 20
-42.75113760538132
 30
0.0
 10
-27.53319013412662
 20
-42.75141494463073
 30
0.0
 10
-27.56626866970278
 20
-42.75186337624734
 30
0.0
 10
-27.58833122548669
 20
-42.75218410498623
 30
0.0
 10
-27.5993677374
 20
-42.7523445454439
 30
0.0
 11
-27.50013217793332
 21
-42.75099900197724
 31
0.0
 11
-27.533179539
 21
-42.75142017531057
 31
0.0
 11
-27.56625812459999
 21
-42.75186863717723
 31
0.0
 11
-27.5993677374
 21
-42.7523445454439
 31
0.0
  0
SPLINE
  5
B8
100
AcDbEntity
  8
0
  6
CONTINUOUS
100
AcDbSpline
210
-0.0169590147361278
220
0.9998561855682947
230
0.0
 70
    24
 71
     3
 72
     8
 73
     4
 74
     2
 42
0.0000001
 43
0.0000001
 44
0.0000000001
 40
0.0
 40
0.0
 40
0.0
 40
0.0
 40
0.0356077918476923
 40
0.0356077918476923
 40
0.0356077918476923
 40
0.0356077918476923
 10
-27.66757530966666
 20
-42.75340935077724
 30
0.0
 10
-27.67944286664444
 20
-42.75361064179945
 30
0.0
 10
-27.69131042362222
 20
-42.75381193282168
 30
0.0
 10
-27.7031779806
 20
-42.7540132238439
 30
0.0
 11
-27.66757530966666
 21
-42.75340935077724
 31
0.0
 11
-27.7031779806
 21
-42.7540132238439
 31
0.0
  0
SPLINE
  5
B9
100
AcDbEntity
  8
0
  6
CONTINUOUS
100
AcDbSpline
210
0.0
220
0.0
230
-1.0
 70
     8
 71
     3
 72
     9
 73
     5
 74
     3
 42
0.0000001
 43
0.0000001
 44
0.0000000001
 40
0.0
 40
0.0
 40
0.0
 40
0.0
 40
0.0336078350324689
 40
0.0682158893560204
 40
0.0682158893560204
 40
0.0682158893560204
 40
0.0682158893560204
 10
-27.5993677374
 20
-42.75234454437724
 30
0.0
 10
-27.61056909473809
 20
-42.75251226375735
 30
0.0
 10
-27.63330517851364
 20
-42.75285269409645
 30
0.0
 10
-27.65604081178439
 20
-42.75322199359215
 30
0.0
 10
-27.66757530966666
 20
-42.75340935077724
 30
0.0
 11
-27.5993677374
 21
-42.75234454437724
 31
0.0
 11
-27.63297170006666
 21
-42.75285470971057
 31
0.0
 11
-27.66757530966666
 21
-42.75340935077724
 31
0.0
  0
SPLINE
  5
BA
100
AcDbEntity
  8
0
  6
CONTINUOUS
100
AcDbSpline
210
0.0
220
0.0
230
-1.0
 70
     8
 71
     3
 72
    20
 73
    16
 74
    14
 42
0.0000001
 43
0.0000001
 44
0.0000000001
 40
0.0
 40
0.0
 40
0.0
 40
0.0
 40
0.0444539530026828
 40
0.096838930699077
 40
0.1543386420318609
 40
0.219914904247641
 40
0.2942921307155247
 40
0.3781329868079157
 40
0.4720944716082057
 40
0.5766660629926683
 40
0.6925198501133396
 40
0.8206620364126493
 40
0.9623801053414005
 40
1.11935210508567
 40
1.293262693989562
 40
1.293262693989562
 40
1.293262693989562
 40
1.293262693989562
 10
-26.227136019
 20
-42.77677257317724
 30
0.0
 10
-26.23459641749518
 20
-42.76178170546031
 30
0.0
 10
-26.25084822333162
 20
-42.72912545102388
 30
0.0
 10
-26.31009435484684
 20
-42.74891375371272
 30
0.0
 10
-26.36462614428745
 20
-42.72763346923833
 30
0.0
 10
-26.4310245476257
 20
-42.72360812255397
 30
0.0
 10
-26.5050098565792
 20
-42.71587299343039
 30
0.0
 10
-26.58892474044213
 20
-42.70974366877345
 30
0.0
 10
-26.68285093177479
 20
-42.70398235521848
 30
0.0
 10
-26.78753342068878
 20
-42.69890054385902
 30
0.0
 10
-26.90363817937916
 20
-42.6944865547238
 30
0.0
 10
-27.03216163271303
 20
-42.69087207000413
 30
0.0
 10
-27.17441598164241
 20
-42.68823639925868
 30
0.0
 10
-27.33194570634341
 20
-42.68669294932648
 30
0.0
 10
-27.44224045779986
 20
-42.68698372676459
 30
0.0
 10
-27.50021094593333
 20
-42.68713655824391
 30
0.0
 11
-26.227136019
 21
-42.77677257317724
 31
0.0
 11
-26.25392602006667
 21
-42.74129793744391
 31
0.0
 11
-26.30630592086666
 21
-42.74202723877723
 31
0.0
 11
-26.36280056299999
 21
-42.73132339771057
 31
0.0
 11
-26.427890515
 21
-42.72335192891057
 31
0.0
 11
-26.50195686806665
 21
-42.71655875877724
 31
0.0
 11
-26.58555195819999
 21
-42.7101439278439
 31
0.0
 11
-26.67933693739999
 21
-42.70438734011057
 31
0.0
 11
-26.78378258433332
 21
-42.6992565934439
 31
0.0
 11
-26.89955151659999
 21
-42.6948232750439
 31
0.0
 11
-27.027642291
 21
-42.69119375397724
 31
0.0
 11
-27.16933525206667
 21
-42.6885261998439
 31
0.0
 11
-27.32630037526666
 21
-42.6870569134439
 31
0.0
 11
-27.50021094593333
 21
-42.68713655824391
 31
0.0
  0
SPLINE
  5
BB
100
AcDbEntity
  8
0
  6
CONTINUOUS
100
AcDbSpline
210
0.0
220
0.0
230
-1.0
 70
     8
 71
     3
 72
    22
 73
    18
 74
    16
 42
0.0000001
 43
0.0000001
 44
0.0000000001
 40
0.0
 40
0.0
 40
0.0
 40
0.0
 40
0.0270606572198011
 40
0.0699999596375625
 40
0.1175012958069585
 40
0.1710091724207253
 40
0.2309150016899988
 40
0.2975553495245264
 40
0.3713486979229846
 40
0.4526839442600733
 40
0.5418660360618831
 40
0.6392935652356881
 40
0.7455226272734104
 40
0.8613168779432454
 40
0.9876188632073652
 40
1.125394828973857
 40
1.275753746033306
 40
1.275753746033306
 40
1.275753746033306
 40
1.275753746033306
 10
-26.227136019
 20
-42.77677257317724
 30
0.0
 10
-26.23520604883204
 20
-42.77243472570117
 30
0.0
 10
-26.25608143844022
 20
-42.76121366976846
 30
0.0
 10
-26.29655622279331
 20
-42.76423436980365
 30
0.0
 10
-26.34390214813842
 20
-42.75831462895079
 30
0.0
 10
-26.39767063422557
 20
-42.75703716541385
 30
0.0
 10
-26.45759250975624
 20
-42.75451831506457
 30
0.0
 10
-26.52436790207839
 20
-42.75286311514937
 30
0.0
 10
-26.59826924884518
 20
-42.75127984154533
 30
0.0
 10
-26.67969846093227
 20
-42.75002642083436
 30
0.0
 10
-26.7690075871353
 20
-42.74902964795066
 30
0.0
 10
-26.86661842605055
 20
-42.74833653877615
 30
0.0
 10
-26.97310157794376
 20
-42.74797054353708
 30
0.0
 10
-27.08921027409169
 20
-42.74797550450689
 30
0.0
 10
-27.2158337387774
 20
-42.74842157277126
 30
0.0
 10
-27.35397668103325
 20
-42.74934936609525
 30
0.0
 10
-27.45001563721081
 20
-42.75043318991678
 30
0.0
 10
-27.50013214273333
 20
-42.75099876731057
 30
0.0
 11
-26.227136019
 21
-42.77677257317724
 31
0.0
 11
-26.25182985686666
 21
-42.76570489317723
 31
0.0
 11
-26.29466768513333
 21
-42.76275461157724
 31
0.0
 11
-26.34204344833332
 21
-42.7593029454439
 31
0.0
 11
-26.39549891286665
 21
-42.75693520997723
 31
0.0
 11
-26.455365779
 21
-42.75477495077724
 31
0.0
 11
-26.52198134486666
 21
-42.75295771557724
 31
0.0
 11
-26.59575833899999
 21
-42.75140420197724
 31
0.0
 11
-26.67708346859999
 21
-42.75012139557723
 31
0.0
 11
-26.76625991553334
 21
-42.74911799611057
 31
0.0
 11
-26.86368490326666
 21
-42.74841428731057
 31
0.0
 11
-26.96991330753333
 21
-42.74804045797724
 31
0.0
 11
-27.0857075582
 21
-42.74803960144391
 31
0.0
 11
-27.21200880193333
 21
-42.7484723982439
 31
0.0
 11
-27.34978149846666
 21
-42.74942152037723
 31
0.0
 11
-27.50013214273333
 21
-42.75099876731057
 31
0.0
  0
LWPOLYLINE
  5
BC
100
AcDbEntity
  8
0
  6
HIDDEN
 62
     9
 48
0.5
100
AcDbPolyline
 90
        7
 70
     0
 43
0.0
 10
-15.696063
 20
-36.1609
 10
-17.589359
 20
-36.640176
 10
-18.046384
 20
-36.774076
 10
-18.502527
 20
-36.910478
 10
-18.953535
 20
-37.048111
 10
-19.395204
 20
-37.185692
 10
-20.917579
 20
-37.726932
  0
LINE
  5
BE
100
AcDbEntity
  8
0
  6
HIDDEN
 62
     9
 48
0.5
100
AcDbLine
 10
-21.759774
 20
-36.949764
 30
0.0
 11
-21.229633
 21
-36.789618
 31
0.0
  0
LINE
  5
BF
100
AcDbEntity
  8
0
  6
HIDDEN
 62
     9
 48
0.5
100
AcDbLine
 10
-21.743249
 20
-36.47884
 30
0.0
 11
-21.929086
 21
-36.843244
 31
0.0
  0
SPLINE
  5
C0
100
AcDbEntity
  8
0
  6
HIDDEN
 62
     9
 48
0.5
100
AcDbSpline
210
0.0
220
0.0
230
-1.0
 70
     8
 71
     3
 72
    15
 73
    11
 74
     9
 42
0.0000001
 43
0.0000001
 44
0.0000000001
 40
0.0
 40
0.0
 40
0.0
 40
0.0
 40
0.0414189264333871
 40
0.0829319505128889
 40
0.1244020349737858
 40
0.1657920361967768
 40
0.2071117375845556
 40
0.2484606626164456
 40
0.2899623166423175
 40
0.331668230661894
 40
0.331668230661894
 40
0.331668230661894
 40
0.331668230661894
 10
-20.976808931
 20
-36.96568519077724
 30
0.0
 10
-20.98138824446505
 20
-36.95262445349362
 30
0.0
 10
-20.99055727491487
 20
-36.92647330687208
 30
0.0
 10
-21.01255183519555
 20
-36.89095629789369
 30
0.0
 10
-21.03978580568041
 20
-36.85949134678554
 30
0.0
 10
-21.07198452037175
 20
-36.83315363781401
 30
0.0
 10
-21.10802261368725
 20
-36.81247500898463
 30
0.0
 10
-21.1469771320273
 20
-36.79806276427176
 30
0.0
 10
-21.18790526497097
 20
-36.78961739974312
 30
0.0
 10
-21.21570104617796
 20
-36.78961761367969
 30
0.0
 10
-21.22963305366666
 20
-36.78961772091057
 30
0.0
 11
-20.976808931
 21
-36.96568519077724
 31
0.0
 11
-20.99191713793332
 21
-36.92712005691057
 31
0.0
 11
-21.01343513366666
 21
-36.89161925371057
 31
0.0
 11
-21.04064021099999
 21
-36.86031986597724
 31
0.0
 11
-21.07264900886666
 21
-36.83407926651057
 31
0.0
 11
-21.10849380246666
 21
-36.81352522811057
 31
0.0
 11
-21.14723612993333
 21
-36.79907650277724
 31
0.0
 11
-21.18795122219999
 21
-36.79103482704391
 31
0.0
 11
-21.22963305366666
 21
-36.78961772091057
 31
0.0
  0
SPLINE
  5
C1
100
AcDbEntity
  8
0
  6
HIDDEN
 62
     9
 48
0.5
100
AcDbSpline
210
0.0
220
0.0
230
1.0
 70
     8
 71
     3
 72
    19
 73
    15
 74
    13
 42
0.0000001
 43
0.0000001
 44
0.0000000001
 40
0.0
 40
0.0
 40
0.0
 40
0.0
 40
0.3267210060848004
 40
0.6517157740688818
 40
0.9761967224099617
 40
1.300955812560142
 40
1.620152789253491
 40
1.922086468162224
 40
2.204885642829838
 40
2.474974136167953
 40
2.743958074402945
 40
3.036289001896387
 40
3.348323575344811
 40
3.665309953615559
 40
3.665309953615559
 40
3.665309953615559
 40
3.665309953615559
 10
-21.3771395582
 20
-36.3238774254439
 30
0.0
 10
-21.26841282666815
 20
-36.30895331175155
 30
0.0
 10
-21.05153382384129
 20
-36.27918393627167
 30
0.0
 10
-20.72861088633131
 20
-36.35976090861059
 30
0.0
 10
-20.44412775423558
 20
-36.52387698245896
 30
0.0
 10
-20.21998521537992
 20
-36.76277265113288
 30
0.0
 10
-20.07388252226474
 20
-37.04649446744295
 30
0.0
 10
-20.00936307324173
 20
-37.34412744069214
 30
0.0
 10
-20.01799160462778
 20
-37.63159129934293
 30
0.0
 10
-20.08930168149502
 20
-37.89847214532255
 30
0.0
 10
-20.22084987995213
 20
-38.14547301891202
 30
0.0
 10
-20.4185352936208
 20
-38.36251167864341
 30
0.0
 10
-20.68156650606066
 20
-38.53347985476818
 30
0.0
 10
-20.88841687555675
 20
-38.57629537433797
 30
0.0
 10
-20.99265624833333
 20
-38.59787166117723
 30
0.0
 11
-21.3771395582
 21
-36.3238774254439
 31
0.0
 11
-21.05128442539999
 21
-36.30010668197724
 31
0.0
 11
-20.73474921686666
 21
-36.37377527077723
 31
0.0
 11
-20.45402988886667
 21
-36.53651599931057
 31
0.0
 11
-20.23130698859999
 21
-36.77286949797724
 31
0.0
 11
-20.08484464299999
 21
-37.0564810126439
 31
0.0
 11
-20.02069914966666
 21
-37.3515221998439
 31
0.0
 11
-20.0292104638
 21
-37.63419326437723
 31
0.0
 11
-20.09906739286666
 21
-37.8950913358439
 31
0.0
 11
-20.22593749633333
 21
-38.13227551717724
 31
0.0
 11
-20.42243641793332
 21
-38.34871383397723
 31
0.0
 11
-20.68686464939999
 21
-38.51437398437724
 31
0.0
 11
-20.99265624833333
 21
-38.59787166117723
 31
0.0
  0
SPLINE
  5
C2
100
AcDbEntity
  8
0
  6
HIDDEN
 62
     9
 48
0.5
100
AcDbSpline
210
0.0
220
0.0
230
-1.0
 70
     8
 71
     3
 72
    11
 73
     7
 74
     5
 42
0.0000001
 43
0.0000001
 44
0.0000000001
 40
0.0
 40
0.0
 40
0.0
 40
0.0
 40
0.3912018704644957
 40
0.7834173932794243
 40
1.17148583995726
 40
1.552202942066272
 40
1.552202942066272
 40
1.552202942066272
 40
1.552202942066272
 10
-21.31290009366666
 20
-38.58724068837724
 30
0.0
 10
-21.43942293002642
 20
-38.55040288064544
 30
0.0
 10
-21.69279643903749
 20
-38.47663181387342
 30
0.0
 10
-21.99558642257778
 20
-38.214754869611
 30
0.0
 10
-22.20695359402252
 20
-37.879512423667
 30
0.0
 10
-22.2439245558675
 20
-37.62335902682927
 30
0.0
 10
-22.2622332734
 20
-37.49650703397723
 30
0.0
 11
-21.31290009366666
 21
-38.58724068837724
 31
0.0
 11
-21.6797799358
 21
-38.45145377851057
 31
0.0
 11
-21.98159394006666
 21
-38.20097159717724
 31
0.0
 11
-22.18204942273332
 21
-37.86868449424391
 31
0.0
 11
-22.2622332734
 21
-37.49650703397723
 31
0.0
  0
SPLINE
  5
C3
100
AcDbEntity
  8
0
  6
HIDDEN
 62
     9
 48
0.5
100
AcDbSpline
210
-0.523385963888134
220
0.8520957298360842
230
0.0
 70
    24
 71
     3
 72
     8
 73
     4
 74
     2
 42
0.0000001
 43
0.0000001
 44
0.0000000001
 40
0.0
 40
0.0
 40
0.0
 40
0.0
 40
0.0039924565760375
 40
0.0039924565760375
 40
0.0039924565760375
 40
0.0039924565760375
 10
-20.92269232513332
 20
-37.7307677070439
 30
0.0
 10
-20.92155834006665
 20
-37.73007117513279
 30
0.0
 10
-20.92042435499999
 20
-37.72937464322168
 30
0.0
 10
-20.91929036993332
 20
-37.72867811131057
 30
0.0
 11
-20.92269232513332
 21
-37.7307677070439
 31
0.0
 11
-20.91929036993332
 21
-37.72867811131057
 31
0.0
  0
SPLINE
  5
C4
100
AcDbEntity
  8
0
  6
HIDDEN
 62
     9
 48
0.5
100
AcDbSpline
210
0.0
220
0.0
230
1.0
 70
     8
 71
     3
 72
    10
 73
     6
 74
     4
 42
0.0000001
 43
0.0000001
 44
0.0000000001
 40
0.0
 40
0.0
 40
0.0
 40
0.0
 40
0.0051516948582294
 40
0.0063301685054795
 40
0.0063923207292611
 40
0.0063923207292611
 40
0.0063923207292611
 40
0.0063923207292611
 10
-20.9175794398
 20
-37.7269320078439
 30
0.0
 10
-20.91891905929809
 20
-37.72800817357652
 30
0.0
 10
-20.92056512285379
 20
-37.72933051711873
 30
0.0
 10
-20.92235464914375
 20
-37.73049461814213
 30
0.0
 10
-20.92267621547216
 20
-37.73075467866815
 30
0.0
 10
-20.92269232513332
 20
-37.7307677070439
 30
0.0
 11
-20.9175794398
 21
-37.7269320078439
 31
0.0
 11
-20.92168179286666
 21
-37.73004820091057
 31
0.0
 11
-20.92264393153333
 21
-37.73072870757723
 31
0.0
 11
-20.92269232513332
 21
-37.7307677070439
 31
0.0
  0
LINE
  5
C5
100
AcDbEntity
  8
0
  6
HIDDEN
 62
     9
 48
0.5
100
AcDbLine
 10
-20.946436
 20
-37.74695
 30
0.0
 11
-20.917584
 21
-37.726926
 31
0.0
  0
LINE
  5
C6
100
AcDbEntity
  8
0
  6
HIDDEN
 62
     9
 48
0.5
100
AcDbLine
 10
-20.919275
 20
-37.728674
 30
0.0
 11
-20.946436
 21
-37.74695
 31
0.0
  0
SPLINE
  5
C7
100
AcDbEntity
  8
0
  6
HIDDEN
 62
     9
 48
0.5
100
AcDbSpline
210
0.0
220
0.0
230
1.0
 70
     8
 71
     3
 72
    15
 73
    11
 74
     9
 42
0.0000001
 43
0.0000001
 44
0.0000000001
 40
0.0
 40
0.0
 40
0.0
 40
0.0
 40
0.0068972720901107
 40
0.0487861054600309
 40
0.0905345615067249
 40
0.1321582730566813
 40
0.1736908998673898
 40
0.2151624286786889
 40
0.2566050077322772
 40
0.2979387052039523
 40
0.2979387052039523
 40
0.2979387052039523
 40
0.2979387052039523
 10
-20.91758351979999
 20
-37.72692695824391
 30
0.0
 10
-20.91579869559691
 20
-37.72547781150379
 30
0.0
 10
-20.90317419410389
 20
-37.71522763944057
 30
0.0
 10
-20.88166354841551
 20
-37.6938374579535
 30
0.0
 10
-20.85694311327495
 20
-37.65997940222521
 30
0.0
 10
-20.83809868791927
 20
-37.62264613258546
 30
0.0
 10
-20.82559472324498
 20
-37.58281595687277
 30
0.0
 10
-20.82000259939465
 20
-37.54156028539564
 30
0.0
 10
-20.8209322892903
 20
-37.49985145378339
 30
0.0
 10
-20.8274561905265
 20
-37.47297268721076
 30
0.0
 10
-20.83071385046666
 20
-37.45955098171057
 30
0.0
 11
-20.91758351979999
 21
-37.72692695824391
 31
0.0
 11
-20.91224969686666
 21
-37.7225540078439
 31
0.0
 11
-20.88247450859999
 21
-37.69309025851057
 31
0.0
 11
-20.85789020353332
 21
-37.6593479182439
 31
0.0
 11
-20.83913792726666
 21
-37.62218765051057
 31
0.0
 11
-20.82673978006666
 21
-37.58254871717724
 31
0.0
 11
-20.8210886142
 21
-37.54146402384391
 31
0.0
 11
-20.82241312086666
 21
-37.5000426158439
 31
0.0
 11
-20.83071385046666
 21
-37.45955098171057
 31
0.0
  0
LWPOLYLINE
  5
C8
100
AcDbEntity
  8
0
  6
HIDDEN
 62
     9
 48
0.5
100
AcDbPolyline
 90
        8
 70
     0
 43
0.0
 10
-21.759774
 20
-36.949764
 10
-21.836597
 20
-36.982777
 10
-21.904243
 20
-37.032135
 10
-21.959319
 20
-37.095365
 10
-21.999064
 20
-37.169296
 10
-22.021485
 20
-37.25022
 10
-22.025457
 20
-37.33408
 10
-22.010782
 20
-37.41667
  0
LINE
  5
C9
100
AcDbEntity
  8
0
  6
HIDDEN
 62
     9
 48
0.5
100
AcDbLine
 10
-22.107046
 20
-37.192203
 30
0.0
 11
-22.262233
 21
-37.496507
 31
0.0
  0
LWPOLYLINE
  5
CA
100
AcDbEntity
  8
0
  6
HIDDEN
 62
     9
 48
0.5
100
AcDbPolyline
 90
        6
 70
     0
 43
0.0
 10
-21.939982
 20
-37.656003
 10
-21.907395
 20
-37.733183
 10
-21.85853
 20
-37.801081
 10
-21.795837
 20
-37.856294
 10
-21.72246
 20
-37.896053
 10
-21.670124
 20
-37.912764
  0
CIRCLE
  5
CB
100
AcDbEntity
  8
0
  6
HIDDEN
 62
     9
 48
0.5
100
AcDbCircle
 10
-21.372294
 20
-37.327986
 30
0.0
 40
0.247062
  0
LINE
  5
CC
100
AcDbEntity
  8
0
  6
HIDDEN
 62
     9
 48
0.5
100
AcDbLine
 10
-21.476576
 20
-37.907097
 30
0.0
 11
-20.946436
 21
-37.74695
 31
0.0
  0
SPLINE
  5
CD
100
AcDbEntity
  8
0
  6
CONTINUOUS
100
AcDbSpline
210
0.0
220
0.0
230
-1.0
 70
     8
 71
     3
 72
    10
 73
     6
 74
     4
 42
0.0000001
 43
0.0000001
 44
0.0000000001
 40
0.0
 40
0.0
 40
0.0
 40
0.0
 40
0.0279852712351376
 40
0.0562977209465346
 40
0.0849233191447614
 40
0.0849233191447614
 40
0.0849233191447614
 40
0.0849233191447614
 10
-19.4266027358
 20
-35.6005618574439
 30
0.0
 10
-19.43540316483572
 20
-35.6036562203032
 30
0.0
 10
-19.45310690956272
 20
-35.60988112251322
 30
0.0
 10
-19.47960051395088
 20
-35.61986115587028
 30
0.0
 10
-19.49720919673168
 20
-35.62694375180699
 30
0.0
 10
-19.50606196033332
 20
-35.63050452624391
 30
0.0
 11
-19.4266027358
 21
-35.6005618574439
 31
0.0
 11
-19.45296930646666
 21
-35.6099415886439
 31
0.0
 11
-19.47946466113333
 21
-35.61992111717724
 31
0.0
 11
-19.50606196033332
 21
-35.63050452624391
 31
0.0
  0
LWPOLYLINE
  5
CE
100
AcDbEntity
  8
0
  6
HIDDEN
 62
     9
 48
0.5
100
AcDbPolyline
 90
        7
 70
     0
 43
0.0
 10
-15.97926
 20
-35.203568
 10
-17.872556
 20
-35.682843
 10
-18.329582
 20
-35.816744
 10
-18.785725
 20
-35.953146
 10
-19.236733
 20
-36.090779
 10
-19.678402
 20
-36.228359
 10
-21.229633
 20
-36.789618
  0
SPLINE
  5
CF
100
AcDbEntity
  8
0
  6
CONTINUOUS
100
AcDbSpline
210
0.0
220
0.0
230
1.0
 70
     8
 71
     3
 72
     9
 73
     5
 74
     3
 42
0.0000001
 43
0.0000001
 44
0.0000000001
 40
0.0
 40
0.0
 40
0.0
 40
0.0
 40
0.8469711536604712
 40
1.689031698048803
 40
1.689031698048803
 40
1.689031698048803
 40
1.689031698048803
 10
-24.99291803926666
 20
-35.31060349691057
 30
0.0
 10
-24.73024126077611
 20
-35.41536831561986
 30
0.0
 10
-24.2064106636012
 20
-35.62429054263499
 30
0.0
 10
-23.65658299492117
 20
-35.74970630433034
 30
0.0
 10
-23.38246843179999
 20
-35.81223187131057
 30
0.0
 11
-24.99291803926666
 21
-35.31060349691057
 31
0.0
 11
-24.19835058966667
 21
-35.60389976891057
 31
0.0
 11
-23.38246843179999
 21
-35.81223187131057
 31
0.0
  0
SPLINE
  5
D0
100
AcDbEntity
  8
0
  6
CONTINUOUS
100
AcDbSpline
210
0.0
220
0.0
230
-1.0
 70
     8
 71
     3
 72
    10
 73
     6
 74
     4
 42
0.0000001
 43
0.0000001
 44
0.0000000001
 40
0.0
 40
0.0
 40
0.0
 40
0.0
 40
0.4126724727386328
 40
0.8235364521433579
 40
1.147543001092288
 40
1.147543001092288
 40
1.147543001092288
 40
1.147543001092288
 10
-23.31529017153332
 20
-35.4925589486439
 30
0.0
 10
-23.44409901627765
 20
-35.44428530021686
 30
0.0
 10
-23.70115221466876
 20
-35.34794955750597
 30
0.0
 10
-24.05938613887736
 20
-35.21383887817449
 30
0.0
 10
-24.28878940063627
 20
-35.12794360405276
 30
0.0
 10
-24.3899339646
 20
-35.09007212837724
 30
0.0
 11
-23.31529017153332
 21
-35.4925589486439
 31
0.0
 11
-23.7017252606
 21
-35.34776084197724
 31
0.0
 11
-24.0864993502
 21
-35.20368409317724
 31
0.0
 11
-24.3899339646
 21
-35.09007212837724
 31
0.0
  0
SPLINE
  5
D1
100
AcDbEntity
  8
0
  6
CONTINUOUS
100
AcDbSpline
210
0.0
220
0.0
230
1.0
 70
     8
 71
     3
 72
     9
 73
     5
 74
     3
 42
0.0000001
 43
0.0000001
 44
0.0000000001
 40
0.0
 40
0.0
 40
0.0
 40
0.0
 40
0.229787550673405
 40
0.9186807047098451
 40
0.9186807047098451
 40
0.9186807047098451
 40
0.9186807047098451
 10
-22.43337389206666
 20
-35.74799200251057
 30
0.0
 10
-22.50824276000751
 20
-35.73166930623357
 30
0.0
 10
-22.80756526098357
 20
-35.66641187137875
 30
0.0
 10
-23.09774512479974
 20
-35.5671405847214
 30
0.0
 10
-23.31534294806667
 20
-35.4926998030439
 30
0.0
 11
-22.43337389206666
 21
-35.74799200251057
 31
0.0
 11
-22.65740849686666
 21
-35.69689587451057
 31
0.0
 11
-23.31534294806667
 21
-35.4926998030439
 31
0.0
  0
SPLINE
  5
D2
100
AcDbEntity
  8
0
  6
CONTINUOUS
100
AcDbSpline
210
0.0
220
0.0
230
1.0
 70
     8
 71
     3
 72
    10
 73
     6
 74
     4
 42
0.0000001
 43
0.0000001
 44
0.0000000001
 40
0.0
 40
0.0
 40
0.0
 40
0.0
 40
0.3789577353155586
 40
0.760063968278741
 40
1.141681283465719
 40
1.141681283465719
 40
1.141681283465719
 40
1.141681283465719
 10
-23.38240776406667
 20
-35.81193000784391
 30
0.0
 10
-23.2581840944955
 20
-35.83492513891951
 30
0.0
 10
-23.00903247031824
 20
-35.88104577177018
 30
0.0
 10
-22.63123703797534
 20
-35.92912424956681
 30
0.0
 10
-22.37758791964073
 20
-35.94690309407436
 30
0.0
 10
-22.25067837846666
 20
-35.95579847291057
 30
0.0
 11
-23.38240776406667
 21
-35.81193000784391
 31
0.0
 11
-23.00914952406666
 21
-35.87740711397724
 31
0.0
 11
-22.63109279446666
 21
-35.92552228837723
 31
0.0
 11
-22.25067837846666
 21
-35.95579847291057
 31
0.0
  0
SPLINE
  5
D3
100
AcDbEntity
  8
0
  6
CONTINUOUS
100
AcDbSpline
210
0.6384528006659282
220
0.7696609781727491
230
0.0
 70
    24
 71
     3
 72
    10
 73
     6
 74
     4
 42
0.0000001
 43
0.0000001
 44
0.0000000001
 40
0.0
 40
0.0
 40
0.0
 40
0.0
 40
0.0025762519677531
 40
0.0051441895429574
 40
0.0077038567323873
 40
0.0077038567323873
 40
0.0077038567323873
 40
0.0077038567323873
 10
-19.92366902166666
 20
-35.74434620731057
 30
0.0
 10
-19.92432750001976
 20
-35.74379497228694
 30
0.0
 10
-19.92564233160483
 20
-35.74269428125214
 30
0.0
 10
-19.92761880108377
 20
-35.74105476641304
 30
0.0
 10
-19.92893921146407
 20
-35.73996945959807
 30
0.0
 10
-19.9295983518
 20
-35.7394276814439
 30
0.0
 11
-19.92366902166666
 21
-35.74434620731057
 31
0.0
 11
-19.9256456958
 21
-35.74269398651057
 31
0.0
 11
-19.9276221502
 21
-35.74105449531058
 31
0.0
 11
-19.9295983518
 21
-35.7394276814439
 31
0.0
  0
SPLINE
  5
D4
100
AcDbEntity
  8
0
  6
CONTINUOUS
100
AcDbSpline
210
0.0
220
0.0
230
1.0
 70
     8
 71
     3
 72
     9
 73
     5
 74
     3
 42
0.0000001
 43
0.0000001
 44
0.0000000001
 40
0.0
 40
0.0
 40
0.0
 40
0.0
 40
0.1102531378145656
 40
0.4373726256258485
 40
0.4373726256258485
 40
0.4373726256258485
 40
0.4373726256258485
 10
-19.5060978622
 20
-35.6303838158439
 30
0.0
 10
-19.54137567709564
 20
-35.64069769758361
 30
0.0
 10
-19.68132226576509
 20
-35.6816127193808
 30
0.0
 10
-19.82335374952849
 20
-35.71473229978729
 30
0.0
 10
-19.92958185686666
 20
-35.73950307771057
 30
0.0
 11
-19.5060978622
 21
-35.6303838158439
 31
0.0
 11
-19.61206379073333
 21
-35.66083010277724
 31
0.0
 11
-19.92958185686666
 21
-35.73950307771057
 31
0.0
  0
SPLINE
  5
D5
100
AcDbEntity
  8
0
  6
CONTINUOUS
100
AcDbSpline
210
0.0
220
0.0
230
1.0
 70
     8
 71
     3
 72
    14
 73
    10
 74
     8
 42
0.0000001
 43
0.0000001
 44
0.0000000001
 40
0.0
 40
0.0
 40
0.0
 40
0.0
 40
0.0761186387167835
 40
0.1470509068244617
 40
0.2131224652534713
 40
0.2746549498872563
 40
0.3318397447717087
 40
0.3846472296940726
 40
0.432898014320493
 40
0.432898014320493
 40
0.432898014320493
 40
0.432898014320493
 10
-19.92366902166666
 20
-35.74434620731057
 30
0.0
 10
-19.89903359975482
 20
-35.73827258805124
 30
0.0
 10
-19.85144129919333
 20
-35.72653917774795
 30
0.0
 10
-19.78266946790389
 20
-35.70872224946159
 30
0.0
 10
-19.71873904942971
 20
-35.69161661815956
 30
0.0
 10
-19.65936680538575
 20
-35.67521153248502
 30
0.0
 10
-19.60437281022808
 20
-35.65956943652352
 30
0.0
 10
-19.55373104336428
 20
-35.64481169736986
 30
0.0
 10
-19.52146672377096
 20
-35.63512803843762
 30
0.0
 10
-19.50606196033332
 20
-35.63050452624391
 30
0.0
 11
-19.92366902166666
 21
-35.74434620731057
 31
0.0
 11
-19.84980050859999
 21
-35.72597530811057
 31
0.0
 11
-19.78112588779999
 21
-35.70822191077724
 31
0.0
 11
-19.71730174913333
 21
-35.6911359470439
 31
0.0
 11
-19.65799156993332
 21
-35.67474847291058
 31
0.0
 11
-19.60298700033332
 21
-35.65910884091057
 31
0.0
 11
-19.55229377473333
 21
-35.6443160270439
 31
0.0
 11
-19.50606196033332
 21
-35.63050452624391
 31
0.0
  0
SPLINE
  5
D6
100
AcDbEntity
  8
0
  6
CONTINUOUS
100
AcDbSpline
210
0.0
220
0.0
230
1.0
 70
     8
 71
     3
 72
    10
 73
     6
 74
     4
 42
0.0000001
 43
0.0000001
 44
0.0000000001
 40
0.0
 40
0.0
 40
0.0
 40
0.0
 40
0.2835458628696462
 40
0.5674645426313827
 40
0.8512647889569098
 40
0.8512647889569098
 40
0.8512647889569098
 40
0.8512647889569098
 10
-21.39103445633332
 20
-35.87318144891057
 30
0.0
 10
-21.48546088348271
 20
-35.86883236843916
 30
0.0
 10
-21.67443789324172
 20
-35.86012848915983
 30
0.0
 10
-21.95690861224695
 20
-35.83103245370003
 30
0.0
 10
-22.14377784407592
 20
-35.80103244900093
 30
0.0
 10
-22.23719296833333
 20
-35.78603557584391
 30
0.0
 11
-21.39103445633332
 21
-35.87318144891057
 31
0.0
 11
-21.67414440193333
 21
-35.85746473637724
 31
0.0
 11
-21.95656926486666
 21
-35.82837842491057
 31
0.0
 11
-22.23719296833333
 21
-35.78603557584391
 31
0.0
  0
SPLINE
  5
D7
100
AcDbEntity
  8
0
  6
CONTINUOUS
100
AcDbSpline
210
0.0
220
0.0
230
1.0
 70
     8
 71
     3
 72
    10
 73
     6
 74
     4
 42
0.0000001
 43
0.0000001
 44
0.0000000001
 40
0.0
 40
0.0
 40
0.0
 40
0.0
 40
0.2878012520996056
 40
0.5755081770010643
 40
0.8625798489173297
 40
0.8625798489173297
 40
0.8625798489173297
 40
0.8625798489173297
 10
-22.25067837846666
 20
-35.95579847291057
 30
0.0
 10
-22.15483543209506
 20
-35.96011969644809
 30
0.0
 10
-21.96318095199001
 20
-35.96876072723704
 30
0.0
 10
-21.67553239328805
 20
-35.96937120129342
 30
0.0
 10
-21.4840855868843
 20
-35.96156541014997
 30
0.0
 10
-21.38846797846666
 20
-35.95766682811057
 30
0.0
 11
-22.25067837846666
 21
-35.95579847291057
 31
0.0
 11
-21.96308378326666
 21
-35.96670303717724
 31
0.0
 11
-21.67537750699999
 21
-35.96731396517724
 31
0.0
 11
-21.38846797846666
 21
-35.95766682811057
 31
0.0
  0
SPLINE
  5
D8
100
AcDbEntity
  8
0
  6
CONTINUOUS
100
AcDbSpline
210
0.1871440722515399
220
0.9823324774337406
230
0.0
 70
    24
 71
     3
 72
     8
 73
     4
 74
     2
 42
0.0000001
 43
0.0000001
 44
0.0000000001
 40
0.0
 40
0.0
 40
0.0
 40
0.0
 40
0.1998398863687275
 40
0.1998398863687275
 40
0.1998398863687275
 40
0.1998398863687275
 10
-22.23716414059999
 20
-35.7858690798439
 30
0.0
 10
-22.30260054415555
 20
-35.77340279646612
 30
0.0
 10
-22.3680369477111
 20
-35.76093651308835
 30
0.0
 10
-22.43347335126666
 20
-35.74847022971058
 30
0.0
 11
-22.23716414059999
 21
-35.7858690798439
 31
0.0
 11
-22.43347335126666
 21
-35.74847022971058
 31
0.0
  0
SPLINE
  5
D9
100
AcDbEntity
  8
0
  6
HIDDEN
 62
     9
 48
0.5
100
AcDbSpline
210
0.0
220
0.0
230
-1.0
 70
     8
 71
     3
 72
    10
 73
     6
 74
     4
 42
0.0000001
 43
0.0000001
 44
0.0000000001
 40
0.0
 40
0.0
 40
0.0
 40
0.0
 40
0.132129522673272
 40
0.2649676143193965
 40
0.3993665011009405
 40
0.3993665011009405
 40
0.3993665011009405
 40
0.3993665011009405
 10
-21.74324921793332
 20
-36.47883955771057
 30
0.0
 10
-21.70546284222123
 20
-36.45615143205542
 30
0.0
 10
-21.62968745437724
 20
-36.41065351148025
 30
0.0
 10
-21.5066031629253
 20
-36.35837995280382
 30
0.0
 10
-21.42046331668169
 20
-36.33542107409335
 30
0.0
 10
-21.37714184406667
 20
-36.32387458917723
 30
0.0
 11
-21.74324921793332
 21
-36.47883955771057
 31
0.0
 11
-21.62842612139999
 21
-36.41346473637724
 31
0.0
 11
-21.5061507678
 21
-36.3615542702439
 31
0.0
 11
-21.37714184406667
 21
-36.32387458917723
 31
0.0
  0
SPLINE
  5
DA
100
AcDbEntity
  8
0
  6
CONTINUOUS
100
AcDbSpline
210
0.0
220
0.0
230
1.0
 70
     8
 71
     3
 72
    11
 73
     7
 74
     5
 42
0.0000001
 43
0.0000001
 44
0.0000000001
 40
0.0
 40
0.0
 40
0.0
 40
0.0
 40
0.3257096271525981
 40
0.6774375646041367
 40
1.058157825858015
 40
1.471015576188214
 40
1.471015576188214
 40
1.471015576188214
 40
1.471015576188214
 10
-19.9295983518
 20
-35.7394276814439
 30
0.0
 10
-20.03605741554572
 20
-35.76089424670318
 30
0.0
 10
-20.25747969742425
 20
-35.80554216766513
 30
0.0
 10
-20.60765635034968
 20
-35.84984748059202
 30
0.0
 10
-20.98873974574034
 20
-35.87801833410441
 30
0.0
 10
-21.25336406025553
 20
-35.87483669289684
 30
0.0
 10
-21.39103445633332
 20
-35.87318144891057
 30
0.0
 11
-19.9295983518
 21
-35.7394276814439
 31
0.0
 11
-20.24961412353333
 21
-35.8000632078439
 31
0.0
 11
-20.59836670273333
 21
-35.8457160334439
 31
0.0
 11
-20.97817838806666
 21
-35.87200293157724
 31
0.0
 11
-21.39103445633332
 21
-35.87318144891057
 31
0.0
  0
SPLINE
  5
DB
100
AcDbEntity
  8
0
  6
CONTINUOUS
100
AcDbSpline
210
0.0
220
0.0
230
1.0
 70
     8
 71
     3
 72
    10
 73
     6
 74
     4
 42
0.0000001
 43
0.0000001
 44
0.0000000001
 40
0.0
 40
0.0
 40
0.0
 40
0.0
 40
0.5357357937523463
 40
1.028518019773775
 40
1.482154100728688
 40
1.482154100728688
 40
1.482154100728688
 40
1.482154100728688
 10
-21.38846797846666
 20
-35.95766682811057
 30
0.0
 10
-21.21029996412073
 20
-35.94489171818652
 30
0.0
 10
-20.8682488720729
 20
-35.92036576544133
 30
0.0
 10
-20.37910490422956
 20
-35.84653052857492
 30
0.0
 10
-20.07123625239215
 20
-35.77745527466751
 30
0.0
 10
-19.92366902166666
 20
-35.74434620731057
 30
0.0
 11
-21.38846797846666
 21
-35.95766682811057
 31
0.0
 11
-20.85467401793333
 21
-35.91209437584391
 31
0.0
 11
-20.36739780353332
 21
-35.83863545424391
 31
0.0
 11
-19.92366902166666
 21
-35.74434620731057
 31
0.0
  0
SPLINE
  5
DC
100
AcDbEntity
  8
0
  6
CONTINUOUS
100
AcDbSpline
210
0.0
220
0.0
230
1.0
 70
     8
 71
     3
 72
     9
 73
     5
 74
     3
 42
0.0000001
 43
0.0000001
 44
0.0000000001
 40
0.0
 40
0.0
 40
0.0
 40
0.0
 40
0.1291473635093192
 40
0.5161884081673323
 40
0.5161884081673323
 40
0.5161884081673323
 40
0.5161884081673323
 10
-25.46007508353333
 20
-35.09109908731057
 30
0.0
 10
-25.4216221879166
 20
-35.11046077975602
 30
0.0
 10
-25.26793001458475
 20
-35.18784742499033
 30
0.0
 10
-25.11063125215143
 20
-35.25769517162546
 30
0.0
 10
-24.99268773313333
 20
-35.31006741477724
 30
0.0
 11
-25.46007508353333
 21
-35.09109908731057
 31
0.0
 11
-25.34449063446666
 21
-35.1487122510439
 31
0.0
 11
-24.99268773313333
 21
-35.31006741477724
 31
0.0
  0
LINE
  5
DD
100
AcDbEntity
  8
0
  6
HIDDEN
 62
     9
 48
0.5
100
AcDbLine
 10
-14.369804
 20
-35.545834
 30
0.0
 11
-14.707182
 21
-35.090073
 31
0.0
  0
LWPOLYLINE
  5
DE
100
AcDbEntity
  8
0
  6
HIDDEN
 62
     9
 48
0.5
100
AcDbPolyline
 90
        6
 70
     0
 43
0.0
 10
-15.38182
 20
-35.544532
 10
-15.400508
 20
-35.499331
 10
-15.428143
 20
-35.459055
 10
-15.463515
 20
-35.425464
 10
-15.505079
 20
-35.400026
 10
-15.550542
 20
-35.383966
  0
LWPOLYLINE
  5
DF
100
AcDbEntity
  8
0
  6
HIDDEN
 62
     9
 48
0.5
100
AcDbPolyline
 90
       11
 70
     0
 43
0.0
 10
-15.550542
 20
-35.383966
 10
-15.599326
 20
-35.37765
 10
-15.64789
 20
-35.381691
 10
-15.694588
 20
-35.395798
 10
-15.737379
 20
-35.419354
 10
-15.774392
 20
-35.45133
 10
-15.804011
 20
-35.490328
 10
-15.824941
 20
-35.534645
 10
-15.836266
 20
-35.582342
 10
-15.837493
 20
-35.631337
 10
-15.828567
 20
-35.679486
  0
SPLINE
  5
E0
100
AcDbEntity
  8
0
  6
HIDDEN
 62
     9
 48
0.5
100
AcDbSpline
210
0.0
220
0.0
230
-1.0
 70
     8
 71
     3
 72
    15
 73
    11
 74
     9
 42
0.0000001
 43
0.0000001
 44
0.0000000001
 40
0.0
 40
0.0
 40
0.0
 40
0.0
 40
0.0419978385799513
 40
0.0838861979434241
 40
0.1256341849995326
 40
0.1672576802979216
 40
0.2087904692995731
 40
0.2502624429740385
 40
0.2917055194479491
 40
0.3330395347630461
 40
0.3330395347630461
 40
0.3330395347630461
 40
0.3330395347630461
 10
-15.97926028566667
 20
-35.20356761317724
 30
0.0
 10
-15.99094899968956
 20
-35.21132612655231
 30
0.0
 10
-16.01429595780414
 20
-35.22682292854817
 30
0.0
 10
-16.0440013283066
 20
-35.25672596090204
 30
0.0
 10
-16.06876029037614
 20
-35.29052491349414
 30
0.0
 10
-16.08759452410515
 20
-35.32787358406319
 30
0.0
 10
-16.10010149332921
 20
-35.36769963872692
 30
0.0
 10
-16.10569310417228
 20
-35.40895677244502
 30
0.0
 10
-16.10476370023263
 20
-35.45066574299486
 30
0.0
 10
-16.09823971921217
 20
-35.47754481682969
 30
0.0
 10
-16.09498202646666
 20
-35.49096664677724
 30
0.0
 11
-15.97926028566667
 21
-35.20356761317724
 31
0.0
 11
-16.01344597846666
 21
-35.22796344997724
 31
0.0
 11
-16.0432208862
 21
-35.25742680891057
 31
0.0
 11
-16.06780504193333
 21
-35.29116867771057
 31
0.0
 11
-16.08655741313333
 21
-35.32832865531057
 31
0.0
 11
-16.09895582059999
 21
-35.36796767717724
 31
0.0
 11
-16.104607219
 21
-35.40905278757723
 31
0.0
 11
-16.1032827934
 21
-35.45047469584391
 31
0.0
 11
-16.09498202646666
 21
-35.49096664677724
 31
0.0
  0
SPLINE
  5
E1
100
AcDbEntity
  8
0
  6
CONTINUOUS
100
AcDbSpline
210
0.0
220
0.0
230
1.0
 70
     8
 71
     3
 72
     9
 73
     5
 74
     3
 42
0.0000001
 43
0.0000001
 44
0.0000000001
 40
0.0
 40
0.0
 40
0.0
 40
0.0
 40
0.328418321727781
 40
1.316691370937401
 40
1.316691370937401
 40
1.316691370937401
 40
1.316691370937401
 10
-19.39377133953333
 20
-35.58966510011058
 30
0.0
 10
-19.28974416220178
 20
-35.55540151417571
 30
0.0
 10
-18.87267946856707
 20
-35.41803229646437
 30
0.0
 10
-18.47516072554026
 20
-35.23019902116326
 30
0.0
 10
-18.17679387286666
 20
-35.08921642811057
 30
0.0
 11
-19.39377133953333
 21
-35.58966510011058
 31
0.0
 11
-19.08290583553333
 21
-35.48373478117724
 31
0.0
 11
-18.17679387286666
 21
-35.08921642811057
 31
0.0
  0
SPLINE
  5
E2
100
AcDbEntity
  8
0
  6
HIDDEN
 62
     9
 48
0.5
100
AcDbSpline
210
0.0
220
0.0
230
-1.0
 70
     8
 71
     3
 72
    16
 73
    12
 74
    10
 42
0.0000001
 43
0.0000001
 44
0.0000000001
 40
0.0
 40
0.0
 40
0.0
 40
0.0
 40
0.3039728088003599
 40
0.6146432899865335
 40
0.9242032386644895
 40
1.237494837260686
 40
1.549159947161546
 40
1.841838924146853
 40
2.118913905411262
 40
2.389582290379725
 40
2.545044287285262
 40
2.545044287285262
 40
2.545044287285262
 40
2.545044287285262
 10
-15.24852129046667
 20
-36.71830051237724
 30
0.0
 10
-15.34920161717374
 20
-36.73467357280204
 30
0.0
 10
-15.55278063954872
 20
-36.76778045419176
 30
0.0
 10
-15.86118119497416
 20
-36.70462432506721
 30
0.0
 10
-16.13985259001838
 20
-36.55778910743238
 30
0.0
 10
-16.36277716656412
 20
-36.33308116486289
 30
0.0
 10
-16.50814451449365
 20
-36.05925970116091
 30
0.0
 10
-16.57128367074865
 20
-35.76868349607604
 30
0.0
 10
-16.55970488153262
 20
-35.48642258399015
 30
0.0
 10
-16.49670775416891
 20
-35.2575963394292
 30
0.0
 10
-16.42960084409253
 20
-35.1321940595866
 30
0.0
 10
-16.40511872619999
 20
-35.08644447291057
 30
0.0
 11
-15.24852129046667
 21
-36.71830051237724
 31
0.0
 11
-15.55093486806667
 21
-36.74904944037724
 31
0.0
 11
-15.856077715
 21
-36.6907057102439
 31
0.0
 11
-16.12951196246666
 21
-36.54558136997723
 31
0.0
 11
-16.35058042753333
 21
-36.3235895694439
 31
0.0
 11
-16.4972039582
 21
-36.04856833211057
 31
0.0
 11
-16.5595601438
 21
-35.76260908731057
 31
0.0
 11
-16.54899148139999
 21
-35.48573574331057
 31
0.0
 11
-16.47471439553332
 21
-35.22545841211057
 31
0.0
 11
-16.40511872619999
 21
-35.08644447291057
 31
0.0
  0
SPLINE
  5
E3
100
AcDbEntity
  8
0
  6
CONTINUOUS
100
AcDbSpline
210
-0.3072871209471291
220
0.9516168479488079
230
0.0
 70
    24
 71
     3
 72
    10
 73
     6
 74
     4
 42
0.0000001
 43
0.0000001
 44
0.0000000001
 40
0.0
 40
0.0
 40
0.0
 40
0.0
 40
0.0030561946866945
 40
0.0061168107413254
 40
0.0091817340453068
 40
0.0091817340453068
 40
0.0091817340453068
 40
0.0091817340453068
 10
-19.3937770878
 20
-35.58964724091057
 30
0.0
 10
-19.39474752956053
 20
-35.58995717370385
 30
0.0
 10
-19.39668981701051
 20
-35.59057748766726
 30
0.0
 10
-19.39960181941732
 20
-35.59151951679787
 30
0.0
 10
-19.40154319343865
 20
-35.59215213321786
 30
0.0
 10
-19.40251456299999
 20
-35.59246866384391
 30
0.0
 11
-19.3937770878
 21
-35.58964724091057
 31
0.0
 11
-19.39668783126666
 21
-35.59057885157724
 31
0.0
 11
-19.39960011606666
 21
-35.5915201102439
 31
0.0
 11
-19.40251456299999
 21
-35.59246866384391
 31
0.0
  0
SPLINE
  5
E4
100
AcDbEntity
  8
0
  6
CONTINUOUS
100
AcDbSpline
210
0.0
220
0.0
230
-1.0
 70
     8
 71
     3
 72
    10
 73
     6
 74
     4
 42
0.0000001
 43
0.0000001
 44
0.0000000001
 40
0.0
 40
0.0
 40
0.0
 40
0.0
 40
0.0084380965320857
 40
0.0169087550531292
 40
0.0254116801057817
 40
0.0254116801057817
 40
0.0254116801057817
 40
0.0254116801057817
 10
-19.40251456299999
 20
-35.59246866384391
 30
0.0
 10
-19.40518680091659
 20
-35.59334641438459
 30
0.0
 10
-19.41054158871779
 20
-35.59510530264022
 30
0.0
 10
-19.4185711781815
 20
-35.59780300450302
 30
0.0
 10
-19.4239221592152
 20
-35.59964107508193
 30
0.0
 10
-19.4266027358
 20
-35.6005618574439
 30
0.0
 11
-19.40251456299999
 21
-35.59246866384391
 31
0.0
 11
-19.41052829953333
 21
-35.5951109166439
 31
0.0
 11
-19.41855791019999
 21
-35.59780858384391
 31
0.0
 11
-19.4266027358
 21
-35.6005618574439
 31
0.0
  0
LWPOLYLINE
  5
E5
100
AcDbEntity
  8
0
  6
HIDDEN
 62
     9
 48
0.5
100
AcDbPolyline
 90
        8
 70
     0
 43
0.0
 10
-15.165922
 20
-36.000753
 10
-15.089099
 20
-35.967741
 10
-15.021453
 20
-35.918382
 10
-14.966377
 20
-35.855152
 10
-14.926632
 20
-35.781222
 10
-14.904211
 20
-35.700298
 10
-14.900239
 20
-35.616438
 10
-14.914914
 20
-35.533847
  0
SPLINE
  5
E6
100
AcDbEntity
  8
0
  6
HIDDEN
 62
     9
 48
0.5
100
AcDbSpline
210
0.0
220
0.0
230
1.0
 70
     8
 71
     3
 72
    15
 73
    11
 74
     9
 42
0.0000001
 43
0.0000001
 44
0.0000000001
 40
0.0
 40
0.0
 40
0.0
 40
0.0
 40
0.041418927426565
 40
0.0829319515060594
 40
0.1244020359669602
 40
0.1657920363650531
 40
0.2071117386781606
 40
0.2484606633373167
 40
0.289962317569874
 40
0.3316682315894576
 40
0.3316682315894576
 40
0.3316682315894576
 40
0.3316682315894576
 10
-15.94888694593334
 20
-35.9848324366439
 30
0.0
 10
-15.94430763251309
 20
-35.99789317429873
 30
0.0
 10
-15.93513860226304
 20
-36.02404432134966
 30
0.0
 10
-15.91314404175922
 20
-36.05956133063688
 30
0.0
 10
-15.88591007127918
 20
-36.09102628130544
 30
0.0
 10
-15.85371135736032
 20
-36.11736399124477
 30
0.0
 10
-15.81767326364648
 20
-36.13804261954325
 30
0.0
 10
-15.77871874455928
 20
-36.15245486255524
 30
0.0
 10
-15.73779061212194
 20
-36.16090022916049
 30
0.0
 10
-15.70999483078559
 20
-36.16090001494693
 30
0.0
 10
-15.69606282326666
 20
-36.16089990757724
 30
0.0
 11
-15.94888694593334
 21
-35.9848324366439
 31
0.0
 11
-15.93377873899999
 21
-36.02339757157724
 31
0.0
 11
-15.91226074326667
 21
-36.05889837477724
 31
0.0
 11
-15.88505566593333
 21
-36.09019776251057
 31
0.0
 11
-15.85304686913333
 21
-36.11643836197724
 31
0.0
 11
-15.81720207446666
 21
-36.13699240037723
 31
0.0
 11
-15.778459747
 21
-36.15144112464391
 31
0.0
 11
-15.73774465473333
 21
-36.1594828014439
 31
0.0
 11
-15.69606282326666
 21
-36.16089990757724
 31
0.0
  0
LWPOLYLINE
  5
E7
100
AcDbEntity
  8
0
  6
HIDDEN
 62
     9
 48
0.5
100
AcDbPolyline
 90
        6
 70
     0
 43
0.0
 10
-15.828567
 20
-35.679486
 10
-15.809878
 20
-35.724687
 10
-15.782244
 20
-35.764963
 10
-15.746871
 20
-35.798554
 10
-15.705307
 20
-35.823992
 10
-15.659844
 20
-35.840052
  0
LWPOLYLINE
  5
E8
100
AcDbEntity
  8
0
  6
HIDDEN
 62
     9
 48
0.5
100
AcDbPolyline
 90
       11
 70
     0
 43
0.0
 10
-15.659844
 20
-35.840052
 10
-15.61106
 20
-35.846367
 10
-15.562496
 20
-35.842327
 10
-15.515798
 20
-35.82822
 10
-15.473008
 20
-35.804664
 10
-15.435994
 20
-35.772688
 10
-15.406375
 20
-35.73369
 10
-15.385446
 20
-35.689373
 10
-15.37412
 20
-35.641675
 10
-15.372894
 20
-35.592681
 10
-15.38182
 20
-35.544532
  0
LINE
  5
E9
100
AcDbEntity
  8
0
  6
HIDDEN
 62
     9
 48
0.5
100
AcDbLine
 10
-15.165922
 20
-36.000753
 30
0.0
 11
-15.696063
 21
-36.1609
 31
0.0
  0
SPLINE
  5
EA
100
AcDbEntity
  8
0
  6
HIDDEN
 62
     9
 48
0.5
100
AcDbSpline
210
0.0
220
0.0
230
1.0
 70
     8
 71
     3
 72
    12
 73
     8
 74
     6
 42
0.0000001
 43
0.0000001
 44
0.0000000001
 40
0.0
 40
0.0
 40
0.0
 40
0.0
 40
0.3084223342816048
 40
0.6227317277611708
 40
0.9419932337422856
 40
1.263619219185622
 40
1.58346528066482
 40
1.58346528066482
 40
1.58346528066482
 40
1.58346528066482
 10
-14.3698041918
 20
-35.54583448891057
 30
0.0
 10
-14.37217810938074
 20
-35.64926867447656
 30
0.0
 10
-14.37697125706266
 20
-35.85811136168696
 30
0.0
 10
-14.49494654394064
 20
-36.15613124501008
 30
0.0
 10
-14.68655148648936
 20
-36.41332941622648
 30
0.0
 10
-14.94285970261483
 20
-36.61585898816319
 30
0.0
 10
-15.14682260803216
 20
-36.68421720896459
 30
0.0
 10
-15.2485210878
 20
-36.71830148091057
 30
0.0
 11
-14.3698041918
 21
-35.54583448891057
 31
0.0
 11
-14.39488104086666
 21
-35.85323567291057
 31
0.0
 11
-14.50607570859999
 21
-36.14721890491057
 31
0.0
 11
-14.696604451
 21
-36.40339600677723
 31
0.0
 11
-14.95158729366666
 21
-36.59942412837724
 31
0.0
 11
-15.2485210878
 21
-36.71830148091057
 31
0.0
  0
LWPOLYLINE
  5
EB
100
AcDbEntity
  8
0
  6
HIDDEN
 62
     9
 48
0.5
100
AcDbPolyline
 90
        4
 70
     0
 43
0.0
 10
-15.255572
 20
-35.037754
 10
-15.283616
 20
-35.032154
 10
-15.366971
 20
-35.02841
 10
-15.44912
 20
-35.043421
  0
LINE
  5
EC
100
AcDbEntity
  8
0
  6
HIDDEN
 62
     9
 48
0.5
100
AcDbLine
 10
-15.323866
 20
-35.021368
 30
0.0
 11
-15.25552
 21
-35.037748
 31
0.0
  0
LWPOLYLINE
  5
ED
100
AcDbEntity
  8
0
  6
HIDDEN
 62
     9
 48
0.5
100
AcDbPolyline
 90
        6
 70
     0
 43
0.0
 10
-14.985714
 20
-35.294514
 10
-15.018301
 20
-35.217335
 10
-15.067166
 20
-35.149436
 10
-15.129859
 20
-35.094223
 10
-15.203235
 20
-35.054465
 10
-15.255572
 20
-35.037754
  0
LINE
  5
EE
100
AcDbEntity
  8
0
  6
HIDDEN
 62
     9
 48
0.5
100
AcDbLine
 10
-15.44912
 20
-35.043421
 30
0.0
 11
-15.97926
 21
-35.203568
 31
0.0
  0
LINE
  5
EF
100
AcDbEntity
  8
0
  6
CONTINUOUS
100
AcDbLine
 10
8.936296
 20
-35.088509
 30
0.0
 11
8.936296
 21
-32.715073
 31
0.0
  0
SPLINE
  5
F0
100
AcDbEntity
  8
0
  6
CONTINUOUS
100
AcDbSpline
210
0.0
220
0.0
230
-1.0
 70
     8
 71
     3
 72
    12
 73
     8
 74
     6
 42
0.0000001
 43
0.0000001
 44
0.0000000001
 40
0.0
 40
0.0
 40
0.0
 40
0.0
 40
0.3436959208772763
 40
0.6635794230882226
 40
0.9390763733917415
 40
1.149390207132416
 40
1.282507709346552
 40
1.282507709346552
 40
1.282507709346552
 40
1.282507709346552
 10
6.655379249266671
 20
-37.08850869371057
 30
0.0
 10
6.671508490835558
 20
-36.97508415496966
 30
0.0
 10
6.702649485432796
 20
-36.7560935140868
 30
0.0
 10
6.748872983514329
 20
-36.44649735713265
 30
0.0
 10
6.789736236898702
 20
-36.18105901163245
 30
0.0
 10
6.821916868068837
 20
-35.97727424074493
 30
0.0
 10
6.840153575144791
 20
-35.86425902213965
 30
0.0
 10
6.84722230953332
 20
-35.82045316624391
 30
0.0
 11
6.655379249266671
 21
-37.08850869371057
 31
0.0
 11
6.704175248199986
 21
-36.7482942958439
 31
0.0
 11
6.751314862066662
 21
-36.43190322171057
 31
0.0
 11
6.793241557533319
 21
-36.15961528251057
 31
0.0
 11
6.826073242866668
 21
-35.95187990011057
 31
0.0
 11
6.84722230953332
 21
-35.82045316624391
 31
0.0
  0
LINE
  5
F1
100
AcDbEntity
  8
0
  6
CENTER
 62
     1
 48
0.5
100
AcDbLine
 10
3.117188
 20
-37.088509
 30
0.0
 11
9.869582
 21
-37.088509
 31
0.0
  0
SPLINE
  5
F2
100
AcDbEntity
  8
0
  6
CONTINUOUS
100
AcDbSpline
210
0.0
220
0.0
230
-1.0
 70
     8
 71
     3
 72
    13
 73
     9
 74
     7
 42
0.0000001
 43
0.0000001
 44
0.0000000001
 40
0.0
 40
0.0
 40
0.0
 40
0.0
 40
0.1085031562961896
 40
0.2448521325313421
 40
0.4136819621109125
 40
0.6191331286060232
 40
0.8722266170192366
 40
1.177574494096851
 40
1.177574494096851
 40
1.177574494096851
 40
1.177574494096851
 10
6.502834299933338
 20
-38.25614287931057
 30
0.0
 10
6.507188795527085
 20
-38.220238242239
 30
0.0
 10
6.517015307203088
 20
-38.1392145443593
 30
0.0
 10
6.533961951631156
 20
-38.00236570152879
 30
0.0
 10
6.555279678240481
 20
-37.83349571339901
 30
0.0
 10
6.582138888482582
 20
-37.6261026288436
 30
0.0
 10
6.615713940076693
 20
-37.3736938314381
 30
0.0
 10
6.641357636866436
 20
-37.18932110498841
 30
0.0
 10
6.655379249266671
 20
-37.08850869371057
 30
0.0
 11
6.502834299933338
 21
-38.25614287931057
 31
0.0
 11
6.515937836999993
 21
-38.14843386277724
 31
0.0
 11
6.532679029533339
 21
-38.01311654757724
 31
0.0
 11
6.553831858333323
 21
-37.84561708731057
 31
0.0
 11
6.580204207133332
 21
-37.6418655694439
 31
0.0
 11
6.61364291219999
 21
-37.39099076624391
 31
0.0
 11
6.655379249266671
 21
-37.08850869371057
 31
0.0
  0
SPLINE
  5
F3
100
AcDbEntity
  8
0
  6
CONTINUOUS
100
AcDbSpline
210
0.0
220
0.0
230
-1.0
 70
     8
 71
     3
 72
     9
 73
     5
 74
     3
 42
0.0000001
 43
0.0000001
 44
0.0000000001
 40
0.0
 40
0.0
 40
0.0
 40
0.0
 40
0.0164275897661125
 40
0.0655709492372499
 40
0.0655709492372499
 40
0.0655709492372499
 40
0.0655709492372499
 10
6.485520844999994
 20
-38.40100869371057
 30
0.0
 10
6.486164436347945
 20
-38.39557078328221
 30
0.0
 10
6.488733340015914
 20
-38.37386528943127
 30
0.0
 10
6.491320008429671
 20
-38.35216190423193
 30
0.0
 10
6.493258634866661
 20
-38.33589590117723
 30
0.0
 11
6.485520844999994
 21
-38.40100869371057
 31
0.0
 11
6.487452734066662
 21
-38.38469509477723
 31
0.0
 11
6.493258634866661
 21
-38.33589590117723
 31
0.0
  0
SPLINE
  5
F4
100
AcDbEntity
  8
0
  6
CONTINUOUS
100
AcDbSpline
210
-0.9928690274014822
220
0.1192102949700014
230
0.0
 70
    24
 71
     3
 72
     8
 73
     4
 74
     2
 42
0.0000001
 43
0.0000001
 44
0.0000000001
 40
0.0
 40
0.0
 40
0.0
 40
0.0
 40
0.0803258231102175
 40
0.0803258231102175
 40
0.0803258231102175
 40
0.0803258231102175
 10
6.493258634866661
 20
-38.33589590117723
 30
0.0
 10
6.49645052322222
 20
-38.30931156055502
 30
0.0
 10
6.499642411577779
 20
-38.28272721993279
 30
0.0
 10
6.502834299933338
 20
-38.25614287931057
 30
0.0
 11
6.493258634866661
 21
-38.33589590117723
 31
0.0
 11
6.502834299933338
 21
-38.25614287931057
 31
0.0
  0
LINE
  5
F5
100
AcDbEntity
  8
0
  6
CONTINUOUS
100
AcDbLine
 10
6.950842
 20
-35.090073
 30
0.0
 11
6.854441
 21
-35.776009
 31
0.0
  0
SPLINE
  5
F6
100
AcDbEntity
  8
0
  6
CONTINUOUS
100
AcDbSpline
210
-0.9870667963609454
220
0.1603095116383932
230
0.0
 70
    24
 71
     3
 72
     8
 73
     4
 74
     2
 42
0.0000001
 43
0.0000001
 44
0.0000000001
 40
0.0
 40
0.0
 40
0.0
 40
0.0
 40
0.0450268113200211
 40
0.0450268113200211
 40
0.0450268113200211
 40
0.0450268113200211
 10
6.84722230953332
 20
-35.82045316624391
 30
0.0
 10
6.849628384911103
 20
-35.80563834277724
 30
0.0
 10
6.852034460288884
 20
-35.79082351931057
 30
0.0
 10
6.854440535666666
 20
-35.7760086958439
 30
0.0
 11
6.84722230953332
 21
-35.82045316624391
 31
0.0
 11
6.854440535666666
 21
-35.7760086958439
 31
0.0
  0
LINE
  5
FD
100
AcDbEntity
  8
0
  6
CONTINUOUS
100
AcDbLine
 10
8.846925
 20
-32.715073
 30
0.0
 11
8.741977
 21
-33.377621
 31
0.0
  0
ARC
  5
FE
100
AcDbEntity
  8
0
  6
CONTINUOUS
100
AcDbCircle
 10
8.495056
 20
-33.338509
 30
0.0
 40
0.25
100
AcDbArc
 50
270.0
 51
350.99913
  0
ARC
  5
FF
100
AcDbEntity
  8
0
  6
CONTINUOUS
100
AcDbCircle
 10
8.689374
 20
-33.838509
 30
0.0
 40
0.25
100
AcDbArc
 50
9.00087
 51
90.0
  0
LINE
  5
108
100
AcDbEntity
  8
0
100
AcDbLine
 10
8.936296
 20
-35.088509
 30
0.0
 11
-51.063704
 21
-35.088509
 31
0.0
  0
ENDSEC
  0
SECTION
  2
OBJECTS
  0
DICTIONARY
  5
24
102
{ACAD_XDICTIONARY
360
25
102
}
100
AcDbDictionary
  3
ACAD_GROUP
350
22
  3
ACAD_MLINESTYLE
350
23
  0
DICTIONARY
  5
F
100
AcDbDictionary
280
     1
  3
ACAD_LAYERFILTERS
360
10
  0
DICTIONARY
  5
28
100
AcDbDictionary
280
     1
  3
ACAD_XREC_ROUNDTRIP
360
29
  0
DICTIONARY
  5
2C
100
AcDbDictionary
280
     1
  3
ACAD_XREC_ROUNDTRIP
360
2D
  0
DICTIONARY
  5
3
100
AcDbDictionary
280
     1
  3
ACAD_LAYOUTSELFREF
360
4
  0
DICTIONARY
  5
A
100
AcDbDictionary
280
     1
  3
ACAD_LAYOUTSELFREF
360
B
  0
DICTIONARY
  5
25
100
AcDbDictionary
280
     1
  3
ACAD_XREC_ROUNDTRIP
360
26
  0
DICTIONARY
  5
22
102
{ACAD_REACTORS
330
24
102
}
100
AcDbDictionary
  0
DICTIONARY
  5
23
102
{ACAD_REACTORS
330
24
102
}
100
AcDbDictionary
  3
STANDARD
350
2A
  0
DICTIONARY
  5
10
102
{ACAD_XDICTIONARY
360
11
102
}
102
{ACAD_REACTORS
330
F
102
}
100
AcDbDictionary
280
     1
  3
DIM-1_12
360
13
  3
DIM-1_16
360
14
  0
XRECORD
  5
29
102
{ACAD_REACTORS
330
28
102
}
100
AcDbXrecord
102
EXTNAMES
  1
ROMANS
  2
romans
  0
XRECORD
  5
2D
102
{ACAD_REACTORS
330
2C
102
}
100
AcDbXrecord
102
EXTNAMES
  1
DIM-1_16
  2
dim-1_16
102
ACADR14ROUNDTRIP
1000
DSTYLE
1002
{
1070
    79
 70
     1
1070
   276
 70
     1
1070
   277
 70
     5
1070
   289
 70
     1
1002
}
  0
XRECORD
  5
4
102
{ACAD_REACTORS
330
3
102
}
100
AcDbXrecord
340
2
  0
XRECORD
  5
B
102
{ACAD_REACTORS
330
A
102
}
100
AcDbXrecord
340
9
  0
XRECORD
  5
26
102
{ACAD_REACTORS
330
25
102
}
100
AcDbXrecord
102
EXTNAMES
  1
ACDBVARIABLEDICTIONARY
  2
AcDbVariableDictionary
  0
MLINESTYLE
  5
2A
102
{ACAD_REACTORS
330
23
102
}
100
AcDbMlineStyle
  2
STANDARD
 70
     0
  3

 62
     0
 51
90.0
 52
90.0
 71
     2
 49
0.5
 62
   256
  6
BYLAYER
 49
-0.5
 62
   256
  6
BYLAYER
  0
DICTIONARY
  5
11
100
AcDbDictionary
280
     1
  3
ACAD_XREC_ROUNDTRIP
360
12
  0
XRECORD
  5
13
102
{ACAD_REACTORS
330
10
102
}
100
AcDbXrecord
  1
DIM-1_12
  1
DIM-1_12
  1
*
  1
*
 70
     0
  1
*
  1
*
  0
XRECORD
  5
14
102
{ACAD_REACTORS
330
10
102
}
100
AcDbXrecord
  1
dim-1_16
  1
*
  1
*
  1
*
 70
     0
  1
*
  1
*
  0
XRECORD
  5
12
102
{ACAD_REACTORS
330
11
102
}
100
AcDbXrecord
102
EXTNAMES
  1
DIM-1_16
  2
dim-1_16
  0
ENDSEC
  0
EOF
