  0
SECTION
  2
HEADER
  9
$ACADVER
  1
AC1014
  9
$ACADMAINTVER
 70
     0
  9
$DWGCODEPAGE
  3
ANSI_1252
  9
$INSBASE
 10
18.563824
 20
36.316079
 30
0.0
  9
$EXTMIN
 10
-45.189262
 20
19.876772
 30
-0.001526
  9
$EXTMAX
 10
27.010207
 20
52.755189
 30
0.0
  9
$LIMMIN
 10
0.0
 20
0.0
  9
$LIMMAX
 10
17.0
 20
11.0
  9
$ORTHOMODE
 70
     1
  9
$REGENMODE
 70
     1
  9
$FILLMODE
 70
     1
  9
$QTEXTMODE
 70
     0
  9
$MIRRTEXT
 70
     1
  9
$DRAGMODE
 70
     2
  9
$LTSCALE
 40
2.0
  9
$OSMODE
 70
    36
  9
$ATTMODE
 70
     1
  9
$TEXTSIZE
 40
0.0
  9
$TRACEWID
 40
0.05
  9
$TEXTSTYLE
  7
STANDARD
  9
$CLAYER
  8
0
  9
$CELTYPE
  6
BYLAYER
  9
$CECOLOR
 62
   256
  9
$CELTSCALE
 40
1.0
  9
$DELOBJ
 70
     1
  9
$DISPSILH
 70
     0
  9
$DIMSCALE
 40
40.0
  9
$DIMASZ
 40
0.1
  9
$DIMEXO
 40
0.0625
  9
$DIMDLI
 40
0.25
  9
$DIMRND
 40
0.0
  9
$DIMDLE
 40
0.0
  9
$DIMEXE
 40
0.1
  9
$DIMTP
 40
0.1
  9
$DIMTM
 40
0.1
  9
$DIMTXT
 40
0.1
  9
$DIMCEN
 40
0.09
  9
$DIMTSZ
 40
0.0
  9
$DIMTOL
 70
     0
  9
$DIMLIM
 70
     0
  9
$DIMTIH
 70
     1
  9
$DIMTOH
 70
     1
  9
$DIMSE1
 70
     0
  9
$DIMSE2
 70
     0
  9
$DIMTAD
 70
     0
  9
$DIMZIN
 70
     4
  9
$DIMBLK
  1

  9
$DIMASO
 70
     1
  9
$DIMSHO
 70
     1
  9
$DIMPOST
  1

  9
$DIMAPOST
  1
cm
  9
$DIMALT
 70
     1
  9
$DIMALTD
 70
     2
  9
$DIMALTF
 40
2.54
  9
$DIMLFAC
 40
1.0
  9
$DIMTOFL
 70
     0
  9
$DIMTVP
 40
0.0
  9
$DIMTIX
 70
     0
  9
$DIMSOXD
 70
     0
  9
$DIMSAH
 70
     0
  9
$DIMBLK1
  1

  9
$DIMBLK2
  1

  9
$DIMSTYLE
  2
STANDARD
  9
$DIMCLRD
 70
     0
  9
$DIMCLRE
 70
     0
  9
$DIMCLRT
 70
     0
  9
$DIMTFAC
 40
1.0
  9
$DIMGAP
 40
0.08
  9
$DIMJUST
 70
     0
  9
$DIMSD1
 70
     0
  9
$DIMSD2
 70
     0
  9
$DIMTOLJ
 70
     1
  9
$DIMTZIN
 70
     0
  9
$DIMALTZ
 70
     0
  9
$DIMALTTZ
 70
     0
  9
$DIMFIT
 70
     0
  9
$DIMUPT
 70
     0
  9
$DIMUNIT
 70
     5
  9
$DIMDEC
 70
     4
  9
$DIMTDEC
 70
     4
  9
$DIMALTU
 70
     2
  9
$DIMALTTD
 70
     2
  9
$DIMTXSTY
  7
STANDARD
  9
$DIMAUNIT
 70
     0
  9
$LUNITS
 70
     2
  9
$LUPREC
 70
     2
  9
$SKETCHINC
 40
0.1
  9
$FILLETRAD
 40
0.0
  9
$AUNITS
 70
     1
  9
$AUPREC
 70
     4
  9
$MENU
  1
acad
  9
$ELEVATION
 40
0.0
  9
$PELEVATION
 40
0.0
  9
$THICKNESS
 40
0.0
  9
$LIMCHECK
 70
     0
  9
$BLIPMODE
 70
     0
  9
$CHAMFERA
 40
0.0
  9
$CHAMFERB
 40
0.0
  9
$CHAMFERC
 40
0.0
  9
$CHAMFERD
 40
0.0
  9
$SKPOLY
 70
     0
  9
$TDCREATE
 40
2444971.833333333
  9
$TDUPDATE
 40
2453690.349304109
  9
$TDINDWG
 40
0.2037402083
  9
$TDUSRTIMER
 40
0.2037402083
  9
$USRTIMER
 70
     1
  9
$ANGBASE
 50
0.0
  9
$ANGDIR
 70
     0
  9
$PDMODE
 70
     0
  9
$PDSIZE
 40
0.0
  9
$PLINEWID
 40
0.0
  9
$COORDS
 70
     1
  9
$SPLFRAME
 70
     0
  9
$SPLINETYPE
 70
     6
  9
$SPLINESEGS
 70
     8
  9
$ATTDIA
 70
     0
  9
$ATTREQ
 70
     1
  9
$HANDLING
 70
     1
  9
$HANDSEED
  5
2B4
  9
$SURFTAB1
 70
     6
  9
$SURFTAB2
 70
     6
  9
$SURFTYPE
 70
     6
  9
$SURFU
 70
     6
  9
$SURFV
 70
     6
  9
$UCSNAME
  2

  9
$UCSORG
 10
0.0
 20
0.0
 30
0.0
  9
$UCSXDIR
 10
1.0
 20
0.0
 30
0.0
  9
$UCSYDIR
 10
0.0
 20
1.0
 30
0.0
  9
$PUCSNAME
  2

  9
$PUCSORG
 10
0.0
 20
0.0
 30
0.0
  9
$PUCSXDIR
 10
1.0
 20
0.0
 30
0.0
  9
$PUCSYDIR
 10
0.0
 20
1.0
 30
0.0
  9
$USERI1
 70
     0
  9
$USERI2
 70
     0
  9
$USERI3
 70
     0
  9
$USERI4
 70
     0
  9
$USERI5
 70
     0
  9
$USERR1
 40
0.0
  9
$USERR2
 40
0.0
  9
$USERR3
 40
0.0
  9
$USERR4
 40
0.0
  9
$USERR5
 40
0.0
  9
$WORLDVIEW
 70
     1
  9
$SHADEDGE
 70
     3
  9
$SHADEDIF
 70
    70
  9
$TILEMODE
 70
     1
  9
$MAXACTVP
 70
    16
  9
$PINSBASE
 10
0.0
 20
0.0
 30
0.0
  9
$PLIMCHECK
 70
     0
  9
$PEXTMIN
 10
0.0
 20
0.0
 30
0.0
  9
$PEXTMAX
 10
0.0
 20
0.0
 30
0.0
  9
$PLIMMIN
 10
0.0
 20
0.0
  9
$PLIMMAX
 10
12.0
 20
9.0
  9
$UNITMODE
 70
     0
  9
$VISRETAIN
 70
     0
  9
$PLINEGEN
 70
     1
  9
$PSLTSCALE
 70
     1
  9
$TREEDEPTH
 70
  3020
  9
$PICKSTYLE
 70
     1
  9
$CMLSTYLE
  2
STANDARD
  9
$CMLJUST
 70
     0
  9
$CMLSCALE
 40
1.0
  9
$PROXYGRAPHICS
 70
     1
  9
$MEASUREMENT
 70
     0
  0
ENDSEC
  0
SECTION
  2
CLASSES
  0
CLASS
  1
LWPOLYLINE
  2
AcDbPolyline
  3
"AutoCAD"
 90
        0
280
     0
281
     1
  0
CLASS
  1
IMAGE
  2
AcDbRasterImage
  3
ISM
 90
      127
280
     0
281
     1
  0
CLASS
  1
OLE2FRAME
  2
AcDbOle2Frame
  3
""
 90
        0
280
     0
281
     1
  0
CLASS
  1
HATCH
  2
AcDbHatch
  3
"ACAD_SEDONA"
 90
        0
280
     0
281
     1
  0
CLASS
  1
DICTIONARYVAR
  2
AcDbDictionaryVar
  3
"AutoCAD"
 90
        0
280
     0
281
     0
  0
CLASS
  1
RASTERVARIABLES
  2
AcDbRasterVariables
  3
ISM
 90
        0
280
     0
281
     0
  0
CLASS
  1
IMAGEDEF
  2
AcDbRasterImageDef
  3
ISM
 90
        0
280
     0
281
     0
  0
CLASS
  1
IMAGEDEF_REACTOR
  2
AcDbRasterImageDefReactor
  3
ISM
 90
        1
280
     0
281
     0
  0
CLASS
  1
IDBUFFER
  2
AcDbIdBuffer
  3
"Acad"
 90
        0
280
     0
281
     0
  0
CLASS
  1
SPATIAL_FILTER
  2
AcDbSpatialFilter
  3
"Acad"
 90
        0
280
     0
281
     0
  0
CLASS
  1
XRECORD
  2
AcDbXrecord
  3
"<Built In>"
 90
        0
280
     0
281
     0
  0
CLASS
  1
SORTENTSTABLE
  2
AcDbSortentsTable
  3
"AutoCAD"
 90
        0
280
     0
281
     0
  0
CLASS
  1
LAYER_INDEX
  2
AcDbLayerIndex
  3
"Acad"
 90
        0
280
     0
281
     0
  0
CLASS
  1
SPATIAL_INDEX
  2
AcDbSpatialIndex
  3
"Acad"
 90
        0
280
     0
281
     0
  0
CLASS
  1
OBJECT_PTR
  2
CAseDLPNTableRecord
  3
ASE-LPNTableRecord
 90
        1
280
     0
281
     0
  0
CLASS
  1
LAYOUT
  2
AcDbLayout
  3
AutoCAD 2000
 90
        0
280
     0
281
     0
  0
CLASS
  1
PLOTSETTINGS
  2
AcDbPlotSettings
  3
AutoCAD 2000
 90
        0
280
     0
281
     0
  0
CLASS
  1
ACDBDICTIONARYWDFLT
  2
AcDbDictionaryWithDefault
  3
AutoCAD 2000
 90
        0
280
     0
281
     0
  0
CLASS
  1
ACDBPLACEHOLDER
  2
AcDbPlaceHolder
  3
AutoCAD 2000
 90
        0
280
     0
281
     0
  0
CLASS
  1
VBA_PROJECT
  2
AcDbVbaProject
  3
acadvba
 90
        0
280
     0
281
     0
  0
CLASS
  1
WIPEOUT
  2
AcDbWipeout
  3
"WipeOut|Version(1.0.0.0) Product Desc: Object Enabler for WipeOut entity^I^I^I^I^I^I|Company: Autodesk, Inc.^I^I^I^I^I^I|WEB Address: www.autodesk.com"
 90
      127
280
     1
281
     1
  0
CLASS
  1
WIPEOUTVARIABLES
  2
AcDbWipeoutVariables
  3
WipeOut|AutoCAD Express Tool|expresstools@autodesk.com
 90
        0
280
     1
281
     0
  0
CLASS
  1
RTEXT
  2
RText
  3
RText|AutoCAD Express Tool|expresstools@autodesk.com
 90
        0
280
     1
281
     1
  0
CLASS
  1
ARCALIGNEDTEXT
  2
AcDbArcAlignedText
  3
ATEXT|AutoCAD Express Tool|expresstools@autodesk.com
 90
        0
280
     1
281
     1
  0
CLASS
  1
LONG_TRANSACTION
  2
AcDbLongTransaction
  3
AutoCAD 2000
 90
        0
280
     0
281
     0
  0
CLASS
  1
LWPOLYLINE
  2
AcDbPolyline
  3
"AutoCAD"
 90
        0
280
     0
281
     1
  0
CLASS
  1
HATCH
  2
AcDbHatch
  3
"ACAD_SEDONA"
 90
        0
280
     0
281
     1
  0
CLASS
  1
XRECORD
  2
AcDbXrecord
  3
"<Built In>"
 90
        0
280
     0
281
     0
  0
CLASS
  1
AEC_VARS_DWG_SETUP
  2
AecDbVarsDwgSetup
  3
AecBase
 90
      129
280
     0
281
     0
  0
CLASS
  1
LONG_TRANSACTION
  2
AcDbLongTransaction
  3
AutoCAD 2000
 90
        0
280
     0
281
     0
  0
CLASS
  1
LWPOLYLINE
  2
AcDbPolyline
  3
"AutoCAD"
 90
        0
280
     0
281
     1
  0
CLASS
  1
HATCH
  2
AcDbHatch
  3
"ACAD_SEDONA"
 90
        0
280
     0
281
     1
  0
CLASS
  1
XRECORD
  2
AcDbXrecord
  3
"<Built In>"
 90
        0
280
     0
281
     0
  0
ENDSEC
  0
SECTION
  2
TABLES
  0
TABLE
  2
VPORT
  5
1D
100
AcDbSymbolTable
 70
     3
  0
VPORT
  5
2B3
100
AcDbSymbolTableRecord
100
AcDbViewportTableRecord
  2
*ACTIVE
 70
     0
 10
0.0
 20
0.0
 11
1.0
 21
1.0
 12
-9.089528
 22
36.31598
 13
0.0
 23
0.0
 14
1.0
 24
1.0
 15
0.0
 25
0.0
 16
0.0
 26
0.0
 36
1.0
 17
0.0
 27
0.0
 37
0.0
 40
50.2202
 41
1.487748
 42
50.0
 43
0.0
 44
0.0
 50
0.0
 51
0.0
 71
     0
 72
   100
 73
     1
 74
     1
 75
     0
 76
     0
 77
     0
 78
     0
  0
ENDTAB
  0
TABLE
  2
LTYPE
  5
18
100
AcDbSymbolTable
 70
     2
  0
LTYPE
  5
19
100
AcDbSymbolTableRecord
100
AcDbLinetypeTableRecord
  2
BYBLOCK
 70
     0
  3

 72
    65
 73
     0
 40
0.0
  0
LTYPE
  5
1A
100
AcDbSymbolTableRecord
100
AcDbLinetypeTableRecord
  2
BYLAYER
 70
     0
  3

 72
    65
 73
     0
 40
0.0
  0
LTYPE
  5
8
100
AcDbSymbolTableRecord
100
AcDbLinetypeTableRecord
  2
CONTINUOUS
 70
     0
  3
Solid line
 72
    65
 73
     0
 40
0.0
  0
LTYPE
  5
2D
100
AcDbSymbolTableRecord
100
AcDbLinetypeTableRecord
  2
CENTER
 70
     0
  3
____ _ ____ _ ____ _ ____ _ ____ _ ____ _ ____
 72
    65
 73
     4
 40
0.6
 49
0.375
 74
     0
 49
-0.075
 74
     0
 49
0.075
 74
     0
 49
-0.075
 74
     0
  0
ENDTAB
  0
TABLE
  2
LAYER
  5
10
102
{ACAD_XDICTIONARY
360
11
102
}
100
AcDbSymbolTable
 70
     3
  0
LAYER
  5
4
100
AcDbSymbolTableRecord
100
AcDbLayerTableRecord
  2
0
 70
     0
 62
     7
  6
CONTINUOUS
  0
LAYER
  5
2C
100
AcDbSymbolTableRecord
100
AcDbLayerTableRecord
  2
CENTER
 70
     0
 62
     1
  6
CENTER
  0
LAYER
  5
29A
100
AcDbSymbolTableRecord
100
AcDbLayerTableRecord
  2
DEFPOINTS
 70
     0
 62
     7
  6
CONTINUOUS
  0
ENDTAB
  0
TABLE
  2
STYLE
  5
15
100
AcDbSymbolTable
 70
     1
  0
STYLE
  5
16
100
AcDbSymbolTableRecord
100
AcDbTextStyleTableRecord
  2
STANDARD
 70
     0
 40
0.0
 41
1.0
 50
0.0
 71
     0
 42
0.0
  3
txt
  4

  0
ENDTAB
  0
TABLE
  2
VIEW
  5
1B
100
AcDbSymbolTable
 70
     0
  0
ENDTAB
  0
TABLE
  2
UCS
  5
1C
100
AcDbSymbolTable
 70
     0
  0
ENDTAB
  0
TABLE
  2
APPID
  5
1F
100
AcDbSymbolTable
 70
     6
  0
APPID
  5
20
100
AcDbSymbolTableRecord
100
AcDbRegAppTableRecord
  2
ACAD
 70
     0
  0
APPID
  5
1C8
100
AcDbSymbolTableRecord
100
AcDbRegAppTableRecord
  2
DCO15
 70
     0
  0
APPID
  5
24F
100
AcDbSymbolTableRecord
100
AcDbRegAppTableRecord
  2
ADE
 70
     0
  0
APPID
  5
281
100
AcDbSymbolTableRecord
100
AcDbRegAppTableRecord
  2
AEC_ROUNDTRIP_15
 70
     0
  0
APPID
  5
282
100
AcDbSymbolTableRecord
100
AcDbRegAppTableRecord
  2
ADCADD_ZZ
 70
     0
  0
APPID
  5
283
100
AcDbSymbolTableRecord
100
AcDbRegAppTableRecord
  2
SDSK_PMN
 70
     0
  0
ENDTAB
  0
TABLE
  2
DIMSTYLE
  5
21
100
AcDbSymbolTable
 70
     1
  0
DIMSTYLE
105
24
102
{ACAD_XDICTIONARY
360
27E
102
}
100
AcDbSymbolTableRecord
100
AcDbDimStyleTableRecord
  2
STANDARD
 70
     0
  3

  4
cm
  5

  6

  7

 40
16.0
 41
0.1
 42
0.0625
 43
0.25
 44
0.1
 45
0.0
 46
0.0
 47
0.1
 48
0.1
140
0.1
141
0.09
142
0.0
143
2.54
144
1.0
145
0.0
146
1.0
147
0.08
 71
     0
 72
     0
 73
     1
 74
     1
 75
     0
 76
     0
 77
     0
 78
     4
170
     1
171
     2
172
     0
173
     0
174
     0
175
     0
176
     0
177
     0
178
     0
270
     5
271
     4
272
     4
273
     2
274
     2
340
16
275
     0
280
     0
281
     0
282
     0
283
     1
284
     0
285
     0
286
     0
287
     0
288
     0
  0
ENDTAB
  0
TABLE
  2
BLOCK_RECORD
  5
1
100
AcDbSymbolTable
 70
     3
  0
BLOCK_RECORD
  5
2
102
{ACAD_XDICTIONARY
360
233
102
}
100
AcDbSymbolTableRecord
100
AcDbBlockTableRecord
  2
*MODEL_SPACE
  0
BLOCK_RECORD
  5
1D2
102
{ACAD_XDICTIONARY
360
20E
102
}
100
AcDbSymbolTableRecord
100
AcDbBlockTableRecord
  2
*PAPER_SPACE
  0
BLOCK_RECORD
  5
24A
100
AcDbSymbolTableRecord
100
AcDbBlockTableRecord
  2
ADCADD_ZZ
  0
BLOCK_RECORD
  5
290
100
AcDbSymbolTableRecord
100
AcDbBlockTableRecord
  2
*D1
  0
BLOCK_RECORD
  5
2A0
100
AcDbSymbolTableRecord
100
AcDbBlockTableRecord
  2
*D2
  0
ENDTAB
  0
ENDSEC
  0
SECTION
  2
BLOCKS
  0
BLOCK
  5
3
100
AcDbEntity
  8
0
100
AcDbBlockBegin
  2
*MODEL_SPACE
 70
     0
 10
0.0
 20
0.0
 30
0.0
  3
*MODEL_SPACE
  1

  0
ENDBLK
  5
9
100
AcDbEntity
  8
0
100
AcDbBlockEnd
  0
BLOCK
  5
1D4
100
AcDbEntity
 67
     1
  8
0
100
AcDbBlockBegin
  2
*PAPER_SPACE
 70
     0
 10
0.0
 20
0.0
 30
0.0
  3
*PAPER_SPACE
  1

  0
ENDBLK
  5
1D5
100
AcDbEntity
 67
     1
  8
0
100
AcDbBlockEnd
  0
BLOCK
  5
24B
100
AcDbEntity
  8
0
100
AcDbBlockBegin
  2
ADCADD_ZZ
 70
     0
 10
0.0
 20
0.0
 30
0.0
  3
ADCADD_ZZ
  1

  0
ENDBLK
  5
24C
100
AcDbEntity
  8
0
100
AcDbBlockEnd
  0
BLOCK
  5
291
100
AcDbEntity
  8
0
100
AcDbBlockBegin
  2
*D1
 70
     1
 10
0.0
 20
0.0
 30
0.0
  3
*D1
  1

  0
LINE
  5
292
100
AcDbEntity
  8
0
  6
BYBLOCK
 62
     0
100
AcDbLine
 10
28.816903
 20
52.753579
 30
0.0
 11
38.158058
 21
52.753579
 31
0.0
  0
LINE
  5
293
100
AcDbEntity
  8
0
  6
BYBLOCK
 62
     0
100
AcDbLine
 10
21.063824
 20
36.316079
 30
0.0
 11
38.158058
 21
36.316079
 31
0.0
  0
LINE
  5
294
100
AcDbEntity
  8
0
  6
BYBLOCK
 62
     0
100
AcDbLine
 10
34.158058
 20
56.753579
 30
0.0
 11
34.158058
 21
60.753579
 31
0.0
  0
LINE
  5
295
100
AcDbEntity
  8
0
  6
BYBLOCK
 62
     0
100
AcDbLine
 10
34.158058
 20
32.316079
 30
0.0
 11
34.158058
 21
28.316079
 31
0.0
  0
LINE
  5
296
100
AcDbEntity
  8
0
  6
BYBLOCK
 62
     0
100
AcDbLine
 10
34.158058
 20
28.316079
 30
0.0
 11
30.158058
 21
28.316079
 31
0.0
  0
SOLID
  5
297
100
AcDbEntity
  8
0
  6
BYBLOCK
 62
     0
100
AcDbTrace
 10
33.491391
 20
56.753579
 30
0.0
 11
34.824724
 21
56.753579
 31
0.0
 12
34.158058
 22
52.753579
 32
0.0
 13
34.158058
 23
52.753579
 33
0.0
  0
SOLID
  5
298
100
AcDbEntity
  8
0
  6
BYBLOCK
 62
     0
100
AcDbTrace
 10
33.491391
 20
32.316079
 30
0.0
 11
34.824724
 21
32.316079
 31
0.0
 12
34.158058
 22
36.316079
 32
0.0
 13
34.158058
 23
36.316079
 33
0.0
  0
MTEXT
  5
299
100
AcDbEntity
  8
0
  6
BYBLOCK
 62
     0
100
AcDbMText
 10
4.291391
 20
28.316079
 30
0.0
 40
4.0
 41
0.0
 71
     5
 72
     1
  1
\A1;16{\H1.000000x;\S7/16;} [41.75cm]
  0
POINT
  5
29B
100
AcDbEntity
  8
DEFPOINTS
  6
BYBLOCK
 62
     0
100
AcDbPoint
 10
26.316903
 20
52.753579
 30
0.0
  0
POINT
  5
29C
100
AcDbEntity
  8
DEFPOINTS
  6
BYBLOCK
 62
     0
100
AcDbPoint
 10
18.563824
 20
36.316079
 30
0.0
  0
POINT
  5
29D
100
AcDbEntity
  8
DEFPOINTS
  6
BYBLOCK
 62
     0
100
AcDbPoint
 10
34.158058
 20
36.316079
 30
0.0
  0
ENDBLK
  5
29E
100
AcDbEntity
  8
0
100
AcDbBlockEnd
  0
BLOCK
  5
2A1
100
AcDbEntity
  8
0
100
AcDbBlockBegin
  2
*D2
 70
     1
 10
0.0
 20
0.0
 30
0.0
  3
*D2
  1

  0
LINE
  5
2A2
100
AcDbEntity
  8
0
  6
BYBLOCK
 62
     0
100
AcDbLine
 10
31.658058
 20
36.316079
 30
0.0
 11
29.793328
 21
36.316079
 31
0.0
  0
LINE
  5
2A3
100
AcDbEntity
  8
0
  6
BYBLOCK
 62
     0
100
AcDbLine
 10
28.816903
 20
19.878579
 30
0.0
 11
37.793328
 21
19.878579
 31
0.0
  0
LINE
  5
2A4
100
AcDbEntity
  8
0
  6
BYBLOCK
 62
     0
100
AcDbLine
 10
33.793328
 20
40.316079
 30
0.0
 11
33.793328
 21
44.316079
 31
0.0
  0
LINE
  5
2A5
100
AcDbEntity
  8
0
  6
BYBLOCK
 62
     0
100
AcDbLine
 10
33.793328
 20
15.878579
 30
0.0
 11
33.793328
 21
11.878579
 31
0.0
  0
LINE
  5
2A6
100
AcDbEntity
  8
0
  6
BYBLOCK
 62
     0
100
AcDbLine
 10
33.793328
 20
11.878579
 30
0.0
 11
29.793328
 21
11.878579
 31
0.0
  0
SOLID
  5
2A7
100
AcDbEntity
  8
0
  6
BYBLOCK
 62
     0
100
AcDbTrace
 10
33.126662
 20
40.316079
 30
0.0
 11
34.459995
 21
40.316079
 31
0.0
 12
33.793328
 22
36.316079
 32
0.0
 13
33.793328
 23
36.316079
 33
0.0
  0
SOLID
  5
2A8
100
AcDbEntity
  8
0
  6
BYBLOCK
 62
     0
100
AcDbTrace
 10
33.126662
 20
15.878579
 30
0.0
 11
34.459995
 21
15.878579
 31
0.0
 12
33.793328
 22
19.878579
 32
0.0
 13
33.793328
 23
19.878579
 33
0.0
  0
MTEXT
  5
2A9
100
AcDbEntity
  8
0
  6
BYBLOCK
 62
     0
100
AcDbMText
 10
3.926662
 20
11.878579
 30
0.0
 40
4.0
 41
0.0
 71
     5
 72
     1
  1
\A1;16{\H1.000000x;\S7/16;} [41.75cm]
  0
POINT
  5
2AA
100
AcDbEntity
  8
DEFPOINTS
  6
BYBLOCK
 62
     0
100
AcDbPoint
 10
34.158058
 20
36.316079
 30
0.0
  0
POINT
  5
2AB
100
AcDbEntity
  8
DEFPOINTS
  6
BYBLOCK
 62
     0
100
AcDbPoint
 10
26.316903
 20
19.878579
 30
0.0
  0
POINT
  5
2AC
100
AcDbEntity
  8
DEFPOINTS
  6
BYBLOCK
 62
     0
100
AcDbPoint
 10
33.793328
 20
19.878579
 30
0.0
  0
ENDBLK
  5
2AD
100
AcDbEntity
  8
0
100
AcDbBlockEnd
  0
ENDSEC
  0
SECTION
  2
ENTITIES
  0
LINE
  5
2B
100
AcDbEntity
  8
CENTER
 48
3.0
100
AcDbLine
 10
21.954609
 20
36.316076
 30
0.0
 11
27.008886
 21
36.316076
 31
0.0
  0
LINE
  5
2E
100
AcDbEntity
  8
0
100
AcDbLine
 10
26.112707
 20
20.082774
 30
0.0
 11
-44.735059
 21
20.082774
 31
0.0
  0
LINE
  5
2F
100
AcDbEntity
  8
0
100
AcDbLine
 10
26.316903
 20
19.878579
 30
0.0
 11
-44.939254
 21
19.878579
 31
0.0
  0
LINE
  5
30
100
AcDbEntity
  8
0
100
AcDbLine
 10
26.316903
 20
52.753579
 30
0.0
 11
-44.939254
 21
52.753579
 31
0.0
  0
LINE
  5
31
100
AcDbEntity
  8
0
100
AcDbLine
 10
26.112707
 20
52.549383
 30
0.0
 11
-44.735059
 21
52.549383
 31
0.0
  0
SPLINE
  5
32
100
AcDbEntity
  8
0
100
AcDbSpline
210
0.0
220
0.0
230
-1.0
 70
     8
 71
     3
 72
    10
 73
     6
 74
     4
 42
0.0000001
 43
0.0000001
 44
0.0000000001
 40
0.0
 40
0.0
 40
0.0
 40
0.0
 40
0.2586872951772517
 40
0.5173631125373961
 40
0.7760051366112176
 40
0.7760051366112176
 40
0.7760051366112176
 40
0.7760051366112176
 10
-17.77657576331633
 20
48.81922830097924
 30
0.0
 10
-17.86277348765472
 20
48.82157444558337
 30
0.0
 10
-18.03516511178453
 20
48.82626663069449
 30
0.0
 10
-18.29381725146147
 20
48.82994667661274
 30
0.0
 10
-18.4662573745482
 20
48.83019582966007
 30
0.0
 10
-18.55247180384966
 20
48.8303203980459
 30
0.0
 11
-17.77657576331633
 21
48.81922830097924
 31
0.0
 11
-18.03518191691632
 21
48.82570703591256
 31
0.0
 11
-18.29383143264965
 21
48.82939573457925
 31
0.0
 11
-18.55247180384966
 21
48.8303203980459
 31
0.0
  0
ARC
  5
33
100
AcDbEntity
  8
0
100
AcDbCircle
 10
-18.321686
 20
16.265539
 30
0.0
 40
31.776187
100
AcDbArc
 50
90.0
 51
107.0
  0
SPLINE
  5
34
100
AcDbEntity
  8
0
100
AcDbSpline
210
0.0
220
0.0
230
-1.0
 70
     8
 71
     3
 72
     9
 73
     5
 74
     3
 42
0.0000001
 43
0.0000001
 44
0.0000000001
 40
0.0
 40
0.0
 40
0.0
 40
0.0
 40
3.296138536626543
 40
6.59227706982015
 40
6.59227706982015
 40
6.59227706982015
 40
6.59227706982015
 10
-24.26655797344966
 20
47.74856601617924
 30
0.0
 10
-23.20272174458194
 20
48.03507367083696
 30
0.0
 10
-21.07504928795447
 20
48.608088979854
 30
0.0
 10
-18.876066937814
 20
48.74884852942859
 30
0.0
 10
-17.77657576331633
 20
48.81922830417924
 30
0.0
 11
-24.26655797344966
 21
47.74856601617924
 31
0.0
 11
-21.05722181344966
 21
48.50002504017924
 31
0.0
 11
-17.77657576331633
 21
48.81922830417924
 31
0.0
  0
SPLINE
  5
35
100
AcDbEntity
  8
0
100
AcDbSpline
210
0.0
220
0.0
230
-1.0
 70
     8
 71
     3
 72
    10
 73
     6
 74
     4
 42
0.0000001
 43
0.0000001
 44
0.0000000001
 40
0.0
 40
0.0
 40
0.0
 40
0.0
 40
0.7790294351050889
 40
1.560274179241301
 40
2.343933806473818
 40
2.343933806473818
 40
2.343933806473818
 40
2.343933806473818
 10
-18.84097576224966
 20
49.81607871911258
 30
0.0
 10
-18.58184337415531
 20
49.79907020519155
 30
0.0
 10
-18.06284170884059
 20
49.76500481060905
 30
0.0
 10
-17.28541491081549
 20
49.68470295105714
 30
0.0
 10
-16.76887005100581
 20
49.61181843955294
 30
0.0
 10
-16.51019906784966
 20
49.57531994791257
 30
0.0
 11
-18.84097576224966
 21
49.81607871911258
 31
0.0
 11
-18.06395154358299
 21
49.76021975057924
 31
0.0
 11
-17.28683807051632
 21
49.67998260071258
 31
0.0
 11
-16.51019906784966
 21
49.57531994791257
 31
0.0
  0
ARC
  5
36
100
AcDbEntity
  8
0
100
AcDbCircle
 10
-18.321686
 20
56.366619
 30
0.0
 40
31.776187
100
AcDbArc
 50
253.0
 51
270.0
  0
SPLINE
  5
37
100
AcDbEntity
  8
0
100
AcDbSpline
210
0.0
220
0.0
230
1.0
 70
     8
 71
     3
 72
    10
 73
     6
 74
     4
 42
0.0000001
 43
0.0000001
 44
0.0000000001
 40
0.0
 40
0.0
 40
0.0
 40
0.0
 40
0.2586872951772518
 40
0.5173631125373959
 40
0.7760051366112175
 40
0.7760051366112175
 40
0.7760051366112175
 40
0.7760051366112175
 10
-17.77657576331633
 20
23.8129291372459
 30
0.0
 10
-17.86277348765472
 20
23.81058299264175
 30
0.0
 10
-18.03516511178453
 20
23.80589080753063
 30
0.0
 10
-18.29381725146147
 20
23.80221076161242
 30
0.0
 10
-18.4662573745482
 20
23.80196160856507
 30
0.0
 10
-18.55247180384966
 20
23.80183704017923
 30
0.0
 11
-17.77657576331633
 21
23.8129291372459
 31
0.0
 11
-18.03518191691632
 21
23.80645040231256
 31
0.0
 11
-18.29383143264965
 21
23.8027617036459
 31
0.0
 11
-18.55247180384966
 21
23.80183704017923
 31
0.0
  0
SPLINE
  5
38
100
AcDbEntity
  8
0
100
AcDbSpline
210
0.0
220
0.0
230
1.0
 70
     8
 71
     3
 72
    10
 73
     6
 74
     4
 42
0.0000001
 43
0.0000001
 44
0.0000000001
 40
0.0
 40
0.0
 40
0.0
 40
0.0
 40
0.7790294351050884
 40
1.560274179241302
 40
2.343933806473819
 40
2.343933806473819
 40
2.343933806473819
 40
2.343933806473819
 10
-18.84097576224966
 20
22.81607871911257
 30
0.0
 10
-18.58184337415532
 20
22.83308723303359
 30
0.0
 10
-18.06284170884059
 20
22.86715262761608
 30
0.0
 10
-17.28541491081548
 20
22.94745448716803
 30
0.0
 10
-16.76887005100581
 20
23.0203389986722
 30
0.0
 10
-16.51019906784966
 20
23.05683749031257
 30
0.0
 11
-18.84097576224966
 21
22.81607871911257
 31
0.0
 11
-18.06395154358299
 21
22.8719376876459
 31
0.0
 11
-17.28683807051632
 21
22.95217483751257
 31
0.0
 11
-16.51019906784966
 21
23.05683749031257
 31
0.0
  0
SPLINE
  5
39
100
AcDbEntity
  8
0
100
AcDbSpline
210
0.0
220
0.0
230
1.0
 70
     8
 71
     3
 72
     9
 73
     5
 74
     3
 42
0.0000001
 43
0.0000001
 44
0.0000000001
 40
0.0
 40
0.0
 40
0.0
 40
0.0
 40
3.296138536626544
 40
6.592277069820151
 40
6.592277069820151
 40
6.592277069820151
 40
6.592277069820151
 10
-24.26655797344966
 20
24.8835914220459
 30
0.0
 10
-23.20272174458194
 20
24.59708376738818
 30
0.0
 10
-21.07504928795446
 20
24.02406845837113
 30
0.0
 10
-18.876066937814
 20
23.88330890879654
 30
0.0
 10
-17.77657576331633
 20
23.8129291340459
 30
0.0
 11
-24.26655797344966
 21
24.8835914220459
 31
0.0
 11
-21.05722181344966
 21
24.1321323980459
 31
0.0
 11
-17.77657576331633
 21
23.8129291340459
 31
0.0
  0
SPLINE
  5
3A
100
AcDbEntity
  8
0
100
AcDbSpline
210
0.0
220
0.0
230
-1.0
 70
     8
 71
     3
 72
    10
 73
     6
 74
     4
 42
0.0000001
 43
0.0000001
 44
0.0000000001
 40
0.0
 40
0.0
 40
0.0
 40
0.0
 40
2.841184870701401
 40
5.682370509501279
 40
8.523555583445773
 40
8.523555583445773
 40
8.523555583445773
 40
8.523555583445773
 10
-41.85916432544966
 20
27.83011247591257
 30
0.0
 10
-41.99938140086047
 20
28.7668916517412
 30
0.0
 10
-42.27981558958894
 20
30.64045025665146
 30
0.0
 10
-42.51429217038229
 20
33.47482046867447
 30
0.0
 10
-42.54554789932952
 20
35.36899271972986
 30
0.0
 10
-42.56117576224966
 20
36.31607875111257
 30
0.0
 11
-41.85916432544966
 21
27.83011247591257
 31
0.0
 11
-42.24878644384967
 21
30.64445539644589
 31
0.0
 11
-42.48302667958299
 21
33.4759686572459
 31
0.0
 11
-42.56117576224966
 21
36.31607875111257
 31
0.0
  0
SPLINE
  5
3B
100
AcDbEntity
  8
0
100
AcDbSpline
210
0.0
220
0.0
230
-1.0
 70
     8
 71
     3
 72
    12
 73
     8
 74
     6
 42
0.0000001
 43
0.0000001
 44
0.0000000001
 40
0.0
 40
0.0
 40
0.0
 40
0.0
 40
1.047883321792839
 40
3.143548308673798
 40
6.286791683069364
 40
8.382456669868354
 40
9.430339991239806
 40
9.430339991239806
 40
9.430339991239806
 40
9.430339991239806
 10
-39.97737940171633
 20
26.9343030508459
 30
0.0
 10
-40.03692063340155
 20
27.27849488716458
 30
0.0
 10
-40.21553855227462
 20
28.31103700556355
 30
0.0
 10
-40.50091529828492
 20
30.38779079710234
 30
0.0
 10
-40.71746594771387
 20
32.82439313942534
 30
0.0
 10
-40.80280811651488
 20
34.91892480816067
 30
0.0
 10
-40.80908380008025
 20
35.96678367396969
 30
0.0
 10
-40.81117576224966
 20
36.31608125777923
 30
0.0
 11
-39.97737940171633
 21
26.9343030508459
 31
0.0
 11
-40.15201143584966
 21
27.9675325068459
 31
0.0
 11
-40.44005989878299
 21
30.04330701777923
 31
0.0
 11
-40.71831582518299
 21
33.1742098508459
 31
0.0
 11
-40.80085545078299
 21
35.26824875857924
 31
0.0
 11
-40.81117576224966
 21
36.31608125777923
 31
0.0
  0
SPLINE
  5
3C
100
AcDbEntity
  8
0
100
AcDbSpline
210
0.0
220
0.0
230
-1.0
 70
     8
 71
     3
 72
    10
 73
     6
 74
     4
 42
0.0000001
 43
0.0000001
 44
0.0000000001
 40
0.0
 40
0.0
 40
0.0
 40
0.0
 40
1.992665840880008
 40
3.986441893470704
 40
5.98104885246135
 40
5.98104885246135
 40
5.98104885246135
 40
5.98104885246135
 10
-33.86336101558299
 20
36.31608123431258
 30
0.0
 10
-33.85506533056407
 20
35.65184931561041
 30
0.0
 10
-33.83846933859392
 20
34.32301540208011
 30
0.0
 10
-33.71388033097608
 20
32.33207596752399
 30
0.0
 10
-33.56478383597567
 20
31.01087884306272
 30
0.0
 10
-33.49022005771633
 20
30.3501426572459
 30
0.0
 11
-33.86336101558299
 21
36.31608123431258
 31
0.0
 11
-33.82187218678299
 21
34.3238473548459
 31
0.0
 11
-33.697400522783
 21
32.33396048551257
 31
0.0
 11
-33.49022005771633
 21
30.3501426572459
 31
0.0
  0
LINE
  5
3D
100
AcDbEntity
  8
0
100
AcDbLine
 10
-44.98198
 20
52.302462
 30
0.0
 11
-44.98198
 21
20.329696
 31
0.0
  0
LINE
  5
3E
100
AcDbEntity
  8
0
100
AcDbLine
 10
-45.186176
 20
20.1255
 30
0.0
 11
-45.186176
 21
52.506657
 31
0.0
  0
SPLINE
  5
3F
100
AcDbEntity
  8
0
100
AcDbSpline
210
0.0
220
0.0
230
1.0
 70
     8
 71
     3
 72
    11
 73
     7
 74
     5
 42
0.0000001
 43
0.0000001
 44
0.0000000001
 40
0.0
 40
0.0
 40
0.0
 40
0.0
 40
2.097746108406562
 40
4.195492007187251
 40
6.293237905084922
 40
8.390983971402405
 40
8.390983971402405
 40
8.390983971402405
 40
8.390983971402405
 10
-35.94072930571633
 20
22.81607871911257
 30
0.0
 10
-36.64426151687207
 20
22.88800183242066
 30
0.0
 10
-38.05132586888025
 20
23.03184805184963
 30
0.0
 10
-39.89101022746313
 20
24.15327016011187
 30
0.0
 10
-41.2994986495847
 20
25.78366470890534
 30
0.0
 10
-41.67260909516875
 20
27.1479632019878
 30
0.0
 10
-41.85916432544966
 20
27.83011247591257
 30
0.0
 11
-35.94072930571633
 21
22.81607871911257
 31
0.0
 11
-38.00617391158299
 21
23.18279020711256
 31
0.0
 11
-39.81914424224966
 21
24.23809889937924
 31
0.0
 11
-41.15802816118299
 21
25.85300685457923
 31
0.0
 11
-41.85916432544966
 21
27.83011247591257
 31
0.0
  0
LWPOLYLINE
  5
41
100
AcDbEntity
  8
0
100
AcDbPolyline
 90
        4
 70
     0
 43
0.0
 10
-44.735059
 20
20.082774
 10
-44.856807
 20
20.117835
 10
-44.946919
 20
20.207947
 10
-44.98198
 20
20.329696
  0
SPLINE
  5
42
100
AcDbEntity
  8
0
100
AcDbSpline
210
0.0
220
0.0
230
-1.0
 70
     8
 71
     3
 72
    11
 73
     7
 74
     5
 42
0.0000001
 43
0.0000001
 44
0.0000000001
 40
0.0
 40
0.0
 40
0.0
 40
0.0
 40
0.0953528068195158
 40
0.1913122755354755
 40
0.2872717442514293
 40
0.3826245510709521
 40
0.3826245510709521
 40
0.3826245510709521
 40
0.3826245510709521
 10
-44.93925427104966
 20
19.87857871911257
 30
0.0
 10
-44.97115971168985
 20
19.88298365853058
 30
0.0
 10
-45.03517358453147
 20
19.89182156285415
 30
0.0
 10
-45.11561926219399
 20
19.94913521916822
 30
0.0
 10
-45.17293291850809
 20
20.02958089683076
 30
0.0
 10
-45.18177082283165
 20
20.09359476967238
 30
0.0
 10
-45.18617576224966
 20
20.12550021031257
 30
0.0
 11
-44.93925427104966
 21
19.87857871911257
 31
0.0
 11
-45.03237710731632
 21
19.89907981991257
 31
0.0
 11
-45.11175578358299
 21
19.95299869777923
 31
0.0
 11
-45.16567466144965
 21
20.0323773740459
 31
0.0
 11
-45.18617576224966
 21
20.12550021031257
 31
0.0
  0
LINE
  5
43
100
AcDbEntity
  8
0
100
AcDbLine
 10
-30.090407
 20
26.736581
 30
0.0
 11
-27.612144
 21
25.9789
 31
0.0
  0
LINE
  5
44
100
AcDbEntity
  8
0
100
AcDbLine
 10
-34.436987
 20
26.347086
 30
0.0
 11
-27.732915
 21
25.760556
 31
0.0
  0
LINE
  5
45
100
AcDbEntity
  8
0
100
AcDbLine
 10
-30.942096
 20
23.82561
 30
0.0
 11
-18.552472
 21
23.801837
 31
0.0
  0
LINE
  5
46
100
AcDbEntity
  8
0
100
AcDbLine
 10
-35.056542
 20
22.815932
 30
0.0
 11
-18.840976
 21
22.815932
 31
0.0
  0
SPLINE
  5
48
100
AcDbEntity
  8
0
100
AcDbSpline
210
0.0
220
0.0
230
1.0
 70
     8
 71
     3
 72
    13
 73
     9
 74
     7
 42
0.0000001
 43
0.0000001
 44
0.0000000001
 40
0.0
 40
0.0
 40
0.0
 40
0.0
 40
0.4636231813997365
 40
0.9272407668837699
 40
1.391305601015931
 40
1.855370436238052
 40
2.265141175972672
 40
2.67490766892229
 40
2.67490766892229
 40
2.67490766892229
 40
2.67490766892229
 10
-34.43698667211633
 20
26.34708643004591
 30
0.0
 10
-34.59037813955265
 20
26.37030640230223
 30
0.0
 10
-34.89715922299561
 20
26.41674606655062
 30
0.0
 10
-35.32504034054848
 20
26.60953448287597
 30
0.0
 10
-35.70215687562043
 20
26.88516598638579
 30
0.0
 10
-35.99702893068493
 20
27.22412103169304
 30
0.0
 10
-36.21136615686671
 20
27.59892907943412
 30
0.0
 10
-36.28658609625017
 20
27.86241729790119
 30
0.0
 10
-36.32419587104966
 20
27.99416072444591
 30
0.0
 11
-34.43698667211633
 21
26.34708643004591
 31
0.0
 11
-34.89175647691633
 21
26.43725781671256
 31
0.0
 11
-35.31642893238299
 21
26.6232539756459
 31
0.0
 11
-35.69042365878299
 21
26.89799770151257
 31
0.0
 11
-35.99583045878299
 21
27.24740127591257
 31
0.0
 11
-36.19595989344967
 21
27.60497681831257
 31
0.0
 11
-36.32419587104966
 21
27.99416072444591
 31
0.0
  0
SPLINE
  5
49
100
AcDbEntity
  8
0
100
AcDbSpline
210
0.0
220
0.0
230
1.0
 70
     8
 71
     3
 72
    14
 73
    10
 74
     8
 42
0.0000001
 43
0.0000001
 44
0.0000000001
 40
0.0
 40
0.0
 40
0.0
 40
0.0
 40
0.9472439873652156
 40
1.928409662474286
 40
2.940213564746474
 40
3.997585361160038
 40
5.100204116320552
 40
6.235555354238793
 40
7.389519446668809
 40
7.389519446668809
 40
7.389519446668809
 40
7.389519446668809
 10
-36.32465955958299
 20
27.99405568977924
 30
0.0
 10
-36.2527698968379
 20
27.68545477931142
 30
0.0
 10
-36.10641613569632
 20
27.05720167289708
 30
0.0
 10
-35.6383294417305
 20
26.18379302615321
 30
0.0
 10
-34.99200048007144
 20
25.39209791257637
 30
0.0
 10
-34.16438009021383
 20
24.72090724974626
 30
0.0
 10
-33.18447510148753
 20
24.21247961599538
 30
0.0
 10
-32.09228705056689
 20
23.87998027182175
 30
0.0
 10
-31.32756550396924
 20
23.84383129061564
 30
0.0
 10
-30.94209601718299
 20
23.82560984871256
 30
0.0
 11
-36.32465955958299
 21
27.99405568977924
 31
0.0
 11
-36.07022808544965
 21
27.0816216940459
 31
0.0
 11
-35.61775768224966
 21
26.21101465511257
 31
0.0
 11
-34.97739076064966
 21
25.4276390476459
 31
0.0
 11
-34.15733018891633
 21
24.7601543852459
 31
0.0
 11
-33.18082558731633
 21
24.2480929804459
 31
0.0
 11
-32.09149895051632
 21
23.9281087436459
 31
0.0
 11
-30.94209601718299
 21
23.82560984871256
 31
0.0
  0
SPLINE
  5
4A
100
AcDbEntity
  8
0
100
AcDbSpline
210
0.0
220
0.0
230
-1.0
 70
     8
 71
     3
 72
    13
 73
     9
 74
     7
 42
0.0000001
 43
0.0000001
 44
0.0000000001
 40
0.0
 40
0.0
 40
0.0
 40
0.0
 40
0.86267585783682
 40
1.731288990977855
 40
2.592435498379808
 40
3.453868104613613
 40
4.322647688734745
 40
5.185104569606641
 40
5.185104569606641
 40
5.185104569606641
 40
5.185104569606641
 10
-33.49021805024966
 20
30.35012661991257
 30
0.0
 10
-33.40896480059595
 20
30.07353205063314
 30
0.0
 10
-33.24589908439588
 20
29.51843927922013
 30
0.0
 10
-32.82460580856401
 20
28.75651516343349
 30
0.0
 10
-32.28885591771981
 20
28.07432985017552
 30
0.0
 10
-31.64052622950825
 20
27.4979830693921
 30
0.0
 10
-30.90559066454171
 20
27.03105139598128
 30
0.0
 10
-30.36147281623359
 20
26.8344987223533
 30
0.0
 10
-30.09040748704966
 20
26.73658130364591
 30
0.0
 11
-33.49021805024966
 21
30.35012661991257
 31
0.0
 11
-33.21708983051633
 21
29.53182923431257
 31
0.0
 11
-32.80409166518299
 21
28.76768180711257
 31
0.0
 11
-32.27021793611632
 21
28.09199537937923
 31
0.0
 11
-31.62809198304966
 21
27.51776511591257
 31
0.0
 11
-30.89035829984966
 21
27.0589329260459
 31
0.0
 11
-30.09040748704966
 21
26.73658130364591
 31
0.0
  0
SPLINE
  5
4B
100
AcDbEntity
  8
0
100
AcDbSpline
210
0.0200577585168565
220
0.9997988229255321
230
0.0
 70
    24
 71
     3
 72
     8
 73
     4
 74
     2
 42
0.0000001
 43
0.0000001
 44
0.0000000001
 40
0.0
 40
0.0
 40
0.0
 40
0.0
 40
0.2006247173603785
 40
0.2006247173603785
 40
0.2006247173603785
 40
0.2006247173603785
 10
-35.25633051744966
 20
22.8201028012459
 30
0.0
 10
-35.18946906536077
 20
22.81876144053479
 30
0.0
 10
-35.12260761327188
 20
22.81742007982368
 30
0.0
 10
-35.05574616118299
 20
22.81607871911257
 30
0.0
 11
-35.25633051744966
 21
22.8201028012459
 31
0.0
 11
-35.05574616118299
 21
22.81607871911257
 31
0.0
  0
SPLINE
  5
4C
100
AcDbEntity
  8
0
100
AcDbSpline
210
0.0
220
0.0
230
1.0
 70
     8
 71
     3
 72
    26
 73
    22
 74
    20
 42
0.0000001
 43
0.0000001
 44
0.0000000001
 40
0.0
 40
0.0
 40
0.0
 40
0.0
 40
0.0246835491226941
 40
0.0431460278207731
 40
0.06630367063132
 40
0.0977035294722311
 40
0.1308086294089091
 40
0.1627648123304581
 40
0.1964086118616933
 40
0.2319749506677258
 40
0.2699560591618021
 40
0.310944163493796
 40
0.3555257938312493
 40
0.4042958387862284
 40
0.4575112446546222
 40
0.5143579871911035
 40
0.5752076028276832
 40
0.6410033946059343
 40
0.7127147149636583
 40
0.7913009722957707
 40
0.8777275458427091
 40
0.8777275458427091
 40
0.8777275458427091
 40
0.8777275458427091
 10
-35.063001882783
 20
22.81600168977923
 30
0.0
 10
-35.07122970175578
 20
22.81602893136796
 30
0.0
 10
-35.08561165730599
 20
22.81607654876445
 30
0.0
 10
-35.10771289414604
 20
22.81604552080085
 30
0.0
 10
-35.1320528786059
 20
22.81603845944649
 30
0.0
 10
-35.16127374427637
 20
22.81602157461115
 30
0.0
 10
-35.19342745423945
 20
22.8160077007982
 30
0.0
 10
-35.22632914581805
 20
22.81599410169927
 30
0.0
 10
-35.26005125066562
 20
22.81598196475188
 30
0.0
 10
-35.29578166455788
 20
22.81597077574205
 30
0.0
 10
-35.33396018048155
 20
22.81596081329436
 30
0.0
 10
-35.37514379402412
 20
22.81595235002047
 30
0.0
 10
-35.41992372012161
 20
22.81594584270554
 30
0.0
 10
-35.46877941372503
 20
22.81594194781596
 30
0.0
 10
-35.52172347822578
 20
22.8159415214901
 30
0.0
 10
-35.57869406616447
 20
22.81594546725683
 30
0.0
 10
-35.63985811551153
 20
22.8159547736175
 30
0.0
 10
-35.70597702296035
 20
22.81597068185508
 30
0.0
 10
-35.7780081420538
 20
22.81599513420637
 30
0.0
 10
-35.85691618518874
 20
22.81602961213653
 30
0.0
 10
-35.91192045277614
 20
22.81606183970703
 30
0.0
 10
-35.94072930571633
 20
22.81607871911257
 30
0.0
 11
-35.063001882783
 21
22.81600168977923
 31
0.0
 11
-35.08768536011632
 21
22.81606122151257
 31
0.0
 11
-35.10614783584967
 21
22.81605075857924
 31
0.0
 11
-35.12930547531633
 21
22.81603831377923
 31
0.0
 11
-35.16070533024967
 21
22.81602264871256
 31
0.0
 11
-35.193810426783
 21
22.81600763751256
 31
0.0
 11
-35.22576660704966
 21
22.81599461137923
 31
0.0
 11
-35.25941040438299
 21
22.81598245031256
 31
0.0
 11
-35.29497674144966
 21
22.81597132711256
 31
0.0
 11
-35.33295784864967
 21
22.8159614124459
 31
0.0
 11
-35.37394595211633
 21
22.8159529900459
 31
0.0
 11
-35.418527581983
 21
22.81594651111257
 31
0.0
 11
-35.46729762678299
 21
22.81594262311256
 31
0.0
 11
-35.52051303264966
 21
22.81594219431257
 31
0.0
 11
-35.57735977504965
 21
22.81594613351257
 31
0.0
 11
-35.63820938998299
 21
22.81595538471257
 31
0.0
 11
-35.70400517984966
 21
22.81597124497924
 31
0.0
 11
-35.77571649611633
 21
22.81599546791257
 31
0.0
 11
-35.85430274571632
 21
22.81603032871257
 31
0.0
 11
-35.94072930571633
 21
22.81607871911257
 31
0.0
  0
SPLINE
  5
4D
100
AcDbEntity
  8
0
100
AcDbSpline
210
0.0
220
0.0
230
1.0
 70
     8
 71
     3
 72
    17
 73
    13
 74
    11
 42
0.0000001
 43
0.0000001
 44
0.0000000001
 40
0.0
 40
0.0
 40
0.0
 40
0.0
 40
0.6443151968803818
 40
1.297055709200889
 40
1.949793679624178
 40
2.819639267562201
 40
3.254974774548913
 40
3.907720089520402
 40
4.560454012275667
 40
5.140750668495186
 40
5.721060375135839
 40
6.301363616732491
 40
6.301363616732491
 40
6.301363616732491
 40
6.301363616732491
 10
-35.71547432864966
 20
22.8597948044459
 30
0.0
 10
-35.92745859952406
 20
22.89608706551985
 30
0.0
 10
-36.35419912982615
 20
22.96914615935111
 30
0.0
 10
-36.97086806471455
 20
23.18321309457638
 30
0.0
 10
-37.62346039579778
 20
23.5025261053381
 30
0.0
 10
-38.16151843437456
 20
23.87892060391388
 30
0.0
 10
-38.64381537696223
 20
24.31945408815581
 30
0.0
 10
-39.0281304506025
 20
24.75655652354959
 30
0.0
 10
-39.3798310493095
 20
25.279848115834
 30
0.0
 10
-39.65173343840395
 20
25.82085586515291
 30
0.0
 10
-39.85582112246904
 20
26.36620184806194
 30
0.0
 10
-39.93686012577298
 20
26.74493668648236
 30
0.0
 10
-39.97737940171633
 20
26.9343030508459
 30
0.0
 11
-35.71547432864966
 21
22.8597948044459
 31
0.0
 11
-36.34735170571633
 21
22.98578311057924
 31
0.0
 11
-36.96555679371633
 21
23.19528882791257
 31
0.0
 11
-37.55128060064966
 21
23.48337645351257
 31
0.0
 11
-38.26441600864966
 21
23.98144194791257
 31
0.0
 11
-38.585808247583
 21
24.27508123751257
 31
0.0
 11
-39.01694952651633
 21
24.76517678311257
 31
0.0
 11
-39.38070909344967
 21
25.30715515111257
 31
0.0
 11
-39.642239354783
 21
25.8251765132459
 31
0.0
 11
-39.84206667211633
 21
26.36999611537924
 31
0.0
 11
-39.97737940171633
 21
26.9343030508459
 31
0.0
  0
LINE
  5
4E
100
AcDbEntity
  8
0
100
AcDbLine
 10
-35.94073
 20
22.816079
 30
0.0
 11
-35.715471
 21
22.859795
 31
0.0
  0
SPLINE
  5
4F
100
AcDbEntity
  8
0
100
AcDbSpline
210
0.0
220
0.0
230
1.0
 70
     8
 71
     3
 72
     9
 73
     5
 74
     3
 42
0.0000001
 43
0.0000001
 44
0.0000000001
 40
0.0
 40
0.0
 40
0.0
 40
0.0
 40
0.2348140928141277
 40
0.4609788277558587
 40
0.4609788277558587
 40
0.4609788277558587
 40
0.4609788277558587
 10
-35.25633051744966
 20
22.8201028012459
 30
0.0
 10
-35.33452321399205
 20
22.82416159384156
 30
0.0
 10
-35.4880283855054
 20
22.83212967374012
 30
0.0
 10
-35.64061333272786
 20
22.85068917165988
 30
0.0
 10
-35.71547432864966
 20
22.8597948044459
 30
0.0
 11
-35.25633051744966
 21
22.8201028012459
 31
0.0
 11
-35.49066983691632
 21
22.8350273292459
 31
0.0
 11
-35.71547432864966
 21
22.8597948044459
 31
0.0
  0
SPLINE
  5
51
100
AcDbEntity
  8
0
100
AcDbSpline
210
-0.980579056391776
220
-0.1961242314600982
230
0.0
 70
    24
 71
     3
 72
     8
 73
     4
 74
     2
 42
0.0000001
 43
0.0000001
 44
0.0000000001
 40
0.0
 40
0.0
 40
0.0
 40
0.0
 40
0.1082605290972623
 40
0.1082605290972623
 40
0.1082605290972623
 40
0.1082605290972623
 10
-36.32419789451633
 20
27.99416052817923
 30
0.0
 10
-36.33127539887188
 20
28.02954653066812
 30
0.0
 10
-36.33835290322743
 20
28.06493253315701
 30
0.0
 10
-36.34543040758299
 20
28.1003185356459
 30
0.0
 11
-36.32419789451633
 21
27.99416052817923
 31
0.0
 11
-36.34543040758299
 21
28.1003185356459
 31
0.0
  0
SPLINE
  5
53
100
AcDbEntity
  8
0
100
AcDbSpline
210
0.0
220
0.0
230
-1.0
 70
     8
 71
     3
 72
     9
 73
     5
 74
     3
 42
0.0000001
 43
0.0000001
 44
0.0000000001
 40
0.0
 40
0.0
 40
0.0
 40
0.0
 40
0.0780472513208229
 40
0.3573384790101195
 40
0.3573384790101195
 40
0.3573384790101195
 40
0.3573384790101195
 10
-26.98038169398299
 20
25.6584954956459
 30
0.0
 10
-26.95480756997048
 20
25.65371802514871
 30
0.0
 10
-26.83771672536041
 20
25.63184442919124
 30
0.0
 10
-26.72141069187918
 20
25.60606445767902
 30
0.0
 10
-26.63050736971633
 20
25.58591515857924
 30
0.0
 11
-26.98038169398299
 21
25.6584954956459
 31
0.0
 11
-26.90369676064966
 21
25.6439767340459
 31
0.0
 11
-26.63050736971633
 21
25.58591515857924
 31
0.0
  0
SPLINE
  5
54
100
AcDbEntity
  8
0
100
AcDbSpline
210
0.1343924333035765
220
0.9909281880493377
230
0.0
 70
    24
 71
     3
 72
     8
 73
     4
 74
     2
 42
0.0000001
 43
0.0000001
 44
0.0000000001
 40
0.0
 40
0.0
 40
0.0
 40
0.0
 40
0.7594227871157595
 40
0.7594227871157595
 40
0.7594227871157595
 40
0.7594227871157595
 10
-27.73291514038299
 20
25.76055617191257
 30
0.0
 10
-27.48207065824966
 20
25.72653594649035
 30
0.0
 10
-27.23122617611632
 20
25.69251572106812
 30
0.0
 10
-26.98038169398299
 20
25.6584954956459
 30
0.0
 11
-27.73291514038299
 21
25.76055617191257
 31
0.0
 11
-26.98038169398299
 21
25.6584954956459
 31
0.0
  0
LINE
  5
56
100
AcDbEntity
  8
0
100
AcDbLine
 10
-26.091187
 20
25.441437
 30
0.0
 11
-24.266558
 21
24.883591
 31
0.0
  0
LINE
  5
57
100
AcDbEntity
  8
0
100
AcDbLine
 10
-26.47089
 20
25.562029
 30
0.0
 11
-26.470979
 21
25.562043
 31
0.0
  0
SPLINE
  5
58
100
AcDbEntity
  8
0
100
AcDbSpline
210
0.2684359465597844
220
0.9632975358603138
230
0.0
 70
    24
 71
     3
 72
     8
 73
     4
 74
     2
 42
0.0000001
 43
0.0000001
 44
0.0000000001
 40
0.0
 40
0.0
 40
0.0
 40
0.0
 40
0.3980546034763959
 40
0.3980546034763959
 40
0.3980546034763959
 40
0.3980546034763959
 10
-26.47463245984966
 20
25.54828879911257
 30
0.0
 10
-26.34681745362744
 20
25.51267141102368
 30
0.0
 10
-26.21900244740521
 20
25.47705402293479
 30
0.0
 10
-26.09118744118299
 20
25.4414366348459
 30
0.0
 11
-26.47463245984966
 21
25.54828879911257
 31
0.0
 11
-26.09118744118299
 21
25.4414366348459
 31
0.0
  0
SPLINE
  5
59
100
AcDbEntity
  8
0
100
AcDbSpline
210
0.2346486725574604
220
0.9720802438415368
230
0.0
 70
    24
 71
     3
 72
     8
 73
     4
 74
     2
 42
0.0000001
 43
0.0000001
 44
0.0000000001
 40
0.0
 40
0.0
 40
0.0
 40
0.0
 40
0.1603518956939916
 40
0.1603518956939916
 40
0.1603518956939916
 40
0.1603518956939916
 10
-26.63050736971633
 20
25.58591515857924
 30
0.0
 10
-26.57854906642744
 20
25.57337303875701
 30
0.0
 10
-26.52659076313855
 20
25.5608309189348
 30
0.0
 10
-26.47463245984966
 20
25.54828879911257
 30
0.0
 11
-26.63050736971633
 21
25.58591515857924
 31
0.0
 11
-26.47463245984966
 21
25.54828879911257
 31
0.0
  0
SPLINE
  5
63
100
AcDbEntity
  8
0
100
AcDbSpline
210
0.0
220
0.0
230
-1.0
 70
     8
 71
     3
 72
    11
 73
     7
 74
     5
 42
0.0000001
 43
0.0000001
 44
0.0000000001
 40
0.0
 40
0.0
 40
0.0
 40
0.0
 40
2.097746108406563
 40
4.195492007187253
 40
6.29323790508492
 40
8.390983971402405
 40
8.390983971402405
 40
8.390983971402405
 40
8.390983971402405
 10
-35.94072930571633
 20
49.81607871911258
 30
0.0
 10
-36.64426151687207
 20
49.74415560580448
 30
0.0
 10
-38.05132586888024
 20
49.6003093863755
 30
0.0
 10
-39.89101022746313
 20
48.47888727811326
 30
0.0
 10
-41.2994986495847
 20
46.84849272931981
 30
0.0
 10
-41.67260909516875
 20
45.48419423623735
 30
0.0
 10
-41.85916432544966
 20
44.80204496231256
 30
0.0
 11
-35.94072930571633
 21
49.81607871911258
 31
0.0
 11
-38.00617391158299
 21
49.44936723111258
 31
0.0
 11
-39.81914424224966
 21
48.39405853884589
 31
0.0
 11
-41.15802816118299
 21
46.7791505836459
 31
0.0
 11
-41.85916432544966
 21
44.80204496231256
 31
0.0
  0
SPLINE
  5
64
100
AcDbEntity
  8
0
100
AcDbSpline
210
0.0
220
0.0
230
-1.0
 70
     8
 71
     3
 72
    12
 73
     8
 74
     6
 42
0.0000001
 43
0.0000001
 44
0.0000000001
 40
0.0
 40
0.0
 40
0.0
 40
0.0
 40
1.047883321792842
 40
3.143548308673798
 40
6.286791683069364
 40
8.382456669868354
 40
9.430336183424508
 40
9.430336183424508
 40
9.430336183424508
 40
9.430336183424508
 10
-39.97737940171633
 20
45.69785438737923
 30
0.0
 10
-40.03692063341309
 20
45.35366255106046
 30
0.0
 10
-40.21553855232075
 20
44.32112043266119
 30
0.0
 10
-40.50091529777745
 20
42.24436664112708
 30
0.0
 10
-40.71746595019345
 20
39.80776429877884
 30
0.0
 10
-40.80280806017618
 20
37.71323389873013
 30
0.0
 10
-40.80908378979607
 20
36.66537630278025
 30
0.0
 10
-40.81117576224966
 20
36.31607998844589
 30
0.0
 11
-39.97737940171633
 21
45.69785438737923
 31
0.0
 11
-40.15201143584966
 21
44.66462493137924
 31
0.0
 11
-40.44005989878299
 21
42.58885042044591
 31
0.0
 11
-40.71831582518299
 21
39.45794758737923
 31
0.0
 11
-40.80085545078299
 21
37.3639086796459
 31
0.0
 11
-40.81117576224966
 21
36.31607998844589
 31
0.0
  0
SPLINE
  5
65
100
AcDbEntity
  8
0
100
AcDbSpline
210
0.0
220
0.0
230
-1.0
 70
     8
 71
     3
 72
    10
 73
     6
 74
     4
 42
0.0000001
 43
0.0000001
 44
0.0000000001
 40
0.0
 40
0.0
 40
0.0
 40
0.0
 40
2.841184870701398
 40
5.682370509501282
 40
8.523555519469987
 40
8.523555519469987
 40
8.523555519469987
 40
8.523555519469987
 10
-41.85916432544966
 20
44.80204496231256
 30
0.0
 10
-41.99938140086827
 20
43.86526578648387
 30
0.0
 10
-42.27981558961238
 20
41.99170718157346
 30
0.0
 10
-42.5142921685286
 20
39.15733699082564
 30
0.0
 10
-42.54554789882893
 20
37.26316476114499
 30
0.0
 10
-42.56117576224966
 20
36.31607875111257
 30
0.0
 11
-41.85916432544966
 21
44.80204496231256
 31
0.0
 11
-42.24878644384967
 21
41.98770204177924
 31
0.0
 11
-42.48302667958299
 21
39.15618878097923
 31
0.0
 11
-42.56117576224966
 21
36.31607875111257
 31
0.0
  0
LWPOLYLINE
  5
66
100
AcDbEntity
  8
0
100
AcDbPolyline
 90
        4
 70
     0
 43
0.0
 10
-44.735059
 20
52.549383
 10
-44.856807
 20
52.514322
 10
-44.946919
 20
52.42421
 10
-44.98198
 20
52.302462
  0
SPLINE
  5
67
100
AcDbEntity
  8
0
100
AcDbSpline
210
0.0
220
0.0
230
-1.0
 70
     8
 71
     3
 72
    11
 73
     7
 74
     5
 42
0.0000001
 43
0.0000001
 44
0.0000000001
 40
0.0
 40
0.0
 40
0.0
 40
0.0
 40
0.0953528068195173
 40
0.191312275535481
 40
0.2872717442514407
 40
0.3826245510709427
 40
0.3826245510709427
 40
0.3826245510709427
 40
0.3826245510709427
 10
-44.93925427104966
 20
52.75357871911257
 30
0.0
 10
-44.97115971168985
 20
52.74917377969457
 30
0.0
 10
-45.03517358453147
 20
52.740335875371
 30
0.0
 10
-45.11561926219399
 20
52.6830222190569
 30
0.0
 10
-45.17293291850807
 20
52.60257654139437
 30
0.0
 10
-45.18177082283165
 20
52.53856266855276
 30
0.0
 10
-45.18617576224966
 20
52.50665722791257
 30
0.0
 11
-44.93925427104966
 21
52.75357871911257
 31
0.0
 11
-45.03237710731632
 21
52.73307761831257
 31
0.0
 11
-45.11175578358299
 21
52.67915874044589
 31
0.0
 11
-45.16567466144965
 21
52.59978006417923
 31
0.0
 11
-45.18617576224966
 21
52.50665722791257
 31
0.0
  0
LINE
  5
68
100
AcDbEntity
  8
0
100
AcDbLine
 10
-30.090407
 20
45.895576
 30
0.0
 11
-27.612144
 21
46.653257
 31
0.0
  0
LINE
  5
69
100
AcDbEntity
  8
0
100
AcDbLine
 10
-35.056542
 20
49.816226
 30
0.0
 11
-18.840976
 21
49.816226
 31
0.0
  0
LINE
  5
6A
100
AcDbEntity
  8
0
100
AcDbLine
 10
-30.942096
 20
48.806548
 30
0.0
 11
-18.552472
 21
48.83032
 31
0.0
  0
LINE
  5
6B
100
AcDbEntity
  8
0
100
AcDbLine
 10
-34.436987
 20
46.285071
 30
0.0
 11
-27.732915
 21
46.871601
 31
0.0
  0
SPLINE
  5
6D
100
AcDbEntity
  8
0
100
AcDbSpline
210
0.0
220
0.0
230
-1.0
 70
     8
 71
     3
 72
    13
 73
     9
 74
     7
 42
0.0000001
 43
0.0000001
 44
0.0000000001
 40
0.0
 40
0.0
 40
0.0
 40
0.0
 40
0.86267585783682
 40
1.731288990977852
 40
2.592435497542862
 40
3.453868104487707
 40
4.322647688608837
 40
5.185104569480733
 40
5.185104569480733
 40
5.185104569480733
 40
5.185104569480733
 10
-33.49021805024966
 20
42.28203081831257
 30
0.0
 10
-33.40896480057468
 20
42.55862538757378
 30
0.0
 10
-33.24589908433194
 20
43.11371815895022
 30
0.0
 10
-32.824605808957
 20
43.8756422747658
 30
0.0
 10
-32.28885591698295
 20
44.55782758699143
 30
0.0
 10
-31.64052622994451
 20
45.13417436895088
 30
0.0
 10
-30.90559066448333
 20
45.60110604218268
 30
0.0
 10
-30.36147281621417
 20
45.79765871585149
 30
0.0
 10
-30.09040748704966
 20
45.89557613457922
 30
0.0
 11
-33.49021805024966
 21
42.28203081831257
 31
0.0
 11
-33.21708983051633
 21
43.10032820391256
 31
0.0
 11
-32.80409166518299
 21
43.86447563111256
 31
0.0
 11
-32.27021793611632
 21
44.54016205777924
 31
0.0
 11
-31.62809198304966
 21
45.11439232231256
 31
0.0
 11
-30.89035829984966
 21
45.57322451217923
 31
0.0
 11
-30.09040748704966
 21
45.89557613457922
 31
0.0
  0
SPLINE
  5
6E
100
AcDbEntity
  8
0
100
AcDbSpline
210
0.0
220
0.0
230
-1.0
 70
     8
 71
     3
 72
    10
 73
     6
 74
     4
 42
0.0000001
 43
0.0000001
 44
0.0000000001
 40
0.0
 40
0.0
 40
0.0
 40
0.0
 40
1.992660393128017
 40
3.986436654377558
 40
5.981043823076721
 40
5.981043823076721
 40
5.981043823076721
 40
5.981043823076721
 10
-33.86336101344966
 20
36.31608123431258
 30
0.0
 10
-33.85506530265418
 20
36.98031133595817
 30
0.0
 10
-33.83846923555552
 20
38.30914350087329
 30
0.0
 10
-33.71388035282915
 20
40.3000812622482
 30
0.0
 10
-33.56478384327303
 20
41.62127852556217
 30
0.0
 10
-33.49022005771633
 20
42.28201478097924
 30
0.0
 11
-33.86336101344966
 21
36.31608123431258
 31
0.0
 11
-33.82187220384966
 21
38.3083096652459
 31
0.0
 11
-33.69740053984966
 21
40.2981967436459
 31
0.0
 11
-33.49022005771633
 21
42.28201478097924
 31
0.0
  0
SPLINE
  5
6F
100
AcDbEntity
  8
0
100
AcDbSpline
210
-0.0200577585168919
220
0.9997988229255314
230
0.0
 70
    24
 71
     3
 72
     8
 73
     4
 74
     2
 42
0.0000001
 43
0.0000001
 44
0.0000000001
 40
0.0
 40
0.0
 40
0.0
 40
0.0
 40
0.2006247173603787
 40
0.2006247173603787
 40
0.2006247173603787
 40
0.2006247173603787
 10
-35.25633051744966
 20
49.81205463697924
 30
0.0
 10
-35.18946906536078
 20
49.81339599769035
 30
0.0
 10
-35.12260761327188
 20
49.81473735840146
 30
0.0
 10
-35.05574616118299
 20
49.81607871911258
 30
0.0
 11
-35.25633051744966
 21
49.81205463697924
 31
0.0
 11
-35.05574616118299
 21
49.81607871911258
 31
0.0
  0
SPLINE
  5
70
100
AcDbEntity
  8
0
100
AcDbSpline
210
0.0
220
0.0
230
-1.0
 70
     8
 71
     3
 72
    26
 73
    22
 74
    20
 42
0.0000001
 43
0.0000001
 44
0.0000000001
 40
0.0
 40
0.0
 40
0.0
 40
0.0
 40
0.0246835491226941
 40
0.0431460278207731
 40
0.06630367063132
 40
0.0977035294722311
 40
0.1308086294089091
 40
0.1627648123304581
 40
0.1964086118616933
 40
0.2319749506677258
 40
0.2699560591615237
 40
0.3109441634937368
 40
0.3555257938311901
 40
0.4042958387861691
 40
0.457511244654563
 40
0.5143579871910442
 40
0.5752076028276239
 40
0.641003394605875
 40
0.7127147149635991
 40
0.7913009722957116
 40
0.8777275458426498
 40
0.8777275458426498
 40
0.8777275458426498
 40
0.8777275458426498
 10
-35.063001882783
 20
49.81615574844589
 30
0.0
 10
-35.07122970175578
 20
49.81612850685715
 30
0.0
 10
-35.08561165730599
 20
49.81608088946066
 30
0.0
 10
-35.10771289414603
 20
49.81611191742437
 30
0.0
 10
-35.13205287860591
 20
49.81611897877827
 30
0.0
 10
-35.16127374427634
 20
49.8161358636159
 30
0.0
 10
-35.19342745423945
 20
49.81614973741955
 30
0.0
 10
-35.22632914581807
 20
49.81616333655288
 30
0.0
 10
-35.26005125066565
 20
49.81617547336377
 30
0.0
 10
-35.29578166455766
 20
49.81618666292954
 30
0.0
 10
-35.33396018048191
 20
49.81619662308155
 30
0.0
 10
-35.37514379402394
 20
49.81620508876432
 30
0.0
 10
-35.41992372012164
 20
49.8162115953486
 30
0.0
 10
-35.46877941372502
 20
49.81621549046141
 30
0.0
 10
-35.52172347822578
 20
49.81621591671947
 30
0.0
 10
-35.57869406616449
 20
49.81621197097293
 30
0.0
 10
-35.63985811551151
 20
49.81620266460625
 30
0.0
 10
-35.70597702296035
 20
49.81618675637045
 30
0.0
 10
-35.7780081420538
 20
49.81616230401866
 30
0.0
 10
-35.85691618518872
 20
49.81612782608862
 30
0.0
 10
-35.91192045277614
 20
49.81609559851811
 30
0.0
 10
-35.94072930571633
 20
49.81607871911258
 30
0.0
 11
-35.063001882783
 21
49.81615574844589
 31
0.0
 11
-35.08768536011632
 21
49.81609621671257
 31
0.0
 11
-35.10614783584967
 21
49.81610667964591
 31
0.0
 11
-35.12930547531633
 21
49.8161191244459
 31
0.0
 11
-35.16070533024967
 21
49.81613478951257
 31
0.0
 11
-35.193810426783
 21
49.81614980071256
 31
0.0
 11
-35.22576660704966
 21
49.8161628268459
 31
0.0
 11
-35.25941040438299
 21
49.81617498791256
 31
0.0
 11
-35.29497674144966
 21
49.81618611111257
 31
0.0
 11
-35.33295784864967
 21
49.81619602471258
 31
0.0
 11
-35.37394595211633
 21
49.81620444817924
 31
0.0
 11
-35.418527581983
 21
49.81621092711256
 31
0.0
 11
-35.46729762678299
 21
49.81621481511256
 31
0.0
 11
-35.52051303264966
 21
49.81621524391258
 31
0.0
 11
-35.57735977504965
 21
49.81621130471257
 31
0.0
 11
-35.63820938998299
 21
49.81620205351257
 31
0.0
 11
-35.70400517984966
 21
49.81618619324589
 31
0.0
 11
-35.77571649611633
 21
49.81616197031256
 31
0.0
 11
-35.85430274571632
 21
49.81612710951257
 31
0.0
 11
-35.94072930571633
 21
49.81607871911258
 31
0.0
  0
SPLINE
  5
71
100
AcDbEntity
  8
0
100
AcDbSpline
210
0.0
220
0.0
230
-1.0
 70
     8
 71
     3
 72
    13
 73
     9
 74
     7
 42
0.0000001
 43
0.0000001
 44
0.0000000001
 40
0.0
 40
0.0
 40
0.0
 40
0.0
 40
0.4636231811922795
 40
0.9272407666763129
 40
1.391305600808474
 40
1.855370436030597
 40
2.265141175765214
 40
2.674907668714835
 40
2.674907668714835
 40
2.674907668714835
 40
2.674907668714835
 10
-34.43698667211633
 20
46.28507100711257
 30
0.0
 10
-34.59037813956965
 20
46.26185103529899
 30
0.0
 10
-34.89715922311523
 20
46.21541137192569
 30
0.0
 10
-35.32504034053349
 20
46.02262295527405
 30
0.0
 10
-35.70215687562445
 20
45.74699145185955
 30
0.0
 10
-35.99702893068399
 20
45.4080364065274
 30
0.0
 10
-36.21136615686694
 20
45.03322835879214
 30
0.0
 10
-36.28658609625024
 20
44.76974014032433
 30
0.0
 10
-36.32419587104966
 20
44.63799671377922
 30
0.0
 11
-34.43698667211633
 21
46.28507100711257
 31
0.0
 11
-34.89175647691633
 21
46.19489962151257
 31
0.0
 11
-35.31642893238299
 21
46.00890346257924
 31
0.0
 11
-35.69042365878299
 21
45.73415973671257
 31
0.0
 11
-35.99583045878299
 21
45.38475616231257
 31
0.0
 11
-36.19595989344967
 21
45.02718061991257
 31
0.0
 11
-36.32419587104966
 21
44.63799671377922
 31
0.0
  0
SPLINE
  5
72
100
AcDbEntity
  8
0
100
AcDbSpline
210
0.0
220
0.0
230
-1.0
 70
     8
 71
     3
 72
    14
 73
    10
 74
     8
 42
0.0000001
 43
0.0000001
 44
0.0000000001
 40
0.0
 40
0.0
 40
0.0
 40
0.0
 40
0.9472439873652156
 40
1.928409662474286
 40
2.940213564746474
 40
3.997585361160038
 40
5.100204116320552
 40
6.235555354238793
 40
7.389519446668809
 40
7.389519446668809
 40
7.389519446668809
 40
7.389519446668809
 10
-36.32465955958299
 20
44.6381017484459
 30
0.0
 10
-36.2527698968379
 20
44.94670265891373
 30
0.0
 10
-36.10641613569632
 20
45.57495576532807
 30
0.0
 10
-35.6383294417305
 20
46.44836441207192
 30
0.0
 10
-34.99200048007144
 20
47.24005952564876
 30
0.0
 10
-34.16438009021383
 20
47.91125018847888
 30
0.0
 10
-33.18447510148753
 20
48.41967782222976
 30
0.0
 10
-32.09228705056689
 20
48.75217716640337
 30
0.0
 10
-31.32756550396924
 20
48.78832614760948
 30
0.0
 10
-30.94209601718299
 20
48.80654758951258
 30
0.0
 11
-36.32465955958299
 21
44.6381017484459
 31
0.0
 11
-36.07022808544965
 21
45.55053574417923
 31
0.0
 11
-35.61775768224966
 21
46.42114278311257
 31
0.0
 11
-34.97739076064966
 21
47.20451839057924
 31
0.0
 11
-34.15733018891633
 21
47.87200305297924
 31
0.0
 11
-33.18082558731633
 21
48.38406445777923
 31
0.0
 11
-32.09149895051632
 21
48.70404869457924
 31
0.0
 11
-30.94209601718299
 21
48.80654758951258
 31
0.0
  0
SPLINE
  5
73
100
AcDbEntity
  8
0
100
AcDbSpline
210
0.0
220
0.0
230
-1.0
 70
     8
 71
     3
 72
    17
 73
    13
 74
    11
 42
0.0000001
 43
0.0000001
 44
0.0000000001
 40
0.0
 40
0.0
 40
0.0
 40
0.0
 40
0.6443151968803803
 40
1.29705570920089
 40
1.949793679624185
 40
2.8196392675622
 40
3.254974774548915
 40
3.907720089520394
 40
4.56045401227566
 40
5.140750668495179
 40
5.721060375135828
 40
6.30136361673249
 40
6.30136361673249
 40
6.30136361673249
 40
6.30136361673249
 10
-35.71547432864966
 20
49.77236263377924
 30
0.0
 10
-35.92745859952406
 20
49.73607037270529
 30
0.0
 10
-36.35419912982615
 20
49.66301127887404
 30
0.0
 10
-36.97086806471455
 20
49.44894434364877
 30
0.0
 10
-37.62346039579776
 20
49.129631332887
 30
0.0
 10
-38.16151843437457
 20
48.75323683431126
 30
0.0
 10
-38.64381537696223
 20
48.31270335006931
 30
0.0
 10
-39.02813045060248
 20
47.87560091467558
 30
0.0
 10
-39.37983104930951
 20
47.35230932239113
 30
0.0
 10
-39.65173343840395
 20
46.81130157307224
 30
0.0
 10
-39.85582112246904
 20
46.2659555901632
 30
0.0
 10
-39.93686012577298
 20
45.88722075174278
 30
0.0
 10
-39.97737940171633
 20
45.69785438737923
 30
0.0
 11
-35.71547432864966
 21
49.77236263377924
 31
0.0
 11
-36.34735170571633
 21
49.64637432764591
 31
0.0
 11
-36.96555679371633
 21
49.43686861031256
 31
0.0
 11
-37.55128060064966
 21
49.14878098471255
 31
0.0
 11
-38.26441600864966
 21
48.65071549031257
 31
0.0
 11
-38.585808247583
 21
48.35707620071257
 31
0.0
 11
-39.01694952651633
 21
47.86698065511258
 31
0.0
 11
-39.38070909344967
 21
47.32500228711257
 31
0.0
 11
-39.642239354783
 21
46.80698092497924
 31
0.0
 11
-39.84206667211633
 21
46.26216132284591
 31
0.0
 11
-39.97737940171633
 21
45.69785438737923
 31
0.0
  0
SPLINE
  5
74
100
AcDbEntity
  8
0
100
AcDbSpline
210
-0.980579056391776
220
0.1961242314600982
230
0.0
 70
    24
 71
     3
 72
     8
 73
     4
 74
     2
 42
0.0000001
 43
0.0000001
 44
0.0000000001
 40
0.0
 40
0.0
 40
0.0
 40
0.0
 40
0.1082605290972623
 40
0.1082605290972623
 40
0.1082605290972623
 40
0.1082605290972623
 10
-36.32419789451633
 20
44.63799691004591
 30
0.0
 10
-36.33127539887188
 20
44.60261090755702
 30
0.0
 10
-36.33835290322743
 20
44.56722490506813
 30
0.0
 10
-36.34543040758299
 20
44.53183890257924
 30
0.0
 11
-36.32419789451633
 21
44.63799691004591
 31
0.0
 11
-36.34543040758299
 21
44.53183890257924
 31
0.0
  0
LINE
  5
75
100
AcDbEntity
  8
0
100
AcDbLine
 10
-35.94073
 20
49.816079
 30
0.0
 11
-35.715471
 21
49.772363
 31
0.0
  0
SPLINE
  5
76
100
AcDbEntity
  8
0
100
AcDbSpline
210
0.0
220
0.0
230
-1.0
 70
     8
 71
     3
 72
     9
 73
     5
 74
     3
 42
0.0000001
 43
0.0000001
 44
0.0000000001
 40
0.0
 40
0.0
 40
0.0
 40
0.0
 40
0.234814092814127
 40
0.4609788277558592
 40
0.4609788277558592
 40
0.4609788277558592
 40
0.4609788277558592
 10
-35.25633051744966
 20
49.81205463697924
 30
0.0
 10
-35.33452321399205
 20
49.80799584438358
 30
0.0
 10
-35.4880283855054
 20
49.80002776448502
 30
0.0
 10
-35.64061333272785
 20
49.78146826656526
 30
0.0
 10
-35.71547432864966
 20
49.77236263377924
 30
0.0
 11
-35.25633051744966
 21
49.81205463697924
 31
0.0
 11
-35.49066983691632
 21
49.79713010897924
 31
0.0
 11
-35.71547432864966
 21
49.77236263377924
 31
0.0
  0
SPLINE
  5
78
100
AcDbEntity
  8
0
100
AcDbSpline
210
0.0
220
0.0
230
1.0
 70
     8
 71
     3
 72
     9
 73
     5
 74
     3
 42
0.0000001
 43
0.0000001
 44
0.0000000001
 40
0.0
 40
0.0
 40
0.0
 40
0.0
 40
0.0780472536153459
 40
0.3573384813046441
 40
0.3573384813046441
 40
0.3573384813046441
 40
0.3573384813046441
 10
-26.98038169611633
 20
46.97366194151257
 30
0.0
 10
-26.95480757139645
 20
46.97843941238535
 30
0.0
 10
-26.83771672623829
 20
47.00031300955986
 30
0.0
 10
-26.72141069193668
 20
47.02609298084947
 30
0.0
 10
-26.63050736971633
 20
47.04624227964591
 30
0.0
 11
-26.98038169611633
 21
46.97366194151257
 31
0.0
 11
-26.90369676064966
 21
46.98818070417924
 31
0.0
 11
-26.63050736971633
 21
47.04624227964591
 31
0.0
  0
SPLINE
  5
79
100
AcDbEntity
  8
0
100
AcDbSpline
210
-0.1343924322984594
220
0.9909281881856546
230
0.0
 70
    24
 71
     3
 72
     8
 73
     4
 74
     2
 42
0.0000001
 43
0.0000001
 44
0.0000000001
 40
0.0
 40
0.0
 40
0.0
 40
0.0
 40
0.7594227848584258
 40
0.7594227848584258
 40
0.7594227848584258
 40
0.7594227848584258
 10
-27.73291514038299
 20
46.87160126631257
 30
0.0
 10
-27.48207065896076
 20
46.90562149137924
 30
0.0
 10
-27.23122617753855
 20
46.9396417164459
 30
0.0
 10
-26.98038169611633
 20
46.97366194151257
 30
0.0
 11
-27.73291514038299
 21
46.87160126631257
 31
0.0
 11
-26.98038169611633
 21
46.97366194151257
 31
0.0
  0
LINE
  5
7B
100
AcDbEntity
  8
0
100
AcDbLine
 10
-26.091187
 20
47.190721
 30
0.0
 11
-24.266558
 21
47.748566
 31
0.0
  0
SPLINE
  5
7E
100
AcDbEntity
  8
0
100
AcDbSpline
210
-0.2684359465597762
220
0.9632975358603161
230
0.0
 70
    24
 71
     3
 72
     8
 73
     4
 74
     2
 42
0.0000001
 43
0.0000001
 44
0.0000000001
 40
0.0
 40
0.0
 40
0.0
 40
0.0
 40
0.3980546034763949
 40
0.3980546034763949
 40
0.3980546034763949
 40
0.3980546034763949
 10
-26.47463245984966
 20
47.08386863911258
 30
0.0
 10
-26.34681745362744
 20
47.11948602720147
 30
0.0
 10
-26.21900244740522
 20
47.15510341529035
 30
0.0
 10
-26.09118744118299
 20
47.19072080337924
 30
0.0
 11
-26.47463245984966
 21
47.08386863911258
 31
0.0
 11
-26.09118744118299
 21
47.19072080337924
 31
0.0
  0
SPLINE
  5
7F
100
AcDbEntity
  8
0
100
AcDbSpline
210
-0.2346486725574813
220
0.9720802438415317
230
0.0
 70
    24
 71
     3
 72
     8
 73
     4
 74
     2
 42
0.0000001
 43
0.0000001
 44
0.0000000001
 40
0.0
 40
0.0
 40
0.0
 40
0.0
 40
0.1603518956939925
 40
0.1603518956939925
 40
0.1603518956939925
 40
0.1603518956939925
 10
-26.63050736971633
 20
47.04624227964591
 30
0.0
 10
-26.57854906642743
 20
47.05878439946813
 30
0.0
 10
-26.52659076313855
 20
47.07132651929035
 30
0.0
 10
-26.47463245984966
 20
47.08386863911258
 30
0.0
 11
-26.63050736971633
 21
47.04624227964591
 31
0.0
 11
-26.47463245984966
 21
47.08386863911258
 31
0.0
  0
SPLINE
  5
87
100
AcDbEntity
  8
0
100
AcDbSpline
210
0.0
220
0.0
230
-1.0
 70
     8
 71
     3
 72
    19
 73
    15
 74
    13
 42
0.0000001
 43
0.0000001
 44
0.0000000001
 40
0.0
 40
0.0
 40
0.0
 40
0.0
 40
0.3394695491555051
 40
0.6556525522589999
 40
0.9278651224517391
 40
1.139298938267211
 40
1.277135599417895
 40
1.342216750238261
 40
1.40885571751868
 40
1.54993692853291
 40
1.764087458533918
 40
2.039086759131616
 40
2.355471740434215
 40
2.692676310198964
 40
2.692676310198964
 40
2.692676310198964
 40
2.692676310198964
 10
24.11282802868367
 20
36.3160757612459
 30
0.0
 10
24.11365546005072
 20
36.20295988704246
 30
0.0
 10
24.11525356358894
 20
35.98448753272677
 30
0.0
 10
24.130252577295
 20
35.67485291303341
 30
0.0
 10
24.14956109761781
 20
35.41084379817275
 30
0.0
 10
24.18612012680706
 20
35.20109274282948
 30
0.0
 10
24.20672236618612
 20
35.07594499560026
 30
0.0
 10
24.27646622399469
 20
34.98044901033505
 30
0.0
 10
24.35026781091007
 20
35.07535554461226
 30
0.0
 10
24.37906752421398
 20
35.20021348939799
 30
0.0
 10
24.42586622898559
 20
35.411502274247
 30
0.0
 10
24.45530391437495
 20
35.67635824591651
 30
0.0
 10
24.47780427657753
 20
35.98591762200335
 30
0.0
 10
24.48040561719648
 20
36.20371050769861
 30
0.0
 10
24.48174771935033
 20
36.31607576231256
 30
0.0
 11
24.11282802868367
 21
36.3160757612459
 31
0.0
 11
24.11772313908366
 21
35.97664150737924
 31
0.0
 11
24.132318482017
 21
35.66079555217923
 31
0.0
 11
24.15634239881699
 21
35.38964516071257
 31
0.0
 11
24.18928428468366
 21
35.18079332177923
 31
0.0
 11
24.22990958281701
 21
35.04907950204589
 31
0.0
 11
24.276442504417
 21
35.00357957457923
 31
0.0
 11
24.325804632417
 21
35.04834711057924
 31
0.0
 11
24.37441493428368
 21
35.18078934951257
 31
0.0
 11
24.417812098017
 21
35.39049661137924
 31
0.0
 11
24.452216878817
 21
35.66333525671257
 31
0.0
 11
24.47419835188366
 21
35.97895571111257
 31
0.0
 11
24.48174771935033
 21
36.31607576231256
 31
0.0
  0
SPLINE
  5
88
100
AcDbEntity
  8
0
100
AcDbSpline
210
0.0
220
0.0
230
1.0
 70
     8
 71
     3
 72
    10
 73
     6
 74
     4
 42
0.0000001
 43
0.0000001
 44
0.0000000001
 40
0.0
 40
0.0
 40
0.0
 40
0.0
 40
2.063745859632859
 40
4.127492048125583
 40
6.191237804128681
 40
6.191237804128681
 40
6.191237804128681
 40
6.191237804128681
 10
25.18882423775033
 20
36.31607871911257
 30
0.0
 10
25.1782356224161
 20
35.62814808739546
 30
0.0
 10
25.15705839006032
 20
34.25228671433885
 30
0.0
 10
24.99819455456798
 20
32.19284710112215
 30
0.0
 10
24.80811076480594
 20
30.83001510462648
 30
0.0
 10
24.71306887988367
 20
30.14859917777924
 30
0.0
 11
25.18882423775033
 21
36.31607871911257
 31
0.0
 11
25.13587539615034
 21
34.25301221671257
 31
0.0
 11
24.977150898017
 21
32.1953789004459
 31
0.0
 11
24.71306887988367
 21
30.14859917777924
 31
0.0
  0
SPLINE
  5
89
100
AcDbEntity
  8
0
100
AcDbSpline
210
0.0
220
0.0
230
1.0
 70
     8
 71
     3
 72
    10
 73
     6
 74
     4
 42
0.0000001
 43
0.0000001
 44
0.0000000001
 40
0.0
 40
0.0
 40
0.0
 40
0.0
 40
2.210243447008339
 40
4.420487268128938
 40
6.630743629549594
 40
6.630743629549594
 40
6.630743629549594
 40
6.630743629549594
 10
24.68882423775033
 20
36.3160757644459
 30
0.0
 10
24.67731355236427
 20
35.57931100935461
 30
0.0
 10
24.65429217964382
 20
34.10578137446509
 30
0.0
 10
24.48159347223988
 20
31.90028532445565
 30
0.0
 10
24.27497369085225
 20
30.44112784949767
 30
0.0
 10
24.17166350708367
 20
29.71154704231256
 30
0.0
 11
24.68882423775033
 21
36.3160757644459
 31
0.0
 11
24.63126446601699
 21
34.10658193831256
 31
0.0
 11
24.458722130017
 21
31.90308315431257
 31
0.0
 11
24.17166350708367
 21
29.71154704231256
 31
0.0
  0
LINE
  5
8A
100
AcDbEntity
  8
CENTER
 48
3.0
100
AcDbLine
 10
18.563824
 20
38.843217
 30
0.0
 11
18.563824
 21
33.78894
 31
0.0
  0
CIRCLE
  5
8B
100
AcDbEntity
  8
0
100
AcDbCircle
 10
18.563824
 20
36.316079
 30
0.0
 40
1.375
  0
CIRCLE
  5
8C
100
AcDbEntity
  8
0
100
AcDbCircle
 10
18.563824
 20
36.316079
 30
0.0
 40
1.71875
  0
SPLINE
  5
8D
100
AcDbEntity
  8
0
100
AcDbSpline
210
0.0
220
0.0
230
1.0
 70
     8
 71
     3
 72
    11
 73
     7
 74
     5
 42
0.0000001
 43
0.0000001
 44
0.0000000001
 40
0.0
 40
0.0
 40
0.0
 40
0.0
 40
1.54645953980617
 40
3.092876102455321
 40
4.639127884011989
 40
6.1849133207111
 40
6.1849133207111
 40
6.1849133207111
 40
6.1849133207111
 10
22.06565354655033
 20
30.15340650577924
 30
0.0
 10
22.13634604210949
 20
30.6640901975591
 30
0.0
 10
22.2777290686355
 20
31.68544338887349
 30
0.0
 10
22.41663288526278
 20
33.22602962527187
 30
0.0
 10
22.50662075194958
 20
34.77002067187632
 30
0.0
 10
22.51751401706197
 20
35.80077588542365
 30
0.0
 10
22.52295982815033
 20
36.31607576231256
 30
0.0
 11
22.06565354655033
 21
30.15340650577924
 31
0.0
 11
22.26553650335034
 21
31.68689400551257
 31
0.0
 11
22.40848669215034
 21
33.22668926097924
 31
0.0
 11
22.494352722017
 21
34.77055505724591
 31
0.0
 11
22.52295982815033
 21
36.31607576231256
 31
0.0
  0
LINE
  5
8E
100
AcDbEntity
  8
0
100
AcDbLine
 10
17.68951
 20
26.420131
 30
0.0
 11
-5.414094
 21
26.420131
 31
0.0
  0
LINE
  5
8F
100
AcDbEntity
  8
0
100
AcDbLine
 10
-5.694242
 20
24.645428
 30
0.0
 11
18.244827
 21
24.645428
 31
0.0
  0
LWPOLYLINE
  5
90
100
AcDbEntity
  8
0
100
AcDbPolyline
 90
        5
 70
     0
 43
0.0
 10
-5.438299
 20
25.478747
 10
-5.903867
 20
25.801319
 10
-6.398889
 20
26.071141
 10
-6.917761
 20
26.285159
 10
-7.454607
 20
26.44095
  0
LWPOLYLINE
  5
91
100
AcDbEntity
  8
0
100
AcDbPolyline
 90
        8
 70
     0
 43
0.0
 10
-7.867482
 20
25.947239
 10
-7.595816
 20
25.870884
 10
-7.33739
 20
25.753512
 10
-7.097952
 20
25.597734
 10
-6.882826
 20
25.407013
 10
-6.696794
 20
25.18559
 10
-6.543995
 20
24.938389
 10
-6.464561
 20
24.755489
  0
LWPOLYLINE
  5
92
100
AcDbEntity
  8
0
100
AcDbPolyline
 90
        9
 70
     0
 43
0.0
 10
-9.661953
 20
26.456642
 10
-9.185362
 20
26.529725
 10
-8.631538
 20
26.556474
 10
-8.077117
 20
26.521752
 10
-7.528377
 20
26.425954
 10
-6.991531
 20
26.270164
 10
-6.472659
 20
26.056145
 10
-5.977637
 20
25.786323
 10
-5.512069
 20
25.463751
  0
SPLINE
  5
93
100
AcDbEntity
  8
0
100
AcDbSpline
210
0.0
220
0.0
230
-1.0
 70
     8
 71
     3
 72
     9
 73
     5
 74
     3
 42
0.0000001
 43
0.0000001
 44
0.0000000001
 40
0.0
 40
0.0
 40
0.0
 40
0.0
 40
0.3789118213991407
 40
1.281558259001003
 40
1.281558259001003
 40
1.281558259001003
 40
1.281558259001003
 10
-7.918784576116332
 20
24.6648789004459
 30
0.0
 10
-7.792550271773325
 20
24.66931335005133
 30
0.0
 10
-7.365599709231721
 20
24.68431157706621
 30
0.0
 10
-6.938344414843904
 20
24.68155628267321
 30
0.0
 10
-6.63741352331633
 20
24.67961563217923
 30
0.0
 11
-7.918784576116332
 21
24.6648789004459
 31
0.0
 11
-7.540055024116331
 21
24.6766302764459
 31
0.0
 11
-6.63741352331633
 21
24.67961563217923
 31
0.0
  0
SPLINE
  5
94
100
AcDbEntity
  8
0
100
AcDbSpline
210
0.0
220
0.0
230
-1.0
 70
     8
 71
     3
 72
     9
 73
     5
 74
     3
 42
0.0000001
 43
0.0000001
 44
0.0000000001
 40
0.0
 40
0.0
 40
0.0
 40
0.0
 40
0.7979517819750725
 40
1.595832938610325
 40
1.595832938610325
 40
1.595832938610325
 40
1.595832938610325
 10
-6.442663760116332
 20
24.63380942311257
 30
0.0
 10
-6.708044745737128
 20
24.6105799350774
 30
0.0
 10
-7.238783228564113
 20
24.56412301500911
 30
0.0
 10
-7.756710633903247
 20
24.4392523128925
 30
0.0
 10
-8.015662875849665
 20
24.37681972497924
 30
0.0
 11
-6.442663760116332
 21
24.63380942311257
 31
0.0
 11
-7.23560366411633
 21
24.54451577831257
 31
0.0
 11
-8.015662875849665
 21
24.37681972497924
 31
0.0
  0
SPLINE
  5
95
100
AcDbEntity
  8
0
100
AcDbSpline
210
0.0
220
0.0
230
-1.0
 70
     8
 71
     3
 72
    15
 73
    11
 74
     9
 42
0.0000001
 43
0.0000001
 44
0.0000000001
 40
0.0
 40
0.0
 40
0.0
 40
0.0
 40
0.5430774023561835
 40
1.099932703607376
 40
1.654448595132116
 40
2.206825043912342
 40
2.757360242532961
 40
3.306437974765796
 40
3.854510747565313
 40
4.40207891693569
 40
4.40207891693569
 40
4.40207891693569
 40
4.40207891693569
 10
-5.433102300916331
 20
25.4861961292459
 30
0.0
 10
-5.579859013408331
 20
25.5924476820834
 30
0.0
 10
-5.877095662997341
 20
25.80764639458366
 30
0.0
 10
-6.363522496455038
 20
26.07073814841982
 30
0.0
 10
-6.875772907490207
 20
26.28542857323482
 30
0.0
 10
-7.406591504245833
 20
26.4425747404752
 30
0.0
 10
-7.949372228132227
 20
26.54193408647336
 30
0.0
 10
-8.498079485587775
 20
26.58068984915219
 30
0.0
 10
-9.047710160167568
 20
26.56384607393828
 30
0.0
 10
-9.408080475284478
 20
26.50236450656375
 30
0.0
 10
-9.588182647582996
 20
26.47163788071257
 30
0.0
 11
-5.433102300916331
 21
25.4861961292459
 31
0.0
 11
-5.879748687049664
 21
25.79512989351257
 31
0.0
 11
-6.368082472649665
 21
26.06274517777924
 31
0.0
 11
-6.87986989024966
 21
26.27619660817924
 31
0.0
 11
-7.409476090782992
 21
26.43315843004589
 31
0.0
 11
-7.951079058249665
 21
26.53192700071257
 31
0.0
 11
-8.498733514782992
 21
26.5714358892459
 31
0.0
 11
-9.046434950516331
 21
26.5512640876459
 31
0.0
 11
-9.588182647582996
 21
26.47163788071257
 31
0.0
  0
SPLINE
  5
96
100
AcDbEntity
  8
0
100
AcDbSpline
210
0.0
220
0.0
230
-1.0
 70
     8
 71
     3
 72
    14
 73
    10
 74
     8
 42
0.0000001
 43
0.0000001
 44
0.0000000001
 40
0.0
 40
0.0
 40
0.0
 40
0.0
 40
0.1123693602674254
 40
0.3748120791954118
 40
0.6359815452293951
 40
0.8956305283500508
 40
1.153651453075959
 40
1.410087742604239
 40
1.665122314743107
 40
1.665122314743107
 40
1.665122314743107
 40
1.665122314743107
 10
-6.594775840116327
 20
24.76289876071257
 30
0.0
 10
-6.610672516339022
 20
24.79682312200967
 30
0.0
 10
-6.663696456789917
 20
24.90997906027327
 30
0.0
 10
-6.776227569608472
 20
25.09076079011873
 30
0.0
 10
-6.943959664384318
 20
25.29185109067461
 30
0.0
 10
-7.138490530448259
 20
25.46538292787415
 30
0.0
 10
-7.355292682238113
 20
25.6066380065727
 30
0.0
 10
-7.5890546686983
 20
25.71587019279673
 30
0.0
 10
-7.754893105392654
 20
25.75685486045349
 30
0.0
 10
-7.837585078516331
 20
25.77729103377924
 30
0.0
 11
-6.594775840116327
 21
24.76289876071257
 31
0.0
 11
-6.643660895049658
 21
24.86407743697924
 31
0.0
 11
-6.781346817182996
 21
25.08750251964591
 31
0.0
 11
-6.948950852382992
 21
25.2877982444459
 31
0.0
 11
-7.142842900382992
 21
25.46049296977924
 31
0.0
 11
-7.358806013982999
 21
25.6016833772459
 31
0.0
 11
-7.592109841182997
 21
25.70812065831257
 31
0.0
 11
-7.837585078516331
 21
25.77729103377924
 31
0.0
  0
LWPOLYLINE
  5
97
100
AcDbEntity
  8
0
100
AcDbPolyline
 90
       15
 70
     0
 43
0.0
 10
-5.964417
 20
25.320321
 10
-6.388522
 20
25.590038
 10
-6.835741
 20
25.814599
 10
-7.301558
 20
25.991741
 10
-7.781285
 20
26.119683
 10
-8.27009
 20
26.19714
 10
-8.763054
 20
26.223334
 10
-9.255214
 20
26.198002
 10
-9.741617
 20
26.1214
 10
-10.217367
 20
25.994298
 10
-10.677673
 20
25.817976
 10
-11.117903
 20
25.594205
 10
-11.533624
 20
25.325236
 10
-11.920649
 20
25.013775
 10
-12.275071
 20
24.662961
  0
SPLINE
  5
98
100
AcDbEntity
  8
0
100
AcDbSpline
210
0.0
220
0.0
230
1.0
 70
     8
 71
     3
 72
    10
 73
     6
 74
     4
 42
0.0000001
 43
0.0000001
 44
0.0000000001
 40
0.0
 40
0.0
 40
0.0
 40
0.0
 40
2.094056737023547
 40
4.187915103125806
 40
6.281196821287489
 40
6.281196821287489
 40
6.281196821287489
 40
6.281196821287489
 10
-18.32168582944966
 20
24.5904317964459
 30
0.0
 10
-17.62362047824411
 20
24.60869126477819
 30
0.0
 10
-16.2275559038726
 20
24.64520847171527
 30
0.0
 10
-14.14647228364323
 20
24.91922466480972
 30
0.0
 10
-12.78878093252498
 20
25.24523116470934
 30
0.0
 10
-12.11002874678299
 20
25.4082119660459
 30
0.0
 11
-18.32168582944966
 21
24.5904317964459
 31
0.0
 11
-16.22962153184966
 21
24.6817586412459
 31
0.0
 11
-14.15368082358299
 21
24.95509549031257
 31
0.0
 11
-12.11002874678299
 21
25.4082119660459
 31
0.0
  0
LINE
  5
99
100
AcDbEntity
  8
0
100
AcDbLine
 10
-12.880529
 20
23.662874
 30
0.0
 11
-13.765506
 21
23.409745
 31
0.0
  0
SPLINE
  5
9A
100
AcDbEntity
  8
0
100
AcDbSpline
210
-0.2042865348661269
220
0.9789111357382706
230
0.0
 70
    24
 71
     3
 72
     8
 73
     4
 74
     2
 42
0.0000001
 43
0.0000001
 44
0.0000000001
 40
0.0
 40
0.0
 40
0.0
 40
0.0
 40
0.8965632805250448
 40
0.8965632805250448
 40
0.8965632805250448
 40
0.8965632805250448
 10
-12.82309522678299
 20
23.08867210897923
 30
0.0
 10
-13.11564715318299
 20
23.02762017369035
 30
0.0
 10
-13.40819907958299
 20
22.96656823840145
 30
0.0
 10
-13.70075100598299
 20
22.90551630311257
 30
0.0
 11
-12.82309522678299
 21
23.08867210897923
 31
0.0
 11
-13.70075100598299
 21
22.90551630311257
 31
0.0
  0
SPLINE
  5
9B
100
AcDbEntity
  8
0
100
AcDbSpline
210
0.0
220
0.0
230
1.0
 70
     8
 71
     3
 72
     9
 73
     5
 74
     3
 42
0.0000001
 43
0.0000001
 44
0.0000000001
 40
0.0
 40
0.0
 40
0.0
 40
0.0
 40
0.1193903580463424
 40
1.321267533124153
 40
1.321267533124153
 40
1.321267533124153
 40
1.321267533124153
 10
-13.83454928011633
 20
23.57319900817923
 30
0.0
 10
-13.79577852050086
 20
23.58217895194872
 30
0.0
 10
-13.36671082397386
 20
23.68155806719778
 30
0.0
 10
-12.94060280112613
 20
23.79313898398002
 30
0.0
 10
-12.55299810038299
 20
23.8946373964459
 30
0.0
 11
-13.83454928011633
 21
23.57319900817923
 31
0.0
 11
-13.71826116704966
 21
23.60023846737923
 31
0.0
 11
-12.55299810038299
 21
23.8946373964459
 31
0.0
  0
SPLINE
  5
9D
100
AcDbEntity
  8
0
100
AcDbSpline
210
0.0
220
0.0
230
1.0
 70
     8
 71
     3
 72
     9
 73
     5
 74
     3
 42
0.0000001
 43
0.0000001
 44
0.0000000001
 40
0.0
 40
0.0
 40
0.0
 40
0.0
 40
0.1585219976085216
 40
0.6338338938456617
 40
0.6338338938456617
 40
0.6338338938456617
 40
0.6338338938456617
 10
-15.77034035318299
 20
22.86629823377923
 30
0.0
 10
-15.8226216884462
 20
22.85847154350101
 30
0.0
 10
-16.03166322719317
 20
22.82717732787281
 30
0.0
 10
-16.24318678741391
 20
22.82083490249495
 30
0.0
 10
-16.40180825824965
 20
22.81607871911257
 30
0.0
 11
-15.77034035318299
 21
22.86629823377923
 31
0.0
 11
-15.92733960971632
 21
22.8443789004459
 31
0.0
 11
-16.40180825824965
 21
22.81607871911257
 31
0.0
  0
SPLINE
  5
9E
100
AcDbEntity
  8
0
100
AcDbSpline
210
0.0
220
0.0
230
1.0
 70
     8
 71
     3
 72
     9
 73
     5
 74
     3
 42
0.0000001
 43
0.0000001
 44
0.0000000001
 40
0.0
 40
0.0
 40
0.0
 40
0.0
 40
0.1160733666421719
 40
0.4697793813064118
 40
0.4697793813064118
 40
0.4697793813064118
 40
0.4697793813064118
 10
-15.90783335264966
 20
23.1549882956459
 30
0.0
 10
-15.86972751840332
 20
23.16169307391592
 30
0.0
 10
-15.71550320533075
 20
23.18882907141996
 30
0.0
 10
-15.5614963674877
 20
23.21717780968603
 30
0.0
 10
-15.44554162998299
 20
23.23852212497923
 30
0.0
 11
-15.90783335264966
 21
23.1549882956459
 31
0.0
 11
-15.79352912651633
 21
23.1751766668459
 31
0.0
 11
-15.44554162998299
 21
23.23852212497923
 31
0.0
  0
LINE
  5
9F
100
AcDbEntity
  8
0
100
AcDbLine
 10
-14.893648
 20
22.816079
 30
0.0
 11
-16.405005
 21
22.816079
 31
0.0
  0
SPLINE
  5
A0
100
AcDbEntity
  8
0
100
AcDbSpline
210
-0.1608200641235958
220
0.9869837420014995
230
0.0
 70
    24
 71
     3
 72
     8
 73
     4
 74
     2
 42
0.0000001
 43
0.0000001
 44
0.0000000001
 40
0.0
 40
0.0
 40
0.0
 40
0.0
 40
0.610309777793437
 40
0.610309777793437
 40
0.610309777793437
 40
0.610309777793437
 10
-16.51019918091633
 20
23.0568382380459
 30
0.0
 10
-16.3094105714941
 20
23.08955492391256
 30
0.0
 10
-16.10862196207188
 20
23.12227160977923
 30
0.0
 10
-15.90783335264966
 20
23.1549882956459
 30
0.0
 11
-16.51019918091633
 21
23.0568382380459
 31
0.0
 11
-15.90783335264966
 21
23.1549882956459
 31
0.0
  0
SPLINE
  5
A1
100
AcDbEntity
  8
0
100
AcDbSpline
210
-0.0747652929802277
220
0.9972011587265534
230
0.0
 70
    24
 71
     3
 72
     8
 73
     4
 74
     2
 42
0.0000001
 43
0.0000001
 44
0.0000000001
 40
0.0
 40
0.0
 40
0.0
 40
0.0
 40
1.196244680317748
 40
1.196244680317748
 40
1.196244680317748
 40
1.196244680317748
 10
-13.70075100598299
 20
22.90551630311257
 30
0.0
 10
-14.09838319976077
 20
22.87570377511257
 30
0.0
 10
-14.49601539353855
 20
22.84589124711257
 30
0.0
 10
-14.89364758731633
 20
22.81607871911257
 30
0.0
 11
-13.70075100598299
 21
22.90551630311257
 31
0.0
 11
-14.89364758731633
 21
22.81607871911257
 31
0.0
  0
LINE
  5
A2
100
AcDbEntity
  8
0
100
AcDbLine
 10
-13.765506
 20
23.409745
 30
0.0
 11
-15.301768
 21
22.970313
 31
0.0
  0
SPLINE
  5
A3
100
AcDbEntity
  8
0
100
AcDbSpline
210
0.0
220
0.0
230
1.0
 70
     8
 71
     3
 72
     9
 73
     5
 74
     3
 42
0.0000001
 43
0.0000001
 44
0.0000000001
 40
0.0
 40
0.0
 40
0.0
 40
0.0
 40
0.6126584499219275
 40
1.645475858812698
 40
1.645475858812698
 40
1.645475858812698
 40
1.645475858812698
 10
-15.44554162998299
 20
23.23852212497923
 30
0.0
 10
-15.24489277112246
 20
23.27659827169124
 30
0.0
 10
-14.70599078846737
 20
23.37886304943031
 30
0.0
 10
-14.17059909643339
 20
23.49825816290672
 30
0.0
 10
-13.83454928011633
 20
23.57319900817923
 30
0.0
 11
-15.44554162998299
 21
23.23852212497923
 31
0.0
 11
-14.84408168118299
 21
23.35512532497924
 31
0.0
 11
-13.83454928011633
 21
23.57319900817923
 31
0.0
  0
SPLINE
  5
A4
100
AcDbEntity
  8
0
100
AcDbSpline
210
-0.2167078773247975
220
0.9762364958888705
230
0.0
 70
    24
 71
     3
 72
     8
 73
     4
 74
     2
 42
0.0000001
 43
0.0000001
 44
0.0000000001
 40
0.0
 40
0.0
 40
0.0
 40
0.0
 40
0.4799781122435501
 40
0.4799781122435501
 40
0.4799781122435501
 40
0.4799781122435501
 10
-15.30176820278299
 20
22.9703132716459
 30
0.0
 10
-15.45795891958299
 20
22.93564159235701
 30
0.0
 10
-15.61414963638299
 20
22.90096991306812
 30
0.0
 10
-15.77034035318299
 20
22.86629823377923
 30
0.0
 11
-15.30176820278299
 21
22.9703132716459
 31
0.0
 11
-15.77034035318299
 21
22.86629823377923
 31
0.0
  0
LWPOLYLINE
  5
A5
100
AcDbEntity
  8
0
100
AcDbPolyline
 90
        8
 70
     0
 43
0.0
 10
-11.669784
 20
24.168409
 10
-11.624107
 20
24.40921
 10
-11.529719
 20
24.682161
 10
-11.397145
 20
24.936772
 10
-11.229333
 20
25.167382
 10
-11.030014
 20
25.368864
 10
-10.803621
 20
25.536737
 10
-10.555188
 20
25.66727
  0
SPLINE
  5
A6
100
AcDbEntity
  8
0
100
AcDbSpline
210
-0.2517046549679941
220
0.9678040951904694
230
0.0
 70
    24
 71
     3
 72
     8
 73
     4
 74
     2
 42
0.0000001
 43
0.0000001
 44
0.0000000001
 40
0.0
 40
0.0
 40
0.0
 40
0.0
 40
0.1082284653686881
 40
0.1082284653686881
 40
0.1082284653686881
 40
0.1082284653686881
 10
-11.51411308811633
 20
24.2085516556459
 30
0.0
 10
-11.54902773878299
 20
24.19947111946813
 30
0.0
 10
-11.58394238944966
 20
24.19039058329035
 30
0.0
 10
-11.61885704011632
 20
24.18131004711256
 30
0.0
 11
-11.51411308811633
 21
24.2085516556459
 31
0.0
 11
-11.61885704011632
 21
24.18131004711256
 31
0.0
  0
LINE
  5
A7
100
AcDbEntity
  8
0
100
AcDbLine
 10
-12.275071
 20
24.662961
 30
0.0
 11
-12.208347
 21
24.068787
 31
0.0
  0
LINE
  5
A8
100
AcDbEntity
  8
0
100
AcDbLine
 10
-12.550444
 20
24.722088
 30
0.0
 11
-12.474805
 21
24.048527
 31
0.0
  0
SPLINE
  5
A9
100
AcDbEntity
  8
0
100
AcDbSpline
210
0.0
220
0.0
230
1.0
 70
     8
 71
     3
 72
    10
 73
     6
 74
     4
 42
0.0000001
 43
0.0000001
 44
0.0000000001
 40
0.0
 40
0.0
 40
0.0
 40
0.0
 40
0.2343631556725433
 40
0.4433988788385811
 40
0.5034510655352641
 40
0.5034510655352641
 40
0.5034510655352641
 40
0.5034510655352641
 10
-11.77792392544966
 20
24.14006638737923
 30
0.0
 10
-11.7021846148815
 20
24.15921170165337
 30
0.0
 10
-11.55889107843138
 20
24.19543331191375
 30
0.0
 10
-11.39671148525949
 20
24.23858471595551
 30
0.0
 10
-11.31019743476643
 20
24.26226333579197
 30
0.0
 10
-11.29089014624966
 20
24.26754767911257
 30
0.0
 11
-11.77792392544966
 21
24.14006638737923
 31
0.0
 11
-11.55083419958299
 21
24.1980003596459
 31
0.0
 11
-11.34882041824966
 21
24.25172526737924
 31
0.0
 11
-11.29089014624966
 21
24.26754767911257
 31
0.0
  0
SPLINE
  5
AA
100
AcDbEntity
  8
0
100
AcDbSpline
210
0.0
220
0.0
230
-1.0
 70
     8
 71
     3
 72
     9
 73
     5
 74
     3
 42
0.0000001
 43
0.0000001
 44
0.0000000001
 40
0.0
 40
0.0
 40
0.0
 40
0.0
 40
1.123688453383997
 40
1.470263932780095
 40
1.470263932780095
 40
1.470263932780095
 40
1.470263932780095
 10
-11.79571192544966
 20
24.09665536977923
 30
0.0
 10
-11.43181757313046
 20
24.18611127436331
 30
0.0
 10
-10.95568850021342
 20
24.3031577650415
 30
0.0
 10
-10.47343540228727
 20
24.39074313107451
 30
0.0
 10
-10.35975710624966
 20
24.41138904337923
 30
0.0
 11
-11.79571192544966
 21
24.09665536977923
 31
0.0
 11
-10.700451709983
 21
24.34781428497924
 31
0.0
 11
-10.35975710624966
 21
24.41138904337923
 31
0.0
  0
LINE
  5
AB
100
AcDbEntity
  8
0
100
AcDbLine
 10
-8.015663
 20
24.37682
 30
0.0
 11
-12.823095
 21
23.088672
 31
0.0
  0
LINE
  5
AC
100
AcDbEntity
  8
0
100
AcDbLine
 10
-10.366087
 20
24.382112
 30
0.0
 11
-12.541262
 21
23.759934
 31
0.0
  0
SPLINE
  5
AD
100
AcDbEntity
  8
0
100
AcDbSpline
210
-0.2472543873889008
220
0.9689506013811744
230
0.0
 70
    24
 71
     3
 72
     8
 73
     4
 74
     2
 42
0.0000001
 43
0.0000001
 44
0.0000000001
 40
0.0
 40
0.0
 40
0.0
 40
0.0
 40
0.0889765059337807
 40
0.0889765059337807
 40
0.0889765059337807
 40
0.0889765059337807
 10
-11.61885704011632
 20
24.18131004711256
 30
0.0
 10
-11.64759498642743
 20
24.17397676995701
 30
0.0
 10
-11.67633293273855
 20
24.16664349280146
 30
0.0
 10
-11.70507087904966
 20
24.1593102156459
 30
0.0
 11
-11.61885704011632
 21
24.18131004711256
 31
0.0
 11
-11.70507087904966
 21
24.1593102156459
 31
0.0
  0
LINE
  5
AE
100
AcDbEntity
  8
0
100
AcDbLine
 10
-12.466733
 20
24.047535
 30
0.0
 11
-12.508943
 21
24.045168
 31
0.0
  0
LINE
  5
AF
100
AcDbEntity
  8
0
100
AcDbLine
 10
-12.09146
 20
24.068573
 30
0.0
 11
-12.386745
 21
24.052019
 31
0.0
  0
LWPOLYLINE
  5
B0
100
AcDbEntity
  8
0
100
AcDbPolyline
 90
        7
 70
     0
 43
0.0
 10
-12.208347
 20
24.068787
 10
-12.28517
 20
24.061049
 10
-12.352816
 20
24.054781
 10
-12.407892
 20
24.050298
 10
-12.447637
 20
24.047824
 10
-12.470058
 20
24.047484
 10
-12.47479
 20
24.04853
  0
LINE
  5
B1
100
AcDbEntity
  8
0
100
AcDbLine
 10
-12.208347
 20
24.068787
 30
0.0
 11
-11.985163
 21
24.092035
 31
0.0
  0
LINE
  5
B2
100
AcDbEntity
  8
0
100
AcDbLine
 10
-12.09146
 20
24.068573
 30
0.0
 11
-12.088613
 21
24.069061
 31
0.0
  0
LINE
  5
B3
100
AcDbEntity
  8
0
100
AcDbLine
 10
-11.777924
 20
24.140066
 30
0.0
 11
-11.77498
 21
24.141753
 31
0.0
  0
SPLINE
  5
B4
100
AcDbEntity
  8
0
100
AcDbSpline
210
-0.2413406061545888
220
0.9704404730950455
230
0.0
 70
    24
 71
     3
 72
     8
 73
     4
 74
     2
 42
0.0000001
 43
0.0000001
 44
0.0000000001
 40
0.0
 40
0.0
 40
0.0
 40
0.0
 40
0.028466368656859
 40
0.028466368656859
 40
0.028466368656859
 40
0.028466368656859
 10
-11.80555010891632
 20
24.13320102311257
 30
0.0
 10
-11.7963418034941
 20
24.1354910533348
 30
0.0
 10
-11.78713349807188
 20
24.13778108355702
 30
0.0
 10
-11.77792519264966
 20
24.14007111377924
 30
0.0
 11
-11.80555010891632
 21
24.13320102311257
 31
0.0
 11
-11.77792519264966
 21
24.14007111377924
 31
0.0
  0
SPLINE
  5
B5
100
AcDbEntity
  8
0
100
AcDbSpline
210
-0.2324704769600652
220
0.972603453285027
230
0.0
 70
    24
 71
     3
 72
     8
 73
     4
 74
     2
 42
0.0000001
 43
0.0000001
 44
0.0000000001
 40
0.0
 40
0.0
 40
0.0
 40
0.0
 40
0.1526749761839003
 40
0.1526749761839003
 40
0.1526749761839003
 40
0.1526749761839003
 10
-11.95404231798299
 20
24.09770859857923
 30
0.0
 10
-11.90454491496077
 20
24.10953940675701
 30
0.0
 10
-11.85504751193855
 20
24.1213702149348
 30
0.0
 10
-11.80555010891632
 20
24.13320102311257
 30
0.0
 11
-11.95404231798299
 21
24.09770859857923
 31
0.0
 11
-11.80555010891632
 21
24.13320102311257
 31
0.0
  0
SPLINE
  5
B6
100
AcDbEntity
  8
0
100
AcDbSpline
210
-0.2114341776590316
220
0.9773922388261784
230
0.0
 70
    24
 71
     3
 72
     8
 73
     4
 74
     2
 42
0.0000001
 43
0.0000001
 44
0.0000000001
 40
0.0
 40
0.0
 40
0.0
 40
0.0
 40
0.1326719141495688
 40
0.1326719141495688
 40
0.1326719141495688
 40
0.1326719141495688
 10
-12.08371481718299
 20
24.06965722151257
 30
0.0
 10
-12.04049065078299
 20
24.0790076805348
 30
0.0
 10
-11.99726648438299
 20
24.08835813955702
 30
0.0
 10
-11.95404231798299
 20
24.09770859857923
 30
0.0
 11
-12.08371481718299
 21
24.06965722151257
 31
0.0
 11
-11.95404231798299
 21
24.09770859857923
 31
0.0
  0
SPLINE
  5
B7
100
AcDbEntity
  8
0
100
AcDbSpline
210
-0.2079002528714763
220
0.9781500318744443
230
0.0
 70
    24
 71
     3
 72
     8
 73
     4
 74
     2
 42
0.0000001
 43
0.0000001
 44
0.0000000001
 40
0.0
 40
0.0
 40
0.0
 40
0.0
 40
0.0229452342367028
 40
0.0229452342367028
 40
0.0229452342367028
 40
0.0229452342367028
 10
-12.10615869878299
 20
24.06488690151256
 30
0.0
 10
-12.09867740491633
 20
24.06647700817924
 30
0.0
 10
-12.09119611104966
 20
24.0680671148459
 30
0.0
 10
-12.08371481718299
 20
24.06965722151257
 30
0.0
 11
-12.10615869878299
 21
24.06488690151256
 31
0.0
 11
-12.08371481718299
 21
24.06965722151257
 31
0.0
  0
SPLINE
  5
B8
100
AcDbEntity
  8
0
100
AcDbSpline
210
0.0
220
0.0
230
1.0
 70
     8
 71
     3
 72
    16
 73
    12
 74
    10
 42
0.0000001
 43
0.0000001
 44
0.0000000001
 40
0.0
 40
0.0
 40
0.0
 40
0.0
 40
0.0130410333422989
 40
0.0253716632751383
 40
0.0373289419687767
 40
0.0493187126432134
 40
0.0619178814353849
 40
0.0754649929566962
 40
0.0906483351242714
 40
0.1052770399495285
 40
0.11562013997184
 40
0.11562013997184
 40
0.11562013997184
 40
0.11562013997184
 10
-12.55470901131632
 20
24.05100741031257
 30
0.0
 10
-12.55900594396404
 20
24.05034947747093
 30
0.0
 10
-12.56736573612102
 20
24.049069452332
 30
0.0
 10
-12.57966705171262
 20
24.04719715491127
 30
0.0
 10
-12.59162491047796
 20
24.04539722456073
 30
0.0
 10
-12.6036762614777
 20
24.04361714398256
 30
0.0
 10
-12.61626007612742
 20
24.04181618407571
 30
0.0
 10
-12.6299112088092
 20
24.03995896801335
 30
0.0
 10
-12.64425577993139
 20
24.03819205425026
 30
0.0
 10
-12.65756720068167
 20
24.03676483176882
 30
0.0
 10
-12.66587090013741
 20
24.03617779815903
 30
0.0
 10
-12.66931021878299
 20
24.0359346540459
 30
0.0
 11
-12.55470901131632
 21
24.05100741031257
 31
0.0
 11
-12.56760011104966
 21
24.04903558417924
 31
0.0
 11
-12.57979059851632
 21
24.04718181777924
 31
0.0
 11
-12.59161501344965
 21
24.04540425617923
 31
0.0
 11
-12.60347656651632
 21
24.04365549671257
 31
0.0
 11
-12.61594926944966
 21
24.04187484071257
 31
0.0
 11
-12.62937416438299
 21
24.04005923431257
 31
0.0
 11
-12.64444443958299
 21
24.03820972497923
 31
0.0
 11
-12.65899664651633
 21
24.03671564391257
 31
0.0
 11
-12.66931021878299
 21
24.0359346540459
 31
0.0
  0
SPLINE
  5
B9
100
AcDbEntity
  8
0
100
AcDbSpline
210
0.0
220
0.0
230
-1.0
 70
     8
 71
     3
 72
    12
 73
     8
 74
     6
 42
0.0000001
 43
0.0000001
 44
0.0000000001
 40
0.0
 40
0.0
 40
0.0
 40
0.0
 40
0.0218777662545953
 40
0.0407661162534956
 40
0.0577554296743204
 40
0.0731339982942722
 40
0.0871947714119256
 40
0.0871947714119256
 40
0.0871947714119256
 40
0.0871947714119256
 10
-12.46849980384966
 20
24.06407983697924
 30
0.0
 10
-12.47571232264223
 20
24.06300213418246
 30
0.0
 10
-12.4891518290414
 20
24.06099398778449
 30
0.0
 10
-12.50818722863309
 20
24.05811543764539
 30
0.0
 10
-12.52507807619656
 20
24.05554433448745
 30
0.0
 10
-12.5403762792589
 20
24.05320374807325
 30
0.0
 10
-12.55007616622417
 20
24.05171734422988
 30
0.0
 10
-12.55470901131632
 20
24.05100741031257
 30
0.0
 11
-12.46849980384966
 21
24.06407983697924
 31
0.0
 11
-12.49013633718299
 21
24.06083991697924
 31
0.0
 11
-12.50881263904966
 21
24.05801759271256
 31
0.0
 11
-12.52560853558299
 21
24.0554613004459
 31
0.0
 11
-12.54081039584966
 21
24.0531366892459
 31
0.0
 11
-12.55470901131632
 21
24.05100741031257
 31
0.0
  0
SPLINE
  5
BA
100
AcDbEntity
  8
0
100
AcDbSpline
210
0.0
220
0.0
230
-1.0
 70
     8
 71
     3
 72
     9
 73
     5
 74
     3
 42
0.0000001
 43
0.0000001
 44
0.0000000001
 40
0.0
 40
0.0
 40
0.0
 40
0.0
 40
0.1022894612848325
 40
0.1831419196924588
 40
0.1831419196924588
 40
0.1831419196924588
 40
0.1831419196924588
 10
-12.50659105078299
 20
24.11943254417924
 30
0.0
 10
-12.53808488380243
 20
24.10619052221808
 30
0.0
 10
-12.59447232553108
 20
24.08248163479103
 30
0.0
 10
-12.6463863408055
 20
24.05018715984288
 30
0.0
 10
-12.66930504651632
 20
24.03592997777924
 30
0.0
 11
-12.50659105078299
 21
24.11943254417924
 31
0.0
 11
-12.59967706038299
 21
24.0770281964459
 31
0.0
 11
-12.66930504651632
 21
24.03592997777924
 31
0.0
  0
SPLINE
  5
BB
100
AcDbEntity
  8
0
100
AcDbSpline
210
-0.3861882397940009
220
0.9224199929776085
230
0.0
 70
    24
 71
     3
 72
     8
 73
     4
 74
     2
 42
0.0000001
 43
0.0000001
 44
0.0000000001
 40
0.0
 40
0.0
 40
0.0
 40
0.0
 40
0.0239474566554988
 40
0.0239474566554988
 40
0.0239474566554988
 40
0.0239474566554988
 10
-12.48450143798299
 20
24.12868077031257
 30
0.0
 10
-12.49186464224965
 20
24.12559802826812
 30
0.0
 10
-12.49922784651632
 20
24.12251528622368
 30
0.0
 10
-12.50659105078299
 20
24.11943254417924
 30
0.0
 11
-12.48450143798299
 21
24.12868077031257
 31
0.0
 11
-12.50659105078299
 21
24.11943254417924
 31
0.0
  0
SPLINE
  5
BC
100
AcDbEntity
  8
0
100
AcDbSpline
210
0.0
220
0.0
230
-1.0
 70
     8
 71
     3
 72
    10
 73
     6
 74
     4
 42
0.0000001
 43
0.0000001
 44
0.0000000001
 40
0.0
 40
0.0
 40
0.0
 40
0.0
 40
0.0531304068796227
 40
0.1066715756458647
 40
0.1606328325194702
 40
0.1606328325194702
 40
0.1606328325194702
 40
0.1606328325194702
 10
-12.50894305184965
 20
24.0451683564459
 30
0.0
 10
-12.52662512364986
 20
24.0441717249081
 30
0.0
 10
-12.56212597091205
 20
24.04217075667315
 30
0.0
 10
-12.61558174325849
 20
24.03909309700771
 30
0.0
 10
-12.65135413092427
 20
24.03699020752597
 30
0.0
 10
-12.66931021878299
 20
24.0359346540459
 30
0.0
 11
-12.50894305184965
 21
24.0451683564459
 31
0.0
 11
-12.56198866464966
 21
24.04216784017923
 31
0.0
 11
-12.61544131958299
 21
24.0390904332459
 31
0.0
 11
-12.66931021878299
 21
24.0359346540459
 31
0.0
  0
SPLINE
  5
BD
100
AcDbEntity
  8
0
100
AcDbSpline
210
0.0
220
0.0
230
-1.0
 70
     8
 71
     3
 72
     9
 73
     5
 74
     3
 42
0.0000001
 43
0.0000001
 44
0.0000000001
 40
0.0
 40
0.0
 40
0.0
 40
0.0
 40
0.1961453691195416
 40
0.7837703272895988
 40
0.7837703272895988
 40
0.7837703272895988
 40
0.7837703272895988
 10
-12.55299810038299
 20
23.8946373964459
 30
0.0
 10
-12.48989194044102
 20
23.9117371942035
 30
0.0
 10
-12.23772827298498
 20
23.98006566989077
 30
0.0
 10
-11.98511015401646
 20
24.04669820699297
 30
0.0
 10
-11.79571192544966
 20
24.09665536977923
 30
0.0
 11
-12.55299810038299
 21
23.8946373964459
 31
0.0
 11
-12.36365115851633
 21
23.9458305740459
 31
0.0
 11
-11.79571192544966
 21
24.09665536977923
 31
0.0
  0
SPLINE
  5
BE
100
AcDbEntity
  8
0
100
AcDbSpline
210
-0.2125534421728433
220
0.9771494431357343
230
0.0
 70
    24
 71
     3
 72
     8
 73
     4
 74
     2
 42
0.0000001
 43
0.0000001
 44
0.0000000001
 40
0.0
 40
0.0
 40
0.0
 40
0.0
 40
0.0446136057347599
 40
0.0446136057347599
 40
0.0446136057347599
 40
0.0446136057347599
 10
-12.04250290891632
 20
24.07877997137923
 30
0.0
 10
-12.05703429558299
 20
24.07561904622368
 30
0.0
 10
-12.07156568224966
 20
24.07245812106812
 30
0.0
 10
-12.08609706891632
 20
24.06929719591257
 30
0.0
 11
-12.04250290891632
 21
24.07877997137923
 31
0.0
 11
-12.08609706891632
 21
24.06929719591257
 31
0.0
  0
SPLINE
  5
BF
100
AcDbEntity
  8
0
100
AcDbSpline
210
-0.2252352329664612
220
0.9743044133280644
230
0.0
 70
    24
 71
     3
 72
     8
 73
     4
 74
     2
 42
0.0000001
 43
0.0000001
 44
0.0000000001
 40
0.0
 40
0.0
 40
0.0
 40
0.0
 40
0.1926166095860761
 40
0.1926166095860761
 40
0.1926166095860761
 40
0.1926166095860761
 10
-11.85483569611632
 20
24.12216401831257
 30
0.0
 10
-11.91739143371632
 20
24.10770266933479
 30
0.0
 10
-11.97994717131632
 20
24.09324132035701
 30
0.0
 10
-12.04250290891632
 20
24.07877997137923
 30
0.0
 11
-11.85483569611632
 21
24.12216401831257
 31
0.0
 11
-12.04250290891632
 21
24.07877997137923
 31
0.0
  0
SPLINE
  5
C0
100
AcDbEntity
  8
0
100
AcDbSpline
210
-0.2382605185336176
220
0.971201279502911
230
0.0
 70
    24
 71
     3
 72
     8
 73
     4
 74
     2
 42
0.0000001
 43
0.0000001
 44
0.0000000001
 40
0.0
 40
0.0
 40
0.0
 40
0.0
 40
0.0822227461515848
 40
0.0822227461515848
 40
0.0822227461515848
 40
0.0822227461515848
 10
-11.77498085984966
 20
24.1417544524459
 30
0.0
 10
-11.80159913860521
 20
24.13522430773479
 30
0.0
 10
-11.82821741736077
 20
24.12869416302367
 30
0.0
 10
-11.85483569611632
 20
24.12216401831257
 30
0.0
 11
-11.77498085984966
 21
24.1417544524459
 31
0.0
 11
-11.85483569611632
 21
24.12216401831257
 31
0.0
  0
SPLINE
  5
C1
100
AcDbEntity
  8
0
100
AcDbSpline
210
-0.2435780966140098
220
0.9698812869882045
230
0.0
 70
    24
 71
     3
 72
     8
 73
     4
 74
     2
 42
0.0000001
 43
0.0000001
 44
0.0000000001
 40
0.0
 40
0.0
 40
0.0
 40
0.0
 40
0.0720704802444405
 40
0.0720704802444405
 40
0.0720704802444405
 40
0.0720704802444405
 10
-11.70507087904966
 20
24.1593102156459
 30
0.0
 10
-11.72837081576077
 20
24.1534586188459
 30
0.0
 10
-11.75167075247188
 20
24.1476070220459
 30
0.0
 10
-11.77497068918299
 20
24.1417554252459
 30
0.0
 11
-11.70507087904966
 21
24.1593102156459
 31
0.0
 11
-11.77497068918299
 21
24.1417554252459
 31
0.0
  0
LINE
  5
C2
100
AcDbEntity
  8
0
100
AcDbLine
 10
-12.541262
 20
23.759934
 30
0.0
 11
-12.880529
 21
23.662874
 31
0.0
  0
LWPOLYLINE
  5
C3
100
AcDbEntity
  8
0
100
AcDbPolyline
 90
        7
 70
     0
 43
0.0
 10
-7.867482
 20
25.947239
 10
-8.321129
 20
26.014558
 10
-8.778155
 20
26.036125
 10
-9.234298
 20
26.01174
 10
-9.685306
 20
25.94163
 10
-10.126975
 20
25.826449
 10
-10.555188
 20
25.66727
  0
LWPOLYLINE
  5
C4
100
AcDbEntity
  8
0
100
AcDbPolyline
 90
        3
 70
     0
 43
0.0
 10
-9.561162
 20
25.77557
 10
-10.003607
 20
25.661158
 10
-10.415559
 20
25.508024
  0
LINE
  5
C5
100
AcDbEntity
  8
0
100
AcDbLine
 10
-9.857512
 20
25.690856
 30
0.0
 11
-10.269464
 21
25.537722
 31
0.0
  0
SPLINE
  5
C6
100
AcDbEntity
  8
0
100
AcDbSpline
210
0.0
220
0.0
230
-1.0
 70
     8
 71
     3
 72
    10
 73
     6
 74
     4
 42
0.0000001
 43
0.0000001
 44
0.0000000001
 40
0.0
 40
0.0
 40
0.0
 40
0.0
 40
0.1757467061610138
 40
0.3549851158343197
 40
0.5345465806315425
 40
0.5345465806315425
 40
0.5345465806315425
 40
0.5345465806315425
 10
-9.843828440649659
 20
24.49439646631257
 30
0.0
 10
-9.901685460215661
 20
24.48516948799187
 30
0.0
 10
-10.01854899206273
 20
24.46653221142766
 30
0.0
 10
-10.19288566887467
 20
24.42914220754892
 30
0.0
 10
-10.30831878375406
 20
24.39779812890851
 30
0.0
 10
-10.36608730784966
 20
24.3821119788459
 30
0.0
 11
-9.843828440649659
 21
24.49439646631257
 31
0.0
 11
-10.01713259958299
 21
24.46519760977924
 31
0.0
 11
-10.19238461024966
 21
24.42760585191257
 31
0.0
 11
-10.36608730784966
 21
24.3821119788459
 31
0.0
  0
SPLINE
  5
C7
100
AcDbEntity
  8
0
100
AcDbSpline
210
0.0
220
0.0
230
-1.0
 70
     8
 71
     3
 72
    10
 73
     6
 74
     4
 42
0.0000001
 43
0.0000001
 44
0.0000000001
 40
0.0
 40
0.0
 40
0.0
 40
0.0
 40
0.1810774415967816
 40
0.3510300991880113
 40
0.5162599874760012
 40
0.5162599874760012
 40
0.5162599874760012
 40
0.5162599874760012
 10
-10.35975442464966
 20
24.41137384551257
 30
0.0
 10
-10.30028036280512
 20
24.42167469450347
 30
0.0
 10
-10.18498612380825
 20
24.44164354325189
 30
0.0
 10
-10.01507184992778
 20
24.46893589839937
 30
0.0
 10
-9.904559936576227
 20
24.48537583093016
 30
0.0
 10
-9.850082544116327
 20
24.49347997671257
 30
0.0
 11
-10.35975442464966
 21
24.41137384551257
 31
0.0
 11
-10.18126872651632
 21
24.4419008076459
 31
0.0
 11
-10.01346737824966
 21
24.46885657404591
 31
0.0
 11
-9.850082544116327
 21
24.49347997671257
 31
0.0
  0
SPLINE
  5
C8
100
AcDbEntity
  8
0
100
AcDbSpline
210
0.0
220
0.0
230
-1.0
 70
     8
 71
     3
 72
    14
 73
    10
 74
     8
 42
0.0000001
 43
0.0000001
 44
0.0000000001
 40
0.0
 40
0.0
 40
0.0
 40
0.0
 40
0.4876508096255538
 40
0.9756861170234547
 40
1.464460749351646
 40
1.954301603465969
 40
2.445495736462051
 40
2.938280266385519
 40
3.428935659034842
 40
3.428935659034842
 40
3.428935659034842
 40
3.428935659034842
 10
-9.661952762782991
 20
26.45664198951257
 30
0.0
 10
-9.820396534155552
 20
26.41976811356659
 30
0.0
 10
-10.13740900497612
 20
26.34599128774944
 30
0.0
 10
-10.5967583203234
 20
26.17735161333946
 30
0.0
 10
-11.03915139874424
 20
25.96793776559994
 30
0.0
 10
-11.46009266651322
 20
25.71551795509854
 30
0.0
 10
-11.85527658125296
 20
25.42270722534013
 30
0.0
 10
-12.22342949991923
 20
25.09530581483511
 30
0.0
 10
-12.44079123295291
 20
24.84959624265816
 30
0.0
 10
-12.54923680651633
 20
24.72700743591257
 30
0.0
 11
-9.661952762782991
 21
26.45664198951257
 31
0.0
 11
-10.13454264011633
 21
26.3363834348459
 31
0.0
 11
-10.59359321504966
 21
26.1706999084459
 31
0.0
 11
-11.03510859958299
 21
25.96102204497923
 31
0.0
 11
-11.45524004811633
 21
25.7091617100459
 31
0.0
 11
-11.85031914571633
 21
25.41729841511257
 31
0.0
 11
-12.21689027104965
 21
25.08796241191257
 31
0.0
 11
-12.54923680651633
 21
24.72700743591257
 31
0.0
  0
SPLINE
  5
C9
100
AcDbEntity
  8
0
100
AcDbSpline
210
0.0
220
0.0
230
-1.0
 70
     8
 71
     3
 72
    10
 73
     6
 74
     4
 42
0.0000001
 43
0.0000001
 44
0.0000000001
 40
0.0
 40
0.0
 40
0.0
 40
0.0
 40
0.1483703037546025
 40
0.4458315349617472
 40
0.7435269148675845
 40
0.7435269148675845
 40
0.7435269148675845
 40
0.7435269148675845
 10
-9.56056541024966
 20
25.77307528551257
 30
0.0
 10
-9.608535064530041
 20
25.76103984573245
 30
0.0
 10
-9.752677012468483
 20
25.72487507114263
 30
0.0
 10
-9.989650040257057
 20
25.65106081847904
 30
0.0
 10
-10.17349245208884
 20
25.57634622684215
 30
0.0
 10
-10.26544982198299
 20
25.53897423377924
 30
0.0
 11
-9.56056541024966
 21
25.77307528551257
 31
0.0
 11
-9.704247459316324
 21
25.7360723692459
 31
0.0
 11
-9.988115861449665
 21
25.64717965671257
 31
0.0
 11
-10.26544982198299
 21
25.53897423377924
 31
0.0
  0
LINE
  5
CA
100
AcDbEntity
  8
0
100
AcDbLine
 10
-12.549237
 20
24.727007
 30
0.0
 11
-12.550515
 21
24.722716
 31
0.0
  0
SPLINE
  5
CB
100
AcDbEntity
  8
0
100
AcDbSpline
210
0.0
220
0.0
230
1.0
 70
     8
 71
     3
 72
    18
 73
    14
 74
    12
 42
0.0000001
 43
0.0000001
 44
0.0000000001
 40
0.0
 40
0.0
 40
0.0
 40
0.0
 40
0.0056385012787295
 40
0.0243526933616249
 40
0.0511244952011964
 40
0.0820494987916275
 40
0.1146805880088171
 40
0.1475191129138443
 40
0.180001664478509
 40
0.2110518527165734
 40
0.2402845031266068
 40
0.2700704982200408
 40
0.3034882296367042
 40
0.3034882296367042
 40
0.3034882296367042
 40
0.3034882296367042
 10
-12.54989077344966
 20
24.72279624551257
 30
0.0
 10
-12.54940286413559
 20
24.72094915877621
 30
0.0
 10
-12.5472955832596
 20
24.71297158908539
 30
0.0
 10
-12.53125773872482
 20
24.70345218470257
 30
0.0
 10
-12.51025318855104
 20
24.69042288408008
 30
0.0
 10
-12.48258189919566
 20
24.67775595542163
 30
0.0
 10
-12.45293901997807
 20
24.66557418276845
 30
0.0
 10
-12.42211779864089
 20
24.6546694546698
 30
0.0
 10
-12.39133054291957
 20
24.64550898399495
 30
0.0
 10
-12.36103853505994
 20
24.63886225783733
 30
0.0
 10
-12.33119103079283
 20
24.63606970063882
 30
0.0
 10
-12.29950674426311
 20
24.64091389671527
 30
0.0
 10
-12.28352228539911
 20
24.65533586501804
 30
0.0
 10
-12.27507081611632
 20
24.6629611980459
 30
0.0
 11
-12.54989077344966
 21
24.72279624551257
 31
0.0
 11
-12.54813047264966
 21
24.71743956391257
 31
0.0
 11
-12.53408426464965
 21
24.7050732780459
 31
0.0
 11
-12.51100413131633
 21
24.69150726097923
 31
0.0
 11
-12.48308689184966
 21
24.67820374311257
 31
0.0
 11
-12.45288668704966
 21
24.6658451180459
 31
0.0
 11
-12.421926394783
 21
24.65489847377924
 31
0.0
 11
-12.39075538571633
 21
24.64576149671257
 31
0.0
 11
-12.36036760224966
 21
24.63938209191256
 31
0.0
 11
-12.33120958198299
 21
24.63729458044591
 31
0.0
 11
-12.30201304331632
 21
24.64319098897923
 31
0.0
 11
-12.27507081611632
 21
24.6629611980459
 31
0.0
  0
LINE
  5
CC
100
AcDbEntity
  8
0
100
AcDbLine
 10
-11.721808
 20
25.512235
 30
0.0
 11
-12.110029
 21
25.408212
 31
0.0
  0
LINE
  5
CD
100
AcDbEntity
  8
0
100
AcDbLine
 10
-10.588697
 20
24.499571
 30
0.0
 11
-10.585467
 21
24.502402
 31
0.0
  0
LINE
  5
CE
100
AcDbEntity
  8
0
100
AcDbLine
 10
-10.26545
 20
25.538974
 30
0.0
 11
-10.269463
 21
25.537722
 31
0.0
  0
LWPOLYLINE
  5
CF
100
AcDbEntity
  8
0
100
AcDbPolyline
 90
        8
 70
     0
 43
0.0
 10
-10.269464
 20
25.537722
 10
-10.488847
 20
25.422983
 10
-10.689372
 20
25.276035
 10
-10.866795
 20
25.099989
 10
-11.017362
 20
24.89857
 10
-11.137884
 20
24.676041
 10
-11.225813
 20
24.437112
 10
-11.259943
 20
24.277373
  0
LWPOLYLINE
  5
D0
100
AcDbEntity
  8
0
100
AcDbPolyline
 90
        8
 70
     0
 43
0.0
 10
-10.415559
 20
25.508024
 10
-10.634942
 20
25.393285
 10
-10.835468
 20
25.246337
 10
-11.012891
 20
25.070291
 10
-11.163457
 20
24.868872
 10
-11.283979
 20
24.646343
 10
-11.371908
 20
24.407414
 10
-11.40835
 20
24.236857
  0
SPLINE
  5
D1
100
AcDbEntity
  8
0
100
AcDbSpline
210
0.0
220
0.0
230
-1.0
 70
     8
 71
     3
 72
    15
 73
    11
 74
     9
 42
0.0000001
 43
0.0000001
 44
0.0000000001
 40
0.0
 40
0.0
 40
0.0
 40
0.0
 40
0.0032659453523977
 40
0.0263715943052633
 40
0.0508439281136865
 40
0.1034916306745137
 40
0.2005241157237644
 40
0.3575127465625945
 40
0.5793185853161452
 40
0.6645497064915304
 40
0.6645497064915304
 40
0.6645497064915304
 40
0.6645497064915304
 10
-10.58595785398299
 20
24.50175565137923
 30
0.0
 10
-10.58524424887844
 20
24.50255850414535
 30
0.0
 10
-10.5794820874578
 20
24.50904131544517
 30
0.0
 10
-10.56752925780327
 20
24.52808156097549
 30
0.0
 10
-10.60546557922514
 20
24.54681747643819
 30
0.0
 10
-10.65946289387026
 20
24.54925545588667
 30
0.0
 10
-10.7642964884136
 20
24.54819451596619
 30
0.0
 10
-10.92071110812449
 20
24.52941862598502
 30
0.0
 10
-11.07374201321889
 20
24.50382246242363
 30
0.0
 10
-11.17395601647465
 20
24.48317050096162
 30
0.0
 10
-11.20177466038299
 20
24.47743767377923
 30
0.0
 11
-10.58595785398299
 21
24.50175565137923
 31
0.0
 11
-10.58381032864966
 21
24.5042162476459
 31
0.0
 11
-10.57473570891633
 21
24.52546530151257
 31
0.0
 11
-10.59426937291633
 21
24.54020745511257
 31
0.0
 11
-10.64628971744966
 21
24.54831080871257
 31
0.0
 11
-10.743314237983
 21
24.54706759911257
 31
0.0
 11
-10.89947378571633
 21
24.5309546892459
 31
0.0
 11
-11.11823830731633
 21
24.4943498508459
 31
0.0
 11
-11.20177466038299
 21
24.47743767377923
 31
0.0
  0
SPLINE
  5
D2
100
AcDbEntity
  8
0
100
AcDbSpline
210
-0.7255552218126047
220
0.6881639485620141
230
0.0
 70
    24
 71
     3
 72
     8
 73
     4
 74
     2
 42
0.0000001
 43
0.0000001
 44
0.0000000001
 40
0.0
 40
0.0
 40
0.0
 40
0.0
 40
0.0033986397256391
 40
0.0033986397256391
 40
0.0033986397256391
 40
0.0033986397256391
 10
-10.58829667531632
 20
24.49928975057924
 30
0.0
 10
-10.58751706820521
 20
24.50011171751257
 30
0.0
 10
-10.5867374610941
 20
24.5009336844459
 30
0.0
 10
-10.58595785398299
 20
24.50175565137923
 30
0.0
 11
-10.58829667531632
 21
24.49928975057924
 31
0.0
 11
-10.58595785398299
 21
24.50175565137923
 31
0.0
  0
SPLINE
  5
D3
100
AcDbEntity
  8
0
100
AcDbSpline
210
0.0
220
0.0
230
-1.0
 70
     8
 71
     3
 72
    10
 73
     6
 74
     4
 42
0.0000001
 43
0.0000001
 44
0.0000000001
 40
0.0
 40
0.0
 40
0.0
 40
0.0
 40
0.1714031257413811
 40
0.4128582466917962
 40
0.5184728981405088
 40
0.5184728981405088
 40
0.5184728981405088
 40
0.5184728981405088
 10
-10.67749018038299
 20
24.58824037457924
 30
0.0
 10
-10.73440267951464
 20
24.58304414500678
 30
0.0
 10
-10.87148766267765
 20
24.57052800085006
 30
0.0
 10
-11.04200237017497
 20
24.54125379546624
 30
0.0
 10
-11.15546105186089
 20
24.5186930474522
 30
0.0
 10
-11.18998696011633
 20
24.51182772604591
 30
0.0
 11
-10.67749018038299
 21
24.58824037457924
 31
0.0
 11
-10.84800280224966
 21
24.57079109671257
 31
0.0
 11
-11.08634578678299
 21
24.53214918737923
 31
0.0
 11
-11.18998696011633
 21
24.51182772604591
 31
0.0
  0
SPLINE
  5
D4
100
AcDbEntity
  8
0
100
AcDbSpline
210
-0.0186005993809965
220
0.9998269938857761
230
0.0
 70
    24
 71
     3
 72
     8
 73
     4
 74
     2
 42
0.0000001
 43
0.0000001
 44
0.0000000001
 40
0.0
 40
0.0
 40
0.0
 40
0.0
 40
0.1066019841283733
 40
0.1066019841283733
 40
0.1066019841283733
 40
0.1066019841283733
 10
-10.57090663904966
 20
24.59022323537923
 30
0.0
 10
-10.60643448616077
 20
24.58956228177923
 30
0.0
 10
-10.64196233327188
 20
24.58890132817924
 30
0.0
 10
-10.67749018038299
 20
24.58824037457924
 30
0.0
 11
-10.57090663904966
 21
24.59022323537923
 31
0.0
 11
-10.67749018038299
 21
24.58824037457924
 31
0.0
  0
SPLINE
  5
D5
100
AcDbEntity
  8
0
100
AcDbSpline
210
0.1333980398603119
220
0.9910625424065965
230
0.0
 70
    24
 71
     3
 72
     8
 73
     4
 74
     2
 42
0.0000001
 43
0.0000001
 44
0.0000000001
 40
0.0
 40
0.0
 40
0.0
 40
0.0
 40
0.0584318750722281
 40
0.0584318750722281
 40
0.0584318750722281
 40
0.0584318750722281
 10
-10.51299699638299
 20
24.58242853777923
 30
0.0
 10
-10.53230021060521
 20
24.58502677031257
 30
0.0
 10
-10.55160342482744
 20
24.5876250028459
 30
0.0
 10
-10.57090663904966
 20
24.59022323537923
 30
0.0
 11
-10.51299699638299
 21
24.58242853777923
 31
0.0
 11
-10.57090663904966
 21
24.59022323537923
 31
0.0
  0
SPLINE
  5
D6
100
AcDbEntity
  8
0
100
AcDbSpline
210
0.0
220
0.0
230
-1.0
 70
     8
 71
     3
 72
    12
 73
     8
 74
     6
 42
0.0000001
 43
0.0000001
 44
0.0000000001
 40
0.0
 40
0.0
 40
0.0
 40
0.0
 40
0.1091417819064263
 40
0.1885424341120103
 40
0.2374099368096075
 40
0.2604459962327707
 40
0.2875941469091661
 40
0.2875941469091661
 40
0.2875941469091661
 40
0.2875941469091661
 10
-10.71164265184966
 20
24.44421868391257
 30
0.0
 10
-10.67745849909659
 20
24.45655603518456
 30
0.0
 10
-10.61840537337754
 20
24.47786881017032
 30
0.0
 10
-10.54709026413329
 20
24.51406170384089
 30
0.0
 10
-10.50266952311896
 20
24.53474435122266
 30
0.0
 10
-10.48326195820015
 20
24.57168718223635
 30
0.0
 10
-10.50255827074658
 20
24.57865769804512
 30
0.0
 10
-10.51299699638299
 20
24.58242853777923
 30
0.0
 11
-10.71164265184966
 21
24.44421868391257
 31
0.0
 11
-10.60990018784966
 21
24.4837205772459
 31
0.0
 11
-10.53825281504966
 21
24.51794217191257
 31
0.0
 11
-10.49832896118299
 21
24.54612228391257
 31
0.0
 11
-10.49020540384966
 21
24.5676784396459
 31
0.0
 11
-10.51299699638299
 21
24.58242853777923
 31
0.0
  0
SPLINE
  5
D7
100
AcDbEntity
  8
0
100
AcDbSpline
210
-0.322424386473142
220
0.9465952223666766
230
0.0
 70
    24
 71
     3
 72
     8
 73
     4
 74
     2
 42
0.0000001
 43
0.0000001
 44
0.0000000001
 40
0.0
 40
0.0
 40
0.0
 40
0.0
 40
0.1363569679522407
 40
0.1363569679522407
 40
0.1363569679522407
 40
0.1363569679522407
 10
-10.84071750624966
 20
24.40025387217923
 30
0.0
 10
-10.79769255478299
 20
24.41490880942368
 30
0.0
 10
-10.75466760331633
 20
24.42956374666813
 30
0.0
 10
-10.71164265184966
 20
24.44421868391257
 30
0.0
 11
-10.84071750624966
 21
24.40025387217923
 31
0.0
 11
-10.71164265184966
 21
24.44421868391257
 31
0.0
  0
SPLINE
  5
D8
100
AcDbEntity
  8
0
100
AcDbSpline
210
-0.2972056853011309
220
0.9548134794946523
230
0.0
 70
    24
 71
     3
 72
     8
 73
     4
 74
     2
 42
0.0000001
 43
0.0000001
 44
0.0000000001
 40
0.0
 40
0.0
 40
0.0
 40
0.0
 40
0.1597640788237837
 40
0.1597640788237837
 40
0.1597640788237837
 40
0.1597640788237837
 10
-10.99326240224965
 20
24.35277107964591
 30
0.0
 10
-10.94241410358299
 20
24.36859867715702
 30
0.0
 10
-10.89156580491632
 20
24.38442627466812
 30
0.0
 10
-10.84071750624966
 20
24.40025387217923
 30
0.0
 11
-10.99326240224965
 21
24.35277107964591
 31
0.0
 11
-10.84071750624966
 21
24.40025387217923
 31
0.0
  0
SPLINE
  5
D9
100
AcDbEntity
  8
0
100
AcDbSpline
210
0.0
220
0.0
230
1.0
 70
     8
 71
     3
 72
     9
 73
     5
 74
     3
 42
0.0000001
 43
0.0000001
 44
0.0000000001
 40
0.0
 40
0.0
 40
0.0
 40
0.0
 40
0.1316599516118908
 40
0.3095938040624544
 40
0.3095938040624544
 40
0.3095938040624544
 40
0.3095938040624544
 10
-11.29089014624966
 20
24.26754767911257
 30
0.0
 10
-11.24859204306561
 20
24.27925120914763
 30
0.0
 10
-11.14912952231382
 20
24.30677165359679
 30
0.0
 10
-11.05014950757155
 20
24.33598258574594
 30
0.0
 10
-10.99326240224965
 20
24.35277107964591
 30
0.0
 11
-11.29089014624966
 21
24.26754767911257
 31
0.0
 11
-11.16408309878299
 21
24.30296399697923
 31
0.0
 11
-10.99326240224965
 21
24.35277107964591
 31
0.0
  0
SPLINE
  5
DA
100
AcDbEntity
  8
0
100
AcDbSpline
210
0.0
220
0.0
230
1.0
 70
     8
 71
     3
 72
     9
 73
     5
 74
     3
 42
0.0000001
 43
0.0000001
 44
0.0000000001
 40
0.0
 40
0.0
 40
0.0
 40
0.0
 40
0.0457876508102973
 40
0.2308127084237144
 40
0.2308127084237144
 40
0.2308127084237144
 40
0.2308127084237144
 10
-11.29121923638299
 20
24.2684893676459
 30
0.0
 10
-11.30593648057587
 20
24.26444596719915
 30
0.0
 10
-11.3801251959298
 20
24.24406343627999
 30
0.0
 10
-11.45449580585847
 20
24.22435245536738
 30
0.0
 10
-11.51411308811633
 20
24.2085516556459
 30
0.0
 11
-11.29121923638299
 21
24.2684893676459
 31
0.0
 11
-11.33537812704966
 21
24.25638559377924
 31
0.0
 11
-11.51411308811633
 21
24.2085516556459
 31
0.0
  0
SPLINE
  5
DB
100
AcDbEntity
  8
0
100
AcDbSpline
210
0.0
220
0.0
230
1.0
 70
     8
 71
     3
 72
     9
 73
     5
 74
     3
 42
0.0000001
 43
0.0000001
 44
0.0000000001
 40
0.0
 40
0.0
 40
0.0
 40
0.0
 40
0.1492399250819093
 40
0.2720088355702837
 40
0.2720088355702837
 40
0.2720088355702837
 40
0.2720088355702837
 10
-11.02968311371633
 20
24.3432274732459
 30
0.0
 10
-11.07741417289727
 20
24.3292073783932
 30
0.0
 10
-11.16441012804277
 20
24.30365396382685
 30
0.0
 10
-11.25178384209758
 20
24.27942493633993
 30
0.0
 10
-11.29121923638299
 20
24.2684893676459
 30
0.0
 11
-11.02968311371633
 21
24.3432274732459
 31
0.0
 11
-11.17299000651633
 21
24.3015658636459
 31
0.0
 11
-11.29121923638299
 21
24.2684893676459
 31
0.0
  0
SPLINE
  5
DC
100
AcDbEntity
  8
0
100
AcDbSpline
210
0.0
220
0.0
230
1.0
 70
     8
 71
     3
 72
     9
 73
     5
 74
     3
 42
0.0000001
 43
0.0000001
 44
0.0000000001
 40
0.0
 40
0.0
 40
0.0
 40
0.0
 40
0.1079772968492886
 40
0.2364410063816385
 40
0.2364410063816385
 40
0.2364410063816385
 40
0.2364410063816385
 10
-10.804186941983
 20
24.41430023271257
 30
0.0
 10
-10.83836272347332
 20
24.40300471480699
 30
0.0
 10
-10.9131984195431
 20
24.37827059292092
 30
0.0
 10
-10.98867499498113
 20
24.35556430790633
 30
0.0
 10
-11.02968311371633
 20
24.3432274732459
 30
0.0
 11
-10.804186941983
 21
24.41430023271257
 31
0.0
 11
-10.90684794464966
 21
24.3808365932459
 31
0.0
 11
-11.02968311371633
 21
24.3432274732459
 31
0.0
  0
SPLINE
  5
DD
100
AcDbEntity
  8
0
100
AcDbSpline
210
0.0
220
0.0
230
1.0
 70
     8
 71
     3
 72
    11
 73
     7
 74
     5
 42
0.0000001
 43
0.0000001
 44
0.0000000001
 40
0.0
 40
0.0
 40
0.0
 40
0.0
 40
0.0283229775693288
 40
0.0781216373639924
 40
0.1474163204397854
 40
0.2357733835072642
 40
0.2357733835072642
 40
0.2357733835072642
 40
0.2357733835072642
 10
-10.58595039158299
 20
24.50264462417923
 30
0.0
 10
-10.59414321496802
 20
24.49793965589289
 30
0.0
 10
-10.61674100772856
 20
24.48496221291838
 30
0.0
 10
-10.66224592144375
 20
24.46613789041464
 30
0.0
 10
-10.72660586740164
 20
24.44093313980402
 30
0.0
 10
-10.77632275321017
 20
24.42386576599205
 30
0.0
 10
-10.804186941983
 20
24.41430023271257
 30
0.0
 11
-10.58595039158299
 21
24.50264462417923
 31
0.0
 11
-10.610728263583
 21
24.4889242700459
 31
0.0
 11
-10.65626030518299
 21
24.4687564812459
 31
0.0
 11
-10.72084773984966
 21
24.44365237031258
 31
0.0
 11
-10.804186941983
 21
24.41430023271257
 31
0.0
  0
SPLINE
  5
DE
100
AcDbEntity
  8
0
100
AcDbSpline
210
-0.3963091177128233
220
0.9181171402482821
230
0.0
 70
    24
 71
     3
 72
     8
 73
     4
 74
     2
 42
0.0000001
 43
0.0000001
 44
0.0000000001
 40
0.0
 40
0.0
 40
0.0
 40
0.0
 40
0.0041232083584104
 40
0.0041232083584104
 40
0.0041232083584104
 40
0.0041232083584104
 10
-10.26923541024966
 20
25.53734016871257
 30
0.0
 10
-10.2679735474941
 20
25.53788485706812
 30
0.0
 10
-10.26671168473854
 20
25.53842954542368
 30
0.0
 10
-10.26544982198299
 20
25.53897423377924
 30
0.0
 11
-10.26923541024966
 21
25.53734016871257
 31
0.0
 11
-10.26544982198299
 21
25.53897423377924
 31
0.0
  0
SPLINE
  5
DF
100
AcDbEntity
  8
0
100
AcDbSpline
210
0.0
220
0.0
230
-1.0
 70
     8
 71
     3
 72
    14
 73
    10
 74
     8
 42
0.0000001
 43
0.0000001
 44
0.0000000001
 40
0.0
 40
0.0
 40
0.0
 40
0.0
 40
0.1269164848922158
 40
0.3869358248814933
 40
0.6454025863383091
 40
0.9022493599533889
 40
1.15755108780084
 40
1.411520395137304
 40
1.660368583146483
 40
1.660368583146483
 40
1.660368583146483
 40
1.660368583146483
 10
-11.25435068918299
 20
24.28040419431257
 30
0.0
 10
-11.24553071312087
 20
24.32179314308548
 30
0.0
 10
-11.21864086728301
 20
24.44797743701724
 30
0.0
 10
-11.14734666801208
 20
24.65201549746761
 30
0.0
 10
-11.02856040145217
 20
24.8824256807162
 30
0.0
 10
-10.87746960971907
 20
25.09151578189781
 30
0.0
 10
-10.69749212538917
 20
25.27373677974363
 30
0.0
 10
-10.49490548936742
 20
25.4273555495306
 30
0.0
 10
-10.34394627110166
 20
25.50092840508096
 30
0.0
 10
-10.26923541024966
 20
25.53734016871257
 30
0.0
 11
-11.25435068918299
 21
24.28040419431257
 31
0.0
 11
-11.22618520118299
 21
24.40415595964591
 31
0.0
 11
-11.14160163638299
 21
24.6500333228459
 31
0.0
 11
-11.02275606731632
 21
24.87955630097923
 31
0.0
 11
-10.87216157131632
 21
25.08762254737923
 31
0.0
 11
-10.69304504224966
 21
25.26954627111257
 31
0.0
 11
-10.48930332384966
 21
25.42116988817923
 31
0.0
 11
-10.26923541024966
 21
25.53734016871257
 31
0.0
  0
SPLINE
  5
E0
100
AcDbEntity
  8
0
100
AcDbSpline
210
0.0
220
0.0
230
-1.0
 70
     8
 71
     3
 72
    11
 73
     7
 74
     5
 42
0.0000001
 43
0.0000001
 44
0.0000000001
 40
0.0
 40
0.0
 40
0.0
 40
0.0
 40
0.0034380788178381
 40
0.2110572858311839
 40
0.7282756533643125
 40
1.230101009842138
 40
1.230101009842138
 40
1.230101009842138
 40
1.230101009842138
 10
-9.850083219316326
 20
24.4934846092459
 30
0.0
 10
-9.848949152865101
 20
24.49364974510181
 30
0.0
 10
-9.779330915520974
 20
24.50378712920171
 30
0.0
 10
-9.538882371877544
 20
24.53719163326226
 30
0.0
 10
-9.132778105354081
 20
24.58576303817858
 30
0.0
 10
-8.794143972413117
 20
24.61273715850135
 30
0.0
 10
-8.627384499316324
 20
24.62602049191257
 30
0.0
 11
-9.850083219316326
 21
24.4934846092459
 31
0.0
 11
-9.846681002783
 21
24.4939798956459
 31
0.0
 11
-9.641046388382992
 21
24.52261799057923
 31
0.0
 11
-9.127356109982992
 21
24.5829266764459
 31
0.0
 11
-8.627384499316324
 21
24.62602049191257
 31
0.0
  0
SPLINE
  5
E1
100
AcDbEntity
  8
0
100
AcDbSpline
210
0.0
220
0.0
230
-1.0
 70
     8
 71
     3
 72
    11
 73
     7
 74
     5
 42
0.0000001
 43
0.0000001
 44
0.0000000001
 40
0.0
 40
0.0
 40
0.0
 40
0.0
 40
0.4347988042460966
 40
0.8685645520313782
 40
1.301612321981358
 40
1.734292002954467
 40
1.734292002954467
 40
1.734292002954467
 40
1.734292002954467
 10
-7.837585078516331
 20
25.77729103377924
 30
0.0
 10
-7.98058383088732
 20
25.80169913710821
 30
0.0
 10
-8.266241578979599
 20
25.85045735154404
 30
0.0
 10
-8.70065391941333
 20
25.86867359004388
 30
0.0
 10
-9.13434259545836
 20
25.84969377837368
 30
0.0
 10
-9.418929271172755
 20
25.80027082215707
 30
0.0
 10
-9.561162108916329
 20
25.7755698508459
 30
0.0
 11
-7.837585078516331
 21
25.77729103377924
 31
0.0
 11
-8.267640138782994
 21
25.8413429292459
 31
0.0
 11
-8.70089080331633
 21
25.8624755020459
 31
0.0
 11
-9.133379913716325
 21
25.84048594897923
 31
0.0
 11
-9.561162108916329
 21
25.7755698508459
 31
0.0
  0
LINE
  5
E2
100
AcDbEntity
  8
0
100
AcDbLine
 10
-9.485528
 20
25.787047
 30
0.0
 11
-9.857512
 21
25.690856
 31
0.0
  0
SPLINE
  5
E3
100
AcDbEntity
  8
0
100
AcDbSpline
210
-0.2259846482419347
220
0.974130863261692
230
0.0
 70
    24
 71
     3
 72
     8
 73
     4
 74
     2
 42
0.0000001
 43
0.0000001
 44
0.0000000001
 40
0.0
 40
0.0
 40
0.0
 40
0.0
 40
0.0605944783117002
 40
0.0605944783117002
 40
0.0605944783117002
 40
0.0605944783117002
 10
-9.501538458782992
 20
25.78676870737924
 30
0.0
 10
-9.52121410927188
 20
25.78220423342368
 30
0.0
 10
-9.540889759760771
 20
25.77763975946812
 30
0.0
 10
-9.56056541024966
 20
25.77307528551257
 30
0.0
 11
-9.501538458782992
 21
25.78676870737924
 31
0.0
 11
-9.56056541024966
 21
25.77307528551257
 31
0.0
  0
SPLINE
  5
E4
100
AcDbEntity
  8
0
100
AcDbSpline
210
-0.0547560202458883
220
0.9984997637690417
230
0.0
 70
    24
 71
     3
 72
     8
 73
     4
 74
     2
 42
0.0000001
 43
0.0000001
 44
0.0000000001
 40
0.0
 40
0.0
 40
0.0
 40
0.0
 40
0.7096645877263276
 40
0.7096645877263276
 40
0.7096645877263276
 40
0.7096645877263276
 10
-8.627384499316324
 20
24.62602049191257
 30
0.0
 10
-8.391184524916326
 20
24.63897329475701
 30
0.0
 10
-8.15498455051633
 20
24.65192609760146
 30
0.0
 10
-7.918784576116332
 20
24.6648789004459
 30
0.0
 11
-8.627384499316324
 21
24.62602049191257
 31
0.0
 11
-7.918784576116332
 21
24.6648789004459
 31
0.0
  0
LWPOLYLINE
  5
E5
100
AcDbEntity
  8
0
100
AcDbPolyline
 90
        3
 70
     0
 43
0.0
 10
-8.557768
 20
26.571469
 10
-9.111592
 20
26.544721
 10
-9.588183
 20
26.471638
  0
LINE
  5
E6
100
AcDbEntity
  8
0
100
AcDbLine
 10
-9.588183
 20
26.471638
 30
0.0
 11
-9.661953
 21
26.456642
 31
0.0
  0
LINE
  5
E7
100
AcDbEntity
  8
0
100
AcDbLine
 10
-7.454607
 20
26.44095
 30
0.0
 11
-8.003347
 21
26.536748
 31
0.0
  0
LINE
  5
E8
100
AcDbEntity
  8
0
100
AcDbLine
 10
-8.003347
 20
26.536748
 30
0.0
 11
-8.557768
 21
26.571469
 31
0.0
  0
SPLINE
  5
E9
100
AcDbEntity
  8
0
100
AcDbSpline
210
-0.0155899794116118
220
0.9998784688860668
230
0.0
 70
    24
 71
     3
 72
     8
 73
     4
 74
     2
 42
0.0000001
 43
0.0000001
 44
0.0000000001
 40
0.0
 40
0.0
 40
0.0
 40
0.0
 40
0.7485125985032254
 40
0.7485125985032254
 40
0.7485125985032254
 40
0.7485125985032254
 10
-5.694242129182995
 20
24.64547871911257
 30
0.0
 10
-5.943716006160775
 20
24.64158895377923
 30
0.0
 10
-6.193189883138553
 20
24.6376991884459
 30
0.0
 10
-6.442663760116332
 20
24.63380942311257
 30
0.0
 11
-5.694242129182995
 21
24.64547871911257
 31
0.0
 11
-6.442663760116332
 21
24.63380942311257
 31
0.0
  0
SPLINE
  5
EA
100
AcDbEntity
  8
0
100
AcDbSpline
210
0.0
220
0.0
230
1.0
 70
     8
 71
     3
 72
     9
 73
     5
 74
     3
 42
0.0000001
 43
0.0000001
 44
0.0000000001
 40
0.0
 40
0.0
 40
0.0
 40
0.0
 40
0.1509579587778109
 40
0.2931095677050969
 40
0.2931095677050969
 40
0.2931095677050969
 40
0.2931095677050969
 10
-6.032100956916332
 20
24.7488932332459
 30
0.0
 10
-6.08242114793372
 20
24.74896061881809
 30
0.0
 10
-6.1801260291825
 20
24.74909145892812
 30
0.0
 10
-6.277816339968194
 20
24.75077666485596
 30
0.0
 10
-6.325193963849665
 20
24.75159395217923
 30
0.0
 11
-6.032100956916332
 21
24.7488932332459
 31
0.0
 11
-6.183057665183
 21
24.74950768231257
 31
0.0
 11
-6.325193963849665
 21
24.75159395217923
 31
0.0
  0
SPLINE
  5
EB
100
AcDbEntity
  8
0
100
AcDbSpline
210
0.0
220
0.0
230
1.0
 70
     8
 71
     3
 72
    11
 73
     7
 74
     5
 42
0.0000001
 43
0.0000001
 44
0.0000000001
 40
0.0
 40
0.0
 40
0.0
 40
0.0
 40
0.1441469043350545
 40
0.33513808139939
 40
0.575046332468681
 40
0.8577175879926725
 40
0.8577175879926725
 40
0.8577175879926725
 40
0.8577175879926725
 10
-6.829041238516325
 20
24.77787842577924
 30
0.0
 10
-6.781222577204091
 20
24.77310115920212
 30
0.0
 10
-6.670045341167035
 20
24.76199412945096
 30
0.0
 10
-6.478465098003155
 20
24.75371739807135
 30
0.0
 10
-6.240682299933252
 20
24.74783190749213
 30
0.0
 10
-6.0664790231948
 20
24.74789847287688
 30
0.0
 10
-5.972249803849663
 20
24.74793447911257
 30
0.0
 11
-6.829041238516325
 21
24.77787842577924
 31
0.0
 11
-6.685497179849662
 21
24.76470901991257
 31
0.0
 11
-6.494755917982999
 21
24.75494168977923
 31
0.0
 11
-6.254918627316333
 21
24.74910705724591
 31
0.0
 11
-5.972249803849663
 21
24.74793447911257
 31
0.0
  0
LINE
  5
EC
100
AcDbEntity
  8
0
100
AcDbLine
 10
-6.442664
 20
24.633809
 30
0.0
 11
-6.403521
 21
24.674677
 31
0.0
  0
SPLINE
  5
ED
100
AcDbEntity
  8
0
100
AcDbSpline
210
0.0210798852539873
220
0.9997777945312041
230
0.0
 70
    24
 71
     3
 72
     8
 73
     4
 74
     2
 42
0.0000001
 43
0.0000001
 44
0.0000000001
 40
0.0
 40
0.0
 40
0.0
 40
0.0
 40
0.2339443474467289
 40
0.2339443474467289
 40
0.2339443474467289
 40
0.2339443474467289
 10
-6.63741352331633
 20
24.67961563217923
 30
0.0
 10
-6.559449402071885
 20
24.67797179217923
 30
0.0
 10
-6.481485280827442
 20
24.67632795217924
 30
0.0
 10
-6.403521159582997
 20
24.67468411217923
 30
0.0
 11
-6.63741352331633
 21
24.67961563217923
 31
0.0
 11
-6.403521159582997
 21
24.67468411217923
 31
0.0
  0
SPLINE
  5
EE
100
AcDbEntity
  8
0
100
AcDbSpline
210
0.0
220
0.0
230
1.0
 70
     8
 71
     3
 72
     9
 73
     5
 74
     3
 42
0.0000001
 43
0.0000001
 44
0.0000000001
 40
0.0
 40
0.0
 40
0.0
 40
0.0
 40
0.1305013343876137
 40
0.2470212215964069
 40
0.2470212215964069
 40
0.2470212215964069
 40
0.2470212215964069
 10
-6.325193963849665
 20
24.75159395217923
 30
0.0
 10
-6.368684463451217
 20
24.75259664839702
 30
0.0
 10
-6.451006045754006
 20
24.75449461553866
 30
0.0
 10
-6.533264273672336
 20
24.75823162601779
 30
0.0
 10
-6.572065472116325
 20
24.75999437351257
 30
0.0
 11
-6.325193963849665
 21
24.75159395217923
 31
0.0
 11
-6.455647780382998
 21
24.75511531964591
 31
0.0
 11
-6.572065472116325
 21
24.75999437351257
 31
0.0
  0
LINE
  5
EF
100
AcDbEntity
  8
0
100
AcDbLine
 10
-6.890851
 20
24.792833
 30
0.0
 11
-6.890508
 21
24.792646
 31
0.0
  0
SPLINE
  5
F0
100
AcDbEntity
  8
0
100
AcDbSpline
210
0.0
220
0.0
230
1.0
 70
     8
 71
     3
 72
     9
 73
     5
 74
     3
 42
0.0000001
 43
0.0000001
 44
0.0000000001
 40
0.0
 40
0.0
 40
0.0
 40
0.0
 40
0.0130317723532568
 40
0.0817621349288326
 40
0.0817621349288326
 40
0.0817621349288326
 40
0.0817621349288326
 10
-6.890851367582991
 20
24.7918917548459
 30
0.0
 10
-6.886821929936253
 20
24.79026376300724
 30
0.0
 10
-6.861540992268742
 20
24.78004964287318
 30
0.0
 10
-6.834924177298698
 20
24.77380591920692
 30
0.0
 10
-6.81254972064966
 20
24.76855736017923
 30
0.0
 11
-6.890851367582991
 21
24.7918917548459
 31
0.0
 11
-6.878729117982993
 21
24.78710864337924
 31
0.0
 11
-6.81254972064966
 21
24.76855736017923
 31
0.0
  0
SPLINE
  5
F1
100
AcDbEntity
  8
0
100
AcDbSpline
210
0.4352356972468934
220
0.9003165486882993
230
0.0
 70
    24
 71
     3
 72
     8
 73
     4
 74
     2
 42
0.0000001
 43
0.0000001
 44
0.0000000001
 40
0.0
 40
0.0
 40
0.0
 40
0.0
 40
0.002810953255301
 40
0.002810953255301
 40
0.002810953255301
 40
0.002810953255301
 10
-6.893740418249663
 20
24.79327940711256
 30
0.0
 10
-6.892896835671884
 20
24.7928715980459
 30
0.0
 10
-6.892053253094105
 20
24.79246378897923
 30
0.0
 10
-6.891209670516326
 20
24.79205597991256
 30
0.0
 11
-6.893740418249663
 21
24.79327940711256
 31
0.0
 11
-6.891209670516326
 21
24.79205597991256
 31
0.0
  0
SPLINE
  5
F2
100
AcDbEntity
  8
0
100
AcDbSpline
210
0.7058718960166761
220
0.7083395135200512
230
0.0
 70
    24
 71
     3
 72
     8
 73
     4
 74
     2
 42
0.0000001
 43
0.0000001
 44
0.0000000001
 40
0.0
 40
0.0
 40
0.0
 40
0.0
 40
0.0042413920763289
 40
0.0042413920763289
 40
0.0042413920763289
 40
0.0042413920763289
 10
-6.894127269449659
 20
24.79478781031257
 30
0.0
 10
-6.893125820916328
 20
24.79378985049034
 30
0.0
 10
-6.892124372382996
 20
24.79279189066812
 30
0.0
 10
-6.891122923849664
 20
24.7917939308459
 30
0.0
 11
-6.894127269449659
 21
24.79478781031257
 31
0.0
 11
-6.891122923849664
 21
24.7917939308459
 31
0.0
  0
SPLINE
  5
F3
100
AcDbEntity
  8
0
100
AcDbSpline
210
0.0
220
0.0
230
-1.0
 70
     8
 71
     3
 72
    12
 73
     8
 74
     6
 42
0.0000001
 43
0.0000001
 44
0.0000000001
 40
0.0
 40
0.0
 40
0.0
 40
0.0
 40
0.1139095754876113
 40
0.1990068492108054
 40
0.2473148898368251
 40
0.2707255015616438
 40
0.2912172349709993
 40
0.2912172349709993
 40
0.2912172349709993
 40
0.2912172349709993
 10
-6.666980113182995
 20
24.90255435751257
 30
0.0
 10
-6.704566929144393
 20
24.89586201415096
 30
0.0
 10
-6.770233347303921
 20
24.88417008956491
 30
0.0
 10
-6.847138141400266
 20
24.85777408775038
 30
0.0
 10
-6.89941550673524
 20
24.84203002934689
 30
0.0
 10
-6.913442054097304
 20
24.80679763952789
 30
0.0
 10
-6.900009949216631
 20
24.79758123145863
 30
0.0
 10
-6.893740418249663
 20
24.79327940711256
 30
0.0
 11
-6.666980113182995
 21
24.90255435751257
 31
0.0
 11
-6.778500988916329
 21
24.87934906364591
 31
0.0
 11
-6.859794480116329
 21
24.85419127591256
 31
0.0
 11
-6.901817676916327
 21
24.83036444817924
 31
0.0
 11
-6.90816773771633
 21
24.80783150631257
 31
0.0
 11
-6.893740418249663
 21
24.79327940711256
 31
0.0
  0
SPLINE
  5
F4
100
AcDbEntity
  8
0
100
AcDbSpline
210
0.0
220
0.0
230
1.0
 70
     8
 71
     3
 72
    15
 73
    11
 74
     9
 42
0.0000001
 43
0.0000001
 44
0.0000000001
 40
0.0
 40
0.0
 40
0.0
 40
0.0
 40
0.0066890711387293
 40
0.1596928150443269
 40
0.2581626607539748
 40
0.3166322156045607
 40
0.3446747605654714
 40
0.3746440840663621
 40
0.4369205765578668
 40
0.5379201420120602
 40
0.5379201420120602
 40
0.5379201420120602
 40
0.5379201420120602
 10
-6.688457269449661
 20
24.93688582631257
 30
0.0
 10
-6.690663072786008
 20
24.93655904357684
 30
0.0
 10
-6.743323739253708
 20
24.92875753363723
 30
0.0
 10
-6.827709214388947
 20
24.91464216896959
 30
0.0
 10
-6.928881929442023
 20
24.88517746582649
 30
0.0
 10
-6.984659870999953
 20
24.86843272537081
 30
0.0
 10
-7.018641473357595
 20
24.83249477910458
 30
0.0
 10
-6.976235959148761
 20
24.80313756089142
 30
0.0
 10
-6.917848999299954
 20
24.7914603925769
 30
0.0
 10
-6.862981354266365
 20
24.78306911543471
 30
0.0
 10
-6.829041238516325
 20
24.77787842577924
 30
0.0
 11
-6.688457269449661
 21
24.93688582631257
 31
0.0
 11
-6.695073868916328
 21
24.93590384657923
 31
0.0
 11
-6.845493163849667
 21
24.90790060817924
 31
0.0
 11
-6.940401062516329
 21
24.88165558417924
 31
0.0
 11
-6.993447407049666
 21
24.85706342737923
 31
0.0
 11
-7.009345965982991
 21
24.8339632076459
 31
0.0
 11
-6.988115932916329
 21
24.81281028711256
 31
0.0
 11
-6.928743431582995
 21
24.79401487271257
 31
0.0
 11
-6.829041238516325
 21
24.77787842577924
 31
0.0
  0
SPLINE
  5
F5
100
AcDbEntity
  8
0
100
AcDbSpline
210
0.0
220
0.0
230
1.0
 70
     8
 71
     3
 72
    13
 73
     9
 74
     7
 42
0.0000001
 43
0.0000001
 44
0.0000000001
 40
0.0
 40
0.0
 40
0.0
 40
0.0
 40
0.1007563850631979
 40
0.1845716034514732
 40
0.2505854818460488
 40
0.2978357259297382
 40
0.3242346184348073
 40
0.3244423412165654
 40
0.3244423412165654
 40
0.3244423412165654
 40
0.3244423412165654
 10
-6.572065472116325
 20
24.75999437351257
 30
0.0
 10
-6.605644497807624
 20
24.76202302509523
 30
0.0
 10
-6.667156575779589
 20
24.76573923102323
 30
0.0
 10
-6.749911674380472
 20
24.77090320108047
 30
0.0
 10
-6.816496228089271
 20
24.78324946934277
 30
0.0
 10
-6.859555116016576
 20
24.77971790447428
 30
0.0
 10
-6.8879807320404
 20
24.80130407509568
 30
0.0
 10
-6.894079654034145
 20
24.79483828989718
 30
0.0
 10
-6.894127269449659
 20
24.79478781031257
 30
0.0
 11
-6.572065472116325
 21
24.75999437351257
 31
0.0
 11
-6.672636306249666
 21
24.7661063660459
 31
0.0
 11
-6.756147302516329
 21
24.77324109351257
 31
0.0
 11
-6.821698672116331
 21
24.78104173991257
 31
0.0
 11
-6.868304796916328
 21
24.78881700177923
 31
0.0
 11
-6.893984170782994
 21
24.79493838097924
 31
0.0
 11
-6.894127269449659
 21
24.79478781031257
 31
0.0
  0
SPLINE
  5
F6
100
AcDbEntity
  8
0
100
AcDbSpline
210
0.0
220
0.0
230
1.0
 70
     8
 71
     3
 72
    23
 73
    19
 74
    17
 42
0.0000001
 43
0.0000001
 44
0.0000000001
 40
0.0
 40
0.0
 40
0.0
 40
0.0
 40
0.0114085374570111
 40
0.0258980940140749
 40
0.0384942654691424
 40
0.0472357576941547
 40
0.0544826666796366
 40
0.0609650348476219
 40
0.0671719421000837
 40
0.073439704961884
 40
0.0799963053044394
 40
0.087036211668705
 40
0.0947435733816116
 40
0.1033041886814398
 40
0.1129122679420966
 40
0.1237747632911695
 40
0.136113889359152
 40
0.1501522135871045
 40
0.1501522135871045
 40
0.1501522135871045
 40
0.1501522135871045
 10
-4.818312067316331
 20
24.86089022311257
 30
0.0
 10
-4.822076265284437
 20
24.86034890541221
 30
0.0
 10
-4.830621230248866
 20
24.85912008035481
 30
0.0
 10
-4.843365086027628
 20
24.85760771423844
 30
0.0
 10
-4.85525892779821
 20
24.85651441399318
 30
0.0
 10
-4.864767953454744
 20
24.85589778904202
 30
0.0
 10
-4.872250766465664
 20
24.8555570995178
 30
0.0
 10
-4.878892870510313
 20
24.85534409910074
 30
0.0
 10
-4.885210153037844
 20
24.85519464318763
 30
0.0
 10
-4.891552743444233
 20
24.855072665438
 30
0.0
 10
-4.898173103045079
 20
24.85495404858418
 30
0.0
 10
-4.905273121588499
 20
24.85481949006347
 30
0.0
 10
-4.913040604521746
 20
24.85465104161311
 30
0.0
 10
-4.921663158956174
 20
24.85443035489961
 30
0.0
 10
-4.931335846699882
 20
24.85413801134395
 30
0.0
 10
-4.942265618500895
 20
24.85375140206907
 30
0.0
 10
-4.954668933759653
 20
24.85325121599873
 30
0.0
 10
-4.963451840202815
 20
24.85284052618315
 30
0.0
 10
-4.968126184649666
 20
24.8526219532459
 30
0.0
 11
-4.818312067316331
 21
24.86089022311257
 31
0.0
 11
-4.829610253982996
 21
24.85930728124591
 31
0.0
 11
-4.843999032649667
 21
24.85760132177924
 31
0.0
 11
-4.856543689716332
 21
24.85646329084591
 31
0.0
 11
-4.865266767049665
 21
24.85589618577924
 31
0.0
 11
-4.872505995849664
 21
24.85556263484591
 31
0.0
 11
-4.878984889716325
 21
24.85535042897923
 31
0.0
 11
-4.885189965982992
 21
24.85519967697923
 31
0.0
 11
-4.891456505716334
 21
24.85507585831257
 31
0.0
 11
-4.898012007582996
 21
24.8549558444459
 31
0.0
 11
-4.905050615582993
 21
24.85482064444591
 31
0.0
 11
-4.912756141982995
 21
24.8546524556459
 31
0.0
 11
-4.921313945716325
 21
24.85443307111257
 31
0.0
 11
-4.930917642783001
 21
24.85414291644591
 31
0.0
 11
-4.941773401716332
 21
24.8537604204459
 31
0.0
 11
-4.95410244491633
 21
24.85326169617923
 31
0.0
 11
-4.968126184649666
 21
24.8526219532459
 31
0.0
  0
LINE
  5
F7
100
AcDbEntity
  8
0
100
AcDbLine
 10
-5.423676
 20
25.47754
 30
0.0
 11
-5.348037
 21
24.803975
 31
0.0
  0
LINE
  5
F8
100
AcDbEntity
  8
0
100
AcDbLine
 10
-5.439746
 20
25.478415
 30
0.0
 11
-5.363487
 21
24.799336
 31
0.0
  0
LINE
  5
F9
100
AcDbEntity
  8
0
100
AcDbLine
 10
-5.510545
 20
25.464023
 30
0.0
 11
-5.434287
 21
24.784944
 31
0.0
  0
LINE
  5
FA
100
AcDbEntity
  8
0
100
AcDbLine
 10
-5.964417
 20
25.320321
 30
0.0
 11
-5.900333
 21
24.749656
 31
0.0
  0
LINE
  5
FB
100
AcDbEntity
  8
0
100
AcDbLine
 10
-5.424519
 20
25.47957
 30
0.0
 11
-5.423747
 21
25.478173
 31
0.0
  0
LINE
  5
FC
100
AcDbEntity
  8
0
100
AcDbLine
 10
-5.677441
 20
24.751973
 30
0.0
 11
-5.681778
 21
24.753044
 31
0.0
  0
LINE
  5
FD
100
AcDbEntity
  8
0
100
AcDbLine
 10
-5.651808
 20
24.754056
 30
0.0
 11
-5.652934
 21
24.753921
 31
0.0
  0
LINE
  5
FE
100
AcDbEntity
  8
0
100
AcDbLine
 10
-5.578432
 20
24.763366
 30
0.0
 11
-5.651808
 21
24.754056
 31
0.0
  0
LWPOLYLINE
  5
FF
100
AcDbEntity
  8
0
100
AcDbPolyline
 90
        4
 70
     0
 43
0.0
 10
-5.434287
 20
24.784944
 10
-5.466874
 20
24.779207
 10
-5.515739
 20
24.771893
 10
-5.578432
 20
24.763366
  0
LINE
  5
100
100
AcDbEntity
  8
0
100
AcDbLine
 10
-5.439746
 20
25.478415
 30
0.0
 11
-5.510545
 21
25.464023
 31
0.0
  0
LINE
  5
101
100
AcDbEntity
  8
0
100
AcDbLine
 10
-5.363487
 20
24.799336
 30
0.0
 11
-5.434287
 21
24.784944
 31
0.0
  0
LWPOLYLINE
  5
102
100
AcDbEntity
  8
0
100
AcDbPolyline
 90
        3
 70
     0
 43
0.0
 10
-5.348052
 20
24.803972
 10
-5.348812
 20
24.803207
 10
-5.363487
 20
24.799336
  0
SPLINE
  5
103
100
AcDbEntity
  8
0
100
AcDbSpline
210
0.0
220
0.0
230
-1.0
 70
     8
 71
     3
 72
    10
 73
     6
 74
     4
 42
0.0000001
 43
0.0000001
 44
0.0000000001
 40
0.0
 40
0.0
 40
0.0
 40
0.0
 40
0.000807635666142
 40
0.0027251979863096
 40
0.0098141063628166
 40
0.0098141063628166
 40
0.0098141063628166
 40
0.0098141063628166
 10
-5.50873270944966
 20
24.75887870951257
 30
0.0
 10
-5.508388981112794
 20
24.75882762430923
 30
0.0
 10
-5.507229141582754
 20
24.75865524795302
 30
0.0
 10
-5.512915698315054
 20
24.75755906575953
 30
0.0
 10
-5.515079707802213
 20
24.7572821165578
 30
0.0
 10
-5.516782979316326
 20
24.75706413244591
 30
0.0
 11
-5.50873270944966
 21
24.75887870951257
 31
0.0
 11
-5.507942076916326
 21
24.75871385937924
 31
0.0
 11
-5.509780816116332
 21
24.75816972391257
 31
0.0
 11
-5.516782979316326
 21
24.75706413244591
 31
0.0
  0
SPLINE
  5
104
100
AcDbEntity
  8
0
100
AcDbSpline
210
-0.0402690992274152
220
0.9991888708584642
230
0.0
 70
    24
 71
     3
 72
     8
 73
     4
 74
     2
 42
0.0000001
 43
0.0000001
 44
0.0000000001
 40
0.0
 40
0.0
 40
0.0
 40
0.0
 40
0.014406758808576
 40
0.014406758808576
 40
0.014406758808576
 40
0.014406758808576
 10
-5.531178052382998
 20
24.7564839852459
 30
0.0
 10
-5.526379694694107
 20
24.7566773676459
 30
0.0
 10
-5.521581337005217
 20
24.7568707500459
 30
0.0
 10
-5.516782979316326
 20
24.75706413244591
 30
0.0
 11
-5.531178052382998
 21
24.7564839852459
 31
0.0
 11
-5.516782979316326
 21
24.75706413244591
 31
0.0
  0
SPLINE
  5
105
100
AcDbEntity
  8
0
100
AcDbSpline
210
-0.0357564084499062
220
0.9993605351697471
230
0.0
 70
    24
 71
     3
 72
     8
 73
     4
 74
     2
 42
0.0000001
 43
0.0000001
 44
0.0000000001
 40
0.0
 40
0.0
 40
0.0
 40
0.0
 40
0.0628036231081897
 40
0.0628036231081897
 40
0.0628036231081897
 40
0.0628036231081897
 10
-5.593941514782997
 20
24.7542383532459
 30
0.0
 10
-5.573020360649664
 20
24.7549868972459
 30
0.0
 10
-5.552099206516331
 20
24.7557354412459
 30
0.0
 10
-5.531178052382998
 20
24.7564839852459
 30
0.0
 11
-5.593941514782997
 21
24.7542383532459
 31
0.0
 11
-5.531178052382998
 21
24.7564839852459
 31
0.0
  0
SPLINE
  5
106
100
AcDbEntity
  8
0
100
AcDbSpline
210
-0.0276578785918576
220
0.999617447702769
230
0.0
 70
    24
 71
     3
 72
     8
 73
     4
 74
     2
 42
0.0000001
 43
0.0000001
 44
0.0000000001
 40
0.0
 40
0.0
 40
0.0
 40
0.0
 40
0.0835197341328223
 40
0.0835197341328223
 40
0.0835197341328223
 40
0.0835197341328223
 10
-5.677429298249663
 20
24.75192837457924
 30
0.0
 10
-5.649600037094108
 20
24.75269836746813
 30
0.0
 10
-5.621770775938553
 20
24.75346836035702
 30
0.0
 10
-5.593941514782997
 20
24.7542383532459
 30
0.0
 11
-5.677429298249663
 21
24.75192837457924
 31
0.0
 11
-5.593941514782997
 21
24.7542383532459
 31
0.0
  0
SPLINE
  5
107
100
AcDbEntity
  8
0
100
AcDbSpline
210
-0.0223482651364449
220
0.9997502463342488
230
0.0
 70
    24
 71
     3
 72
     8
 73
     4
 74
     2
 42
0.0000001
 43
0.0000001
 44
0.0000000001
 40
0.0
 40
0.0
 40
0.0
 40
0.0
 40
0.0191151004664135
 40
0.0191151004664135
 40
0.0191151004664135
 40
0.0191151004664135
 10
-5.696551737716328
 20
24.7515454860459
 30
0.0
 10
-5.690181628916327
 20
24.75168788249035
 30
0.0
 10
-5.683811520116328
 20
24.75183027893479
 30
0.0
 10
-5.677441411316327
 20
24.75197267537923
 30
0.0
 11
-5.696551737716328
 21
24.7515454860459
 31
0.0
 11
-5.677441411316327
 21
24.75197267537923
 31
0.0
  0
SPLINE
  5
108
100
AcDbEntity
  8
0
100
AcDbSpline
210
-0.0163159226239861
220
0.9998668864748587
230
0.0
 70
    24
 71
     3
 72
     8
 73
     4
 74
     2
 42
0.0000001
 43
0.0000001
 44
0.0000000001
 40
0.0
 40
0.0
 40
0.0
 40
0.0
 40
0.1711738116828205
 40
0.1711738116828205
 40
0.1711738116828205
 40
0.1711738116828205
 10
-5.867702763849663
 20
24.74875262737923
 30
0.0
 10
-5.810652421805219
 20
24.74968358026812
 30
0.0
 10
-5.753602079760773
 20
24.75061453315702
 30
0.0
 10
-5.696551737716328
 20
24.7515454860459
 30
0.0
 11
-5.867702763849663
 21
24.74875262737923
 31
0.0
 11
-5.696551737716328
 21
24.7515454860459
 31
0.0
  0
SPLINE
  5
109
100
AcDbEntity
  8
0
100
AcDbSpline
210
-0.0100656167162906
220
0.9999493403968628
230
0.0
 70
    24
 71
     3
 72
     8
 73
     4
 74
     2
 42
0.0000001
 43
0.0000001
 44
0.0000000001
 40
0.0
 40
0.0
 40
0.0
 40
0.0
 40
0.0302991072074126
 40
0.0302991072074126
 40
0.0302991072074126
 40
0.0302991072074126
 10
-5.89800033611633
 20
24.74844764817924
 30
0.0
 10
-5.887901145360774
 20
24.74854930791257
 30
0.0
 10
-5.877801954605218
 20
24.7486509676459
 30
0.0
 10
-5.867702763849663
 20
24.74875262737923
 30
0.0
 11
-5.89800033611633
 21
24.74844764817924
 31
0.0
 11
-5.867702763849663
 21
24.74875262737923
 31
0.0
  0
SPLINE
  5
10A
100
AcDbEntity
  8
0
100
AcDbSpline
210
-0.0069112523809029
220
0.9999761170100653
230
0.0
 70
    24
 71
     3
 72
     8
 73
     4
 74
     2
 42
0.0000001
 43
0.0000001
 44
0.0000000001
 40
0.0
 40
0.0
 40
0.0
 40
0.0
 40
0.0742512410749771
 40
0.0742512410749771
 40
0.0742512410749771
 40
0.0742512410749771
 10
-5.972249803849663
 20
24.74793447911257
 30
0.0
 10
-5.947499981271885
 20
24.74810553546813
 30
0.0
 10
-5.922750158694108
 20
24.74827659182368
 30
0.0
 10
-5.89800033611633
 20
24.74844764817924
 30
0.0
 11
-5.972249803849663
 21
24.74793447911257
 31
0.0
 11
-5.89800033611633
 21
24.74844764817924
 31
0.0
  0
SPLINE
  5
10B
100
AcDbEntity
  8
0
100
AcDbSpline
210
0.0
220
0.0
230
1.0
 70
     8
 71
     3
 72
    10
 73
     6
 74
     4
 42
0.0000001
 43
0.0000001
 44
0.0000000001
 40
0.0
 40
0.0
 40
0.0
 40
0.0
 40
0.0196531873307299
 40
0.1599230986059626
 40
0.1732471917616167
 40
0.1732471917616167
 40
0.1732471917616167
 40
0.1732471917616167
 10
-5.508624701982999
 20
24.75869976551257
 30
0.0
 10
-5.515169895912659
 20
24.75842263381004
 30
0.0
 10
-5.568429841823387
 20
24.75616754104338
 30
0.0
 10
-5.626153193782453
 20
24.75432128880882
 30
0.0
 10
-5.67733684683913
 20
24.75311133156576
 30
0.0
 10
-5.681776966516332
 20
24.7530063692459
 30
0.0
 11
-5.508624701982999
 21
24.75869976551257
 31
0.0
 11
-5.528260646516329
 21
24.7578766892459
 31
0.0
 11
-5.668456671049658
 21
24.7533244684459
 31
0.0
 11
-5.681776966516332
 21
24.7530063692459
 31
0.0
  0
SPLINE
  5
10C
100
AcDbEntity
  8
0
100
AcDbSpline
210
-0.0051097855456236
220
0.9999869449606219
230
0.0
 70
    24
 71
     3
 72
     8
 73
     4
 74
     2
 42
0.0000001
 43
0.0000001
 44
0.0000000001
 40
0.0
 40
0.0
 40
0.0
 40
0.0
 40
0.1342747545622158
 40
0.1342747545622158
 40
0.1342747545622158
 40
0.1342747545622158
 10
-5.897827955316325
 20
24.7495793484459
 30
0.0
 10
-5.942585622516327
 20
24.74935064337923
 30
0.0
 10
-5.98734328971633
 20
24.74912193831257
 30
0.0
 10
-6.032100956916332
 20
24.7488932332459
 30
0.0
 11
-5.897827955316325
 21
24.7495793484459
 31
0.0
 11
-6.032100956916332
 21
24.7488932332459
 31
0.0
  0
SPLINE
  5
10D
100
AcDbEntity
  8
0
100
AcDbSpline
210
-0.0099219506372684
220
0.9999507762362863
230
0.0
 70
    24
 71
     3
 72
     8
 73
     4
 74
     2
 42
0.0000001
 43
0.0000001
 44
0.0000000001
 40
0.0
 40
0.0
 40
0.0
 40
0.0
 40
0.0221395175237125
 40
0.0221395175237125
 40
0.0221395175237125
 40
0.0221395175237125
 10
-5.875689527582991
 20
24.74979901564591
 30
0.0
 10
-5.883069003494103
 20
24.74972579324591
 30
0.0
 10
-5.890448479405214
 20
24.74965257084591
 30
0.0
 10
-5.897827955316325
 20
24.7495793484459
 30
0.0
 11
-5.875689527582991
 21
24.74979901564591
 31
0.0
 11
-5.897827955316325
 21
24.7495793484459
 31
0.0
  0
SPLINE
  5
10E
100
AcDbEntity
  8
0
100
AcDbSpline
210
-0.0155468255952752
220
0.9998791408034824
230
0.0
 70
    24
 71
     3
 72
     8
 73
     4
 74
     2
 42
0.0000001
 43
0.0000001
 44
0.0000000001
 40
0.0
 40
0.0
 40
0.0
 40
0.0
 40
0.1580565660562432
 40
0.1580565660562432
 40
0.1580565660562432
 40
0.1580565660562432
 10
-5.717652064116326
 20
24.75225629351257
 30
0.0
 10
-5.770331218605215
 20
24.75143720089035
 30
0.0
 10
-5.823010373094104
 20
24.75061810826813
 30
0.0
 10
-5.875689527582991
 20
24.74979901564591
 30
0.0
 11
-5.717652064116326
 21
24.75225629351257
 31
0.0
 11
-5.875689527582991
 21
24.74979901564591
 31
0.0
  0
SPLINE
  5
10F
100
AcDbEntity
  8
0
100
AcDbSpline
210
-0.0219352123712433
220
0.9997593942835589
230
0.0
 70
    24
 71
     3
 72
     8
 73
     4
 74
     2
 42
0.0000001
 43
0.0000001
 44
0.0000000001
 40
0.0
 40
0.0
 40
0.0
 40
0.0
 40
0.0358831264853567
 40
0.0358831264853567
 40
0.0358831264853567
 40
0.0358831264853567
 10
-5.681777571316326
 20
24.75304339751257
 30
0.0
 10
-5.693735735582992
 20
24.75278102951257
 30
0.0
 10
-5.705693899849659
 20
24.75251866151257
 30
0.0
 10
-5.717652064116326
 20
24.75225629351257
 30
0.0
 11
-5.681777571316326
 21
24.75304339751257
 31
0.0
 11
-5.717652064116326
 21
24.75225629351257
 31
0.0
  0
SPLINE
  5
110
100
AcDbEntity
  8
0
100
AcDbSpline
210
-0.109852939883738
220
0.9939478515490135
230
0.0
 70
    24
 71
     3
 72
     8
 73
     4
 74
     2
 42
0.0000001
 43
0.0000001
 44
0.0000000001
 40
0.0
 40
0.0
 40
0.0
 40
0.0
 40
0.0061443599116552
 40
0.0061443599116552
 40
0.0061443599116552
 40
0.0061443599116552
 10
-5.514839882782993
 20
24.75820373351257
 30
0.0
 10
-5.512804158338548
 20
24.75842872551257
 30
0.0
 10
-5.510768433894104
 20
24.75865371751257
 30
0.0
 10
-5.50873270944966
 20
24.75887870951257
 30
0.0
 11
-5.514839882782993
 21
24.75820373351257
 31
0.0
 11
-5.50873270944966
 21
24.75887870951257
 31
0.0
  0
SPLINE
  5
111
100
AcDbEntity
  8
0
100
AcDbSpline
210
0.0
220
0.0
230
-1.0
 70
     8
 71
     3
 72
     9
 73
     5
 74
     3
 42
0.0000001
 43
0.0000001
 44
0.0000000001
 40
0.0
 40
0.0
 40
0.0
 40
0.0
 40
0.0128035675049248
 40
0.0136730478105045
 40
0.0136730478105045
 40
0.0136730478105045
 40
0.0136730478105045
 10
-5.438299165982996
 20
25.4787470636459
 30
0.0
 10
-5.433001563012734
 20
25.48117378455345
 30
0.0
 10
-5.427344203947331
 20
25.48376530218936
 30
0.0
 10
-5.425291133606967
 20
25.4795922962441
 30
0.0
 10
-5.425160577182997
 20
25.47932693137924
 30
0.0
 11
-5.438299165982996
 21
25.4787470636459
 31
0.0
 11
-5.425566821449663
 21
25.4800956716459
 31
0.0
 11
-5.425160577182997
 21
25.47932693137924
 31
0.0
  0
SPLINE
  5
112
100
AcDbEntity
  8
0
100
AcDbSpline
210
0.0
220
0.0
230
1.0
 70
     8
 71
     3
 72
    19
 73
    15
 74
    13
 42
0.0000001
 43
0.0000001
 44
0.0000000001
 40
0.0
 40
0.0
 40
0.0
 40
0.0
 40
0.0326363466998638
 40
0.068611717891145
 40
0.1090868397880388
 40
0.1534021146702352
 40
0.2003055396705994
 40
0.2477786711118147
 40
0.2941501499778619
 40
0.3389504216303145
 40
0.384882838792601
 40
0.4274087270226717
 40
0.4621982193574941
 40
0.4863225004392446
 40
0.4863225004392446
 40
0.4863225004392446
 40
0.4863225004392446
 10
-5.96441652491633
 20
25.32032101991257
 30
0.0
 10
-5.954758175698816
 20
25.31485136914556
 30
0.0
 10
-5.93445333159661
 20
25.30335246766492
 30
0.0
 10
-5.896583449346511
 20
25.3063946768315
 30
0.0
 10
-5.85843948412279
 20
25.31862594554
 30
0.0
 10
-5.81782158911152
 20
25.33555423627146
 30
0.0
 10
-5.775786170313898
 20
25.35473923298448
 30
0.0
 10
-5.73328233876792
 20
25.37461824616534
 30
0.0
 10
-5.69138514533445
 20
25.39412134423283
 30
0.0
 10
-5.649770878081402
 20
25.41300926225089
 30
0.0
 10
-5.609043856248855
 20
25.43077234463422
 30
0.0
 10
-5.570900558740832
 20
25.44598069300173
 30
0.0
 10
-5.539103468235855
 20
25.45770003364516
 30
0.0
 10
-5.519923310094968
 20
25.46199318326144
 30
0.0
 10
-5.51206933131633
 20
25.46375116177924
 30
0.0
 11
-5.96441652491633
 21
25.32032101991257
 31
0.0
 11
-5.93464641184966
 21
25.30694673511257
 31
0.0
 11
-5.898675476382999
 21
25.30751165457923
 31
0.0
 11
-5.859795840116328
 21
25.31876373777924
 31
0.0
 11
-5.818734844916325
 21
25.33543221884591
 31
0.0
 11
-5.775984475849663
 21
25.35472826044591
 31
0.0
 11
-5.732944722249664
 21
25.3747601804459
 31
0.0
 11
-5.690878918516332
 21
25.3942738220459
 31
0.0
 11
-5.650068034249665
 21
25.4127545164459
 31
0.0
 11
-5.607910661449659
 21
25.43099027431257
 31
0.0
 11
-5.568413319582991
 21
25.4467513388459
 31
0.0
 11
-5.535511687582996
 21
25.45805582417924
 31
0.0
 11
-5.51206933131633
 21
25.46375116177924
 31
0.0
  0
SPLINE
  5
113
100
AcDbEntity
  8
0
100
AcDbSpline
210
-0.1756672800415921
220
0.9844495958264136
230
0.0
 70
    24
 71
     3
 72
     9
 73
     5
 74
     3
 42
0.0000001
 43
0.0000001
 44
0.0000000001
 40
0.0
 40
0.0
 40
0.0
 40
0.0
 40
0.000782503592766
 40
0.0015482695925313
 40
0.0015482695925313
 40
0.0015482695925313
 40
0.0015482695925313
 10
-5.512069300382994
 20
25.46375116711257
 30
0.0
 10
-5.511811735761845
 20
25.46379248261624
 30
0.0
 10
-5.511302115774507
 20
25.46387422989333
 30
0.0
 10
-5.510795688243658
 20
25.4639738547716
 30
0.0
 10
-5.510545211849664
 20
25.46402312871256
 30
0.0
 11
-5.512069300382994
 21
25.46375116711257
 31
0.0
 11
-5.511297421982992
 21
25.46387968017923
 31
0.0
 11
-5.510545211849664
 21
25.46402312871256
 31
0.0
  0
SPLINE
  5
114
100
AcDbEntity
  8
0
100
AcDbSpline
210
-0.2236336201172508
220
0.974673280619333
230
0.0
 70
    24
 71
     3
 72
     9
 73
     5
 74
     3
 42
0.0000001
 43
0.0000001
 44
0.0000000001
 40
0.0
 40
0.0
 40
0.0
 40
0.0
 40
0.0007499070037974
 40
0.00148437234134
 40
0.00148437234134
 40
0.00148437234134
 40
0.00148437234134
 10
-5.439745845449659
 20
25.4784151308459
 30
0.0
 10
-5.439501160226091
 20
25.47846638044289
 30
0.0
 10
-5.439016828200443
 20
25.47856782433378
 30
0.0
 10
-5.438536734746023
 20
25.47868773015051
 30
0.0
 10
-5.438299185182998
 20
25.47874705937923
 30
0.0
 11
-5.439745845449659
 21
25.4784151308459
 31
0.0
 11
-5.439012871582997
 21
25.4785735916459
 31
0.0
 11
-5.438299185182998
 21
25.47874705937923
 31
0.0
  0
SPLINE
  5
115
100
AcDbEntity
  8
0
100
AcDbSpline
210
0.6106988901078977
220
0.7918629083502915
230
0.0
 70
    24
 71
     3
 72
     8
 73
     4
 74
     2
 42
0.0000001
 43
0.0000001
 44
0.0000000001
 40
0.0
 40
0.0
 40
0.0
 40
0.0
 40
0.0108381198010053
 40
0.0108381198010053
 40
0.0108381198010053
 40
0.0108381198010053
 10
-5.424519995849658
 20
25.47957730151257
 30
0.0
 10
-5.427380764205216
 20
25.48178357742368
 30
0.0
 10
-5.430241532560774
 20
25.48398985333479
 30
0.0
 10
-5.433102300916331
 20
25.4861961292459
 30
0.0
 11
-5.424519995849658
 21
25.47957730151257
 31
0.0
 11
-5.433102300916331
 21
25.4861961292459
 31
0.0
  0
LWPOLYLINE
  5
116
100
AcDbEntity
  8
0
100
AcDbPolyline
 90
        4
 70
     0
 43
0.0
 10
-4.968126
 20
24.852622
 10
-5.104027
 20
24.843374
 10
-5.29938
 20
24.826097
 10
-5.349746
 20
24.821055
  0
LINE
  5
117
100
AcDbEntity
  8
0
100
AcDbLine
 10
-4.818312
 20
24.86089
 30
0.0
 11
-5.516783
 21
24.757064
 31
0.0
  0
SPLINE
  5
118
100
AcDbEntity
  8
0
100
AcDbSpline
210
0.0
220
0.0
230
-1.0
 70
     8
 71
     3
 72
    12
 73
     8
 74
     6
 42
0.0000001
 43
0.0000001
 44
0.0000000001
 40
0.0
 40
0.0
 40
0.0
 40
0.0
 40
0.0302719708633923
 40
0.1042918657850989
 40
0.2291622689322341
 40
0.4007741474169921
 40
0.5748176728501291
 40
0.5748176728501291
 40
0.5748176728501291
 40
0.5748176728501291
 10
-4.818390754249667
 20
24.8608785260459
 30
0.0
 10
-4.822096497006519
 20
24.87072957893988
 30
0.0
 10
-4.834863383839747
 20
24.90466805922243
 30
0.0
 10
-4.922393923272454
 20
24.91645564437326
 30
0.0
 10
-5.036032087271327
 20
24.94485210079011
 30
0.0
 10
-5.195048233516599
 20
24.96104184091771
 30
0.0
 10
-5.309481376302541
 20
24.9699588858444
 30
0.0
 10
-5.367100459849661
 20
24.97444877351257
 30
0.0
 11
-4.818390754249667
 21
24.8608785260459
 31
0.0
 11
-4.831788543049663
 21
24.88802427111257
 31
0.0
 11
-4.900898311582992
 21
24.91453435857923
 31
0.0
 11
-5.023338817182997
 21
24.9390484396459
 31
0.0
 11
-5.193639165982995
 21
24.96022455911257
 31
0.0
 11
-5.367100459849661
 21
24.97444877351257
 31
0.0
  0
SPLINE
  5
119
100
AcDbEntity
  8
0
100
AcDbSpline
210
0.0
220
0.0
230
-1.0
 70
     8
 71
     3
 72
    11
 73
     7
 74
     5
 42
0.0000001
 43
0.0000001
 44
0.0000000001
 40
0.0
 40
0.0
 40
0.0
 40
0.0
 40
0.0740095530246892
 40
0.186329623270977
 40
0.3340965170794524
 40
0.4023911288587536
 40
0.4023911288587536
 40
0.4023911288587536
 40
0.4023911288587536
 10
-4.967934265716332
 20
24.8526311948459
 30
0.0
 10
-4.991006187360731
 20
24.86148719093448
 30
0.0
 10
-5.04909304631939
 20
24.8837834263181
 30
0.0
 10
-5.159285939393521
 20
24.90313820360672
 30
0.0
 10
-5.267520561898695
 20
24.91863445816088
 30
0.0
 10
-5.339180883514729
 20
24.92598224358403
 30
0.0
 10
-5.361831905182995
 20
24.92830479591257
 30
0.0
 11
-4.967934265716332
 21
24.8526311948459
 31
0.0
 11
-5.037681547849667
 21
24.8773845900459
 31
0.0
 11
-5.147583908382998
 21
24.90056366097924
 31
0.0
 11
-5.293923442249663
 21
24.92105257831257
 31
0.0
 11
-5.361831905182995
 21
24.92830479591257
 31
0.0
  0
SPLINE
  5
11A
100
AcDbEntity
  8
0
100
AcDbSpline
210
-0.0383843515668532
220
0.999263049229177
230
0.0
 70
    24
 71
     3
 72
     8
 73
     4
 74
     2
 42
0.0000001
 43
0.0000001
 44
0.0000000001
 40
0.0
 40
0.0
 40
0.0
 40
0.0
 40
1.702858656332721
 40
1.702858656332721
 40
1.702858656332721
 40
1.702858656332721
 10
-7.115697707849662
 20
26.35477456657923
 30
0.0
 10
-6.548496463405217
 20
26.37656227502368
 30
0.0
 10
-5.981295218960772
 20
26.39834998346813
 30
0.0
 10
-5.414093974516328
 20
26.42013769191257
 30
0.0
 11
-7.115697707849662
 21
26.35477456657923
 31
0.0
 11
-5.414093974516328
 21
26.42013769191257
 31
0.0
  0
SPLINE
  5
11B
100
AcDbEntity
  8
0
100
AcDbSpline
210
0.0
220
0.0
230
1.0
 70
     8
 71
     3
 72
    14
 73
    10
 74
     8
 42
0.0000001
 43
0.0000001
 44
0.0000000001
 40
0.0
 40
0.0
 40
0.0
 40
0.0
 40
0.9039002209102902
 40
1.808579814389161
 40
2.698443868405086
 40
3.58360583143224
 40
4.467684353550659
 40
5.362877949567383
 40
6.257438100813407
 40
6.257438100813407
 40
6.257438100813407
 40
6.257438100813407
 10
17.68950971935034
 20
26.4201240492459
 30
0.0
 10
17.9913905319593
 20
26.4371363793535
 30
0.0
 10
18.59541244876572
 20
26.47117570816056
 30
0.0
 10
19.45953986124267
 20
26.75320379818818
 30
0.0
 10
20.24642565258742
 20
27.18525677188956
 30
0.0
 10
20.92568940172511
 20
27.76569961092499
 30
0.0
 10
21.47175839362167
 20
28.47176512525001
 30
0.0
 10
21.88017252533622
 20
29.27476205252247
 30
0.0
 10
22.00384112586879
 20
29.86059413628532
 30
0.0
 10
22.065653541217
 20
30.1534065068459
 30
0.0
 11
17.68950971935034
 21
26.4201240492459
 31
0.0
 11
18.58894320415034
 21
26.50987378897923
 31
0.0
 11
19.452159352417
 21
26.78061914577924
 31
0.0
 11
20.23076584628368
 21
27.21146710311256
 31
0.0
 11
20.90360176308367
 21
27.78662232551257
 31
0.0
 11
21.44654894175033
 21
28.4843351564459
 31
0.0
 11
21.84281601268366
 21
29.28704555431257
 31
0.0
 11
22.065653541217
 21
30.1534065068459
 31
0.0
  0
SPLINE
  5
11C
100
AcDbEntity
  8
0
100
AcDbSpline
210
0.0
220
0.0
230
1.0
 70
     8
 71
     3
 72
    15
 73
    11
 74
     9
 42
0.0000001
 43
0.0000001
 44
0.0000000001
 40
0.0
 40
0.0
 40
0.0
 40
0.0
 40
1.147834323952741
 40
2.298498804737057
 40
3.448093788923088
 40
4.598798404840933
 40
5.748951543905757
 40
6.899254080864283
 40
8.049597114327097
 40
9.203954902505875
 40
9.203954902505875
 40
9.203954902505875
 40
9.203954902505875
 10
24.71306887775034
 20
30.1485991788459
 30
0.0
 10
24.63478855072002
 20
29.77307697367866
 30
0.0
 10
24.47803488483036
 20
29.0211066573034
 30
0.0
 10
23.996718100193
 20
27.96732913701079
 30
0.0
 10
23.34945412748499
 20
27.01066286352393
 30
0.0
 10
22.54120516911075
 20
26.18345544403974
 30
0.0
 10
21.59962027068865
 20
25.51153810545231
 30
0.0
 10
20.55502808447305
 20
25.01868574047179
 30
0.0
 10
19.43762865996119
 20
24.70425028861897
 30
0.0
 10
18.66842097213373
 20
24.66479950059984
 30
0.0
 10
18.283147154017
 20
24.6450397452459
 30
0.0
 11
24.71306887775034
 21
30.1485991788459
 31
0.0
 11
24.43730585055034
 21
29.03438268817923
 31
0.0
 11
23.96895666015033
 21
27.98334616017924
 31
0.0
 11
23.322841355617
 21
27.0325025132459
 31
0.0
 11
22.51886950175033
 21
26.20924655591257
 31
0.0
 11
21.58247951348366
 21
25.54139475111257
 31
0.0
 11
20.54313227828367
 21
25.04849186897923
 31
0.0
 11
19.43298953268367
 21
24.7470417420459
 31
0.0
 11
18.283147154017
 21
24.6450397452459
 31
0.0
  0
SPLINE
  5
11D
100
AcDbEntity
  8
0
100
AcDbSpline
210
0.0
220
0.0
230
1.0
 70
     8
 71
     3
 72
    15
 73
    11
 74
     9
 42
0.0000001
 43
0.0000001
 44
0.0000000001
 40
0.0
 40
0.0
 40
0.0
 40
0.0
 40
0.7498792823734334
 40
1.420562316497041
 40
2.023547204877893
 40
2.56771979200499
 40
3.060502107944028
 40
3.50788024474272
 40
3.915216722339149
 40
4.287045329496498
 40
4.287045329496498
 40
4.287045329496498
 40
4.287045329496498
 10
24.17166350708367
 20
29.71154704231256
 30
0.0
 10
24.12391254405558
 20
29.46585723367327
 30
0.0
 10
24.03345369254623
 20
29.00042540763897
 30
0.0
 10
23.80542445643495
 20
28.36321107110022
 30
0.0
 10
23.54493911685163
 20
27.81527512526089
 30
0.0
 10
23.26311990205019
 20
27.34594359034617
 30
0.0
 10
22.97334226910449
 20
26.94422366027586
 30
0.0
 10
22.68249607580809
 20
26.60149869845314
 30
0.0
 10
22.39758086165005
 20
26.30762435815747
 30
0.0
 10
22.20192009117382
 20
26.13669529279174
 30
0.0
 10
22.10854800201701
 20
26.05512552337923
 30
0.0
 11
24.17166350708367
 21
29.71154704231256
 31
0.0
 11
24.00901050548366
 21
28.97952044497924
 31
0.0
 11
23.78698672308367
 21
28.34665302417924
 31
0.0
 11
23.52746167775032
 21
27.80237595644591
 31
0.0
 11
23.247612885217
 21
27.33567641937924
 31
0.0
 11
22.959152926817
 21
26.9361451148459
 31
0.0
 11
22.67000148255032
 21
26.5947675532459
 31
0.0
 11
22.38532397535034
 21
26.30342287271256
 31
0.0
 11
22.10854800201701
 21
26.05512552337923
 31
0.0
  0
SPLINE
  5
11E
100
AcDbEntity
  8
0
100
AcDbSpline
210
0.0
220
0.0
230
1.0
 70
     8
 71
     3
 72
    11
 73
     7
 74
     5
 42
0.0000001
 43
0.0000001
 44
0.0000000001
 40
0.0
 40
0.0
 40
0.0
 40
0.0
 40
0.6973292259170889
 40
1.333643182882887
 40
1.918149516224019
 40
2.456543262855164
 40
2.456543262855164
 40
2.456543262855164
 40
2.456543262855164
 10
22.10854418655033
 20
26.05512621991257
 30
0.0
 10
21.92553996132187
 20
25.91134845472786
 30
0.0
 10
21.57554410808092
 20
25.63637326472843
 30
0.0
 10
21.02032375213183
 20
25.31597548571619
 30
0.0
 10
20.48760351107276
 20
25.06811264895171
 30
0.0
 10
20.13137190416975
 20
24.95225481526755
 30
0.0
 10
19.960570536417
 20
24.8967047852459
 30
0.0
 11
22.10854418655033
 21
26.05512621991257
 31
0.0
 11
21.54967945375033
 21
25.6380671596459
 31
0.0
 11
21.00089644255033
 21
25.31599161191257
 31
0.0
 11
20.46925086281701
 21
25.0730911564459
 31
0.0
 11
19.960570536417
 21
24.8967047852459
 31
0.0
  0
SPLINE
  5
11F
100
AcDbEntity
  8
0
100
AcDbSpline
210
0.0
220
0.0
230
1.0
 70
     8
 71
     3
 72
     9
 73
     5
 74
     3
 42
0.0000001
 43
0.0000001
 44
0.0000000001
 40
0.0
 40
0.0
 40
0.0
 40
0.0
 40
0.0167816895542404
 40
0.0383547019931194
 40
0.0383547019931194
 40
0.0383547019931194
 40
0.0383547019931194
 10
18.283147154017
 20
24.6450397452459
 30
0.0
 10
18.2775533334491
 20
24.64507194609955
 30
0.0
 10
18.26476860636954
 20
24.64514554143936
 30
0.0
 10
18.251984711421
 20
24.64530996861947
 30
0.0
 10
18.24479427295033
 20
24.6454024524459
 30
0.0
 11
18.283147154017
 21
24.6450397452459
 31
0.0
 11
18.266365851617
 21
24.64515373671257
 31
0.0
 11
18.24479427295033
 21
24.6454024524459
 31
0.0
  0
SPLINE
  5
120
100
AcDbEntity
  8
0
100
AcDbSpline
210
0.0
220
0.0
230
1.0
 70
     8
 71
     3
 72
     9
 73
     5
 74
     3
 42
0.0000001
 43
0.0000001
 44
0.0000000001
 40
0.0
 40
0.0
 40
0.0
 40
0.0
 40
0.3333271195220064
 40
0.6405000244575307
 40
0.6405000244575307
 40
0.6405000244575307
 40
0.6405000244575307
 10
19.821544984417
 20
24.85669775591257
 30
0.0
 10
19.71387639911635
 20
24.82906961523081
 30
0.0
 10
19.50698734785264
 20
24.77598115123858
 30
0.0
 10
19.29664284774001
 20
24.7389272212342
 30
0.0
 10
19.19576520735033
 20
24.72115678737924
 30
0.0
 11
19.821544984417
 21
24.85669775591257
 31
0.0
 11
19.49760337588366
 21
24.77815602897923
 31
0.0
 11
19.19576520735033
 21
24.72115678737924
 31
0.0
  0
SPLINE
  5
121
100
AcDbEntity
  8
0
100
AcDbSpline
210
0.0
220
0.0
230
1.0
 70
     8
 71
     3
 72
     9
 73
     5
 74
     3
 42
0.0000001
 43
0.0000001
 44
0.0000000001
 40
0.0
 40
0.0
 40
0.0
 40
0.0
 40
0.0777098355650145
 40
0.1521346230069558
 40
0.1521346230069558
 40
0.1521346230069558
 40
0.1521346230069558
 10
19.96054556788367
 20
24.8967632076459
 30
0.0
 10
19.93571448103617
 20
24.88938587600168
 30
0.0
 10
19.88710199834423
 20
24.87494307657571
 30
0.0
 10
19.83824930389146
 20
24.86133511046312
 30
0.0
 10
19.814350395617
 20
24.8546780460459
 30
0.0
 11
19.96054556788367
 21
24.8967632076459
 31
0.0
 11
19.88598963295034
 21
24.8748490316459
 31
0.0
 11
19.814350395617
 21
24.8546780460459
 31
0.0
  0
LINE
  5
122
100
AcDbEntity
  8
0
100
AcDbLine
 10
-5.694242
 20
47.98673
 30
0.0
 11
18.244827
 21
47.98673
 31
0.0
  0
LINE
  5
123
100
AcDbEntity
  8
0
100
AcDbLine
 10
17.68951
 20
46.212027
 30
0.0
 11
-5.414094
 21
46.212027
 31
0.0
  0
ARC
  5
124
100
AcDbEntity
  8
0
100
AcDbCircle
 10
-5.94346
 20
55.997004
 30
0.0
 40
8.014201
100
AcDbArc
 50
255.014989
 51
266.428749
  0
SPLINE
  5
125
100
AcDbEntity
  8
0
100
AcDbSpline
210
0.0
220
0.0
230
1.0
 70
     8
 71
     3
 72
     9
 73
     5
 74
     3
 42
0.0000001
 43
0.0000001
 44
0.0000000001
 40
0.0
 40
0.0
 40
0.0
 40
0.0
 40
0.3789118213991409
 40
1.281558259001003
 40
1.281558259001003
 40
1.281558259001003
 40
1.281558259001003
 10
-7.918784576116332
 20
47.96727853777924
 30
0.0
 10
-7.792550271773325
 20
47.9628440881738
 30
0.0
 10
-7.365599709231724
 20
47.94784586115894
 30
0.0
 10
-6.938344414843906
 20
47.95060115555193
 30
0.0
 10
-6.63741352331633
 20
47.95254180604589
 30
0.0
 11
-7.918784576116332
 21
47.96727853777924
 31
0.0
 11
-7.540055024116331
 21
47.95552716177923
 31
0.0
 11
-6.63741352331633
 21
47.95254180604589
 31
0.0
  0
LWPOLYLINE
  5
126
100
AcDbEntity
  8
0
100
AcDbPolyline
 90
        8
 70
     0
 43
0.0
 10
-6.464611
 20
47.876552
 10
-6.543995
 20
47.693769
 10
-6.696794
 20
47.446567
 10
-6.882826
 20
47.225144
 10
-7.097952
 20
47.034423
 10
-7.33739
 20
46.878645
 10
-7.595816
 20
46.761274
 10
-7.867482
 20
46.684918
  0
LWPOLYLINE
  5
127
100
AcDbEntity
  8
0
100
AcDbPolyline
 90
        8
 70
     0
 43
0.0
 10
-5.512069
 20
47.168406
 10
-5.977637
 20
46.845835
 10
-6.472659
 20
46.576012
 10
-6.991531
 20
46.361994
 10
-7.528377
 20
46.206204
 10
-8.077117
 20
46.110405
 10
-8.631538
 20
46.075684
 10
-9.185362
 20
46.102433
  0
LWPOLYLINE
  5
128
100
AcDbEntity
  8
0
100
AcDbPolyline
 90
        6
 70
     0
 43
0.0
 10
-8.003347
 20
46.095409
 10
-7.454607
 20
46.191208
 10
-6.917761
 20
46.346998
 10
-6.398889
 20
46.561016
 10
-5.903867
 20
46.830839
 10
-5.438299
 20
47.15341
  0
SPLINE
  5
129
100
AcDbEntity
  8
0
100
AcDbSpline
210
0.0
220
0.0
230
1.0
 70
     8
 71
     3
 72
    15
 73
    11
 74
     9
 42
0.0000001
 43
0.0000001
 44
0.0000000001
 40
0.0
 40
0.0
 40
0.0
 40
0.0
 40
0.5430774023561835
 40
1.099932703607373
 40
1.654448595542711
 40
2.206825044019833
 40
2.75736024264045
 40
3.306437974873286
 40
3.854510747633545
 40
4.402078917003921
 40
4.402078917003921
 40
4.402078917003921
 40
4.402078917003921
 10
-5.433102300916331
 20
47.14596130897922
 30
0.0
 10
-5.579859013394703
 20
47.03970975610663
 30
0.0
 10
-5.877095662956112
 20
46.82451104353529
 30
0.0
 10
-6.363522496745259
 20
46.56141929017657
 30
0.0
 10
-6.875772907021471
 20
46.34672886330416
 30
0.0
 10
-7.406591504485767
 20
46.1895826982005
 30
0.0
 10
-7.949372228098321
 20
46.09022335153123
 30
0.0
 10
-8.498079485570615
 20
46.05146758948783
 30
0.0
 10
-9.047710160191336
 20
46.06831136285267
 30
0.0
 10
-9.408080475288095
 20
46.12979293047151
 30
0.0
 10
-9.588182647582996
 20
46.1605195564459
 30
0.0
 11
-5.433102300916331
 21
47.14596130897922
 31
0.0
 11
-5.879748687049664
 21
46.83702754471256
 31
0.0
 11
-6.368082472649665
 21
46.56941226044589
 31
0.0
 11
-6.87986989024966
 21
46.35596082897922
 31
0.0
 11
-7.409476090782992
 21
46.19899900817924
 31
0.0
 11
-7.951079058249665
 21
46.10023043751257
 31
0.0
 11
-8.498733514782992
 21
46.06072154897923
 31
0.0
 11
-9.046434950516331
 21
46.08089334951257
 31
0.0
 11
-9.588182647582996
 21
46.1605195564459
 31
0.0
  0
SPLINE
  5
12A
100
AcDbEntity
  8
0
100
AcDbSpline
210
0.0
220
0.0
230
1.0
 70
     8
 71
     3
 72
    14
 73
    10
 74
     8
 42
0.0000001
 43
0.0000001
 44
0.0000000001
 40
0.0
 40
0.0
 40
0.0
 40
0.0
 40
0.1123567689647287
 40
0.374799487892715
 40
0.6359689547447449
 40
0.8956179371559516
 40
1.153638861881864
 40
1.410075151410137
 40
1.665109723549005
 40
1.665109723549005
 40
1.665109723549005
 40
1.665109723549005
 10
-6.594780972916325
 20
47.86924717351256
 30
0.0
 10
-6.610676031719173
 20
47.83532669312267
 30
0.0
 10
-6.663698737464678
 20
47.72217482166585
 30
0.0
 10
-6.776227551459487
 20
47.54139664006152
 30
0.0
 10
-6.943959668572926
 20
47.34030634860696
 30
0.0
 10
-7.138490529572296
 20
47.1667745099018
 30
0.0
 10
-7.355292682522013
 20
47.0255194317369
 30
0.0
 10
-7.589054668627959
 20
46.91628724540748
 30
0.0
 10
-7.75489310536925
 20
46.8753025777647
 30
0.0
 10
-7.837585078516331
 20
46.85486640444591
 30
0.0
 11
-6.594780972916325
 21
47.86924717351256
 31
0.0
 11
-6.643660895049658
 21
47.7680800012459
 31
0.0
 11
-6.781346817182996
 21
47.54465491857923
 31
0.0
 11
-6.948950852382992
 21
47.34435919271257
 31
0.0
 11
-7.142842900382992
 21
47.1716644684459
 31
0.0
 11
-7.358806013982999
 21
47.03047406097923
 31
0.0
 11
-7.592109841182997
 21
46.92403677991257
 31
0.0
 11
-7.837585078516331
 21
46.85486640444591
 31
0.0
  0
LWPOLYLINE
  5
12B
100
AcDbEntity
  8
0
100
AcDbPolyline
 90
       15
 70
     0
 43
0.0
 10
-12.275071
 20
47.969196
 10
-11.920649
 20
47.618383
 10
-11.533624
 20
47.306921
 10
-11.117903
 20
47.037953
 10
-10.677673
 20
46.814182
 10
-10.217367
 20
46.637859
 10
-9.741617
 20
46.510758
 10
-9.255214
 20
46.434156
 10
-8.763054
 20
46.408824
 10
-8.27009
 20
46.435018
 10
-7.781285
 20
46.512475
 10
-7.301558
 20
46.640417
 10
-6.835741
 20
46.817558
 10
-6.388522
 20
47.042119
 10
-5.964417
 20
47.311836
  0
LINE
  5
12C
100
AcDbEntity
  8
0
100
AcDbLine
 10
-10.366087
 20
48.250045
 30
0.0
 11
-13.765506
 21
49.222413
 31
0.0
  0
SPLINE
  5
12D
100
AcDbEntity
  8
0
100
AcDbSpline
210
0.0
220
0.0
230
-1.0
 70
     8
 71
     3
 72
     9
 73
     5
 74
     3
 42
0.0000001
 43
0.0000001
 44
0.0000000001
 40
0.0
 40
0.0
 40
0.0
 40
0.0
 40
0.11939035804634
 40
1.321267533124151
 40
1.321267533124151
 40
1.321267533124151
 40
1.321267533124151
 10
-13.83454928011633
 20
49.05895843004589
 30
0.0
 10
-13.79577852050086
 20
49.0499784862764
 30
0.0
 10
-13.36671082397385
 20
48.95059937102736
 30
0.0
 10
-12.94060280112613
 20
48.83901845424512
 30
0.0
 10
-12.55299810038299
 20
48.73752004177923
 30
0.0
 11
-13.83454928011633
 21
49.05895843004589
 31
0.0
 11
-13.71826116704966
 21
49.03191897084591
 31
0.0
 11
-12.55299810038299
 21
48.73752004177923
 31
0.0
  0
SPLINE
  5
12E
100
AcDbEntity
  8
0
100
AcDbSpline
210
0.2042865348661421
220
0.9789111357382674
230
0.0
 70
    24
 71
     3
 72
     8
 73
     4
 74
     2
 42
0.0000001
 43
0.0000001
 44
0.0000000001
 40
0.0
 40
0.0
 40
0.0
 40
0.0
 40
0.8965632805250477
 40
0.8965632805250477
 40
0.8965632805250477
 40
0.8965632805250477
 10
-12.82309522678299
 20
49.5434853292459
 30
0.0
 10
-13.11564715318299
 20
49.60453726453478
 30
0.0
 10
-13.40819907958299
 20
49.66558919982368
 30
0.0
 10
-13.70075100598299
 20
49.72664113511258
 30
0.0
 11
-12.82309522678299
 21
49.5434853292459
 31
0.0
 11
-13.70075100598299
 21
49.72664113511258
 31
0.0
  0
SPLINE
  5
12F
100
AcDbEntity
  8
0
100
AcDbSpline
210
0.0
220
0.0
230
-1.0
 70
     8
 71
     3
 72
    10
 73
     6
 74
     4
 42
0.0000001
 43
0.0000001
 44
0.0000000001
 40
0.0
 40
0.0
 40
0.0
 40
0.0
 40
2.094056737023548
 40
4.187915103125805
 40
6.28119682128749
 40
6.28119682128749
 40
6.28119682128749
 40
6.28119682128749
 10
-18.32168582944966
 20
48.04172564177925
 30
0.0
 10
-17.62362047824411
 20
48.02346617344693
 30
0.0
 10
-16.2275559038726
 20
47.98694896650983
 30
0.0
 10
-14.14647228364323
 20
47.71293277341544
 30
0.0
 10
-12.78878093252498
 20
47.38692627351579
 30
0.0
 10
-12.11002874678299
 20
47.22394547217923
 30
0.0
 11
-18.32168582944966
 21
48.04172564177925
 31
0.0
 11
-16.22962153184966
 21
47.95039879697923
 31
0.0
 11
-14.15368082358299
 21
47.67706194791258
 31
0.0
 11
-12.11002874678299
 21
47.22394547217923
 31
0.0
  0
SPLINE
  5
130
100
AcDbEntity
  8
0
100
AcDbSpline
210
0.0
220
0.0
230
-1.0
 70
     8
 71
     3
 72
     9
 73
     5
 74
     3
 42
0.0000001
 43
0.0000001
 44
0.0000000001
 40
0.0
 40
0.0
 40
0.0
 40
0.0
 40
0.1160733666421737
 40
0.4697793813064142
 40
0.4697793813064142
 40
0.4697793813064142
 40
0.4697793813064142
 10
-15.90783335264966
 20
49.47716914257924
 30
0.0
 10
-15.86972751840332
 20
49.47046436430921
 30
0.0
 10
-15.71550320533076
 20
49.44332836680515
 30
0.0
 10
-15.5614963674877
 20
49.41497962853909
 30
0.0
 10
-15.44554162998299
 20
49.39363531324589
 30
0.0
 11
-15.90783335264966
 21
49.47716914257924
 31
0.0
 11
-15.79352912651633
 21
49.45698077137922
 31
0.0
 11
-15.44554162998299
 21
49.39363531324589
 31
0.0
  0
SPLINE
  5
131
100
AcDbEntity
  8
0
100
AcDbSpline
210
0.0
220
0.0
230
-1.0
 70
     8
 71
     3
 72
     9
 73
     5
 74
     3
 42
0.0000001
 43
0.0000001
 44
0.0000000001
 40
0.0
 40
0.0
 40
0.0
 40
0.0
 40
0.1585219976085235
 40
0.6338338938456634
 40
0.6338338938456634
 40
0.6338338938456634
 40
0.6338338938456634
 10
-15.77034035318299
 20
49.7658592044459
 30
0.0
 10
-15.8226216884462
 20
49.77368589472414
 30
0.0
 10
-16.03166322719317
 20
49.80498011035234
 30
0.0
 10
-16.2431867874139
 20
49.8113225357302
 30
0.0
 10
-16.40180825824965
 20
49.81607871911258
 30
0.0
 11
-15.77034035318299
 21
49.7658592044459
 31
0.0
 11
-15.92733960971632
 21
49.78777853777924
 31
0.0
 11
-16.40180825824965
 21
49.81607871911258
 31
0.0
  0
LINE
  5
132
100
AcDbEntity
  8
0
100
AcDbLine
 10
-14.893648
 20
49.816079
 30
0.0
 11
-16.405005
 21
49.816079
 31
0.0
  0
SPLINE
  5
134
100
AcDbEntity
  8
0
100
AcDbSpline
210
0.1608200641235901
220
0.9869837420015004
230
0.0
 70
    24
 71
     3
 72
     8
 73
     4
 74
     2
 42
0.0000001
 43
0.0000001
 44
0.0000000001
 40
0.0
 40
0.0
 40
0.0
 40
0.0
 40
0.6103097777934366
 40
0.6103097777934366
 40
0.6103097777934366
 40
0.6103097777934366
 10
-16.51019918091633
 20
49.57531920017924
 30
0.0
 10
-16.3094105714941
 20
49.54260251431257
 30
0.0
 10
-16.10862196207188
 20
49.5098858284459
 30
0.0
 10
-15.90783335264966
 20
49.47716914257924
 30
0.0
 11
-16.51019918091633
 21
49.57531920017924
 31
0.0
 11
-15.90783335264966
 21
49.47716914257924
 31
0.0
  0
SPLINE
  5
135
100
AcDbEntity
  8
0
100
AcDbSpline
210
0.0747652929802277
220
0.9972011587265534
230
0.0
 70
    24
 71
     3
 72
     8
 73
     4
 74
     2
 42
0.0000001
 43
0.0000001
 44
0.0000000001
 40
0.0
 40
0.0
 40
0.0
 40
0.0
 40
1.196244680317748
 40
1.196244680317748
 40
1.196244680317748
 40
1.196244680317748
 10
-13.70075100598299
 20
49.72664113511258
 30
0.0
 10
-14.09838319976077
 20
49.75645366311258
 30
0.0
 10
-14.49601539353855
 20
49.78626619111257
 30
0.0
 10
-14.89364758731633
 20
49.81607871911258
 30
0.0
 11
-13.70075100598299
 21
49.72664113511258
 31
0.0
 11
-14.89364758731633
 21
49.81607871911258
 31
0.0
  0
LINE
  5
136
100
AcDbEntity
  8
0
100
AcDbLine
 10
-13.765506
 20
49.222413
 30
0.0
 11
-15.301768
 21
49.661844
 31
0.0
  0
SPLINE
  5
137
100
AcDbEntity
  8
0
100
AcDbSpline
210
0.0
220
0.0
230
-1.0
 70
     8
 71
     3
 72
     9
 73
     5
 74
     3
 42
0.0000001
 43
0.0000001
 44
0.0000000001
 40
0.0
 40
0.0
 40
0.0
 40
0.0
 40
0.6126584499219234
 40
1.645475858812698
 40
1.645475858812698
 40
1.645475858812698
 40
1.645475858812698
 10
-15.44554162998299
 20
49.39363531324589
 30
0.0
 10
-15.24489277112246
 20
49.35555916653389
 30
0.0
 10
-14.70599078846736
 20
49.25329438879486
 30
0.0
 10
-14.17059909643339
 20
49.13389927531842
 30
0.0
 10
-13.83454928011633
 20
49.05895843004589
 30
0.0
 11
-15.44554162998299
 21
49.39363531324589
 31
0.0
 11
-14.84408168118299
 21
49.2770321132459
 31
0.0
 11
-13.83454928011633
 21
49.05895843004589
 31
0.0
  0
SPLINE
  5
138
100
AcDbEntity
  8
0
100
AcDbSpline
210
0.2167078773247904
220
0.9762364958888719
230
0.0
 70
    24
 71
     3
 72
     8
 73
     4
 74
     2
 42
0.0000001
 43
0.0000001
 44
0.0000000001
 40
0.0
 40
0.0
 40
0.0
 40
0.0
 40
0.4799781122435493
 40
0.4799781122435493
 40
0.4799781122435493
 40
0.4799781122435493
 10
-15.30176820278299
 20
49.66184416657924
 30
0.0
 10
-15.45795891958299
 20
49.69651584586813
 30
0.0
 10
-15.61414963638299
 20
49.73118752515701
 30
0.0
 10
-15.77034035318299
 20
49.7658592044459
 30
0.0
 11
-15.30176820278299
 21
49.66184416657924
 31
0.0
 11
-15.77034035318299
 21
49.7658592044459
 31
0.0
  0
LINE
  5
139
100
AcDbEntity
  8
0
100
AcDbLine
 10
-9.661953
 20
46.175515
 30
0.0
 11
-9.588183
 21
46.16052
 31
0.0
  0
LINE
  5
13A
100
AcDbEntity
  8
0
100
AcDbLine
 10
-9.185362
 20
46.102433
 30
0.0
 11
-9.661953
 21
46.175515
 31
0.0
  0
LINE
  5
13B
100
AcDbEntity
  8
0
100
AcDbLine
 10
-9.111592
 20
46.087437
 30
0.0
 11
-8.557768
 21
46.060688
 31
0.0
  0
LINE
  5
13C
100
AcDbEntity
  8
0
100
AcDbLine
 10
-9.588183
 20
46.16052
 30
0.0
 11
-9.111592
 21
46.087437
 31
0.0
  0
LINE
  5
13D
100
AcDbEntity
  8
0
100
AcDbLine
 10
-8.557768
 20
46.060688
 30
0.0
 11
-8.003347
 21
46.095409
 31
0.0
  0
LINE
  5
13E
100
AcDbEntity
  8
0
100
AcDbLine
 10
-8.015663
 20
48.255338
 30
0.0
 11
-12.823095
 21
49.543485
 31
0.0
  0
LINE
  5
13F
100
AcDbEntity
  8
0
100
AcDbLine
 10
-9.857512
 20
46.941301
 30
0.0
 11
-10.269464
 21
47.094436
 31
0.0
  0
LWPOLYLINE
  5
140
100
AcDbEntity
  8
0
100
AcDbPolyline
 90
        3
 70
     0
 43
0.0
 10
-9.561162
 20
46.856588
 10
-10.003607
 20
46.970999
 10
-10.415559
 20
47.124133
  0
LWPOLYLINE
  5
141
100
AcDbEntity
  8
0
100
AcDbPolyline
 90
        7
 70
     0
 43
0.0
 10
-7.867482
 20
46.684918
 10
-8.321129
 20
46.6176
 10
-8.778155
 20
46.596033
 10
-9.234298
 20
46.620418
 10
-9.685306
 20
46.690528
 10
-10.126975
 20
46.805709
 10
-10.555188
 20
46.964887
  0
SPLINE
  5
142
100
AcDbEntity
  8
0
100
AcDbSpline
210
0.0
220
0.0
230
1.0
 70
     8
 71
     3
 72
    10
 73
     6
 74
     4
 42
0.0000001
 43
0.0000001
 44
0.0000000001
 40
0.0
 40
0.0
 40
0.0
 40
0.0
 40
0.1810774415967804
 40
0.3510300991880101
 40
0.5162599874760011
 40
0.5162599874760011
 40
0.5162599874760011
 40
0.5162599874760011
 10
-10.35975442464966
 20
48.22078359271257
 30
0.0
 10
-10.30028036280512
 20
48.21048274372166
 30
0.0
 10
-10.18498612380824
 20
48.19051389497326
 30
0.0
 10
-10.01507184992778
 20
48.16322153982576
 30
0.0
 10
-9.904559936576225
 20
48.14678160729498
 30
0.0
 10
-9.850082544116327
 20
48.13867746151257
 30
0.0
 11
-10.35975442464966
 21
48.22078359271257
 31
0.0
 11
-10.18126872651632
 21
48.19025663057924
 31
0.0
 11
-10.01346737824966
 21
48.16330086417924
 31
0.0
 11
-9.850082544116327
 21
48.13867746151257
 31
0.0
  0
SPLINE
  5
143
100
AcDbEntity
  8
0
100
AcDbSpline
210
0.0
220
0.0
230
1.0
 70
     8
 71
     3
 72
    10
 73
     6
 74
     4
 42
0.0000001
 43
0.0000001
 44
0.0000000001
 40
0.0
 40
0.0
 40
0.0
 40
0.0
 40
0.1757467061610138
 40
0.3549851158343197
 40
0.5345465806315443
 40
0.5345465806315443
 40
0.5345465806315443
 40
0.5345465806315443
 10
-9.843828440649659
 20
48.13776097191257
 30
0.0
 10
-9.901685460215661
 20
48.14698795023326
 30
0.0
 10
-10.01854899206273
 20
48.16562522679747
 30
0.0
 10
-10.19288566887468
 20
48.20301523067623
 30
0.0
 10
-10.30831878375406
 20
48.23435930931663
 30
0.0
 10
-10.36608730784966
 20
48.25004545937924
 30
0.0
 11
-9.843828440649659
 21
48.13776097191257
 31
0.0
 11
-10.01713259958299
 21
48.1669598284459
 31
0.0
 11
-10.19238461024966
 21
48.20455158631257
 31
0.0
 11
-10.36608730784966
 21
48.25004545937924
 31
0.0
  0
SPLINE
  5
144
100
AcDbEntity
  8
0
100
AcDbSpline
210
0.0
220
0.0
230
1.0
 70
     8
 71
     3
 72
    14
 73
    10
 74
     8
 42
0.0000001
 43
0.0000001
 44
0.0000000001
 40
0.0
 40
0.0
 40
0.0
 40
0.0
 40
0.4876508096255494
 40
0.9756861170234564
 40
1.46446074935164
 40
1.954301603465974
 40
2.445495736462047
 40
2.938280266385513
 40
3.428935659034849
 40
3.428935659034849
 40
3.428935659034849
 40
3.428935659034849
 10
-9.661952762782991
 20
46.17551544871257
 30
0.0
 10
-9.820396534155555
 20
46.21238932465854
 30
0.0
 10
-10.13740900497613
 20
46.28616615047567
 30
0.0
 10
-10.59675832032339
 20
46.45480582488569
 30
0.0
 10
-11.03915139874426
 20
46.66421967262517
 30
0.0
 10
-11.46009266651321
 20
46.91663948312661
 30
0.0
 10
-11.85527658125297
 20
47.20945021288501
 30
0.0
 10
-12.22342949991923
 20
47.53685162339002
 30
0.0
 10
-12.44079123295291
 20
47.78256119556698
 30
0.0
 10
-12.54923680651633
 20
47.90515000231258
 30
0.0
 11
-9.661952762782991
 21
46.17551544871257
 31
0.0
 11
-10.13454264011633
 21
46.29577400337923
 31
0.0
 11
-10.59359321504966
 21
46.46145752977925
 31
0.0
 11
-11.03510859958299
 21
46.67113539324589
 31
0.0
 11
-11.45524004811633
 21
46.92299572817924
 31
0.0
 11
-11.85031914571633
 21
47.21485902311257
 31
0.0
 11
-12.21689027104965
 21
47.54419502631257
 31
0.0
 11
-12.54923680651633
 21
47.90515000231258
 31
0.0
  0
SPLINE
  5
145
100
AcDbEntity
  8
0
100
AcDbSpline
210
0.0
220
0.0
230
1.0
 70
     8
 71
     3
 72
    10
 73
     6
 74
     4
 42
0.0000001
 43
0.0000001
 44
0.0000000001
 40
0.0
 40
0.0
 40
0.0
 40
0.0
 40
0.148370303754606
 40
0.4458315349617476
 40
0.7435269148675889
 40
0.7435269148675889
 40
0.7435269148675889
 40
0.7435269148675889
 10
-9.56056541024966
 20
46.85908215271256
 30
0.0
 10
-9.608535064530041
 20
46.87111759249268
 30
0.0
 10
-9.752677012468481
 20
46.90728236708253
 30
0.0
 10
-9.989650040257059
 20
46.98109661974607
 30
0.0
 10
-10.17349245208884
 20
47.05581121138299
 30
0.0
 10
-10.26544982198299
 20
47.0931832044459
 30
0.0
 11
-9.56056541024966
 21
46.85908215271256
 31
0.0
 11
-9.704247459316324
 21
46.89608506897924
 31
0.0
 11
-9.988115861449665
 21
46.98497778151256
 31
0.0
 11
-10.26544982198299
 21
47.0931832044459
 31
0.0
  0
LINE
  5
146
100
AcDbEntity
  8
0
100
AcDbLine
 10
-12.275071
 20
47.969196
 30
0.0
 11
-12.208347
 21
48.56337
 31
0.0
  0
LINE
  5
147
100
AcDbEntity
  8
0
100
AcDbLine
 10
-12.550464
 20
47.909892
 30
0.0
 11
-12.474805
 21
48.583631
 31
0.0
  0
LWPOLYLINE
  5
148
100
AcDbEntity
  8
0
100
AcDbPolyline
 90
        8
 70
     0
 43
0.0
 10
-10.555188
 20
46.964887
 10
-10.803621
 20
47.09542
 10
-11.030014
 20
47.263294
 10
-11.229333
 20
47.464776
 10
-11.397145
 20
47.695386
 10
-11.529719
 20
47.949997
 10
-11.624107
 20
48.222947
 10
-11.669787
 20
48.463765
  0
LWPOLYLINE
  5
149
100
AcDbEntity
  8
0
100
AcDbPolyline
 90
        8
 70
     0
 43
0.0
 10
-10.269464
 20
47.094436
 10
-10.488847
 20
47.209175
 10
-10.689372
 20
47.356123
 10
-10.866795
 20
47.532169
 10
-11.017362
 20
47.733587
 10
-11.137884
 20
47.956116
 10
-11.225813
 20
48.195046
 10
-11.259946
 20
48.354796
  0
LWPOLYLINE
  5
14A
100
AcDbEntity
  8
0
100
AcDbPolyline
 90
        8
 70
     0
 43
0.0
 10
-10.415559
 20
47.124133
 10
-10.634942
 20
47.238873
 10
-10.835468
 20
47.385821
 10
-11.012891
 20
47.561867
 10
-11.163457
 20
47.763285
 10
-11.283979
 20
47.985814
 10
-11.371908
 20
48.224744
 10
-11.408351
 20
48.395306
  0
SPLINE
  5
14B
100
AcDbEntity
  8
0
100
AcDbSpline
210
0.0
220
0.0
230
-1.0
 70
     8
 71
     3
 72
    14
 73
    10
 74
     8
 42
0.0000001
 43
0.0000001
 44
0.0000000001
 40
0.0
 40
0.0
 40
0.0
 40
0.0
 40
0.1269289551128501
 40
0.3869482951021175
 40
0.6454150565589332
 40
0.9022618301740303
 40
1.157563558021472
 40
1.411532865357935
 40
1.660380396515881
 40
1.660380396515881
 40
1.660380396515881
 40
1.660380396515881
 10
-11.25435303158299
 20
48.35176549991256
 30
0.0
 10
-11.24553239184438
 20
48.31037243770463
 30
0.0
 10
-11.21864229804717
 20
48.18418393456776
 30
0.0
 10
-11.14734664991688
 20
47.98014194382306
 30
0.0
 10
-11.02856040626809
 20
47.74973175665124
 30
0.0
 10
-10.87746960839492
 20
47.54064165671742
 30
0.0
 10
-10.69749212590956
 20
47.35842065777702
 30
0.0
 10
-10.4949056641371
 20
47.20480202418994
 30
0.0
 10
-10.34394666690437
 20
47.13122922034368
 30
0.0
 10
-10.26923601504966
 20
47.09481753084589
 30
0.0
 11
-11.25435303158299
 21
48.35176549991256
 31
0.0
 11
-11.22618520118299
 21
48.22800147857923
 31
0.0
 11
-11.14160163638299
 21
47.98212411537924
 31
0.0
 11
-11.02275606731632
 21
47.7526011372459
 31
0.0
 11
-10.87216157131632
 21
47.54453489084589
 31
0.0
 11
-10.69304504224966
 21
47.36261116711257
 31
0.0
 11
-10.48930332384966
 21
47.2109875500459
 31
0.0
 11
-10.26923601504966
 21
47.09481753084589
 31
0.0
  0
LINE
  5
14C
100
AcDbEntity
  8
0
100
AcDbLine
 10
-12.550516
 20
47.909432
 30
0.0
 11
-12.549237
 21
47.905152
 31
0.0
  0
LINE
  5
14D
100
AcDbEntity
  8
0
100
AcDbLine
 10
-11.721808
 20
47.119922
 30
0.0
 11
-12.110029
 21
47.223945
 31
0.0
  0
SPLINE
  5
14E
100
AcDbEntity
  8
0
100
AcDbSpline
210
0.0
220
0.0
230
-1.0
 70
     8
 71
     3
 72
    18
 73
    14
 74
    12
 42
0.0000001
 43
0.0000001
 44
0.0000000001
 40
0.0
 40
0.0
 40
0.0
 40
0.0
 40
0.0323500057112617
 40
0.0659830939172357
 40
0.1017003720396824
 40
0.1385846567616217
 40
0.175014845919062
 40
0.2089606181190688
 40
0.2389348041913885
 40
0.2644031789838526
 40
0.286014359486244
 40
0.3004141636094484
 40
0.3034984098026043
 40
0.3034984098026043
 40
0.3034984098026043
 40
0.3034984098026043
 10
-12.27507081611632
 20
47.96919624017924
 30
0.0
 10
-12.28321910797392
 20
47.97660250196668
 30
0.0
 10
-12.29983887341395
 20
47.99170877648971
 30
0.0
 10
-12.3350125602359
 20
47.99650681155237
 30
0.0
 10
-12.37003434518807
 20
47.99180705788995
 30
0.0
 10
-12.40535804534517
 20
47.98282199496997
 30
0.0
 10
-12.43930501180422
 20
47.97163101161715
 30
0.0
 10
-12.4705747759118
 20
47.95958885203956
 30
0.0
 10
-12.49768283962777
 20
47.94750025809597
 30
0.0
 10
-12.52099763775989
 20
47.93584600618759
 30
0.0
 10
-12.53716443118779
 20
47.92471632652262
 30
0.0
 10
-12.54931331515559
 20
47.91635656446451
 30
0.0
 10
-12.54987365731262
 20
47.91046373604039
 30
0.0
 10
-12.54997250358299
 20
47.90942422097923
 30
0.0
 11
-12.27507081611632
 21
47.96919624017924
 31
0.0
 11
-12.301006209183
 21
47.98853217191257
 31
0.0
 11
-12.33402762678299
 21
47.99491735804591
 31
0.0
 11
-12.36954967478299
 21
47.99118800657923
 31
0.0
 11
-12.40536627318299
 21
47.98237768657922
 31
0.0
 11
-12.43999918624966
 21
47.97107635857924
 31
0.0
 11
-12.47166191264966
 21
47.95883760017924
 31
0.0
 11
-12.49903820598299
 21
47.9466314380459
 31
0.0
 11
-12.52161893984966
 21
47.9348522796459
 31
0.0
 11
-12.53968054198299
 21
47.92298544977924
 31
0.0
 11
-12.549524330783
 21
47.91247573137924
 31
0.0
 11
-12.54997250358299
 21
47.90942422097923
 31
0.0
  0
LINE
  5
14F
100
AcDbEntity
  8
0
100
AcDbLine
 10
-10.269463
 20
47.094435
 30
0.0
 11
-10.26545
 21
47.093183
 31
0.0
  0
SPLINE
  5
150
100
AcDbEntity
  8
0
100
AcDbSpline
210
0.3963091726705357
220
0.9181171165255527
230
0.0
 70
    24
 71
     3
 72
     8
 73
     4
 74
     2
 42
0.0000001
 43
0.0000001
 44
0.0000000001
 40
0.0
 40
0.0
 40
0.0
 40
0.0
 40
0.0041238672044388
 40
0.0041238672044388
 40
0.0041238672044388
 40
0.0041238672044388
 10
-10.26923601504966
 20
47.09481753084589
 30
0.0
 10
-10.2679739506941
 20
47.09427275537922
 30
0.0
 10
-10.26671188633855
 20
47.09372797991256
 30
0.0
 10
-10.26544982198299
 20
47.0931832044459
 30
0.0
 11
-10.26923601504966
 21
47.09481753084589
 31
0.0
 11
-10.26544982198299
 21
47.0931832044459
 31
0.0
  0
SPLINE
  5
151
100
AcDbEntity
  8
0
100
AcDbSpline
210
0.2518209716903275
220
0.9677738362948955
230
0.0
 70
    24
 71
     3
 72
     8
 73
     4
 74
     2
 42
0.0000001
 43
0.0000001
 44
0.0000000001
 40
0.0
 40
0.0
 40
0.0
 40
0.0
 40
0.1134219963556529
 40
0.1134219963556529
 40
0.1134219963556529
 40
0.1134219963556529
 10
-11.61880537824966
 20
48.45083378257924
 30
0.0
 10
-11.58221643140521
 20
48.44131310346812
 30
0.0
 10
-11.54562748456076
 20
48.431792424357
 30
0.0
 10
-11.50903853771632
 20
48.4222717452459
 30
0.0
 11
-11.61880537824966
 21
48.45083378257924
 31
0.0
 11
-11.50903853771632
 21
48.4222717452459
 31
0.0
  0
SPLINE
  5
152
100
AcDbEntity
  8
0
100
AcDbSpline
210
0.0
220
0.0
230
1.0
 70
     8
 71
     3
 72
     9
 73
     5
 74
     3
 42
0.0000001
 43
0.0000001
 44
0.0000000001
 40
0.0
 40
0.0
 40
0.0
 40
0.0
 40
1.123688453383995
 40
1.470263932780094
 40
1.470263932780094
 40
1.470263932780094
 40
1.470263932780094
 10
-11.79571192544966
 20
48.53550206844589
 30
0.0
 10
-11.43181757313046
 20
48.44604616386182
 30
0.0
 10
-10.95568850021342
 20
48.32899967318365
 30
0.0
 10
-10.47343540228727
 20
48.24141430715061
 30
0.0
 10
-10.35975710624966
 20
48.2207683948459
 30
0.0
 11
-11.79571192544966
 21
48.53550206844589
 31
0.0
 11
-10.700451709983
 21
48.2843431532459
 31
0.0
 11
-10.35975710624966
 21
48.2207683948459
 31
0.0
  0
SPLINE
  5
153
100
AcDbEntity
  8
0
100
AcDbSpline
210
0.0
220
0.0
230
-1.0
 70
     8
 71
     3
 72
    10
 73
     6
 74
     4
 42
0.0000001
 43
0.0000001
 44
0.0000000001
 40
0.0
 40
0.0
 40
0.0
 40
0.0
 40
0.234363155672546
 40
0.4433988788385836
 40
0.5034510658163077
 40
0.5034510658163077
 40
0.5034510658163077
 40
0.5034510658163077
 10
-11.77792392544966
 20
48.49209105084591
 30
0.0
 10
-11.70218461492134
 20
48.47294573642591
 30
0.0
 10
-11.5588910785466
 20
48.43672412588956
 30
0.0
 10
-11.396711484884
 20
48.39357272328884
 30
0.0
 10
-11.31019743475531
 20
48.36989410176278
 30
0.0
 10
-11.29089014624966
 20
48.36460975804591
 30
0.0
 11
-11.77792392544966
 21
48.49209105084591
 31
0.0
 11
-11.55083419958299
 21
48.43415707857924
 31
0.0
 11
-11.34882041824966
 21
48.3804321708459
 31
0.0
 11
-11.29089014624966
 21
48.36460975804591
 31
0.0
  0
SPLINE
  5
154
100
AcDbEntity
  8
0
100
AcDbSpline
210
0.247375501867714
220
0.9689196876293188
230
0.0
 70
    24
 71
     3
 72
     8
 73
     4
 74
     2
 42
0.0000001
 43
0.0000001
 44
0.0000000001
 40
0.0
 40
0.0
 40
0.0
 40
0.0
 40
0.0837922002926548
 40
0.0837922002926548
 40
0.0837922002926548
 40
0.0837922002926548
 10
-11.69999329078299
 20
48.47156192017923
 30
0.0
 10
-11.67293065327188
 20
48.46465254097924
 30
0.0
 10
-11.64586801576077
 20
48.45774316177924
 30
0.0
 10
-11.61880537824966
 20
48.45083378257924
 30
0.0
 11
-11.69999329078299
 21
48.47156192017923
 31
0.0
 11
-11.61880537824966
 21
48.45083378257924
 31
0.0
  0
LINE
  5
155
100
AcDbEntity
  8
0
100
AcDbLine
 10
-12.09146
 20
48.563584
 30
0.0
 11
-12.088613
 21
48.563096
 31
0.0
  0
LINE
  5
156
100
AcDbEntity
  8
0
100
AcDbLine
 10
-12.208347
 20
48.56337
 30
0.0
 11
-11.985163
 21
48.540122
 31
0.0
  0
LINE
  5
157
100
AcDbEntity
  8
0
100
AcDbLine
 10
-12.466733
 20
48.584623
 30
0.0
 11
-12.508943
 21
48.586989
 31
0.0
  0
LINE
  5
158
100
AcDbEntity
  8
0
100
AcDbLine
 10
-12.09146
 20
48.563584
 30
0.0
 11
-12.386745
 21
48.580138
 31
0.0
  0
LWPOLYLINE
  5
159
100
AcDbEntity
  8
0
100
AcDbPolyline
 90
        7
 70
     0
 43
0.0
 10
-12.47479
 20
48.583627
 10
-12.470058
 20
48.584673
 10
-12.447637
 20
48.584333
 10
-12.407892
 20
48.58186
 10
-12.352816
 20
48.577377
 10
-12.28517
 20
48.571109
 10
-12.208347
 20
48.56337
  0
LINE
  5
15A
100
AcDbEntity
  8
0
100
AcDbLine
 10
-11.777924
 20
48.492091
 30
0.0
 11
-11.77498
 21
48.490405
 31
0.0
  0
SPLINE
  5
15B
100
AcDbEntity
  8
0
100
AcDbSpline
210
0.0
220
0.0
230
1.0
 70
     8
 71
     3
 72
     9
 73
     5
 74
     3
 42
0.0000001
 43
0.0000001
 44
0.0000000001
 40
0.0
 40
0.0
 40
0.0
 40
0.0
 40
0.1961453691195416
 40
0.7837703272896015
 40
0.7837703272896015
 40
0.7837703272896015
 40
0.7837703272896015
 10
-12.55299810038299
 20
48.73752004177923
 30
0.0
 10
-12.48989194044102
 20
48.72042024402163
 30
0.0
 10
-12.23772827298498
 20
48.65209176833436
 30
0.0
 10
-11.98511015401646
 20
48.58545923123216
 30
0.0
 10
-11.79571192544966
 20
48.53550206844589
 30
0.0
 11
-12.55299810038299
 21
48.73752004177923
 31
0.0
 11
-12.36365115851633
 21
48.68632686417924
 31
0.0
 11
-11.79571192544966
 21
48.53550206844589
 31
0.0
  0
SPLINE
  5
15C
100
AcDbEntity
  8
0
100
AcDbSpline
210
0.2413406061545888
220
0.9704404730950455
230
0.0
 70
    24
 71
     3
 72
     8
 73
     4
 74
     2
 42
0.0000001
 43
0.0000001
 44
0.0000000001
 40
0.0
 40
0.0
 40
0.0
 40
0.0
 40
0.028466368656859
 40
0.028466368656859
 40
0.028466368656859
 40
0.028466368656859
 10
-11.80555010891632
 20
48.49895641511256
 30
0.0
 10
-11.7963418034941
 20
48.49666638489035
 30
0.0
 10
-11.78713349807188
 20
48.49437635466813
 30
0.0
 10
-11.77792519264966
 20
48.49208632444589
 30
0.0
 11
-11.80555010891632
 21
48.49895641511256
 31
0.0
 11
-11.77792519264966
 21
48.49208632444589
 31
0.0
  0
SPLINE
  5
15D
100
AcDbEntity
  8
0
100
AcDbSpline
210
0.2324704769601092
220
0.9726034532850164
230
0.0
 70
    24
 71
     3
 72
     8
 73
     4
 74
     2
 42
0.0000001
 43
0.0000001
 44
0.0000000001
 40
0.0
 40
0.0
 40
0.0
 40
0.0
 40
0.152674976183902
 40
0.152674976183902
 40
0.152674976183902
 40
0.152674976183902
 10
-11.95404231798299
 20
48.53444883964591
 30
0.0
 10
-11.90454491496077
 20
48.52261803146813
 30
0.0
 10
-11.85504751193855
 20
48.51078722329035
 30
0.0
 10
-11.80555010891632
 20
48.49895641511256
 30
0.0
 11
-11.95404231798299
 21
48.53444883964591
 31
0.0
 11
-11.80555010891632
 21
48.49895641511256
 31
0.0
  0
SPLINE
  5
15E
100
AcDbEntity
  8
0
100
AcDbSpline
210
0.2114341776589549
220
0.9773922388261949
230
0.0
 70
    24
 71
     3
 72
     8
 73
     4
 74
     2
 42
0.0000001
 43
0.0000001
 44
0.0000000001
 40
0.0
 40
0.0
 40
0.0
 40
0.0
 40
0.1326719141495666
 40
0.1326719141495666
 40
0.1326719141495666
 40
0.1326719141495666
 10
-12.08371481718299
 20
48.56250021671256
 30
0.0
 10
-12.04049065078299
 20
48.55314975769035
 30
0.0
 10
-11.99726648438299
 20
48.54379929866812
 30
0.0
 10
-11.95404231798299
 20
48.53444883964591
 30
0.0
 11
-12.08371481718299
 21
48.56250021671256
 31
0.0
 11
-11.95404231798299
 21
48.53444883964591
 31
0.0
  0
SPLINE
  5
15F
100
AcDbEntity
  8
0
100
AcDbSpline
210
0.20790025287118
220
0.9781500318745074
230
0.0
 70
    24
 71
     3
 72
     8
 73
     4
 74
     2
 42
0.0000001
 43
0.0000001
 44
0.0000000001
 40
0.0
 40
0.0
 40
0.0
 40
0.0
 40
0.0229452342367013
 40
0.0229452342367013
 40
0.0229452342367013
 40
0.0229452342367013
 10
-12.10615869878299
 20
48.56727053671257
 30
0.0
 10
-12.09867740491633
 20
48.5656804300459
 30
0.0
 10
-12.09119611104966
 20
48.56409032337923
 30
0.0
 10
-12.08371481718299
 20
48.56250021671256
 30
0.0
 11
-12.10615869878299
 21
48.56727053671257
 31
0.0
 11
-12.08371481718299
 21
48.56250021671256
 31
0.0
  0
SPLINE
  5
160
100
AcDbEntity
  8
0
100
AcDbSpline
210
0.0
220
0.0
230
1.0
 70
     8
 71
     3
 72
     9
 73
     5
 74
     3
 42
0.0000001
 43
0.0000001
 44
0.0000000001
 40
0.0
 40
0.0
 40
0.0
 40
0.0
 40
0.1022894612848237
 40
0.1831419196924608
 40
0.1831419196924608
 40
0.1831419196924608
 40
0.1831419196924608
 10
-12.50659105078299
 20
48.51272489404591
 30
0.0
 10
-12.53808488380243
 20
48.52596691600705
 30
0.0
 10
-12.59447232553108
 20
48.54967580343408
 30
0.0
 10
-12.64638634080549
 20
48.58197027838224
 30
0.0
 10
-12.66930504651632
 20
48.59622746044591
 30
0.0
 11
-12.50659105078299
 21
48.51272489404591
 31
0.0
 11
-12.59967706038299
 21
48.55512924177922
 31
0.0
 11
-12.66930504651632
 21
48.59622746044591
 31
0.0
  0
SPLINE
  5
161
100
AcDbEntity
  8
0
100
AcDbSpline
210
0.3861882397945058
220
0.922419992977397
230
0.0
 70
    24
 71
     3
 72
     8
 73
     4
 74
     2
 42
0.0000001
 43
0.0000001
 44
0.0000000001
 40
0.0
 40
0.0
 40
0.0
 40
0.0
 40
0.0239474566555043
 40
0.0239474566555043
 40
0.0239474566555043
 40
0.0239474566555043
 10
-12.48450143798299
 20
48.50347666791257
 30
0.0
 10
-12.49186464224965
 20
48.506559409957
 30
0.0
 10
-12.49922784651632
 20
48.50964215200145
 30
0.0
 10
-12.50659105078299
 20
48.51272489404591
 30
0.0
 11
-12.48450143798299
 21
48.50347666791257
 31
0.0
 11
-12.50659105078299
 21
48.51272489404591
 31
0.0
  0
SPLINE
  5
162
100
AcDbEntity
  8
0
100
AcDbSpline
210
0.0
220
0.0
230
1.0
 70
     8
 71
     3
 72
    10
 73
     6
 74
     4
 42
0.0000001
 43
0.0000001
 44
0.0000000001
 40
0.0
 40
0.0
 40
0.0
 40
0.0
 40
0.0531304068796231
 40
0.106671575645866
 40
0.1606328325194706
 40
0.1606328325194706
 40
0.1606328325194706
 40
0.1606328325194706
 10
-12.50894305184965
 20
48.58698908177923
 30
0.0
 10
-12.52662512364986
 20
48.58798571331703
 30
0.0
 10
-12.56212597091205
 20
48.58998668155198
 30
0.0
 10
-12.61558174325849
 20
48.59306434121747
 30
0.0
 10
-12.65135413092427
 20
48.59516723069916
 30
0.0
 10
-12.66931021878299
 20
48.59622278417923
 30
0.0
 11
-12.50894305184965
 21
48.58698908177923
 31
0.0
 11
-12.56198866464966
 21
48.58998959804591
 31
0.0
 11
-12.61544131958299
 21
48.59306700497924
 31
0.0
 11
-12.66931021878299
 21
48.59622278417923
 31
0.0
  0
SPLINE
  5
163
100
AcDbEntity
  8
0
100
AcDbSpline
210
0.2382605185334546
220
0.9712012795029512
230
0.0
 70
    24
 71
     3
 72
     8
 73
     4
 74
     2
 42
0.0000001
 43
0.0000001
 44
0.0000000001
 40
0.0
 40
0.0
 40
0.0
 40
0.0
 40
0.0822227461515814
 40
0.0822227461515814
 40
0.0822227461515814
 40
0.0822227461515814
 10
-11.85483569611632
 20
48.50999341991256
 30
0.0
 10
-11.82821741736077
 20
48.50346327520146
 30
0.0
 10
-11.80159913860521
 20
48.49693313049034
 30
0.0
 10
-11.77498085984966
 20
48.49040298577924
 30
0.0
 11
-11.85483569611632
 21
48.50999341991256
 31
0.0
 11
-11.77498085984966
 21
48.49040298577924
 31
0.0
  0
SPLINE
  5
164
100
AcDbEntity
  8
0
100
AcDbSpline
210
0.2252352329665137
220
0.9743044133280525
230
0.0
 70
    24
 71
     3
 72
     8
 73
     4
 74
     2
 42
0.0000001
 43
0.0000001
 44
0.0000000001
 40
0.0
 40
0.0
 40
0.0
 40
0.0
 40
0.1926166095860785
 40
0.1926166095860785
 40
0.1926166095860785
 40
0.1926166095860785
 10
-12.04250290891632
 20
48.5533774668459
 30
0.0
 10
-11.97994717131632
 20
48.53891611786812
 30
0.0
 10
-11.91739143371632
 20
48.52445476889034
 30
0.0
 10
-11.85483569611632
 20
48.50999341991256
 30
0.0
 11
-12.04250290891632
 21
48.5533774668459
 31
0.0
 11
-11.85483569611632
 21
48.50999341991256
 31
0.0
  0
SPLINE
  5
165
100
AcDbEntity
  8
0
100
AcDbSpline
210
0.2125534421728433
220
0.9771494431357343
230
0.0
 70
    24
 71
     3
 72
     8
 73
     4
 74
     2
 42
0.0000001
 43
0.0000001
 44
0.0000000001
 40
0.0
 40
0.0
 40
0.0
 40
0.0
 40
0.0446136057347599
 40
0.0446136057347599
 40
0.0446136057347599
 40
0.0446136057347599
 10
-12.08609706891632
 20
48.56286024231256
 30
0.0
 10
-12.07156568224966
 20
48.55969931715701
 30
0.0
 10
-12.05703429558299
 20
48.55653839200146
 30
0.0
 10
-12.04250290891632
 20
48.5533774668459
 30
0.0
 11
-12.08609706891632
 21
48.56286024231256
 31
0.0
 11
-12.04250290891632
 21
48.5533774668459
 31
0.0
  0
SPLINE
  5
166
100
AcDbEntity
  8
0
100
AcDbSpline
210
0.2437023600769392
220
0.9698500707289401
230
0.0
 70
    24
 71
     3
 72
     8
 73
     4
 74
     2
 42
0.0000001
 43
0.0000001
 44
0.0000000001
 40
0.0
 40
0.0
 40
0.0
 40
0.0
 40
0.0773076753437298
 40
0.0773076753437298
 40
0.0773076753437298
 40
0.0773076753437298
 10
-11.77497014518299
 20
48.49040198311256
 30
0.0
 10
-11.74997786038299
 20
48.48412196213478
 30
0.0
 10
-11.72498557558299
 20
48.47784194115701
 30
0.0
 10
-11.69999329078299
 20
48.47156192017923
 30
0.0
 11
-11.77497014518299
 21
48.49040198311256
 31
0.0
 11
-11.69999329078299
 21
48.47156192017923
 31
0.0
  0
LINE
  5
167
100
AcDbEntity
  8
0
100
AcDbLine
 10
-10.359758
 20
48.220784
 30
0.0
 11
-10.366087
 21
48.250045
 31
0.0
  0
LINE
  5
168
100
AcDbEntity
  8
0
100
AcDbLine
 10
-10.588739
 20
48.132624
 30
0.0
 11
-10.588636
 21
48.132532
 31
0.0
  0
SPLINE
  5
169
100
AcDbEntity
  8
0
100
AcDbSpline
210
0.0
220
0.0
230
1.0
 70
     8
 71
     3
 72
    10
 73
     6
 74
     4
 42
0.0000001
 43
0.0000001
 44
0.0000000001
 40
0.0
 40
0.0
 40
0.0
 40
0.0
 40
0.1569886308388304
 40
0.3787944695923824
 40
0.4640255907677647
 40
0.4640255907677647
 40
0.4640255907677647
 40
0.4640255907677647
 10
-10.743314237983
 20
48.08508983911257
 30
0.0
 10
-10.7954426128904
 20
48.08985048996794
 30
0.0
 10
-10.92122204047224
 20
48.10133736138048
 30
0.0
 10
-11.07369381771107
 20
48.12846717262988
 30
0.0
 10
-11.17394554466375
 20
48.14901566069128
 30
0.0
 10
-11.20177466038299
 20
48.1547197644459
 30
0.0
 11
-10.743314237983
 21
48.08508983911257
 31
0.0
 11
-10.89947378571633
 21
48.10120274897924
 31
0.0
 11
-11.11823830731633
 21
48.13780758737924
 31
0.0
 11
-11.20177466038299
 21
48.1547197644459
 31
0.0
  0
SPLINE
  5
16A
100
AcDbEntity
  8
0
100
AcDbSpline
210
0.012812303007186
220
0.9999179190771871
230
0.0
 70
    24
 71
     3
 72
     8
 73
     4
 74
     2
 42
0.0000001
 43
0.0000001
 44
0.0000000001
 40
0.0
 40
0.0
 40
0.0
 40
0.0
 40
0.0970324850492506
 40
0.0970324850492506
 40
0.0970324850492506
 40
0.0970324850492506
 10
-10.64628971744966
 20
48.08384662951258
 30
0.0
 10
-10.67863122429411
 20
48.08426103271258
 30
0.0
 10
-10.71097273113855
 20
48.08467543591257
 30
0.0
 10
-10.743314237983
 20
48.08508983911257
 30
0.0
 11
-10.64628971744966
 21
48.08384662951258
 31
0.0
 11
-10.743314237983
 21
48.08508983911257
 31
0.0
  0
SPLINE
  5
16B
100
AcDbEntity
  8
0
100
AcDbSpline
210
0.0
220
0.0
230
-1.0
 70
     8
 71
     3
 72
    11
 73
     7
 74
     5
 42
0.0000001
 43
0.0000001
 44
0.0000000001
 40
0.0
 40
0.0
 40
0.0
 40
0.0
 40
0.006663158392333
 40
0.0297688073452085
 40
0.0542411411536359
 40
0.1068888437144598
 40
0.1068888437144598
 40
0.1068888437144598
 40
0.1068888437144598
 10
-10.58829667531632
 20
48.13286768764591
 30
0.0
 10
-10.58680489135783
 20
48.13129238939292
 30
0.0
 10
-10.58014008967576
 20
48.12425447322113
 30
0.0
 10
-10.56759642117986
 20
48.10413514652548
 30
0.0
 10
-10.60536358955273
 20
48.08527014638922
 30
0.0
 10
-10.62968569378208
 20
48.08442416052091
 30
0.0
 10
-10.64628971744966
 20
48.08384662951258
 30
0.0
 11
-10.58829667531632
 21
48.13286768764591
 31
0.0
 11
-10.58381032864966
 21
48.12794119057924
 31
0.0
 11
-10.57473570891633
 21
48.10669213671257
 31
0.0
 11
-10.59426937291633
 21
48.09194998311256
 31
0.0
 11
-10.64628971744966
 21
48.08384662951258
 31
0.0
  0
SPLINE
  5
16C
100
AcDbEntity
  8
0
100
AcDbSpline
210
0.0
220
0.0
230
1.0
 70
     8
 71
     3
 72
    10
 73
     6
 74
     4
 42
0.0000001
 43
0.0000001
 44
0.0000000001
 40
0.0
 40
0.0
 40
0.0
 40
0.0
 40
0.1714031257413822
 40
0.4128582465210882
 40
0.5184728981750403
 40
0.5184728981750403
 40
0.5184728981750403
 40
0.5184728981750403
 10
-10.67749018038299
 20
48.0439170636459
 30
0.0
 10
-10.73440267949351
 20
48.04911329333933
 30
0.0
 10
-10.87148766254893
 20
48.06162943778227
 30
0.0
 10
-11.0420023704563
 20
48.09090364088419
 30
0.0
 10
-11.15546105187772
 20
48.11346439032585
 30
0.0
 10
-11.18998696011633
 20
48.12032971217924
 30
0.0
 11
-10.67749018038299
 21
48.0439170636459
 31
0.0
 11
-10.84800280224966
 21
48.06136634151258
 31
0.0
 11
-11.08634578678299
 21
48.10000824977923
 31
0.0
 11
-11.18998696011633
 21
48.12032971217924
 31
0.0
  0
SPLINE
  5
16D
100
AcDbEntity
  8
0
100
AcDbSpline
210
0.0186005993809965
220
0.9998269938857761
230
0.0
 70
    24
 71
     3
 72
     8
 73
     4
 74
     2
 42
0.0000001
 43
0.0000001
 44
0.0000000001
 40
0.0
 40
0.0
 40
0.0
 40
0.0
 40
0.1066019841283733
 40
0.1066019841283733
 40
0.1066019841283733
 40
0.1066019841283733
 10
-10.57090663904966
 20
48.0419342028459
 30
0.0
 10
-10.60643448616077
 20
48.04259515644591
 30
0.0
 10
-10.64196233327188
 20
48.0432561100459
 30
0.0
 10
-10.67749018038299
 20
48.0439170636459
 30
0.0
 11
-10.57090663904966
 21
48.0419342028459
 31
0.0
 11
-10.67749018038299
 21
48.0439170636459
 31
0.0
  0
SPLINE
  5
16E
100
AcDbEntity
  8
0
100
AcDbSpline
210
-0.1333980219301605
220
0.991062544820013
230
0.0
 70
    24
 71
     3
 72
     8
 73
     4
 74
     2
 42
0.0000001
 43
0.0000001
 44
0.0000000001
 40
0.0
 40
0.0
 40
0.0
 40
0.0
 40
0.0584318749299359
 40
0.0584318749299359
 40
0.0584318749299359
 40
0.0584318749299359
 10
-10.51299699638299
 20
48.04972889937923
 30
0.0
 10
-10.53230021060521
 20
48.04713066720146
 30
0.0
 10
-10.55160342482744
 20
48.04453243502369
 30
0.0
 10
-10.57090663904966
 20
48.0419342028459
 30
0.0
 11
-10.51299699638299
 21
48.04972889937923
 31
0.0
 11
-10.57090663904966
 21
48.0419342028459
 31
0.0
  0
SPLINE
  5
16F
100
AcDbEntity
  8
0
100
AcDbSpline
210
0.0
220
0.0
230
1.0
 70
     8
 71
     3
 72
    12
 73
     8
 74
     6
 42
0.0000001
 43
0.0000001
 44
0.0000000001
 40
0.0
 40
0.0
 40
0.0
 40
0.0
 40
0.1091417819064276
 40
0.1885424341120146
 40
0.2374099368096077
 40
0.2604459962327743
 40
0.2875941474887096
 40
0.2875941474887096
 40
0.2875941474887096
 40
0.2875941474887096
 10
-10.71164265184966
 20
48.18793875431257
 30
0.0
 10
-10.67745849908706
 20
48.1756014030305
 30
0.0
 10
-10.61840537335155
 20
48.15428862802736
 30
0.0
 10
-10.54709026419399
 20
48.11809573444837
 30
0.0
 10
-10.50266952301373
 20
48.0974130868913
 30
0.0
 10
-10.48326195827107
 20
48.06047025596754
 30
0.0
 10
-10.5025582707051
 20
48.05349973950434
 30
0.0
 10
-10.51299699638299
 20
48.04972889937923
 30
0.0
 11
-10.71164265184966
 21
48.18793875431257
 31
0.0
 11
-10.60990018784966
 21
48.14843686097923
 31
0.0
 11
-10.53825281504966
 21
48.11421526631256
 31
0.0
 11
-10.49832896118299
 21
48.08603515431257
 31
0.0
 11
-10.49020540384966
 21
48.06447899857923
 31
0.0
 11
-10.51299699638299
 21
48.04972889937923
 31
0.0
  0
SPLINE
  5
170
100
AcDbEntity
  8
0
100
AcDbSpline
210
0.322424386473142
220
0.9465952223666766
230
0.0
 70
    24
 71
     3
 72
     8
 73
     4
 74
     2
 42
0.0000001
 43
0.0000001
 44
0.0000000001
 40
0.0
 40
0.0
 40
0.0
 40
0.0
 40
0.1363569679522407
 40
0.1363569679522407
 40
0.1363569679522407
 40
0.1363569679522407
 10
-10.84071750624966
 20
48.23190356604591
 30
0.0
 10
-10.79769255478299
 20
48.21724862880145
 30
0.0
 10
-10.75466760331633
 20
48.20259369155701
 30
0.0
 10
-10.71164265184966
 20
48.18793875431257
 30
0.0
 11
-10.84071750624966
 21
48.23190356604591
 31
0.0
 11
-10.71164265184966
 21
48.18793875431257
 31
0.0
  0
SPLINE
  5
171
100
AcDbEntity
  8
0
100
AcDbSpline
210
0.2972056853011106
220
0.9548134794946587
230
0.0
 70
    24
 71
     3
 72
     8
 73
     4
 74
     2
 42
0.0000001
 43
0.0000001
 44
0.0000000001
 40
0.0
 40
0.0
 40
0.0
 40
0.0
 40
0.1597640788237827
 40
0.1597640788237827
 40
0.1597640788237827
 40
0.1597640788237827
 10
-10.99326240224965
 20
48.27938635857923
 30
0.0
 10
-10.94241410358299
 20
48.26355876106813
 30
0.0
 10
-10.89156580491632
 20
48.24773116355702
 30
0.0
 10
-10.84071750624966
 20
48.23190356604591
 30
0.0
 11
-10.99326240224965
 21
48.27938635857923
 31
0.0
 11
-10.84071750624966
 21
48.23190356604591
 31
0.0
  0
SPLINE
  5
172
100
AcDbEntity
  8
0
100
AcDbSpline
210
0.0
220
0.0
230
-1.0
 70
     8
 71
     3
 72
     9
 73
     5
 74
     3
 42
0.0000001
 43
0.0000001
 44
0.0000000001
 40
0.0
 40
0.0
 40
0.0
 40
0.0
 40
0.1316599513249611
 40
0.3095938037755257
 40
0.3095938037755257
 40
0.3095938037755257
 40
0.3095938037755257
 10
-11.29089014624966
 20
48.36460975804591
 30
0.0
 10
-11.24859204304612
 20
48.35290622843618
 30
0.0
 10
-11.14912952212393
 20
48.32538578495273
 30
0.0
 10
-11.05014950753573
 20
48.29617485260747
 30
0.0
 10
-10.99326240224965
 20
48.27938635857923
 30
0.0
 11
-11.29089014624966
 21
48.36460975804591
 31
0.0
 11
-11.16408309878299
 21
48.3291934412459
 31
0.0
 11
-10.99326240224965
 21
48.27938635857923
 31
0.0
  0
SPLINE
  5
173
100
AcDbEntity
  8
0
100
AcDbSpline
210
0.0
220
0.0
230
-1.0
 70
     8
 71
     3
 72
     9
 73
     5
 74
     3
 42
0.0000001
 43
0.0000001
 44
0.0000000001
 40
0.0
 40
0.0
 40
0.0
 40
0.0
 40
0.0205460267614731
 40
0.0227527542676755
 40
0.0227527542676755
 40
0.0227527542676755
 40
0.0227527542676755
 10
-10.60574236491632
 20
48.1402385100459
 30
0.0
 10
-10.59573960476202
 20
48.13286875473756
 30
0.0
 10
-10.58466250715907
 20
48.1247074574955
 30
0.0
 10
-10.5879104803339
 20
48.13227026615246
 30
0.0
 10
-10.58822549238299
 20
48.13300376231257
 30
0.0
 11
-10.60574236491632
 21
48.1402385100459
 31
0.0
 11
-10.58741520544965
 21
48.13095118311257
 31
0.0
 11
-10.58822549238299
 21
48.13300376231257
 31
0.0
  0
SPLINE
  5
174
100
AcDbEntity
  8
0
100
AcDbSpline
210
0.0
220
0.0
230
-1.0
 70
     8
 71
     3
 72
    10
 73
     6
 74
     4
 42
0.0000001
 43
0.0000001
 44
0.0000000001
 40
0.0
 40
0.0
 40
0.0
 40
0.0
 40
0.0707990184363661
 40
0.1221177504833711
 40
0.1302936794956036
 40
0.1302936794956036
 40
0.1302936794956036
 40
0.1302936794956036
 10
-10.72590759051633
 20
48.19036624017924
 30
0.0
 10
-10.70390597559726
 20
48.18189449413553
 30
0.0
 10
-10.66595647036038
 20
48.16728199536971
 30
0.0
 10
-10.62531361736551
 20
48.15146795491068
 30
0.0
 10
-10.60810695447489
 20
48.14159524631737
 30
0.0
 10
-10.60574236491632
 20
48.1402385100459
 30
0.0
 11
-10.72590759051633
 21
48.19036624017924
 31
0.0
 11
-10.65985467744966
 21
48.16488068177924
 31
0.0
 11
-10.61286165984966
 21
48.1442586412459
 31
0.0
 11
-10.60574236491632
 21
48.1402385100459
 31
0.0
  0
SPLINE
  5
175
100
AcDbEntity
  8
0
100
AcDbSpline
210
0.0
220
0.0
230
-1.0
 70
     8
 71
     3
 72
    10
 73
     6
 74
     4
 42
0.0000001
 43
0.0000001
 44
0.0000000001
 40
0.0
 40
0.0
 40
0.0
 40
0.0
 40
0.1271412283564973
 40
0.2353769144236031
 40
0.3248856976872444
 40
0.3248856976872444
 40
0.3248856976872444
 40
0.3248856976872444
 10
-11.03493395424966
 20
48.29049341457923
 30
0.0
 10
-10.99436132794045
 20
48.27824801855006
 30
0.0
 10
-10.91924911049398
 20
48.25557808236574
 30
0.0
 10
-10.81613625882918
 20
48.22242639101206
 30
0.0
 10
-10.75402305393838
 20
48.2003562579297
 30
0.0
 10
-10.72590759051633
 20
48.19036624017924
 30
0.0
 11
-11.03493395424966
 21
48.29049341457923
 31
0.0
 11
-10.91333507104966
 21
48.2533638636459
 31
0.0
 11
-10.81038661024966
 21
48.2199486252459
 31
0.0
 11
-10.72590759051633
 21
48.19036624017924
 31
0.0
  0
SPLINE
  5
176
100
AcDbEntity
  8
0
100
AcDbSpline
210
0.0
220
0.0
230
-1.0
 70
     8
 71
     3
 72
     9
 73
     5
 74
     3
 42
0.0000001
 43
0.0000001
 44
0.0000000001
 40
0.0
 40
0.0
 40
0.0
 40
0.0
 40
0.1205229171521633
 40
0.2665290715396318
 40
0.2665290715396318
 40
0.2665290715396318
 40
0.2665290715396318
 10
-11.29121841611632
 20
48.36366652924591
 30
0.0
 10
-11.25250414571193
 20
48.3529322973469
 30
0.0
 10
-11.16688990080289
 20
48.32919419898904
 30
0.0
 10
-11.08163634254026
 20
48.30419055447985
 30
0.0
 10
-11.03493395424966
 20
48.29049341457923
 30
0.0
 11
-11.29121841611632
 21
48.36366652924591
 31
0.0
 11
-11.17514935798299
 21
48.33120505511257
 31
0.0
 11
-11.03493395424966
 21
48.29049341457923
 31
0.0
  0
SPLINE
  5
177
100
AcDbEntity
  8
0
100
AcDbSpline
210
0.0
220
0.0
230
-1.0
 70
     8
 71
     3
 72
     9
 73
     5
 74
     3
 42
0.0000001
 43
0.0000001
 44
0.0000000001
 40
0.0
 40
0.0
 40
0.0
 40
0.0
 40
0.1817515695543152
 40
0.2255669673483245
 40
0.2255669673483245
 40
0.2255669673483245
 40
0.2255669673483245
 10
-11.50903853771632
 20
48.4222717452459
 30
0.0
 10
-11.45047925381637
 20
48.40673833320269
 30
0.0
 10
-11.37780290713177
 20
48.38746023477551
 30
0.0
 10
-11.30530149803829
 20
48.36753660690382
 30
0.0
 10
-11.29121841611632
 20
48.36366652924591
 30
0.0
 11
-11.50903853771632
 21
48.4222717452459
 31
0.0
 11
-11.33347426251633
 21
48.37525240551257
 31
0.0
 11
-11.29121841611632
 21
48.36366652924591
 31
0.0
  0
SPLINE
  5
178
100
AcDbEntity
  8
0
100
AcDbSpline
210
0.0547560202458933
220
0.9984997637690414
230
0.0
 70
    24
 71
     3
 72
     8
 73
     4
 74
     2
 42
0.0000001
 43
0.0000001
 44
0.0000000001
 40
0.0
 40
0.0
 40
0.0
 40
0.0
 40
0.7096645877263278
 40
0.7096645877263278
 40
0.7096645877263278
 40
0.7096645877263278
 10
-8.627384499316324
 20
48.00613694631258
 30
0.0
 10
-8.391184524916326
 20
47.99318414346813
 30
0.0
 10
-8.15498455051633
 20
47.98023134062368
 30
0.0
 10
-7.918784576116332
 20
47.96727853777924
 30
0.0
 11
-8.627384499316324
 21
48.00613694631258
 31
0.0
 11
-7.918784576116332
 21
47.96727853777924
 31
0.0
  0
SPLINE
  5
179
100
AcDbEntity
  8
0
100
AcDbSpline
210
0.0
220
0.0
230
1.0
 70
     8
 71
     3
 72
    11
 73
     7
 74
     5
 42
0.0000001
 43
0.0000001
 44
0.0000000001
 40
0.0
 40
0.0
 40
0.0
 40
0.0
 40
0.4347988042460997
 40
0.8685645520313808
 40
1.30161232198136
 40
1.734292002954471
 40
1.734292002954471
 40
1.734292002954471
 40
1.734292002954471
 10
-7.837585078516331
 20
46.85486640444591
 30
0.0
 10
-7.980583830887319
 20
46.83045830111692
 30
0.0
 10
-8.266241578979593
 20
46.78170008668107
 30
0.0
 10
-8.700653919413333
 20
46.76348384818126
 30
0.0
 10
-9.13434259545836
 20
46.78246365985144
 30
0.0
 10
-9.418929271172755
 20
46.83188661606806
 30
0.0
 10
-9.561162108916329
 20
46.85658758737925
 30
0.0
 11
-7.837585078516331
 21
46.85486640444591
 31
0.0
 11
-8.267640138782994
 21
46.79081450897923
 31
0.0
 11
-8.70089080331633
 21
46.76968193617923
 31
0.0
 11
-9.133379913716325
 21
46.7916714892459
 31
0.0
 11
-9.561162108916329
 21
46.85658758737925
 31
0.0
  0
LINE
  5
17A
100
AcDbEntity
  8
0
100
AcDbLine
 10
-9.485528
 20
46.84511
 30
0.0
 11
-9.857512
 21
46.941301
 31
0.0
  0
SPLINE
  5
17B
100
AcDbEntity
  8
0
100
AcDbSpline
210
0.2259846482417678
220
0.9741308632617306
230
0.0
 70
    24
 71
     3
 72
     8
 73
     4
 74
     2
 42
0.0000001
 43
0.0000001
 44
0.0000000001
 40
0.0
 40
0.0
 40
0.0
 40
0.0
 40
0.0605944783116978
 40
0.0605944783116978
 40
0.0605944783116978
 40
0.0605944783116978
 10
-9.501538458782992
 20
46.8453887308459
 30
0.0
 10
-9.52121410927188
 20
46.84995320480145
 30
0.0
 10
-9.540889759760769
 20
46.854517678757
 30
0.0
 10
-9.56056541024966
 20
46.85908215271256
 30
0.0
 11
-9.501538458782992
 21
46.8453887308459
 31
0.0
 11
-9.56056541024966
 21
46.85908215271256
 31
0.0
  0
SPLINE
  5
17C
100
AcDbEntity
  8
0
100
AcDbSpline
210
0.0
220
0.0
230
1.0
 70
     8
 71
     3
 72
    11
 73
     7
 74
     5
 42
0.0000001
 43
0.0000001
 44
0.0000000001
 40
0.0
 40
0.0
 40
0.0
 40
0.0
 40
0.0034380788178366
 40
0.2110572858311809
 40
0.7282756533643099
 40
1.230101009842135
 40
1.230101009842135
 40
1.230101009842135
 40
1.230101009842135
 10
-9.850083219316326
 20
48.13867282897923
 30
0.0
 10
-9.848949152865099
 20
48.13850769312332
 30
0.0
 10
-9.779330915520962
 20
48.12837030902358
 30
0.0
 10
-9.538882371877557
 20
48.09496580496269
 30
0.0
 10
-9.132778105354073
 20
48.04639440004663
 30
0.0
 10
-8.794143972413115
 20
48.01942027972382
 30
0.0
 10
-8.627384499316324
 20
48.00613694631258
 30
0.0
 11
-9.850083219316326
 21
48.13867282897923
 31
0.0
 11
-9.846681002783
 21
48.13817754257923
 31
0.0
 11
-9.641046388382992
 21
48.10953944764591
 31
0.0
 11
-9.127356109982992
 21
48.04923076177924
 31
0.0
 11
-8.627384499316324
 21
48.00613694631258
 31
0.0
  0
LINE
  5
17D
100
AcDbEntity
  8
0
100
AcDbLine
 10
-6.442664
 20
47.998348
 30
0.0
 11
-6.403521
 21
47.95748
 31
0.0
  0
SPLINE
  5
17E
100
AcDbEntity
  8
0
100
AcDbSpline
210
0.0155899794116071
220
0.999878468886067
230
0.0
 70
    24
 71
     3
 72
     8
 73
     4
 74
     2
 42
0.0000001
 43
0.0000001
 44
0.0000000001
 40
0.0
 40
0.0
 40
0.0
 40
0.0
 40
0.7485125985032252
 40
0.7485125985032252
 40
0.7485125985032252
 40
0.7485125985032252
 10
-5.694242129182995
 20
47.98667871911257
 30
0.0
 10
-5.943716006160774
 20
47.9905684844459
 30
0.0
 10
-6.193189883138552
 20
47.99445824977923
 30
0.0
 10
-6.442663760116332
 20
47.99834801511257
 30
0.0
 11
-5.694242129182995
 21
47.98667871911257
 31
0.0
 11
-6.442663760116332
 21
47.99834801511257
 31
0.0
  0
SPLINE
  5
17F
100
AcDbEntity
  8
0
100
AcDbSpline
210
0.0
220
0.0
230
-1.0
 70
     8
 71
     3
 72
    11
 73
     7
 74
     5
 42
0.0000001
 43
0.0000001
 44
0.0000000001
 40
0.0
 40
0.0
 40
0.0
 40
0.0
 40
0.1359581892662387
 40
0.2910862023022152
 40
0.4617219534224703
 40
0.6431776135560888
 40
0.6431776135560888
 40
0.6431776135560888
 40
0.6431776135560888
 10
-6.576634245449662
 20
47.87192924817922
 30
0.0
 10
-6.531359031416533
 20
47.87395859400557
 30
0.0
 10
-6.434424891719243
 20
47.8783034192267
 30
0.0
 10
-6.280544509783779
 20
47.8816884547223
 30
0.0
 10
-6.111478182209073
 20
47.8835712370548
 30
0.0
 10
-5.99411352680593
 20
47.88310862183208
 30
0.0
 10
-5.933627867849665
 20
47.88287020604591
 30
0.0
 11
-6.576634245449662
 21
47.87192924817922
 31
0.0
 11
-6.440791671582999
 21
47.87753499111256
 31
0.0
 11
-6.285709533982995
 21
47.88130739431256
 31
0.0
 11
-6.115083362249658
 21
47.88311545404591
 31
0.0
 11
-5.933627867849665
 21
47.88287020604591
 31
0.0
  0
SPLINE
  5
180
100
AcDbEntity
  8
0
100
AcDbSpline
210
0.0
220
0.0
230
-1.0
 70
     8
 71
     3
 72
    11
 73
     7
 74
     5
 42
0.0000001
 43
0.0000001
 44
0.0000000001
 40
0.0
 40
0.0
 40
0.0
 40
0.0
 40
0.1441469043350536
 40
0.3351380813993894
 40
0.5750463324686804
 40
0.857717587992672
 40
0.857717587992672
 40
0.857717587992672
 40
0.857717587992672
 10
-6.829041238516325
 20
47.85427901244591
 30
0.0
 10
-6.781222577204091
 20
47.85905627902302
 30
0.0
 10
-6.670045341167035
 20
47.87016330877417
 30
0.0
 10
-6.478465098003157
 20
47.87844004015382
 30
0.0
 10
-6.240682299933249
 20
47.88432553073299
 30
0.0
 10
-6.066479023194798
 20
47.88425896534825
 30
0.0
 10
-5.972249803849663
 20
47.88422295911257
 30
0.0
 11
-6.829041238516325
 21
47.85427901244591
 31
0.0
 11
-6.685497179849662
 21
47.86744841831256
 31
0.0
 11
-6.494755917982999
 21
47.87721574844591
 31
0.0
 11
-6.254918627316333
 21
47.88305038097923
 31
0.0
 11
-5.972249803849663
 21
47.88422295911257
 31
0.0
  0
SPLINE
  5
181
100
AcDbEntity
  8
0
100
AcDbSpline
210
0.0383843515668574
220
0.9992630492291766
230
0.0
 70
    24
 71
     3
 72
     8
 73
     4
 74
     2
 42
0.0000001
 43
0.0000001
 44
0.0000000001
 40
0.0
 40
0.0
 40
0.0
 40
0.0
 40
1.702858656332721
 40
1.702858656332721
 40
1.702858656332721
 40
1.702858656332721
 10
-7.115697707849662
 20
46.2773828716459
 30
0.0
 10
-6.548496463405218
 20
46.25559516320145
 30
0.0
 10
-5.981295218960773
 20
46.233807454757
 30
0.0
 10
-5.414093974516328
 20
46.21201974631256
 30
0.0
 11
-7.115697707849662
 21
46.2773828716459
 31
0.0
 11
-5.414093974516328
 21
46.21201974631256
 31
0.0
  0
SPLINE
  5
182
100
AcDbEntity
  8
0
100
AcDbSpline
210
-0.0210798852540632
220
0.9997777945312027
230
0.0
 70
    24
 71
     3
 72
     8
 73
     4
 74
     2
 42
0.0000001
 43
0.0000001
 44
0.0000000001
 40
0.0
 40
0.0
 40
0.0
 40
0.0
 40
0.2339443474467292
 40
0.2339443474467292
 40
0.2339443474467292
 40
0.2339443474467292
 10
-6.63741352331633
 20
47.95254180604589
 30
0.0
 10
-6.559449402071885
 20
47.95418564604591
 30
0.0
 10
-6.481485280827441
 20
47.95582948604591
 30
0.0
 10
-6.403521159582997
 20
47.95747332604591
 30
0.0
 11
-6.63741352331633
 21
47.95254180604589
 31
0.0
 11
-6.403521159582997
 21
47.95747332604591
 31
0.0
  0
LINE
  5
183
100
AcDbEntity
  8
0
100
AcDbLine
 10
-6.890368
 20
47.839586
 30
0.0
 11
-6.895304
 21
47.837069
 31
0.0
  0
LINE
  5
184
100
AcDbEntity
  8
0
100
AcDbLine
 10
-6.890851
 20
47.839324
 30
0.0
 11
-6.890369
 21
47.839586
 31
0.0
  0
SPLINE
  5
185
100
AcDbEntity
  8
0
100
AcDbSpline
210
0.0
220
0.0
230
-1.0
 70
     8
 71
     3
 72
     9
 73
     5
 74
     3
 42
0.0000001
 43
0.0000001
 44
0.0000000001
 40
0.0
 40
0.0
 40
0.0
 40
0.0
 40
0.012873424080859
 40
0.0816037866564318
 40
0.0816037866564318
 40
0.0816037866564318
 40
0.0816037866564318
 10
-6.890707019849661
 20
47.84033128337924
 30
0.0
 10
-6.886725368760398
 20
47.84193646343143
 30
0.0
 10
-6.861485944968585
 20
47.85211159397179
 30
0.0
 10
-6.8349225777663
 20
47.85834772733323
 30
0.0
 10
-6.81254972064966
 20
47.8636000780459
 30
0.0
 11
-6.890707019849661
 21
47.84033128337924
 31
0.0
 11
-6.878729117982993
 21
47.84504879484591
 31
0.0
 11
-6.81254972064966
 21
47.8636000780459
 31
0.0
  0
SPLINE
  5
186
100
AcDbEntity
  8
0
100
AcDbSpline
210
-0.4354479424353405
220
0.900213913149996
230
0.0
 70
    24
 71
     3
 72
     8
 73
     4
 74
     2
 42
0.0000001
 43
0.0000001
 44
0.0000000001
 40
0.0
 40
0.0
 40
0.0
 40
0.0
 40
0.0028445387212154
 40
0.0028445387212154
 40
0.0028445387212154
 40
0.0028445387212154
 10
-6.893770363849658
 20
47.83886280977923
 30
0.0
 10
-6.892916799405215
 20
47.83927569262367
 30
0.0
 10
-6.892063234960771
 20
47.83968857546812
 30
0.0
 10
-6.891209670516326
 20
47.84010145831255
 30
0.0
 11
-6.893770363849658
 21
47.83886280977923
 31
0.0
 11
-6.891209670516326
 21
47.84010145831255
 31
0.0
  0
SPLINE
  5
187
100
AcDbEntity
  8
0
100
AcDbSpline
210
0.0
220
0.0
230
1.0
 70
     8
 71
     3
 72
    12
 73
     8
 74
     6
 42
0.0000001
 43
0.0000001
 44
0.0000000001
 40
0.0
 40
0.0
 40
0.0
 40
0.0
 40
0.1139095754876149
 40
0.1990068492108059
 40
0.2473148898368255
 40
0.2707255015616443
 40
0.2911853449717716
 40
0.2911853449717716
 40
0.2911853449717716
 40
0.2911853449717716
 10
-6.666980113182995
 20
47.72960308071256
 30
0.0
 10
-6.704566816898529
 20
47.73629546639166
 30
0.0
 10
-6.77023303895781
 20
47.74798746490891
 30
0.0
 10
-6.847138866641171
 20
47.7743830770538
 30
0.0
 10
-6.899414348030417
 20
47.79012784571816
 30
0.0
 10
-6.913439066816723
 20
47.82534691133219
 30
0.0
 10
-6.900025870071264
 20
47.83456416400846
 30
0.0
 10
-6.893770363849658
 20
47.83886280977923
 30
0.0
 11
-6.666980113182995
 21
47.72960308071256
 31
0.0
 11
-6.778500988916329
 21
47.75280837457924
 31
0.0
 11
-6.859794480116329
 21
47.77796616231257
 31
0.0
 11
-6.901817676916327
 21
47.8017929900459
 31
0.0
 11
-6.90816773771633
 21
47.82432593191257
 31
0.0
 11
-6.893770363849658
 21
47.83886280977923
 31
0.0
  0
SPLINE
  5
188
100
AcDbEntity
  8
0
100
AcDbSpline
210
0.0
220
0.0
230
-1.0
 70
     8
 71
     3
 72
    15
 73
    11
 74
     9
 42
0.0000001
 43
0.0000001
 44
0.0000000001
 40
0.0
 40
0.0
 40
0.0
 40
0.0
 40
0.0066890711387303
 40
0.1596928150443293
 40
0.2581626607539791
 40
0.3166322156045605
 40
0.3446747605654741
 40
0.3746440840663597
 40
0.4369205765578633
 40
0.5379201420120601
 40
0.5379201420120601
 40
0.5379201420120601
 40
0.5379201420120601
 10
-6.688457269449661
 20
47.69527161191255
 30
0.0
 10
-6.690663072786008
 20
47.69559839464828
 30
0.0
 10
-6.743323739253711
 20
47.70339990458794
 30
0.0
 10
-6.827709214388949
 20
47.71751526925553
 30
0.0
 10
-6.928881929442018
 20
47.74697997239868
 30
0.0
 10
-6.984659870999958
 20
47.76372471285433
 30
0.0
 10
-7.018641473357593
 20
47.79966265912057
 30
0.0
 10
-6.97623595914876
 20
47.8290198773337
 30
0.0
 10
-6.917848999299954
 20
47.84069704564823
 30
0.0
 10
-6.862981354266366
 20
47.84908832279042
 30
0.0
 10
-6.829041238516325
 20
47.85427901244591
 30
0.0
 11
-6.688457269449661
 21
47.69527161191255
 31
0.0
 11
-6.695073868916328
 21
47.6962535916459
 31
0.0
 11
-6.845493163849667
 21
47.7242568300459
 31
0.0
 11
-6.940401062516329
 21
47.7505018540459
 31
0.0
 11
-6.993447407049666
 21
47.7750940108459
 31
0.0
 11
-7.009345965982991
 21
47.79819423057924
 31
0.0
 11
-6.988115932916329
 21
47.81934715111257
 31
0.0
 11
-6.928743431582995
 21
47.83814256551256
 31
0.0
 11
-6.829041238516325
 21
47.85427901244591
 31
0.0
  0
SPLINE
  5
189
100
AcDbEntity
  8
0
100
AcDbSpline
210
0.0
220
0.0
230
-1.0
 70
     8
 71
     3
 72
    13
 73
     9
 74
     7
 42
0.0000001
 43
0.0000001
 44
0.0000000001
 40
0.0
 40
0.0
 40
0.0
 40
0.0
 40
0.0020464240864495
 40
0.0123071643487536
 40
0.0529629310427565
 40
0.1196635881531924
 40
0.2106622257318215
 40
0.3249030330774383
 40
0.3249030330774383
 40
0.3249030330774383
 40
0.3249030330774383
 10
-6.895887056116326
 20
47.8379761292459
 30
0.0
 10
-6.896364678012464
 20
47.83734870348468
 30
0.0
 10
-6.899237089069023
 20
47.83357537418747
 30
0.0
 10
-6.869213925696315
 20
47.84796217958244
 30
0.0
 10
-6.844222683779444
 20
47.84502245040839
 30
0.0
 10
-6.770854268315167
 20
47.85945287357527
 30
0.0
 10
-6.683837332398812
 20
47.86519680995107
 30
0.0
 10
-6.61496828054573
 20
47.86952184060669
 30
0.0
 10
-6.576634245449662
 20
47.87192924817922
 30
0.0
 11
-6.895887056116326
 21
47.8379761292459
 31
0.0
 11
-6.897047609716333
 21
47.83629061244589
 31
0.0
 11
-6.887176787316325
 21
47.83909233617923
 31
0.0
 11
-6.84733324064966
 21
47.84717832124591
 31
0.0
 11
-6.781249436916326
 21
47.85622865511257
 31
0.0
 11
-6.690646335049663
 21
47.8647039116459
 31
0.0
 11
-6.576634245449662
 21
47.87192924817922
 31
0.0
  0
SPLINE
  5
18A
100
AcDbEntity
  8
0
100
AcDbSpline
210
0.0
220
0.0
230
-1.0
 70
     8
 71
     3
 72
    23
 73
    19
 74
    17
 42
0.0000001
 43
0.0000001
 44
0.0000000001
 40
0.0
 40
0.0
 40
0.0
 40
0.0
 40
0.0114085374570125
 40
0.0258980940140776
 40
0.0384942654691444
 40
0.0472357576941572
 40
0.0544826666796388
 40
0.0609650348476244
 40
0.0671719421000856
 40
0.0734397049618864
 40
0.0799963053044417
 40
0.0870362116687073
 40
0.0947435733816141
 40
0.1033041886814422
 40
0.112912267942099
 40
0.1237747632911712
 40
0.1361138893591545
 40
0.1501522135871065
 40
0.1501522135871065
 40
0.1501522135871065
 40
0.1501522135871065
 10
-4.818312067316331
 20
47.77126721511256
 30
0.0
 10
-4.822076265284435
 20
47.77180853281293
 30
0.0
 10
-4.830621230248866
 20
47.77303735787032
 30
0.0
 10
-4.843365086027628
 20
47.77454972398672
 30
0.0
 10
-4.855258927798211
 20
47.77564302423195
 30
0.0
 10
-4.864767953454744
 20
47.77625964918313
 30
0.0
 10
-4.872250766465663
 20
47.77660033870732
 30
0.0
 10
-4.878892870510311
 20
47.77681333912441
 30
0.0
 10
-4.885210153037846
 20
47.77696279503747
 30
0.0
 10
-4.891552743444232
 20
47.77708477278716
 30
0.0
 10
-4.898173103045079
 20
47.77720338964097
 30
0.0
 10
-4.905273121588502
 20
47.77733794816167
 30
0.0
 10
-4.913040604521744
 20
47.77750639661204
 30
0.0
 10
-4.921663158956175
 20
47.77772708332554
 30
0.0
 10
-4.93133584669988
 20
47.77801942688121
 30
0.0
 10
-4.942265618500896
 20
47.77840603615603
 30
0.0
 10
-4.954668933759652
 20
47.77890622222644
 30
0.0
 10
-4.963451840202815
 20
47.779316912042
 30
0.0
 10
-4.968126184649666
 20
47.77953548497923
 30
0.0
 11
-4.818312067316331
 21
47.77126721511256
 31
0.0
 11
-4.829610253982996
 21
47.77285015697922
 31
0.0
 11
-4.843999032649667
 21
47.7745561164459
 31
0.0
 11
-4.856543689716332
 21
47.77569414737923
 31
0.0
 11
-4.865266767049665
 21
47.7762612524459
 31
0.0
 11
-4.872505995849664
 21
47.77659480337923
 31
0.0
 11
-4.878984889716325
 21
47.77680700924591
 31
0.0
 11
-4.885189965982992
 21
47.77695776124589
 31
0.0
 11
-4.891456505716334
 21
47.77708157991257
 31
0.0
 11
-4.898012007582996
 21
47.77720159377924
 31
0.0
 11
-4.905050615582993
 21
47.77733679377923
 31
0.0
 11
-4.912756141982995
 21
47.77750498257924
 31
0.0
 11
-4.921313945716325
 21
47.77772436711257
 31
0.0
 11
-4.930917642783001
 21
47.77801452177924
 31
0.0
 11
-4.941773401716332
 21
47.77839701777923
 31
0.0
 11
-4.95410244491633
 21
47.77889574204591
 31
0.0
 11
-4.968126184649666
 21
47.77953548497923
 31
0.0
  0
LINE
  5
18B
100
AcDbEntity
  8
0
100
AcDbLine
 10
-5.423694
 20
47.154456
 30
0.0
 11
-5.348037
 21
47.828182
 31
0.0
  0
LINE
  5
18C
100
AcDbEntity
  8
0
100
AcDbLine
 10
-5.439746
 20
47.153742
 30
0.0
 11
-5.363487
 21
47.832821
 31
0.0
  0
LINE
  5
18D
100
AcDbEntity
  8
0
100
AcDbLine
 10
-5.510545
 20
47.168134
 30
0.0
 11
-5.434287
 21
47.847213
 31
0.0
  0
LINE
  5
18E
100
AcDbEntity
  8
0
100
AcDbLine
 10
-5.964417
 20
47.311836
 30
0.0
 11
-5.900339
 21
47.882444
 31
0.0
  0
LINE
  5
18F
100
AcDbEntity
  8
0
100
AcDbLine
 10
-5.423748
 20
47.153978
 30
0.0
 11
-5.424518
 21
47.152595
 31
0.0
  0
LWPOLYLINE
  5
190
100
AcDbEntity
  8
0
100
AcDbPolyline
 90
        3
 70
     0
 43
0.0
 10
-5.363487
 20
47.832821
 10
-5.348812
 20
47.828951
 10
-5.348052
 20
47.828185
  0
LINE
  5
191
100
AcDbEntity
  8
0
100
AcDbLine
 10
-5.434287
 20
47.847213
 30
0.0
 11
-5.363487
 21
47.832821
 31
0.0
  0
LINE
  5
192
100
AcDbEntity
  8
0
100
AcDbLine
 10
-5.510545
 20
47.168134
 30
0.0
 11
-5.439746
 21
47.153742
 31
0.0
  0
LWPOLYLINE
  5
193
100
AcDbEntity
  8
0
100
AcDbPolyline
 90
        4
 70
     0
 43
0.0
 10
-5.578432
 20
47.868791
 10
-5.515739
 20
47.860265
 10
-5.466874
 20
47.85295
 10
-5.434287
 20
47.847213
  0
LINE
  5
194
100
AcDbEntity
  8
0
100
AcDbLine
 10
-5.651808
 20
47.878101
 30
0.0
 11
-5.578432
 21
47.868791
 31
0.0
  0
LINE
  5
195
100
AcDbEntity
  8
0
100
AcDbLine
 10
-5.652934
 20
47.878236
 30
0.0
 11
-5.651808
 21
47.878101
 31
0.0
  0
LINE
  5
196
100
AcDbEntity
  8
0
100
AcDbLine
 10
-5.677441
 20
47.880185
 30
0.0
 11
-5.681779
 21
47.879114
 31
0.0
  0
SPLINE
  5
197
100
AcDbEntity
  8
0
100
AcDbSpline
210
0.0
220
0.0
230
1.0
 70
     8
 71
     3
 72
    10
 73
     6
 74
     4
 42
0.0000001
 43
0.0000001
 44
0.0000000001
 40
0.0
 40
0.0
 40
0.0
 40
0.0
 40
0.0008076356661449
 40
0.0027251979863125
 40
0.00981410636282
 40
0.00981410636282
 40
0.00981410636282
 40
0.00981410636282
 10
-5.50873270944966
 20
47.87327872871256
 30
0.0
 10
-5.508388981112794
 20
47.87332981391591
 30
0.0
 10
-5.507229141582756
 20
47.87350219027213
 30
0.0
 10
-5.512915698315048
 20
47.87459837246561
 30
0.0
 10
-5.515079707802208
 20
47.87487532166734
 30
0.0
 10
-5.516782979316326
 20
47.87509330577925
 30
0.0
 11
-5.50873270944966
 21
47.87327872871256
 31
0.0
 11
-5.507942076916326
 21
47.87344357884591
 31
0.0
 11
-5.509780816116332
 21
47.87398771431258
 31
0.0
 11
-5.516782979316326
 21
47.87509330577925
 31
0.0
  0
SPLINE
  5
198
100
AcDbEntity
  8
0
100
AcDbSpline
210
0.0402690992256918
220
0.9991888708585337
230
0.0
 70
    24
 71
     3
 72
     8
 73
     4
 74
     2
 42
0.0000001
 43
0.0000001
 44
0.0000000001
 40
0.0
 40
0.0
 40
0.0
 40
0.0
 40
0.014406758808575
 40
0.014406758808575
 40
0.014406758808575
 40
0.014406758808575
 10
-5.531178052382998
 20
47.87567345297922
 30
0.0
 10
-5.526379694694107
 20
47.87548007057923
 30
0.0
 10
-5.521581337005217
 20
47.87528668817923
 30
0.0
 10
-5.516782979316326
 20
47.87509330577925
 30
0.0
 11
-5.531178052382998
 21
47.87567345297922
 31
0.0
 11
-5.516782979316326
 21
47.87509330577925
 31
0.0
  0
SPLINE
  5
199
100
AcDbEntity
  8
0
100
AcDbSpline
210
0.0357564084501322
220
0.9993605351697391
230
0.0
 70
    24
 71
     3
 72
     8
 73
     4
 74
     2
 42
0.0000001
 43
0.0000001
 44
0.0000000001
 40
0.0
 40
0.0
 40
0.0
 40
0.0
 40
0.0628036231081902
 40
0.0628036231081902
 40
0.0628036231081902
 40
0.0628036231081902
 10
-5.593941514782997
 20
47.87791908497923
 30
0.0
 10
-5.573020360649664
 20
47.87717054097924
 30
0.0
 10
-5.552099206516331
 20
47.87642199697923
 30
0.0
 10
-5.531178052382998
 20
47.87567345297922
 30
0.0
 11
-5.593941514782997
 21
47.87791908497923
 31
0.0
 11
-5.531178052382998
 21
47.87567345297922
 31
0.0
  0
SPLINE
  5
19A
100
AcDbEntity
  8
0
100
AcDbSpline
210
0.0276578785918151
220
0.99961744770277
230
0.0
 70
    24
 71
     3
 72
     8
 73
     4
 74
     2
 42
0.0000001
 43
0.0000001
 44
0.0000000001
 40
0.0
 40
0.0
 40
0.0
 40
0.0
 40
0.0835197341328222
 40
0.0835197341328222
 40
0.0835197341328222
 40
0.0835197341328222
 10
-5.677429298249663
 20
47.8802290636459
 30
0.0
 10
-5.649600037094107
 20
47.87945907075701
 30
0.0
 10
-5.621770775938552
 20
47.87868907786811
 30
0.0
 10
-5.593941514782997
 20
47.87791908497923
 30
0.0
 11
-5.677429298249663
 21
47.8802290636459
 31
0.0
 11
-5.593941514782997
 21
47.87791908497923
 31
0.0
  0
SPLINE
  5
19B
100
AcDbEntity
  8
0
100
AcDbSpline
210
0.0223482651358876
220
0.9997502463342613
230
0.0
 70
    24
 71
     3
 72
     8
 73
     4
 74
     2
 42
0.0000001
 43
0.0000001
 44
0.0000000001
 40
0.0
 40
0.0
 40
0.0
 40
0.0
 40
0.0191151004664132
 40
0.0191151004664132
 40
0.0191151004664132
 40
0.0191151004664132
 10
-5.696551737716328
 20
47.88061195217923
 30
0.0
 10
-5.690181628916327
 20
47.88046955573479
 30
0.0
 10
-5.683811520116328
 20
47.88032715929035
 30
0.0
 10
-5.677441411316327
 20
47.88018476284591
 30
0.0
 11
-5.696551737716328
 21
47.88061195217923
 31
0.0
 11
-5.677441411316327
 21
47.88018476284591
 31
0.0
  0
SPLINE
  5
19C
100
AcDbEntity
  8
0
100
AcDbSpline
210
0.0163159226239239
220
0.9998668864748598
230
0.0
 70
    24
 71
     3
 72
     8
 73
     4
 74
     2
 42
0.0000001
 43
0.0000001
 44
0.0000000001
 40
0.0
 40
0.0
 40
0.0
 40
0.0
 40
0.1711738116828203
 40
0.1711738116828203
 40
0.1711738116828203
 40
0.1711738116828203
 10
-5.867702763849663
 20
47.88340481084589
 30
0.0
 10
-5.810652421805218
 20
47.88247385795701
 30
0.0
 10
-5.753602079760772
 20
47.88154290506812
 30
0.0
 10
-5.696551737716328
 20
47.88061195217923
 30
0.0
 11
-5.867702763849663
 21
47.88340481084589
 31
0.0
 11
-5.696551737716328
 21
47.88061195217923
 31
0.0
  0
SPLINE
  5
19D
100
AcDbEntity
  8
0
100
AcDbSpline
210
0.0100656167169941
220
0.9999493403968557
230
0.0
 70
    24
 71
     3
 72
     8
 73
     4
 74
     2
 42
0.0000001
 43
0.0000001
 44
0.0000000001
 40
0.0
 40
0.0
 40
0.0
 40
0.0
 40
0.0302991072074128
 40
0.0302991072074128
 40
0.0302991072074128
 40
0.0302991072074128
 10
-5.89800033611633
 20
47.88370979004591
 30
0.0
 10
-5.887901145360775
 20
47.88360813031257
 30
0.0
 10
-5.877801954605219
 20
47.88350647057924
 30
0.0
 10
-5.867702763849663
 20
47.88340481084589
 30
0.0
 11
-5.89800033611633
 21
47.88370979004591
 31
0.0
 11
-5.867702763849663
 21
47.88340481084589
 31
0.0
  0
SPLINE
  5
19E
100
AcDbEntity
  8
0
100
AcDbSpline
210
0.0069112523809029
220
0.9999761170100653
230
0.0
 70
    24
 71
     3
 72
     8
 73
     4
 74
     2
 42
0.0000001
 43
0.0000001
 44
0.0000000001
 40
0.0
 40
0.0
 40
0.0
 40
0.0
 40
0.0742512410749771
 40
0.0742512410749771
 40
0.0742512410749771
 40
0.0742512410749771
 10
-5.972249803849663
 20
47.88422295911257
 30
0.0
 10
-5.947499981271885
 20
47.88405190275702
 30
0.0
 10
-5.922750158694108
 20
47.88388084640147
 30
0.0
 10
-5.89800033611633
 20
47.88370979004591
 30
0.0
 11
-5.972249803849663
 21
47.88422295911257
 31
0.0
 11
-5.89800033611633
 21
47.88370979004591
 31
0.0
  0
SPLINE
  5
19F
100
AcDbEntity
  8
0
100
AcDbSpline
210
0.0
220
0.0
230
-1.0
 70
     8
 71
     3
 72
    10
 73
     6
 74
     4
 42
0.0000001
 43
0.0000001
 44
0.0000000001
 40
0.0
 40
0.0
 40
0.0
 40
0.0
 40
0.0133240931301881
 40
0.153594004405421
 40
0.1732471917361509
 40
0.1732471917361509
 40
0.1732471917361509
 40
0.1732471917361509
 10
-5.681776966516332
 20
47.87915106791255
 30
0.0
 10
-5.67733684683867
 20
47.87904610596753
 30
0.0
 10
-5.626153193687349
 20
47.87783615304326
 30
0.0
 10
-5.568429841827398
 20
47.87598989701376
 30
0.0
 10
-5.515169895913099
 20
47.87373480439671
 30
0.0
 10
-5.508624701982999
 20
47.87345767271257
 30
0.0
 11
-5.681776966516332
 21
47.87915106791255
 31
0.0
 11
-5.668456671049658
 21
47.87883296977924
 31
0.0
 11
-5.528260646516329
 21
47.87428074897923
 31
0.0
 11
-5.508624701982999
 21
47.87345767271257
 31
0.0
  0
SPLINE
  5
1A0
100
AcDbEntity
  8
0
100
AcDbSpline
210
0.0209389789286284
220
0.9997807555466481
230
0.0
 70
    24
 71
     3
 72
     8
 73
     4
 74
     2
 42
0.0000001
 43
0.0000001
 44
0.0000000001
 40
0.0
 40
0.0
 40
0.0
 40
0.0
 40
0.0653206763959914
 40
0.0653206763959914
 40
0.0653206763959914
 40
0.0653206763959914
 10
-5.747085794249665
 20
47.88048141351256
 30
0.0
 10
-5.725317009182997
 20
47.88002549742368
 30
0.0
 10
-5.703548224116329
 20
47.8795695813348
 30
0.0
 10
-5.681779439049662
 20
47.87911366524591
 30
0.0
 11
-5.747085794249665
 21
47.88048141351256
 31
0.0
 11
-5.681779439049662
 21
47.87911366524591
 31
0.0
  0
SPLINE
  5
1A1
100
AcDbEntity
  8
0
100
AcDbSpline
210
0.0139173184505841
220
0.9999031494335564
230
0.0
 70
    24
 71
     3
 72
     8
 73
     4
 74
     2
 42
0.0000001
 43
0.0000001
 44
0.0000000001
 40
0.0
 40
0.0
 40
0.0
 40
0.0
 40
0.1509220238168235
 40
0.1509220238168235
 40
0.1509220238168235
 40
0.1509220238168235
 10
-5.897993201182993
 20
47.88258184337923
 30
0.0
 10
-5.847690732205217
 20
47.88188170009035
 30
0.0
 10
-5.797388263227441
 20
47.88118155680145
 30
0.0
 10
-5.747085794249665
 20
47.88048141351256
 30
0.0
 11
-5.897993201182993
 21
47.88258184337923
 31
0.0
 11
-5.747085794249665
 21
47.88048141351256
 31
0.0
  0
SPLINE
  5
1A2
100
AcDbEntity
  8
0
100
AcDbSpline
210
0.0080919299265123
220
0.999967259799072
230
0.0
 70
    24
 71
     3
 72
     8
 73
     4
 74
     2
 42
0.0000001
 43
0.0000001
 44
0.0000000001
 40
0.0
 40
0.0
 40
0.0
 40
0.0
 40
0.0356358333910175
 40
0.0356358333910175
 40
0.0356358333910175
 40
0.0356358333910175
 10
-5.933627867849665
 20
47.88287020604591
 30
0.0
 10
-5.921749645627441
 20
47.88277408515702
 30
0.0
 10
-5.909871423405218
 20
47.88267796426813
 30
0.0
 10
-5.897993201182993
 20
47.88258184337923
 30
0.0
 11
-5.933627867849665
 21
47.88287020604591
 31
0.0
 11
-5.897993201182993
 21
47.88258184337923
 31
0.0
  0
SPLINE
  5
1A3
100
AcDbEntity
  8
0
100
AcDbSpline
210
0.1098529398848804
220
0.9939478515488874
230
0.0
 70
    24
 71
     3
 72
     8
 73
     4
 74
     2
 42
0.0000001
 43
0.0000001
 44
0.0000000001
 40
0.0
 40
0.0
 40
0.0
 40
0.0
 40
0.006144359911656
 40
0.006144359911656
 40
0.006144359911656
 40
0.006144359911656
 10
-5.514839882782993
 20
47.87395370471257
 30
0.0
 10
-5.512804158338549
 20
47.87372871271257
 30
0.0
 10
-5.510768433894105
 20
47.87350372071257
 30
0.0
 10
-5.50873270944966
 20
47.87327872871256
 30
0.0
 11
-5.514839882782993
 21
47.87395370471257
 31
0.0
 11
-5.50873270944966
 21
47.87327872871256
 31
0.0
  0
SPLINE
  5
1A4
100
AcDbEntity
  8
0
100
AcDbSpline
210
0.0
220
0.0
230
-1.0
 70
     8
 71
     3
 72
    19
 73
    15
 74
    13
 42
0.0000001
 43
0.0000001
 44
0.0000000001
 40
0.0
 40
0.0
 40
0.0
 40
0.0
 40
0.0272562775108497
 40
0.0672638112334624
 40
0.1160026132082903
 40
0.167647026394353
 40
0.2178370150184222
 40
0.2651157799796922
 40
0.3089307016410325
 40
0.3495679340273275
 40
0.3864256160592947
 40
0.419587978055701
 40
0.4518882606236179
 40
0.4863423816538413
 40
0.4863423816538413
 40
0.4863423816538413
 40
0.4863423816538413
 10
-5.512069328116329
 20
47.16840627537924
 30
0.0
 10
-5.520930609564826
 20
47.17044905329469
 30
0.0
 10
-5.542798730125348
 20
47.17549027831313
 30
0.0
 10
-5.579017031054011
 20
47.18929158144066
 30
0.0
 10
-5.622312401240633
 20
47.20698710696874
 30
0.0
 10
-5.668177536521811
 20
47.22740705085043
 30
0.0
 10
-5.713320073884985
 20
47.24820327849807
 30
0.0
 10
-5.755971090817631
 20
47.26816995053518
 30
0.0
 10
-5.79581341635254
 20
47.28664458380694
 30
0.0
 10
-5.832766286228369
 20
47.3030196465103
 30
0.0
 10
-5.867166790468882
 20
47.31658307158243
 30
0.0
 10
-5.899799041940737
 20
47.32600692083546
 30
0.0
 10
-5.93430354704686
 20
47.3286125005995
 30
0.0
 10
-5.954165252230508
 20
47.31754745077402
 30
0.0
 10
-5.96441652491633
 20
47.31183641831257
 30
0.0
 11
-5.512069328116329
 21
47.16840627537924
 31
0.0
 11
-5.538510806516327
 21
47.17502087164589
 31
0.0
 11
-5.576221920116329
 21
47.18838031271256
 31
0.0
 11
-5.621326687049659
 21
47.2068473324459
 31
0.0
 11
-5.668571753716325
 21
47.22770516284589
 31
0.0
 11
-5.714179243849661
 21
47.2486572940459
 31
0.0
 11
-5.757030755316326
 21
47.2686330188459
 31
0.0
 11
-5.796823690783
 21
47.28697067537923
 31
0.0
 11
-5.834050966516329
 21
47.30326529404591
 31
0.0
 11
-5.868471716382993
 21
47.31644485031257
 31
0.0
 11
-5.900517654516329
 21
47.32497714791257
 31
0.0
 11
-5.932812711582997
 21
47.32555813244591
 31
0.0
 11
-5.96441652491633
 21
47.31183641831257
 31
0.0
  0
SPLINE
  5
1A5
100
AcDbEntity
  8
0
100
AcDbSpline
210
0.2236336201240725
220
0.9746732806177679
230
0.0
 70
    24
 71
     3
 72
     9
 73
     5
 74
     3
 42
0.0000001
 43
0.0000001
 44
0.0000000001
 40
0.0
 40
0.0
 40
0.0
 40
0.0
 40
0.0007345822881703
 40
0.0014843723263399
 40
0.0014843723263399
 40
0.0014843723263399
 40
0.0014843723263399
 10
-5.438299185182998
 20
47.15341037884591
 30
0.0
 10
-5.438536772705379
 20
47.15346971699253
 30
0.0
 10
-5.439016866425287
 20
47.15358962173865
 30
0.0
 10
-5.439501198409143
 20
47.1536910657264
 30
0.0
 10
-5.439745845449659
 20
47.15374230737924
 30
0.0
 11
-5.438299185182998
 21
47.15341037884591
 31
0.0
 11
-5.439012985716331
 21
47.15358387217922
 31
0.0
 11
-5.439745845449659
 21
47.15374230737924
 31
0.0
  0
SPLINE
  5
1A6
100
AcDbEntity
  8
0
100
AcDbSpline
210
0.1756672800504879
220
0.9844495958248259
230
0.0
 70
    24
 71
     3
 72
     9
 73
     5
 74
     3
 42
0.0000001
 43
0.0000001
 44
0.0000000001
 40
0.0
 40
0.0
 40
0.0
 40
0.0
 40
0.0007658883956831
 40
0.0015482695881334
 40
0.0015482695881334
 40
0.0015482695881334
 40
0.0015482695881334
 10
-5.510545211849664
 20
47.16813430951257
 30
0.0
 10
-5.510795728346743
 20
47.16818359099857
 30
0.0
 10
-5.511302156014193
 20
47.16828321520814
 30
0.0
 10
-5.511811776033552
 20
47.16836496221033
 30
0.0
 10
-5.512069300382994
 20
47.16840627111257
 30
0.0
 11
-5.510545211849664
 21
47.16813430951257
 31
0.0
 11
-5.511297542516325
 21
47.16827777937924
 31
0.0
 11
-5.512069300382994
 21
47.16840627111257
 31
0.0
  0
SPLINE
  5
1A7
100
AcDbEntity
  8
0
100
AcDbSpline
210
0.0
220
0.0
230
1.0
 70
     8
 71
     3
 72
     9
 73
     5
 74
     3
 42
0.0000001
 43
0.0000001
 44
0.0000000001
 40
0.0
 40
0.0
 40
0.0
 40
0.0
 40
0.0015482946894699
 40
0.0136826740540095
 40
0.0136826740540095
 40
0.0136826740540095
 40
0.0136826740540095
 10
-5.425245251316326
 20
47.1530624620459
 30
0.0
 10
-5.425573674792654
 20
47.15264696191403
 30
0.0
 10
-5.428476036603258
 20
47.14897508154631
 30
0.0
 10
-5.433682155447442
 20
47.15132572371003
 30
0.0
 10
-5.438299163849663
 20
47.15341037351257
 30
0.0
 11
-5.425245251316326
 21
47.1530624620459
 31
0.0
 11
-5.426260020382997
 21
47.15189307751257
 31
0.0
 11
-5.438299163849663
 21
47.15341037351257
 31
0.0
  0
SPLINE
  5
1A8
100
AcDbEntity
  8
0
100
AcDbSpline
210
-0.6106988901089253
220
0.7918629083494989
230
0.0
 70
    24
 71
     3
 72
     8
 73
     4
 74
     2
 42
0.0000001
 43
0.0000001
 44
0.0000000001
 40
0.0
 40
0.0
 40
0.0
 40
0.0
 40
0.0108381198010161
 40
0.0108381198010161
 40
0.0108381198010161
 40
0.0108381198010161
 10
-5.424519995849658
 20
47.15258013671258
 30
0.0
 10
-5.427380764205215
 20
47.15037386080147
 30
0.0
 10
-5.430241532560773
 20
47.14816758489035
 30
0.0
 10
-5.433102300916331
 20
47.14596130897922
 30
0.0
 11
-5.424519995849658
 21
47.15258013671258
 31
0.0
 11
-5.433102300916331
 21
47.14596130897922
 31
0.0
  0
LINE
  5
1A9
100
AcDbEntity
  8
0
100
AcDbLine
 10
-4.818312
 20
47.771267
 30
0.0
 11
-5.516783
 21
47.875093
 31
0.0
  0
LWPOLYLINE
  5
1AA
100
AcDbEntity
  8
0
100
AcDbPolyline
 90
        4
 70
     0
 43
0.0
 10
-4.968126
 20
47.779535
 10
-5.104027
 20
47.788784
 10
-5.29938
 20
47.80606
 10
-5.349746
 20
47.811102
  0
SPLINE
  5
1AB
100
AcDbEntity
  8
0
100
AcDbSpline
210
0.0
220
0.0
230
1.0
 70
     8
 71
     3
 72
    12
 73
     8
 74
     6
 42
0.0000001
 43
0.0000001
 44
0.0000000001
 40
0.0
 40
0.0
 40
0.0
 40
0.0
 40
0.0302719708633827
 40
0.1042918657850881
 40
0.229162268932224
 40
0.4007741474169815
 40
0.5748176728501179
 40
0.5748176728501179
 40
0.5748176728501179
 40
0.5748176728501179
 10
-4.818390754249667
 20
47.77127891217922
 30
0.0
 10
-4.822096497006519
 20
47.76142785928525
 30
0.0
 10
-4.834863383839754
 20
47.72748937900272
 30
0.0
 10
-4.922393923272456
 20
47.71570179385188
 30
0.0
 10
-5.036032087271326
 20
47.68730533743504
 30
0.0
 10
-5.195048233516599
 20
47.67111559730743
 30
0.0
 10
-5.309481376302541
 20
47.66219855238073
 30
0.0
 10
-5.367100459849661
 20
47.65770866471258
 30
0.0
 11
-4.818390754249667
 21
47.77127891217922
 31
0.0
 11
-4.831788543049663
 21
47.74413316711256
 31
0.0
 11
-4.900898311582992
 21
47.7176230796459
 31
0.0
 11
-5.023338817182997
 21
47.69310899857923
 31
0.0
 11
-5.193639165982995
 21
47.67193287911257
 31
0.0
 11
-5.367100459849661
 21
47.65770866471258
 31
0.0
  0
SPLINE
  5
1AC
100
AcDbEntity
  8
0
100
AcDbSpline
210
0.0
220
0.0
230
1.0
 70
     8
 71
     3
 72
    11
 73
     7
 74
     5
 42
0.0000001
 43
0.0000001
 44
0.0000000001
 40
0.0
 40
0.0
 40
0.0
 40
0.0
 40
0.0740095530246904
 40
0.1863296232709738
 40
0.3340965170794487
 40
0.4023911288587511
 40
0.4023911288587511
 40
0.4023911288587511
 40
0.4023911288587511
 10
-4.967934265716332
 20
47.77952624337923
 30
0.0
 10
-4.99100618736073
 20
47.77067024729065
 30
0.0
 10
-5.049093046319387
 20
47.74837401190703
 30
0.0
 10
-5.159285939393523
 20
47.72901923461842
 30
0.0
 10
-5.267520561898696
 20
47.71352298006429
 30
0.0
 10
-5.339180883514729
 20
47.70617519464112
 30
0.0
 10
-5.361831905182995
 20
47.70385264231257
 30
0.0
 11
-4.967934265716332
 21
47.77952624337923
 31
0.0
 11
-5.037681547849667
 21
47.75477284817923
 31
0.0
 11
-5.147583908382998
 21
47.73159377724591
 31
0.0
 11
-5.293923442249663
 21
47.71110485991258
 31
0.0
 11
-5.361831905182995
 21
47.70385264231257
 31
0.0
  0
SPLINE
  5
1AD
100
AcDbEntity
  8
0
100
AcDbSpline
210
0.0
220
0.0
230
1.0
 70
     8
 71
     3
 72
    10
 73
     6
 74
     4
 42
0.0000001
 43
0.0000001
 44
0.0000000001
 40
0.0
 40
0.0
 40
0.0
 40
0.0
 40
2.210249354337495
 40
4.420493175458091
 40
6.630749536878751
 40
6.630749536878751
 40
6.630749536878751
 40
6.630749536878751
 10
24.68882423775033
 20
36.3160757644459
 30
0.0
 10
24.67731359612828
 20
37.05284249071711
 30
0.0
 10
24.65429234170035
 20
38.52637409881147
 30
0.0
 10
24.48159347019006
 20
40.73187211378754
 30
0.0
 10
24.27497369016897
 20
42.19102958873349
 30
0.0
 10
24.17166350708367
 20
42.92061039591257
 30
0.0
 11
24.68882423775033
 21
36.3160757644459
 31
0.0
 11
24.63126446601699
 21
38.52557549991257
 31
0.0
 11
24.458722130017
 21
40.72907428391256
 31
0.0
 11
24.17166350708367
 21
42.92061039591257
 31
0.0
  0
SPLINE
  5
1AE
100
AcDbEntity
  8
0
100
AcDbSpline
210
0.0
220
0.0
230
-1.0
 70
     8
 71
     3
 72
    14
 73
    10
 74
     8
 42
0.0000001
 43
0.0000001
 44
0.0000000001
 40
0.0
 40
0.0
 40
0.0
 40
0.0
 40
0.9039002209102898
 40
1.80857981438916
 40
2.698443868405086
 40
3.583605831432242
 40
4.467684353550657
 40
5.362877949567385
 40
6.257438100813405
 40
6.257438100813405
 40
6.257438100813405
 40
6.257438100813405
 10
17.68950971935034
 20
46.21203338897923
 30
0.0
 10
17.99139053195931
 20
46.19502105887163
 30
0.0
 10
18.59541244876573
 20
46.16098173006458
 30
0.0
 10
19.45953986124267
 20
45.87895364003697
 30
0.0
 10
20.24642565258742
 20
45.44690066633557
 30
0.0
 10
20.92568940172512
 20
44.86645782730015
 30
0.0
 10
21.47175839362167
 20
44.16039231297509
 30
0.0
 10
21.88017252533622
 20
43.35739538570268
 30
0.0
 10
22.00384112586879
 20
42.77156330193982
 30
0.0
 10
22.065653541217
 20
42.47875093137923
 30
0.0
 11
17.68950971935034
 21
46.21203338897923
 31
0.0
 11
18.58894320415034
 21
46.1222836492459
 31
0.0
 11
19.452159352417
 21
45.8515382924459
 31
0.0
 11
20.23076584628368
 21
45.42069033511257
 31
0.0
 11
20.90360176308367
 21
44.84553511271257
 31
0.0
 11
21.44654894175033
 21
44.14782228177924
 31
0.0
 11
21.84281601268366
 21
43.34511188391256
 31
0.0
 11
22.065653541217
 21
42.47875093137923
 31
0.0
  0
SPLINE
  5
1AF
100
AcDbEntity
  8
0
100
AcDbSpline
210
0.0
220
0.0
230
-1.0
 70
     8
 71
     3
 72
    15
 73
    11
 74
     9
 42
0.0000001
 43
0.0000001
 44
0.0000000001
 40
0.0
 40
0.0
 40
0.0
 40
0.0
 40
1.147834323952738
 40
2.298498804737054
 40
3.448093788923087
 40
4.59879840484093
 40
5.748951543905756
 40
6.899254080864276
 40
8.04959711432709
 40
9.20395490250587
 40
9.20395490250587
 40
9.20395490250587
 40
9.20395490250587
 10
24.71306887775034
 20
42.48355825937923
 30
0.0
 10
24.63478855072003
 20
42.85908046454648
 30
0.0
 10
24.47803488483035
 20
43.61105078092174
 30
0.0
 10
23.996718100193
 20
44.66482830121434
 30
0.0
 10
23.349454127485
 20
45.62149457470122
 30
0.0
 10
22.54120516911075
 20
46.4487019941854
 30
0.0
 10
21.59962027068865
 20
47.12061933277282
 30
0.0
 10
20.55502808447305
 20
47.61347169775335
 30
0.0
 10
19.43762865996119
 20
47.92790714960616
 30
0.0
 10
18.66842097213373
 20
47.96735793762529
 30
0.0
 10
18.283147154017
 20
47.98711769297923
 30
0.0
 11
24.71306887775034
 21
42.48355825937923
 31
0.0
 11
24.43730585055034
 21
43.5977747500459
 31
0.0
 11
23.96895666015033
 21
44.6488112780459
 31
0.0
 11
23.322841355617
 21
45.59965492497924
 31
0.0
 11
22.51886950175033
 21
46.42291088231256
 31
0.0
 11
21.58247951348366
 21
47.09076268711257
 31
0.0
 11
20.54313227828367
 21
47.58366556924589
 31
0.0
 11
19.43298953268367
 21
47.88511569617923
 31
0.0
 11
18.283147154017
 21
47.98711769297923
 31
0.0
  0
LINE
  5
1B0
100
AcDbEntity
  8
CENTER
 48
3.0
100
AcDbLine
 10
16.036686
 20
36.316079
 30
0.0
 11
21.090963
 21
36.316079
 31
0.0
  0
SPLINE
  5
1B1
100
AcDbEntity
  8
0
100
AcDbSpline
210
0.0
220
0.0
230
1.0
 70
     8
 71
     3
 72
    10
 73
     6
 74
     4
 42
0.0000001
 43
0.0000001
 44
0.0000000001
 40
0.0
 40
0.0
 40
0.0
 40
0.0
 40
2.063745859632852
 40
4.127492048125569
 40
6.191237804128673
 40
6.191237804128673
 40
6.191237804128673
 40
6.191237804128673
 10
25.18882423775033
 20
36.31607871911257
 30
0.0
 10
25.1782356224161
 20
37.00400935082967
 30
0.0
 10
25.15705839006033
 20
38.37987072388627
 30
0.0
 10
24.99819455456798
 20
40.439310337103
 30
0.0
 10
24.80811076480594
 20
41.80214233359866
 30
0.0
 10
24.71306887988367
 20
42.4835582604459
 30
0.0
 11
25.18882423775033
 21
36.31607871911257
 31
0.0
 11
25.13587539615034
 21
38.37914522151257
 31
0.0
 11
24.977150898017
 21
40.43677853777923
 31
0.0
 11
24.71306887988367
 21
42.4835582604459
 31
0.0
  0
SPLINE
  5
1B2
100
AcDbEntity
  8
0
100
AcDbSpline
210
0.0
220
0.0
230
1.0
 70
     8
 71
     3
 72
    10
 73
     6
 74
     4
 42
0.0000001
 43
0.0000001
 44
0.0000000001
 40
0.0
 40
0.0
 40
0.0
 40
0.0
 40
2.061776153885503
 40
4.123447633991289
 40
6.184644301147834
 40
6.184644301147834
 40
6.184644301147834
 40
6.184644301147834
 10
22.06565354655033
 20
42.4787509324459
 30
0.0
 10
22.15701773103035
 20
41.79750203293788
 30
0.0
 10
22.33974146154577
 20
40.43503882007082
 30
0.0
 10
22.49243212309035
 20
38.37747331899761
 30
0.0
 10
22.51278470919242
 20
37.00315552312247
 30
0.0
 10
22.52295983028367
 20
36.31607576231256
 30
0.0
 11
22.06565354655033
 21
42.4787509324459
 31
0.0
 11
22.31951475295033
 21
40.4326631052459
 31
0.0
 11
22.47208026655032
 21
38.3766443660459
 31
0.0
 11
22.52295983028367
 21
36.31607576231256
 31
0.0
  0
SPLINE
  5
1B3
100
AcDbEntity
  8
0
100
AcDbSpline
210
0.0
220
0.0
230
1.0
 70
     8
 71
     3
 72
    19
 73
    15
 74
    13
 42
0.0000001
 43
0.0000001
 44
0.0000000001
 40
0.0
 40
0.0
 40
0.0
 40
0.0
 40
0.3378215608229392
 40
0.654796448973552
 40
0.9291572248810709
 40
1.143474015552871
 40
1.284005712863427
 40
1.350620398193078
 40
1.415740956831638
 40
1.554118830792553
 40
1.765366389002971
 40
2.038287987003281
 40
2.353945869086675
 40
2.692688998400669
 40
2.692688998400669
 40
2.692688998400669
 40
2.692688998400669
 10
24.48174771935033
 20
36.31607576231256
 30
0.0
 10
24.48040140896328
 20
36.42864707945297
 30
0.0
 10
24.4777918678241
 20
36.64684303633698
 30
0.0
 10
24.45522625705281
 20
36.95658406294534
 30
0.0
 10
24.42575179691859
 20
37.22149458467785
 30
0.0
 10
24.37890555801712
 20
37.43238425284067
 30
0.0
 10
24.35017309409841
 20
37.55722773765858
 30
0.0
 10
24.27616295266837
 20
37.65171110635014
 30
0.0
 10
24.20664584045907
 20
37.55577016459356
 30
0.0
 10
24.18598160607927
 20
37.43061918407065
 30
0.0
 10
24.1494805341934
 20
37.22045226285191
 30
0.0
 10
24.13019489993251
 20
36.95646451299476
 30
0.0
 10
24.11524539923117
 20
36.64700344668224
 30
0.0
 10
24.1136525491439
 20
36.42894908460966
 30
0.0
 10
24.11282802868367
 20
36.3160757612459
 30
0.0
 11
24.48174771935033
 21
36.31607576231256
 31
0.0
 11
24.47417058868366
 21
36.65381233724591
 31
0.0
 11
24.45210170761701
 21
36.97001803644591
 31
0.0
 11
24.41772208948366
 21
37.24221626791257
 31
0.0
 11
24.37422487988367
 21
37.45207259857923
 31
0.0
 11
24.32571753268367
 21
37.58396723537923
 31
0.0
 11
24.27624410655033
 21
37.62857549031257
 31
0.0
 11
24.22982445108366
 21
37.5829038060459
 31
0.0
 11
24.18912985268367
 21
37.45064502311257
 31
0.0
 11
24.15627824095032
 21
37.2419675148459
 31
0.0
 11
24.13223666335033
 21
36.97010688657924
 31
0.0
 11
24.11770157215033
 21
36.65478383057923
 31
0.0
 11
24.11282802868367
 21
36.3160757612459
 31
0.0
  0
SPLINE
  5
1B4
100
AcDbEntity
  8
0
100
AcDbSpline
210
0.0
220
0.0
230
-1.0
 70
     8
 71
     3
 72
    11
 73
     7
 74
     5
 42
0.0000001
 43
0.0000001
 44
0.0000000001
 40
0.0
 40
0.0
 40
0.0
 40
0.0
 40
0.697329225279132
 40
1.333643182784832
 40
1.918149516125964
 40
2.456543262757113
 40
2.456543262757113
 40
2.456543262757113
 40
2.456543262757113
 10
22.10854418655033
 20
46.57703121831256
 30
0.0
 10
21.92553996120756
 20
46.72080898296568
 30
0.0
 10
21.57554410745354
 20
46.99578417217982
 30
0.0
 10
21.02032375247087
 20
47.31618195272147
 30
0.0
 10
20.48760351103432
 20
47.56404478921022
 30
0.0
 10
20.1313719041573
 20
47.6799026229371
 30
0.0
 10
19.960570536417
 20
47.73545265297924
 30
0.0
 11
22.10854418655033
 21
46.57703121831256
 31
0.0
 11
21.54967945375033
 21
46.99409027751256
 31
0.0
 11
21.00089644255033
 21
47.31616582631256
 31
0.0
 11
20.46925086281701
 21
47.55906628177923
 31
0.0
 11
19.960570536417
 21
47.73545265297924
 31
0.0
  0
SPLINE
  5
1B5
100
AcDbEntity
  8
0
100
AcDbSpline
210
0.0
220
0.0
230
-1.0
 70
     8
 71
     3
 72
     9
 73
     5
 74
     3
 42
0.0000001
 43
0.0000001
 44
0.0000000001
 40
0.0
 40
0.0
 40
0.0
 40
0.0
 40
0.0167816895542404
 40
0.0383547019931194
 40
0.0383547019931194
 40
0.0383547019931194
 40
0.0383547019931194
 10
18.283147154017
 20
47.98711769297923
 30
0.0
 10
18.2775533334491
 20
47.9870854921256
 30
0.0
 10
18.26476860636955
 20
47.98701189678579
 30
0.0
 10
18.251984711421
 20
47.98684746960566
 30
0.0
 10
18.24479427295033
 20
47.98675498577924
 30
0.0
 11
18.283147154017
 21
47.98711769297923
 31
0.0
 11
18.266365851617
 21
47.98700370151258
 31
0.0
 11
18.24479427295033
 21
47.98675498577924
 31
0.0
  0
SPLINE
  5
1B6
100
AcDbEntity
  8
0
100
AcDbSpline
210
0.0
220
0.0
230
-1.0
 70
     8
 71
     3
 72
     9
 73
     5
 74
     3
 42
0.0000001
 43
0.0000001
 44
0.0000000001
 40
0.0
 40
0.0
 40
0.0
 40
0.0
 40
0.3333271197733447
 40
0.6405000247088691
 40
0.6405000247088691
 40
0.6405000247088691
 40
0.6405000247088691
 10
19.821544984417
 20
47.77545968124591
 30
0.0
 10
19.71387639913788
 20
47.80308782237221
 30
0.0
 10
19.50698734799037
 20
47.85617628719946
 30
0.0
 10
19.2966428477579
 20
47.89323021706466
 30
0.0
 10
19.19576520735033
 20
47.9110006508459
 30
0.0
 11
19.821544984417
 21
47.77545968124591
 31
0.0
 11
19.49760337588366
 21
47.85400140924591
 31
0.0
 11
19.19576520735033
 21
47.9110006508459
 31
0.0
  0
SPLINE
  5
1B7
100
AcDbEntity
  8
0
100
AcDbSpline
210
0.0
220
0.0
230
-1.0
 70
     8
 71
     3
 72
     9
 73
     5
 74
     3
 42
0.0000001
 43
0.0000001
 44
0.0000000001
 40
0.0
 40
0.0
 40
0.0
 40
0.0
 40
0.0777098355650145
 40
0.152134623006954
 40
0.152134623006954
 40
0.152134623006954
 40
0.152134623006954
 10
19.96054556788367
 20
47.73539423057924
 30
0.0
 10
19.93571448103616
 20
47.74277156222345
 30
0.0
 10
19.88710199834423
 20
47.75721436164943
 30
0.0
 10
19.83824930389146
 20
47.77082232776201
 30
0.0
 10
19.814350395617
 20
47.77747939217923
 30
0.0
 11
19.96054556788367
 21
47.73539423057924
 31
0.0
 11
19.88598963295034
 21
47.75730840657923
 31
0.0
 11
19.814350395617
 21
47.77747939217923
 31
0.0
  0
SPLINE
  5
1B8
100
AcDbEntity
  8
0
100
AcDbSpline
210
0.0
220
0.0
230
1.0
 70
     8
 71
     3
 72
    15
 73
    11
 74
     9
 42
0.0000001
 43
0.0000001
 44
0.0000000001
 40
0.0
 40
0.0
 40
0.0
 40
0.0
 40
0.7498792823734334
 40
1.420562316497041
 40
2.023547204877893
 40
2.56771979200499
 40
3.060502107944026
 40
3.50788024474272
 40
3.915216722339149
 40
4.287045329496495
 40
4.287045329496495
 40
4.287045329496495
 40
4.287045329496495
 10
24.17166350708367
 20
42.92061039591257
 30
0.0
 10
24.12391254405558
 20
43.16630020455187
 30
0.0
 10
24.03345369254623
 20
43.63173203058616
 30
0.0
 10
23.80542445643495
 20
44.26894636712492
 30
0.0
 10
23.54493911685163
 20
44.81688231296425
 30
0.0
 10
23.26311990205018
 20
45.28621384787895
 30
0.0
 10
22.97334226910448
 20
45.68793377794928
 30
0.0
 10
22.6824960758081
 20
46.03065873977199
 30
0.0
 10
22.39758086165005
 20
46.32453308006766
 30
0.0
 10
22.20192009117382
 20
46.49546214543339
 30
0.0
 10
22.10854800201701
 20
46.5770319148459
 30
0.0
 11
24.17166350708367
 21
42.92061039591257
 31
0.0
 11
24.00901050548366
 21
43.65263699324589
 31
0.0
 11
23.78698672308367
 21
44.2855044140459
 31
0.0
 11
23.52746167775032
 21
44.82978148177923
 31
0.0
 11
23.247612885217
 21
45.2964810188459
 31
0.0
 11
22.959152926817
 21
45.69601232337923
 31
0.0
 11
22.67000148255032
 21
46.03738988497924
 31
0.0
 11
22.38532397535034
 21
46.32873456551258
 31
0.0
 11
22.10854800201701
 21
46.5770319148459
 31
0.0
  0
LINE
  5
1B9
100
AcDbEntity
  8
0
100
AcDbLine
 10
26.563824
 20
20.1255
 30
0.0
 11
26.563824
 21
52.506657
 31
0.0
  0
LINE
  5
1BA
100
AcDbEntity
  8
0
100
AcDbLine
 10
26.359629
 20
20.329696
 30
0.0
 11
26.359629
 21
52.302462
 31
0.0
  0
LWPOLYLINE
  5
1BB
100
AcDbEntity
  8
0
100
AcDbPolyline
 90
        4
 70
     0
 43
0.0
 10
26.359629
 20
20.329696
 10
26.324568
 20
20.207947
 10
26.234456
 20
20.117835
 10
26.112707
 20
20.082774
  0
SPLINE
  5
1BC
100
AcDbEntity
  8
0
100
AcDbSpline
210
0.0
220
0.0
230
1.0
 70
     8
 71
     3
 72
    11
 73
     7
 74
     5
 42
0.0000001
 43
0.0000001
 44
0.0000000001
 40
0.0
 40
0.0
 40
0.0
 40
0.0
 40
0.0953528068195243
 40
0.1913122755354721
 40
0.2872717442514289
 40
0.3826245510709516
 40
0.3826245510709516
 40
0.3826245510709516
 40
0.3826245510709516
 10
26.56382423775033
 20
20.12550021031257
 30
0.0
 10
26.55941929833232
 20
20.09359476967238
 30
0.0
 10
26.55058139400875
 20
20.02958089683076
 30
0.0
 10
26.49326773769467
 20
19.94913521916822
 30
0.0
 10
26.41282206003215
 20
19.89182156285414
 30
0.0
 10
26.34880818719052
 20
19.88298365853058
 30
0.0
 10
26.31690274655033
 20
19.87857871911257
 30
0.0
 11
26.56382423775033
 21
20.12550021031257
 31
0.0
 11
26.54332313695032
 21
20.0323773740459
 31
0.0
 11
26.48940425908367
 21
19.95299869777923
 31
0.0
 11
26.410025582817
 21
19.89907981991257
 31
0.0
 11
26.31690274655033
 21
19.87857871911257
 31
0.0
  0
LWPOLYLINE
  5
1BD
100
AcDbEntity
  8
0
100
AcDbPolyline
 90
        4
 70
     0
 43
0.0
 10
26.359629
 20
52.302462
 10
26.324568
 20
52.42421
 10
26.234456
 20
52.514322
 10
26.112707
 20
52.549383
  0
SPLINE
  5
1BE
100
AcDbEntity
  8
0
100
AcDbSpline
210
0.0
220
0.0
230
1.0
 70
     8
 71
     3
 72
    11
 73
     7
 74
     5
 42
0.0000001
 43
0.0000001
 44
0.0000000001
 40
0.0
 40
0.0
 40
0.0
 40
0.0
 40
0.0953528068195035
 40
0.1913122755354572
 40
0.2872717442514179
 40
0.3826245510709421
 40
0.3826245510709421
 40
0.3826245510709421
 40
0.3826245510709421
 10
26.56382423775033
 20
52.50665722791257
 30
0.0
 10
26.55941929833232
 20
52.53856266855276
 30
0.0
 10
26.55058139400873
 20
52.60257654139437
 30
0.0
 10
26.49326773769468
 20
52.68302221905692
 30
0.0
 10
26.41282206003214
 20
52.74033587537098
 30
0.0
 10
26.34880818719052
 20
52.74917377969456
 30
0.0
 10
26.31690274655033
 20
52.75357871911257
 30
0.0
 11
26.56382423775033
 21
52.50665722791257
 31
0.0
 11
26.54332313695032
 21
52.59978006417923
 31
0.0
 11
26.48940425908367
 21
52.67915874044589
 31
0.0
 11
26.410025582817
 21
52.73307761831257
 31
0.0
 11
26.31690274655033
 21
52.75357871911257
 31
0.0
  0
INSERT
  5
24D
100
AcDbEntity
 67
     1
  8
0
 60
     1
100
AcDbBlockReference
  2
ADCADD_ZZ
 10
0.0
 20
0.0
 30
0.0
1001
ADCADD_ZZ
1070
   205
1070
     7
1070
   209
1070
     1
1070
   231
1070
     0
1070
   235
1070
     1
1070
   236
1070
     2
1070
   237
1070
     4
1070
   238
1070
     4
1070
   239
1070
     2
1070
   240
1070
     0
1070
   241
1070
  4096
1070
   242
1070
     2
1070
   244
1070
     0
1070
   245
1070
     1
1070
   303
1040
0.083333
1070
   304
1040
4.0
1070
   305
1040
40.0
1070
   306
1040
0.125
1070
   337
1040
0.0
1070
   338
1040
0.3048
1070
   339
1040
0.0625
1070
   340
1040
40.0
1070
   341
1040
4.0
1070
   342
1040
40.0
1070
   530
1010
0.0
1020
0.0
1030
0.0
1070
   531
1010
0.0
1020
0.0
1030
0.0
1070
   107
1000

1070
   108
1000

1070
   135
1000
STANDARD
1070
   136
1000
'
1070
   137
1000
m
1001
SDSK_PMN
1070
   100
1000
ACADARCH
1070
   300
1040
2453682.484415
  0
ENDSEC
  0
SECTION
  2
OBJECTS
  0
DICTIONARY
  5
7
102
{ACAD_XDICTIONARY
360
278
102
}
100
AcDbDictionary
  3
ACAD_GROUP
350
26
  3
ACAD_LAYOUT
350
B
  3
ACAD_MLINESTYLE
350
27
  3
ACAD_PLOTSETTINGS
350
28
  3
ACAD_PLOTSTYLENAME
350
6
  3
ACDBHEADERROUNDTRIPXREC
350
256
  3
ACDBVARIABLEDICTIONARY
350
1BF
  3
ADE_QUERY_LIBRARY
350
250
  3
AEC_VARS
350
249
1001
ADE
1000
ADE02C003
1000
[Workspace]
1000
Drawings=1
1000
QueryLibrary=1
1000
Databases=1
1000
Tables=1
1000
Queries=1
1000
Topologies=1
1000
LPNs=1
1000
ShowWSpaceOnStartup=1
1000
WSpaceDockingView=1
1000
WSpaceWindowRect=0,0,0,0
1000
[Work Session]
1000
RestoreLastActiveDwgsOnStartup=1
1000
ActivateDwgsOnAttach=1
1000
DontAddObjectsToSaveSet=0
1000
MarkObjectsForEditingWithoutPrompting=0
1000
LogFileActive=1
1000
LogFileName=acadmap.log
1000
LogMessageLevel=1
1000
[Query]
1000
QueryFileDirectory=C:\Documents and Settings\HP_Administrateur\Mes documents\DESSIN\BAIN ULTRA\CORRECTION
1000
CaseSensitiveMatch=0
1000
SaveCurrQueryInSession=1
1000
MkSelSetWithQryObj=0
1000
ShowBlockAsInsPt=0
1000
CreateAssociativeHatchObjects=0
1000
ReferenceBoundaryForAreaLocation=1
1000
ShowImageAsBoundary=1
1000
DefaultJoinOperator=2
1000
ColorForAdd=red
1000
ColorForRemove=red
1000
BlockLocnForQuery=1
1000
TextLocnForQuery=1
1000
[Save Back]
1000
RedefineBlockDefinitions=1
1000
RedefineLayerDefinitions=1
1000
RedefineTextStyleDefinitions=1
1000
RemoveUnusedGroups=1
1000
EraseSavedBackObjects=1
1000
RemoveLockAfterSave=1
1000
CreateHistoryFileOfChanges=0
1000
CreateBackupFileOfSourceDwg=1
1000
[External Database]
1000
DisplayTabsInSingleView=0
1000
OpenDataViewReadOnly=0
1000
SaveDataViewFmtChanges=1
1000
KeepDataViewOnTop=0
1000
ReconnectDbOnWSOpen=1
1000
NoOfSQLConditionsInHistory=10
1000
ShowFullDBPath=1
1000
[Database Types]
1000
dbfDatabases=Prompt
1000
xlsDatabases=Prompt
1000
dbDatabases=Prompt
1000
[Coordinate Transformation]
1000
AdjustSizesAndScalesForChangesInUnits=1
1000
AdjustRotationsForMapDistortions=1
1000
AdjustSizesAndScalesForMapDistortions=1
1000
AdjustElevations=1
1000
AdjustZeroRotationObjects=1
  0
DICTIONARY
  5
11
100
AcDbDictionary
280
     1
  3
ACAD_LAYERFILTERS
360
12
  0
DICTIONARY
  5
27E
100
AcDbDictionary
280
     1
  3
ACAD_XREC_ROUNDTRIP
360
27F
  0
DICTIONARY
  5
233
100
AcDbDictionary
280
     1
  3
ACAD_LAYOUTSELFREF
360
277
  0
DICTIONARY
  5
20E
100
AcDbDictionary
280
     1
  3
ACAD_LAYOUTSELFREF
360
280
  3
ACAD_XREC_ROUNDTRIP
360
253
  0
DICTIONARY
  5
278
100
AcDbDictionary
280
     1
  3
ACAD_XREC_ROUNDTRIP
360
279
  0
DICTIONARY
  5
26
102
{ACAD_REACTORS
330
7
102
}
100
AcDbDictionary
  0
DICTIONARY
  5
B
102
{ACAD_XDICTIONARY
360
27A
102
}
102
{ACAD_REACTORS
330
7
102
}
100
AcDbDictionary
  3
LAYOUT1
350
1D3
  3
MODEL
350
A
  0
DICTIONARY
  5
27
102
{ACAD_REACTORS
330
7
102
}
100
AcDbDictionary
  3
STANDARD
350
2A
  0
DICTIONARY
  5
28
102
{ACAD_REACTORS
330
7
102
}
100
AcDbDictionary
  0
ACAD_PROXY_OBJECT
  5
6
102
{ACAD_REACTORS
330
7
102
}
100
AcDbProxyObject
 90
      499
 91
      517
 93
       86
310
405010041939BDC9B585B3
350
5
340
5
 94
        0
  0
DICTIONARY
  5
256
102
{ACAD_REACTORS
330
7
102
}
100
AcDbDictionary
  3
CEPSNTYPE
350
260
  3
DIMSTYLEDATA
350
264
  3
FINGERPRINTGUID
350
261
  3
HYPERLINKBASE
350
259
  3
INSUNITS
350
25F
  3
LAYOUTDICT
350
25B
  3
LWETCUNION
350
25E
  3
PLOTSETDICT
350
25C
  3
PLOTSTYLNAMDICT
350
25D
  3
PSVPSCALE
350
263
  3
PUCSBASE
350
267
  3
PUCSORGBACK
350
26D
  3
PUCSORGBOTTOM
350
269
  3
PUCSORGFRONT
350
26C
  3
PUCSORGLEFT
350
26A
  3
PUCSORGRIGHT
350
26B
  3
PUCSORGTOP
350
268
  3
PUCSORTHOREF
350
265
  3
PUCSORTHOVIEW
350
266
  3
STYLESHEET
350
25A
  3
TSTACKALIGN
350
257
  3
TSTACKSIZE
350
258
  3
UCSBASE
350
270
  3
UCSORGBACK
350
276
  3
UCSORGBOTTOM
350
272
  3
UCSORGFRONT
350
275
  3
UCSORGLEFT
350
273
  3
UCSORGRIGHT
350
274
  3
UCSORGTOP
350
271
  3
UCSORTHOREF
350
26E
  3
UCSORTHOVIEW
350
26F
  3
VERSIONGUID
350
262
  0
DICTIONARY
  5
1BF
102
{ACAD_REACTORS
330
7
102
}
100
AcDbDictionary
  3
DIMASSOC
350
1C1
  3
HIDETEXT
350
1C0
  0
DICTIONARY
  5
250
102
{ACAD_XDICTIONARY
360
284
102
}
102
{ACAD_REACTORS
330
7
102
}
100
AcDbDictionary
  3
_CURRQRY
350
251
  0
DICTIONARY
  5
249
102
{ACAD_REACTORS
330
7
102
}
100
AcDbDictionary
  3
AEC_VARS_DWG_SETUP
350
24E
  0
DICTIONARY
  5
12
102
{ACAD_XDICTIONARY
360
27C
102
}
102
{ACAD_REACTORS
330
11
102
}
100
AcDbDictionary
280
     1
  3
DIM-1_12
360
13
  3
DIM-1_16
360
14
  0
XRECORD
  5
27F
102
{ACAD_REACTORS
330
27E
102
}
100
AcDbXrecord
102
ACADR14ROUNDTRIP
1000
DSTYLE
1002
{
1070
    79
 70
     1
1070
   276
 70
     1
1070
   277
 70
     5
1070
   289
 70
     0
1002
}
  0
XRECORD
  5
277
102
{ACAD_REACTORS
330
233
102
}
100
AcDbXrecord
340
2
  0
XRECORD
  5
280
102
{ACAD_REACTORS
330
20E
102
}
100
AcDbXrecord
340
1D2
  0
XRECORD
  5
253
102
{ACAD_REACTORS
330
20E
102
}
100
AcDbXrecord
102
EXTNAMES
  1
*PAPER_SPACE
  2
*Paper_Space
  0
XRECORD
  5
279
102
{ACAD_REACTORS
330
278
102
}
100
AcDbXrecord
102
EXTNAMES
  1
ACDBVARIABLEDICTIONARY
  2
AcDbVariableDictionary
  0
DICTIONARY
  5
27A
100
AcDbDictionary
280
     1
  3
ACAD_XREC_ROUNDTRIP
360
27B
  0
ACAD_PROXY_OBJECT
  5
1D3
102
{ACAD_REACTORS
330
B
102
}
100
AcDbProxyObject
 90
      499
 91
      515
 93
      604
310
9104850204465736B4A65742031313230432C00AAAAAA416AA591069074C61796F75743140501A800000000000000000000000000000000000000000000A1000000000000008902A6A6AAAA1
330
1D2
330
0
340
0
340
0
 94
        0
  0
ACAD_PROXY_OBJECT
  5
A
102
{ACAD_REACTORS
330
B
102
}
100
AcDbProxyObject
 90
      499
 91
      515
 93
      468
310
9044E6F6E652C01AAAAAAAAA5A69054D6F64656C901A800000000000000000000000000000000000000000000A1000000000000008902A6A6AAAA8
330
2
330
0
340
0
340
0
 94
        0
  0
MLINESTYLE
  5
2A
102
{ACAD_REACTORS
330
27
102
}
100
AcDbMlineStyle
  2
STANDARD
 70
     0
  3

 62
     0
 51
90.0
 52
90.0
 71
     2
 49
0.5
 62
   256
  6
BYLAYER
 49
-0.5
 62
   256
  6
BYLAYER
  0
ACAD_PROXY_OBJECT
  5
5
102
{ACAD_REACTORS
330
6
102
}
100
AcDbProxyObject
 90
      499
 91
      518
 93
        0
 94
        0
  0
XRECORD
  5
260
102
{ACAD_REACTORS
330
256
102
}
100
AcDbXrecord
 90
        0
  0
XRECORD
  5
264
102
{ACAD_REACTORS
330
256
102
}
100
AcDbXrecord
1000
DSTYLE
1002
{
1070
    79
 70
     1
1070
   276
 70
     1
1070
   277
 70
     5
1070
   289
 70
     0
1002
}
  0
XRECORD
  5
261
102
{ACAD_REACTORS
330
256
102
}
100
AcDbXrecord
  1
{0ED6B1DE-3704-495B-8F00-8F897C248CCA}
  0
XRECORD
  5
259
102
{ACAD_REACTORS
330
256
102
}
100
AcDbXrecord
  1

  0
XRECORD
  5
25F
102
{ACAD_REACTORS
330
256
102
}
100
AcDbXrecord
 90
        0
  0
XRECORD
  5
25B
102
{ACAD_REACTORS
330
256
102
}
100
AcDbXrecord
340
B
  0
XRECORD
  5
25E
102
{ACAD_REACTORS
330
256
102
}
100
AcDbXrecord
 90
    10781
  0
XRECORD
  5
25C
102
{ACAD_REACTORS
330
256
102
}
100
AcDbXrecord
340
28
  0
XRECORD
  5
25D
102
{ACAD_REACTORS
330
256
102
}
100
AcDbXrecord
340
6
  0
XRECORD
  5
263
102
{ACAD_REACTORS
330
256
102
}
100
AcDbXrecord
 40
0.0
  0
XRECORD
  5
267
102
{ACAD_REACTORS
330
256
102
}
100
AcDbXrecord
340
0
  0
XRECORD
  5
26D
102
{ACAD_REACTORS
330
256
102
}
100
AcDbXrecord
 10
0.0
 20
0.0
 30
0.0
  0
XRECORD
  5
269
102
{ACAD_REACTORS
330
256
102
}
100
AcDbXrecord
 10
0.0
 20
0.0
 30
0.0
  0
XRECORD
  5
26C
102
{ACAD_REACTORS
330
256
102
}
100
AcDbXrecord
 10
0.0
 20
0.0
 30
0.0
  0
XRECORD
  5
26A
102
{ACAD_REACTORS
330
256
102
}
100
AcDbXrecord
 10
0.0
 20
0.0
 30
0.0
  0
XRECORD
  5
26B
102
{ACAD_REACTORS
330
256
102
}
100
AcDbXrecord
 10
0.0
 20
0.0
 30
0.0
  0
XRECORD
  5
268
102
{ACAD_REACTORS
330
256
102
}
100
AcDbXrecord
 10
0.0
 20
0.0
 30
0.0
  0
XRECORD
  5
265
102
{ACAD_REACTORS
330
256
102
}
100
AcDbXrecord
340
0
  0
XRECORD
  5
266
102
{ACAD_REACTORS
330
256
102
}
100
AcDbXrecord
 70
     0
  0
XRECORD
  5
25A
102
{ACAD_REACTORS
330
256
102
}
100
AcDbXrecord
  1

  0
XRECORD
  5
257
102
{ACAD_REACTORS
330
256
102
}
100
AcDbXrecord
 90
        1
  0
XRECORD
  5
258
102
{ACAD_REACTORS
330
256
102
}
100
AcDbXrecord
 90
       70
  0
XRECORD
  5
270
102
{ACAD_REACTORS
330
256
102
}
100
AcDbXrecord
340
0
  0
XRECORD
  5
276
102
{ACAD_REACTORS
330
256
102
}
100
AcDbXrecord
 10
0.0
 20
0.0
 30
0.0
  0
XRECORD
  5
272
102
{ACAD_REACTORS
330
256
102
}
100
AcDbXrecord
 10
0.0
 20
0.0
 30
0.0
  0
XRECORD
  5
275
102
{ACAD_REACTORS
330
256
102
}
100
AcDbXrecord
 10
0.0
 20
0.0
 30
0.0
  0
XRECORD
  5
273
102
{ACAD_REACTORS
330
256
102
}
100
AcDbXrecord
 10
0.0
 20
0.0
 30
0.0
  0
XRECORD
  5
274
102
{ACAD_REACTORS
330
256
102
}
100
AcDbXrecord
 10
0.0
 20
0.0
 30
0.0
  0
XRECORD
  5
271
102
{ACAD_REACTORS
330
256
102
}
100
AcDbXrecord
 10
0.0
 20
0.0
 30
0.0
  0
XRECORD
  5
26E
102
{ACAD_REACTORS
330
256
102
}
100
AcDbXrecord
340
0
  0
XRECORD
  5
26F
102
{ACAD_REACTORS
330
256
102
}
100
AcDbXrecord
 70
     0
  0
XRECORD
  5
262
102
{ACAD_REACTORS
330
256
102
}
100
AcDbXrecord
  1
{51DAC450-823C-4E48-90C1-FED617A1C395}
  0
DICTIONARYVAR
  5
1C1
102
{ACAD_REACTORS
330
1BF
102
}
100
DictionaryVariables
280
     0
  1
1
  0
DICTIONARYVAR
  5
1C0
102
{ACAD_REACTORS
330
1BF
102
}
100
DictionaryVariables
280
     0
  1
1
  0
DICTIONARY
  5
284
100
AcDbDictionary
280
     1
  3
ACAD_XREC_ROUNDTRIP
360
285
  0
XRECORD
  5
251
102
{ACAD_REACTORS
330
250
102
}
100
AcDbXrecord
1000
ADE02C001
1070
     1
1070
     0
1002
{
1002
}
1002
{
1002
}
1002
{
1002
}
1000

  0
ACAD_PROXY_OBJECT
  5
24E
102
{ACAD_REACTORS
330
249
102
}
100
AcDbProxyObject
 90
      499
 91
      528
 93
     1091
310
4068820B2B1A4B6B82234B1BA2932B1B7B932203202405014048F20481203208812095550000000000000888000000000000008200000000000001807E9C204839029B897233A173048120E4086EA5C8CE85D0002000012048429AA20A72220A9222024E80B68000000000001607E00000000000022201FB0FE9B7AF03A67F
310
2108286828882A48691F
330
24D
 94
        0
1001
AEC_ROUNDTRIP_15
1070
     1
1040
0.5
1070
     2
1000

1070
     3
1000

  0
DICTIONARY
  5
27C
100
AcDbDictionary
280
     1
  3
ACAD_XREC_ROUNDTRIP
360
27D
  0
XRECORD
  5
13
102
{ACAD_REACTORS
330
12
102
}
100
AcDbXrecord
  1
DIM-1_12
  1
DIM-1_12
  1
*
  1
*
 70
     0
  1
*
  1
*
  0
XRECORD
  5
14
102
{ACAD_REACTORS
330
12
102
}
100
AcDbXrecord
  1
dim-1_16
  1
*
  1
*
  1
*
 70
     0
  1
*
  1
*
  0
XRECORD
  5
27B
102
{ACAD_REACTORS
330
27A
102
}
100
AcDbXrecord
102
EXTNAMES
  1
LAYOUT1
  2
Layout1
  1
MODEL
  2
Model
  0
XRECORD
  5
285
102
{ACAD_REACTORS
330
284
102
}
100
AcDbXrecord
102
EXTNAMES
  1
_CURRQRY
  2
_CurrQry
  0
XRECORD
  5
27D
102
{ACAD_REACTORS
330
27C
102
}
100
AcDbXrecord
102
EXTNAMES
  1
DIM-1_16
  2
dim-1_16
  0
ENDSEC
  0
EOF
