  0
SECTION
  2
HEADER
  9
$ACADVER
  1
AC1014
  9
$ACADMAINTVER
 70
     0
  9
$DWGCODEPAGE
  3
ANSI_1252
  9
$INSBASE
 10
-102.969558
 20
-80.352951
 30
0.0
  9
$EXTMIN
 10
-113.573114
 20
-83.731754
 30
-2.334533
  9
$EXTMAX
 10
-54.491003
 20
-58.601177
 30
2.334533
  9
$LIMMIN
 10
0.0
 20
0.0
  9
$LIMMAX
 10
100.502416
 20
51.698548
  9
$ORTHOMODE
 70
     1
  9
$REGENMODE
 70
     1
  9
$FILLMODE
 70
     1
  9
$QTEXTMODE
 70
     0
  9
$MIRRTEXT
 70
     0
  9
$DRAGMODE
 70
     2
  9
$LTSCALE
 40
1.0
  9
$OSMODE
 70
    37
  9
$ATTMODE
 70
     1
  9
$TEXTSIZE
 40
0.15
  9
$TRACEWID
 40
1.0
  9
$TEXTSTYLE
  7
CARTOUCHE
  9
$CLAYER
  8
0
  9
$CELTYPE
  6
BYLAYER
  9
$CECOLOR
 62
   256
  9
$CELTSCALE
 40
1.0
  9
$DELOBJ
 70
     1
  9
$DISPSILH
 70
     0
  9
$DIMSCALE
 40
16.0
  9
$DIMASZ
 40
0.1
  9
$DIMEXO
 40
0.0625
  9
$DIMDLI
 40
0.25
  9
$DIMRND
 40
0.0
  9
$DIMDLE
 40
0.0
  9
$DIMEXE
 40
0.1
  9
$DIMTP
 40
0.0
  9
$DIMTM
 40
0.0
  9
$DIMTXT
 40
0.1
  9
$DIMCEN
 40
0.0625
  9
$DIMTSZ
 40
0.0
  9
$DIMTOL
 70
     0
  9
$DIMLIM
 70
     0
  9
$DIMTIH
 70
     1
  9
$DIMTOH
 70
     1
  9
$DIMSE1
 70
     0
  9
$DIMSE2
 70
     0
  9
$DIMTAD
 70
     0
  9
$DIMZIN
 70
    12
  9
$DIMBLK
  1

  9
$DIMASO
 70
     1
  9
$DIMSHO
 70
     1
  9
$DIMPOST
  1
\X
  9
$DIMAPOST
  1
cm
  9
$DIMALT
 70
     1
  9
$DIMALTD
 70
     1
  9
$DIMALTF
 40
2.54
  9
$DIMLFAC
 40
1.0
  9
$DIMTOFL
 70
     0
  9
$DIMTVP
 40
0.0
  9
$DIMTIX
 70
     0
  9
$DIMSOXD
 70
     0
  9
$DIMSAH
 70
     0
  9
$DIMBLK1
  1

  9
$DIMBLK2
  1

  9
$DIMSTYLE
  2
STANDARD
  9
$DIMCLRD
 70
     0
  9
$DIMCLRE
 70
     0
  9
$DIMCLRT
 70
     0
  9
$DIMTFAC
 40
1.0
  9
$DIMGAP
 40
0.08
  9
$DIMJUST
 70
     0
  9
$DIMSD1
 70
     0
  9
$DIMSD2
 70
     0
  9
$DIMTOLJ
 70
     1
  9
$DIMTZIN
 70
     4
  9
$DIMALTZ
 70
    12
  9
$DIMALTTZ
 70
     4
  9
$DIMFIT
 70
     3
  9
$DIMUPT
 70
     0
  9
$DIMUNIT
 70
     2
  9
$DIMDEC
 70
     4
  9
$DIMTDEC
 70
     3
  9
$DIMALTU
 70
     2
  9
$DIMALTTD
 70
     1
  9
$DIMTXSTY
  7
ROMANS
  9
$DIMAUNIT
 70
     0
  9
$LUNITS
 70
     2
  9
$LUPREC
 70
     2
  9
$SKETCHINC
 40
1.0
  9
$FILLETRAD
 40
0.0
  9
$AUNITS
 70
     0
  9
$AUPREC
 70
     0
  9
$MENU
  1
.
  9
$ELEVATION
 40
0.0
  9
$PELEVATION
 40
0.0
  9
$THICKNESS
 40
0.0
  9
$LIMCHECK
 70
     0
  9
$BLIPMODE
 70
     0
  9
$CHAMFERA
 40
0.0
  9
$CHAMFERB
 40
0.0
  9
$CHAMFERC
 40
20.0
  9
$CHAMFERD
 40
0.0
  9
$SKPOLY
 70
     0
  9
$TDCREATE
 40
2452062.343093519
  9
$TDUPDATE
 40
2453690.386222326
  9
$TDINDWG
 40
1.9328735185
  9
$TDUSRTIMER
 40
1.9328735185
  9
$USRTIMER
 70
     1
  9
$ANGBASE
 50
0.0
  9
$ANGDIR
 70
     0
  9
$PDMODE
 70
    34
  9
$PDSIZE
 40
-5.0
  9
$PLINEWID
 40
0.0
  9
$COORDS
 70
     1
  9
$SPLFRAME
 70
     0
  9
$SPLINETYPE
 70
     6
  9
$SPLINESEGS
 70
     8
  9
$ATTDIA
 70
     0
  9
$ATTREQ
 70
     1
  9
$HANDLING
 70
     1
  9
$HANDSEED
  5
82
  9
$SURFTAB1
 70
     6
  9
$SURFTAB2
 70
     6
  9
$SURFTYPE
 70
     6
  9
$SURFU
 70
     6
  9
$SURFV
 70
     6
  9
$UCSNAME
  2

  9
$UCSORG
 10
0.0
 20
0.0
 30
0.0
  9
$UCSXDIR
 10
1.0
 20
0.0
 30
0.0
  9
$UCSYDIR
 10
0.0
 20
1.0
 30
0.0
  9
$PUCSNAME
  2

  9
$PUCSORG
 10
0.0
 20
0.0
 30
0.0
  9
$PUCSXDIR
 10
1.0
 20
0.0
 30
0.0
  9
$PUCSYDIR
 10
0.0
 20
1.0
 30
0.0
  9
$USERI1
 70
     0
  9
$USERI2
 70
     0
  9
$USERI3
 70
     0
  9
$USERI4
 70
     0
  9
$USERI5
 70
     0
  9
$USERR1
 40
0.0
  9
$USERR2
 40
0.0
  9
$USERR3
 40
0.0
  9
$USERR4
 40
0.0
  9
$USERR5
 40
0.0
  9
$WORLDVIEW
 70
     1
  9
$SHADEDGE
 70
     3
  9
$SHADEDIF
 70
    70
  9
$TILEMODE
 70
     1
  9
$MAXACTVP
 70
    48
  9
$PINSBASE
 10
0.0
 20
0.0
 30
0.0
  9
$PLIMCHECK
 70
     0
  9
$PEXTMIN
 10
0.0
 20
0.0
 30
0.0
  9
$PEXTMAX
 10
0.0
 20
0.0
 30
0.0
  9
$PLIMMIN
 10
0.0
 20
0.0
  9
$PLIMMAX
 10
12.0
 20
9.0
  9
$UNITMODE
 70
     0
  9
$VISRETAIN
 70
     1
  9
$PLINEGEN
 70
     0
  9
$PSLTSCALE
 70
     1
  9
$TREEDEPTH
 70
  3020
  9
$PICKSTYLE
 70
     1
  9
$CMLSTYLE
  2
STANDARD
  9
$CMLJUST
 70
     0
  9
$CMLSCALE
 40
20.0
  9
$PROXYGRAPHICS
 70
     1
  9
$MEASUREMENT
 70
     0
  0
ENDSEC
  0
SECTION
  2
CLASSES
  0
CLASS
  1
ACDBDICTIONARYWDFLT
  2
AcDbDictionaryWithDefault
  3
AutoCAD 2000
 90
        0
280
     1
281
     0
  0
CLASS
  1
ACDBPLACEHOLDER
  2
AcDbPlaceHolder
  3
AutoCAD 2000
 90
        0
280
     1
281
     0
  0
CLASS
  1
LAYOUT
  2
AcDbLayout
  3
AutoCAD 2000
 90
        0
280
     1
281
     0
  0
CLASS
  1
DICTIONARYVAR
  2
AcDbDictionaryVar
  3
"AutoCAD"
 90
        0
280
     0
281
     0
  0
CLASS
  1
IMAGEDEF
  2
AcDbRasterImageDef
  3
ISM
 90
        0
280
     1
281
     0
  0
CLASS
  1
LONG_TRANSACTION
  2
AcDbLongTransaction
  3
AutoCAD 2000
 90
        0
280
     1
281
     0
  0
CLASS
  1
LWPOLYLINE
  2
AcDbPolyline
  3
"AutoCAD"
 90
        0
280
     0
281
     1
  0
CLASS
  1
HATCH
  2
AcDbHatch
  3
"ACAD_SEDONA"
 90
        0
280
     0
281
     1
  0
CLASS
  1
XRECORD
  2
AcDbXrecord
  3
"<Built In>"
 90
        0
280
     0
281
     0
  0
CLASS
  1
LONG_TRANSACTION
  2
AcDbLongTransaction
  3
AutoCAD 2000
 90
        0
280
     1
281
     0
  0
CLASS
  1
LWPOLYLINE
  2
AcDbPolyline
  3
"AutoCAD"
 90
        0
280
     0
281
     1
  0
CLASS
  1
HATCH
  2
AcDbHatch
  3
"ACAD_SEDONA"
 90
        0
280
     0
281
     1
  0
CLASS
  1
XRECORD
  2
AcDbXrecord
  3
"<Built In>"
 90
        0
280
     0
281
     0
  0
ENDSEC
  0
SECTION
  2
TABLES
  0
TABLE
  2
VPORT
  5
26
100
AcDbSymbolTable
 70
     2
  0
VPORT
  5
81
100
AcDbSymbolTableRecord
100
AcDbViewportTableRecord
  2
*ACTIVE
 70
     0
 10
0.0
 20
0.0
 11
1.0
 21
1.0
 12
-85.590605
 22
-70.558859
 13
0.0
 23
0.0
 14
10.0
 24
10.0
 15
10.0
 25
10.0
 16
0.0
 26
0.0
 36
1.0
 17
0.0
 27
0.0
 37
0.0
 40
43.764989
 41
1.487748
 42
50.0
 43
0.0
 44
0.0
 50
0.0
 51
0.0
 71
     0
 72
   100
 73
     1
 74
     3
 75
     0
 76
     0
 77
     0
 78
     2
  0
ENDTAB
  0
TABLE
  2
LTYPE
  5
1D
100
AcDbSymbolTable
 70
     3
  0
LTYPE
  5
1E
102
{ACAD_XDICTIONARY
360
1F
102
}
100
AcDbSymbolTableRecord
100
AcDbLinetypeTableRecord
  2
BYBLOCK
 70
     0
  3

 72
    65
 73
     0
 40
0.0
  0
LTYPE
  5
21
102
{ACAD_XDICTIONARY
360
22
102
}
100
AcDbSymbolTableRecord
100
AcDbLinetypeTableRecord
  2
BYLAYER
 70
     0
  3

 72
    65
 73
     0
 40
0.0
  0
LTYPE
  5
8
102
{ACAD_XDICTIONARY
360
9
102
}
100
AcDbSymbolTableRecord
100
AcDbLinetypeTableRecord
  2
CONTINUOUS
 70
     0
  3
Solid line
 72
    65
 73
     0
 40
0.0
  0
LTYPE
  5
46
100
AcDbSymbolTableRecord
100
AcDbLinetypeTableRecord
  2
CENTER
 70
     0
  3
Center ____ _ ____ _ ____ _ ____ _ ____ _ ____
 72
    65
 73
     4
 40
50.8
 49
31.75
 74
     0
 49
-6.35
 74
     0
 49
6.35
 74
     0
 49
-6.35
 74
     0
  0
LTYPE
  5
3E
100
AcDbSymbolTableRecord
100
AcDbLinetypeTableRecord
  2
HIDDEN
 70
     0
  3
Hidden __ __ __ __ __ __ __ __ __ __ __ __ __ _
 72
    65
 73
     2
 40
9.525
 49
6.35
 74
     0
 49
-3.175
 74
     0
  0
ENDTAB
  0
TABLE
  2
LAYER
  5
12
102
{ACAD_XDICTIONARY
360
13
102
}
100
AcDbSymbolTable
 70
     2
  0
LAYER
  5
7
100
AcDbSymbolTableRecord
100
AcDbLayerTableRecord
  2
0
 70
     0
 62
     7
  6
CONTINUOUS
  0
LAYER
  5
43
102
{ACAD_XDICTIONARY
360
44
102
}
100
AcDbSymbolTableRecord
100
AcDbLayerTableRecord
  2
CENTER
 70
     0
 62
     1
  6
CENTER
  0
ENDTAB
  0
TABLE
  2
STYLE
  5
19
100
AcDbSymbolTable
 70
     3
  0
STYLE
  5
1A
102
{ACAD_XDICTIONARY
360
1B
102
}
100
AcDbSymbolTableRecord
100
AcDbTextStyleTableRecord
  2
STANDARD
 70
     0
 40
0.0
 41
1.0
 50
0.0
 71
     0
 42
0.125
  3
txt
  4

  0
STYLE
  5
36
100
AcDbSymbolTableRecord
100
AcDbTextStyleTableRecord
  2
CARTOUCHE
 70
     0
 40
0.0
 41
1.0
 50
0.0
 71
     0
 42
0.15
  3
romans.shx
  4

  0
STYLE
  5
33
102
{ACAD_XDICTIONARY
360
34
102
}
100
AcDbSymbolTableRecord
100
AcDbTextStyleTableRecord
  2
ROMANS
 70
     0
 40
0.0
 41
1.0
 50
0.0
 71
     0
 42
1.0
  3
romans.shx
  4

  0
ENDTAB
  0
TABLE
  2
VIEW
  5
24
100
AcDbSymbolTable
 70
     0
  0
ENDTAB
  0
TABLE
  2
UCS
  5
25
100
AcDbSymbolTable
 70
     0
  0
ENDTAB
  0
TABLE
  2
APPID
  5
28
100
AcDbSymbolTable
 70
     1
  0
APPID
  5
29
100
AcDbSymbolTableRecord
100
AcDbRegAppTableRecord
  2
ACAD
 70
     0
  0
ENDTAB
  0
TABLE
  2
DIMSTYLE
  5
2A
100
AcDbSymbolTable
 70
     1
  0
DIMSTYLE
105
38
102
{ACAD_XDICTIONARY
360
39
102
}
100
AcDbSymbolTableRecord
100
AcDbDimStyleTableRecord
  2
STANDARD
 70
     0
  3
\X
  4
cm
  5

  6

  7

 40
16.0
 41
0.1
 42
0.0625
 43
0.25
 44
0.1
 45
0.0
 46
0.0
 47
0.0
 48
0.0
140
0.1
141
0.0625
142
0.0
143
2.54
144
1.0
145
0.0
146
1.0
147
0.08
 71
     0
 72
     0
 73
     1
 74
     1
 75
     0
 76
     0
 77
     0
 78
    12
170
     1
171
     1
172
     0
173
     0
174
     0
175
     0
176
     0
177
     0
178
     0
270
     2
271
     4
272
     3
273
     2
274
     1
340
33
275
     0
280
     0
281
     0
282
     0
283
     1
284
     4
285
    12
286
     4
287
     3
288
     0
  0
ENDTAB
  0
TABLE
  2
BLOCK_RECORD
  5
1
100
AcDbSymbolTable
 70
     0
  0
BLOCK_RECORD
  5
2
102
{ACAD_XDICTIONARY
360
3
102
}
100
AcDbSymbolTableRecord
100
AcDbBlockTableRecord
  2
*MODEL_SPACE
  0
BLOCK_RECORD
  5
C
102
{ACAD_XDICTIONARY
360
D
102
}
100
AcDbSymbolTableRecord
100
AcDbBlockTableRecord
  2
*PAPER_SPACE
  0
ENDTAB
  0
ENDSEC
  0
SECTION
  2
BLOCKS
  0
BLOCK
  5
6
100
AcDbEntity
  8
0
100
AcDbBlockBegin
  2
*MODEL_SPACE
 70
     0
 10
0.0
 20
0.0
 30
0.0
  3
*MODEL_SPACE
  1

  0
ENDBLK
  5
B
100
AcDbEntity
  8
0
100
AcDbBlockEnd
  0
BLOCK
  5
10
100
AcDbEntity
 67
     1
  8
0
100
AcDbBlockBegin
  2
*PAPER_SPACE
 70
     0
 10
0.0
 20
0.0
 30
0.0
  3
*PAPER_SPACE
  1

  0
ENDBLK
  5
11
100
AcDbEntity
 67
     1
  8
0
100
AcDbBlockEnd
  0
ENDSEC
  0
SECTION
  2
ENTITIES
  0
LINE
  5
3B
100
AcDbEntity
  8
0
100
AcDbLine
 10
-113.469558
 20
-61.602959
 30
0.0
 11
-54.594558
 21
-61.602953
 31
0.0
  0
LINE
  5
3C
100
AcDbEntity
  8
0
100
AcDbLine
 10
-55.094556
 20
-60.102952
 30
0.0
 11
-65.773062
 21
-60.102952
 31
0.0
  0
ARC
  5
3D
100
AcDbEntity
  8
0
  6
HIDDEN
 62
     8
 48
0.5
100
AcDbCircle
 10
-59.488718
 20
-60.602952
 30
0.0
 40
0.5
100
AcDbArc
 50
90.0
 51
150.0
  0
LINE
  5
3F
100
AcDbEntity
  8
0
100
AcDbLine
 10
-104.86716
 20
-60.102951
 30
0.575368
 11
-106.701435
 21
-60.102951
 31
-0.575368
210
0.0000000000000002
220
1.0
230
-0.0000000000000002
  0
LINE
  5
40
100
AcDbEntity
  8
0
100
AcDbLine
 10
-107.24887
 20
-60.102951
 30
2.334533
 11
-104.319725
 21
-60.102951
 31
-2.334533
210
0.0000000000000002
220
1.0
230
-0.0000000000000002
  0
LINE
  5
41
100
AcDbEntity
  8
0
100
AcDbLine
 10
-112.969561
 20
-60.102951
 30
0.0
 11
-65.773062
 21
-60.102952
 31
0.0
  0
LINE
  5
42
100
AcDbEntity
  8
CENTER
 48
0.125
100
AcDbLine
 10
-111.444795
 20
-63.597912
 30
0.0
 11
-104.363988
 21
-63.597912
 31
0.0
  0
ARC
  5
47
100
AcDbEntity
  8
0
100
AcDbCircle
 10
-112.96956
 20
-60.602951
 30
0.0
 40
0.5
100
AcDbArc
 50
90.000103
 51
180.000103
  0
LINE
  5
48
100
AcDbEntity
  8
0
100
AcDbLine
 10
-113.469558
 20
-61.602961
 30
0.0
 11
-113.469558
 21
-60.601609
 31
0.0
  0
SPLINE
  5
49
100
AcDbEntity
  8
0
  6
HIDDEN
 62
     8
 48
0.25
100
AcDbSpline
210
0.0
220
0.0
230
1.0
 70
     8
 71
     3
 72
     8
 73
     4
 74
     0
 42
0.0000001
 43
0.0000001
 40
10.55647319071953
 40
10.55647319071953
 40
10.55647319071953
 40
10.55647319071953
 40
13.93502836579671
 40
13.93502836579671
 40
13.93502836579671
 40
13.93502836579671
 10
-77.51950860821479
 20
-68.06970770097835
 30
0.0
 10
-77.25075580580484
 20
-73.72433465879526
 30
0.0
 10
-79.02354755086453
 20
-76.33624476379829
 30
0.0
 10
-79.04567282096547
 20
-76.49327305887426
 30
0.0
  0
ARC
  5
4A
100
AcDbEntity
  8
0
100
AcDbCircle
 10
-94.586355
 20
-59.929848
 30
0.0
 40
23.094
100
AcDbArc
 50
306.891176
 51
342.098421
  0
LINE
  5
4B
100
AcDbEntity
  8
0
100
AcDbLine
 10
-108.153267
 20
-61.602958
 30
0.0
 11
-107.319778
 21
-76.998096
 31
0.0
  0
LINE
  5
4C
100
AcDbEntity
  8
0
100
AcDbLine
 10
-104.779687
 20
-79.364717
 30
0.0
 11
-82.209246
 21
-78.922208
 31
0.0
  0
LINE
  5
4D
100
AcDbEntity
  8
0
100
AcDbLine
 10
-84.641626
 20
-80.352951
 30
0.0
 11
-86.797714
 21
-80.352951
 31
0.0
  0
LINE
  5
4E
100
AcDbEntity
  8
0
100
AcDbLine
 10
-87.043916
 20
-80.146363
 30
0.0
 11
-87.235984
 21
-79.05709
 31
0.0
  0
LINE
  5
4F
100
AcDbEntity
  8
0
100
AcDbLine
 10
-92.395424
 20
-80.146363
 30
0.0
 11
-92.218939
 21
-79.145469
 31
0.0
  0
LINE
  5
50
100
AcDbEntity
  8
0
100
AcDbLine
 10
-95.043916
 20
-80.146363
 30
0.0
 11
-95.211191
 21
-79.197699
 31
0.0
  0
LINE
  5
51
100
AcDbEntity
  8
0
100
AcDbLine
 10
-100.395424
 20
-80.146363
 30
0.0
 11
-100.243637
 21
-79.28554
 31
0.0
  0
LINE
  5
52
100
AcDbEntity
  8
0
100
AcDbLine
 10
-103.043916
 20
-80.146363
 30
0.0
 11
-103.186644
 21
-79.336911
 31
0.0
  0
LINE
  5
53
100
AcDbEntity
  8
CENTER
 48
0.125
100
AcDbLine
 10
-102.969558
 20
-83.731754
 30
0.0
 11
-102.969558
 21
-75.454954
 31
0.0
  0
ARC
  5
54
100
AcDbEntity
  8
0
100
AcDbCircle
 10
-100.641626
 20
-80.102951
 30
0.0
 40
0.25
100
AcDbArc
 50
270.0
 51
350.0
  0
LINE
  5
55
100
AcDbEntity
  8
0
100
AcDbLine
 10
-100.641626
 20
-80.352951
 30
0.0
 11
-102.797714
 21
-80.352951
 31
0.0
  0
ARC
  5
56
100
AcDbEntity
  8
0
100
AcDbCircle
 10
-102.797714
 20
-80.102951
 30
0.0
 40
0.25
100
AcDbArc
 50
190.0
 51
270.0
  0
LINE
  5
57
100
AcDbEntity
  8
0
100
AcDbLine
 10
-92.641626
 20
-80.352951
 30
0.0
 11
-94.797714
 21
-80.352951
 31
0.0
  0
ARC
  5
58
100
AcDbEntity
  8
0
100
AcDbCircle
 10
-94.797714
 20
-80.102951
 30
0.0
 40
0.25
100
AcDbArc
 50
190.0
 51
270.0
  0
ARC
  5
59
100
AcDbEntity
  8
0
100
AcDbCircle
 10
-92.641626
 20
-80.102951
 30
0.0
 40
0.25
100
AcDbArc
 50
270.0
 51
350.0
  0
ARC
  5
5A
100
AcDbEntity
  8
0
100
AcDbCircle
 10
-86.797714
 20
-80.102951
 30
0.0
 40
0.25
100
AcDbArc
 50
190.0
 51
270.0
  0
LINE
  5
5B
100
AcDbEntity
  8
0
100
AcDbLine
 10
-103.094871
 20
-79.857384
 30
0.0
 11
-104.20997
 21
-79.857384
 31
0.0
  0
ARC
  5
5C
100
AcDbEntity
  8
0
100
AcDbCircle
 10
-104.823318
 20
-76.865098
 30
0.0
 40
2.5
100
AcDbArc
 50
183.04953
 51
271.0
  0
ARC
  5
5D
100
AcDbEntity
  8
0
100
AcDbCircle
 10
-104.20997
 20
-79.607384
 30
0.0
 40
0.25
100
AcDbArc
 50
225.0
 51
270.0
  0
LINE
  5
5E
100
AcDbEntity
  8
0
100
AcDbLine
 10
-104.386747
 20
-79.784161
 30
0.0
 11
-104.817804
 21
-79.353104
 31
0.0
  0
LWPOLYLINE
  5
5F
100
AcDbEntity
  8
0
  6
HIDDEN
 62
     8
 48
0.125
100
AcDbPolyline
 90
        4
 70
     0
 43
0.0
 10
-103.094871
 20
-79.857384
 10
-101.698112
 20
-79.857384
 42
0.198912
 10
-101.521335
 20
-79.784161
 10
-101.040998
 20
-79.303824
  0
LINE
  5
60
100
AcDbEntity
  8
0
100
AcDbLine
 10
-84.395424
 20
-80.146363
 30
0.0
 11
-84.186073
 21
-78.959077
 31
0.0
  0
ARC
  5
61
100
AcDbEntity
  8
0
100
AcDbCircle
 10
-84.641626
 20
-80.102951
 30
0.0
 40
0.25
100
AcDbArc
 50
270.0
 51
350.0
  0
ARC
  5
62
100
AcDbEntity
  8
0
100
AcDbCircle
 10
-82.252877
 20
-76.422589
 30
0.0
 40
2.5
100
AcDbArc
 50
271.0
 51
307.727967
  0
SPLINE
  5
63
100
AcDbEntity
  8
0
100
AcDbSpline
210
0.0
220
0.0
230
-1.0
 70
     8
 71
     3
 72
    11
 73
     7
 74
     5
 42
0.0000001
 43
0.0000001
 44
0.0000000001
 40
0.0
 40
0.0
 40
0.0
 40
0.0
 40
1.572294925909619
 40
5.320013670619806
 40
7.121564980129098
 40
8.877367654632847
 40
8.877367654632847
 40
8.877367654632847
 40
8.877367654632847
 10
-81.24570261183386
 20
-60.10295171340306
 30
0.0
 10
-81.77031018182665
 20
-60.06985051374236
 30
0.0
 10
-83.54537120764382
 20
-59.9578493670065
 30
0.0
 10
-85.79797926754052
 20
-59.13528199126566
 30
0.0
 10
-88.1884585159273
 20
-58.6274972169761
 30
0.0
 10
-89.37696465156586
 20
-58.60987479350072
 30
0.0
 10
-89.96357544739792
 20
-58.60117689657835
 30
0.0
 11
-81.24570261183386
 21
-60.10295171340306
 31
0.0
 11
-82.81146346295512
 21
-59.95975851825335
 31
0.0
 11
-86.44122551491454
 21
-59.02690095377341
 31
0.0
 11
-88.20969047815649
 21
-58.68321680432768
 31
0.0
 11
-89.96357544739792
 21
-58.60117689657835
 31
0.0
  0
ARC
  5
64
100
AcDbEntity
  8
0
100
AcDbCircle
 10
-93.189936
 20
-60.602951
 30
0.0
 40
0.5
100
AcDbArc
 50
359.999897
 51
89.999897
  0
ARC
  5
65
100
AcDbEntity
  8
0
100
AcDbCircle
 10
-92.189936
 20
-60.602951
 30
0.0
 40
0.5
100
AcDbArc
 50
90.000103
 51
180.000103
  0
LINE
  5
66
100
AcDbEntity
  8
0
  6
HIDDEN
 62
     8
 48
0.5
100
AcDbLine
 10
-108.23318
 20
-60.102951
 30
0.0
 11
-108.153267
 21
-61.602958
 31
0.0
  0
LINE
  5
67
100
AcDbEntity
  8
0
100
AcDbLine
 10
-92.689936
 20
-61.602957
 30
0.0
 11
-92.689936
 21
-60.602951
 31
0.0
  0
SPLINE
  5
68
100
AcDbEntity
  8
0
100
AcDbSpline
210
0.0
220
0.0
230
-1.0
 70
     8
 71
     3
 72
    11
 73
     7
 74
     5
 42
0.0000001
 43
0.0000001
 44
0.0000000001
 40
0.0
 40
0.0
 40
0.0
 40
0.0
 40
1.572294925909633
 40
8.050497520094879
 40
9.85204882960417
 40
11.60785150410791
 40
11.60785150410791
 40
11.60785150410791
 40
11.60785150410791
 10
-101.4623715430453
 20
-60.1029514162843
 30
0.0
 10
-100.9403711798673
 20
-60.05640725951943
 30
0.0
 10
-98.26761395092617
 20
-59.81809088996576
 30
0.0
 10
-95.00445114621037
 20
-59.41220337111637
 30
0.0
 10
-91.74081439930734
 20
-58.61735696918383
 30
0.0
 10
-90.55088749286394
 20
-58.60652381491338
 30
0.0
 10
-89.96357544739796
 20
-58.60117689657835
 30
0.0
 11
-101.4623715430453
 21
-60.1029514162843
 31
0.0
 11
-99.89661069192404
 21
-59.95975822113459
 31
0.0
 11
-93.48592537988135
 21
-59.02690095377341
 31
0.0
 11
-91.71746041663938
 21
-58.68321680432768
 31
0.0
 11
-89.96357544739796
 21
-58.60117689657835
 31
0.0
  0
SPLINE
  5
69
100
AcDbEntity
  8
0
100
AcDbSpline
210
0.0
220
0.0
230
1.0
 70
     8
 71
     3
 72
     8
 73
     4
 74
     0
 42
0.0000001
 43
0.0000001
 40
1.688689946226659
 40
1.688689946226659
 40
1.688689946226659
 40
1.688689946226659
 40
2.98820231814839
 40
2.98820231814839
 40
2.98820231814839
 40
2.98820231814839
 10
-72.29840534490826
 20
-64.43064736552559
 30
0.0
 10
-72.36559030617626
 20
-65.38278321272336
 30
0.0
 10
-72.44948380169855
 20
-66.23656919649296
 30
0.0
 10
-72.61042939837828
 20
-67.02854777278982
 30
0.0
  0
LINE
  5
6A
100
AcDbEntity
  8
0
  6
HIDDEN
 62
     8
 48
0.25
100
AcDbLine
 10
-72.247672
 20
-63.727813
 30
0.0
 11
-76.113718
 21
-63.727813
 31
0.0
  0
LINE
  5
6B
100
AcDbEntity
  8
0
  6
HIDDEN
 62
     8
 48
0.25
100
AcDbLine
 10
-72.324718
 20
-64.785951
 30
0.0
 11
-76.113718
 21
-64.785951
 31
0.0
  0
ARC
  5
6C
100
AcDbEntity
  8
0
  6
HIDDEN
 62
     8
 48
0.25
100
AcDbCircle
 10
-73.339584
 20
-66.852952
 30
0.0
 40
0.75
100
AcDbArc
 50
270.0
 51
346.459785
  0
ARC
  5
6D
100
AcDbEntity
  8
0
  6
HIDDEN
 62
     8
 48
0.25
100
AcDbCircle
 10
-77.020615
 20
-68.102952
 30
0.0
 40
0.5
100
AcDbArc
 50
90.0
 51
176.18768
  0
LINE
  5
6E
100
AcDbEntity
  8
0
  6
HIDDEN
 62
     8
 48
0.25
100
AcDbLine
 10
-73.339584
 20
-67.602952
 30
0.0
 11
-77.020615
 21
-67.602952
 31
0.0
  0
ARC
  5
6F
100
AcDbEntity
  8
0
  6
HIDDEN
 62
     8
 48
0.25
100
AcDbCircle
 10
-76.113718
 20
-63.852813
 30
0.0
 40
0.125
100
AcDbArc
 50
90.0
 51
180.0
  0
ARC
  5
70
100
AcDbEntity
  8
0
  6
HIDDEN
 62
     8
 48
0.25
100
AcDbCircle
 10
-76.113718
 20
-64.660951
 30
0.0
 40
0.125
100
AcDbArc
 50
180.0
 51
270.0
  0
LINE
  5
71
100
AcDbEntity
  8
0
  6
HIDDEN
 62
     8
 48
0.25
100
AcDbLine
 10
-76.238718
 20
-63.852813
 30
0.0
 11
-76.238718
 21
-64.660951
 31
0.0
  0
LINE
  5
72
100
AcDbEntity
  8
0
  6
HIDDEN
 62
     8
 48
0.25
100
AcDbLine
 10
-67.939678
 20
-60.852952
 30
0.0
 11
-64.799166
 21
-60.852952
 31
0.0
  0
LINE
  5
73
100
AcDbEntity
  8
0
100
AcDbLine
 10
-72.144532
 20
-62.298959
 30
0.0
 11
-72.298405
 21
-64.430647
 31
0.0
  0
ARC
  5
74
100
AcDbEntity
  8
0
  6
HIDDEN
 62
     8
 48
0.25
100
AcDbCircle
 10
-69.23872
 20
-60.852952
 30
0.0
 40
0.750002
100
AcDbArc
 50
270.000006
 51
330.000005
  0
ARC
  5
75
100
AcDbEntity
  8
0
100
AcDbCircle
 10
-71.396476
 20
-62.352957
 30
0.0
 40
0.750002
100
AcDbArc
 50
90.000006
 51
175.871334
  0
ARC
  5
76
100
AcDbEntity
  8
0
  6
HIDDEN
 62
     8
 48
0.25
100
AcDbCircle
 10
-67.939678
 20
-61.602954
 30
0.0
 40
0.750002
100
AcDbArc
 50
90.0
 51
150.000005
  0
LINE
  5
77
100
AcDbEntity
  8
0
  6
HIDDEN
 62
     8
 48
0.25
100
AcDbLine
 10
-64.137728
 20
-60.602952
 30
0.0
 11
-60.354743
 21
-60.602952
 31
0.0
  0
ARC
  5
78
100
AcDbEntity
  8
0
  6
HIDDEN
 62
     8
 48
0.25
100
AcDbCircle
 10
-64.799166
 20
-60.352952
 30
0.0
 40
0.5
100
AcDbArc
 50
270.0
 51
311.409622
  0
ARC
  5
79
100
AcDbEntity
  8
0
  6
HIDDEN
 62
     8
 48
0.25
100
AcDbCircle
 10
-64.137728
 20
-61.102952
 30
0.0
 40
0.5
100
AcDbArc
 50
90.0
 51
131.409622
  0
ARC
  5
7A
100
AcDbEntity
  8
0
  6
HIDDEN
 62
     8
 48
0.25
100
AcDbCircle
 10
-60.354743
 20
-60.102952
 30
0.0
 40
0.5
100
AcDbArc
 50
270.0
 51
330.0
  0
ARC
  5
7B
100
AcDbEntity
  8
0
100
AcDbCircle
 10
-55.094557
 20
-60.602952
 30
0.0
 40
0.5
100
AcDbArc
 50
359.999897
 51
89.999897
  0
LINE
  5
7C
100
AcDbEntity
  8
0
100
AcDbLine
 10
-54.594558
 20
-61.602953
 30
0.0
 11
-54.594557
 21
-60.602953
 31
0.0
  0
ENDSEC
  0
SECTION
  2
OBJECTS
  0
DICTIONARY
  5
30
102
{ACAD_XDICTIONARY
360
31
102
}
100
AcDbDictionary
  3
ACAD_GROUP
350
2C
  3
ACAD_MLINESTYLE
350
2D
  0
DICTIONARY
  5
1F
100
AcDbDictionary
280
     1
  3
ACAD_XREC_ROUNDTRIP
360
20
  0
DICTIONARY
  5
22
100
AcDbDictionary
280
     1
  3
ACAD_XREC_ROUNDTRIP
360
23
  0
DICTIONARY
  5
9
100
AcDbDictionary
280
     1
  3
ACAD_XREC_ROUNDTRIP
360
A
  0
DICTIONARY
  5
13
100
AcDbDictionary
280
     1
  3
ACAD_LAYERFILTERS
360
14
  0
DICTIONARY
  5
44
100
AcDbDictionary
280
     1
  3
ACAD_XREC_ROUNDTRIP
360
45
  0
DICTIONARY
  5
1B
100
AcDbDictionary
280
     1
  3
ACAD_XREC_ROUNDTRIP
360
1C
  0
DICTIONARY
  5
34
100
AcDbDictionary
280
     1
  3
ACAD_XREC_ROUNDTRIP
360
35
  0
DICTIONARY
  5
39
100
AcDbDictionary
280
     1
  3
ACAD_XREC_ROUNDTRIP
360
3A
  0
DICTIONARY
  5
3
100
AcDbDictionary
280
     1
  3
ACAD_LAYOUTSELFREF
360
4
  3
ACAD_XREC_ROUNDTRIP
360
5
  0
DICTIONARY
  5
D
100
AcDbDictionary
280
     1
  3
ACAD_LAYOUTSELFREF
360
E
  3
ACAD_XREC_ROUNDTRIP
360
F
  0
DICTIONARY
  5
31
100
AcDbDictionary
280
     1
  3
ACAD_XREC_ROUNDTRIP
360
32
  0
DICTIONARY
  5
2C
102
{ACAD_REACTORS
330
30
102
}
100
AcDbDictionary
  0
DICTIONARY
  5
2D
102
{ACAD_XDICTIONARY
360
2E
102
}
102
{ACAD_REACTORS
330
30
102
}
100
AcDbDictionary
  3
STANDARD
350
37
  0
XRECORD
  5
20
102
{ACAD_REACTORS
330
1F
102
}
100
AcDbXrecord
102
EXTNAMES
  1
BYBLOCK
  2
ByBlock
  0
XRECORD
  5
23
102
{ACAD_REACTORS
330
22
102
}
100
AcDbXrecord
102
EXTNAMES
  1
BYLAYER
  2
ByLayer
  0
XRECORD
  5
A
102
{ACAD_REACTORS
330
9
102
}
100
AcDbXrecord
102
EXTNAMES
  1
CONTINUOUS
  2
Continuous
  0
DICTIONARY
  5
14
102
{ACAD_XDICTIONARY
360
15
102
}
102
{ACAD_REACTORS
330
13
102
}
100
AcDbDictionary
280
     1
  3
DIM-1_12
360
17
  3
DIM-1_16
360
18
  0
XRECORD
  5
45
102
{ACAD_REACTORS
330
44
102
}
100
AcDbXrecord
102
LINEWEIGHT
280
     3
  0
XRECORD
  5
1C
102
{ACAD_REACTORS
330
1B
102
}
100
AcDbXrecord
102
EXTNAMES
  1
STANDARD
  2
Standard
  0
XRECORD
  5
35
102
{ACAD_REACTORS
330
34
102
}
100
AcDbXrecord
102
EXTNAMES
  1
ROMANS
  2
romans
  0
XRECORD
  5
3A
102
{ACAD_REACTORS
330
39
102
}
100
AcDbXrecord
102
ACADR14ROUNDTRIP
1000
DSTYLE
1002
{
1070
    79
 70
     1
1070
   276
 70
     1
1070
   277
 70
     5
1002
}
  0
XRECORD
  5
4
102
{ACAD_REACTORS
330
3
102
}
100
AcDbXrecord
340
2
  0
XRECORD
  5
5
102
{ACAD_REACTORS
330
3
102
}
100
AcDbXrecord
102
EXTNAMES
  1
*MODEL_SPACE
  2
*Model_Space
  0
XRECORD
  5
E
102
{ACAD_REACTORS
330
D
102
}
100
AcDbXrecord
340
C
  0
XRECORD
  5
F
102
{ACAD_REACTORS
330
D
102
}
100
AcDbXrecord
102
EXTNAMES
  1
*PAPER_SPACE
  2
*Paper_Space
  0
XRECORD
  5
32
102
{ACAD_REACTORS
330
31
102
}
100
AcDbXrecord
102
EXTNAMES
  1
ACDBVARIABLEDICTIONARY
  2
AcDbVariableDictionary
  0
DICTIONARY
  5
2E
100
AcDbDictionary
280
     1
  3
ACAD_XREC_ROUNDTRIP
360
2F
  0
MLINESTYLE
  5
37
102
{ACAD_REACTORS
330
2D
102
}
100
AcDbMlineStyle
  2
STANDARD
 70
     0
  3

 62
   256
 51
90.0
 52
90.0
 71
     2
 49
0.5
 62
   256
  6
BYLAYER
 49
-0.5
 62
   256
  6
BYLAYER
  0
DICTIONARY
  5
15
100
AcDbDictionary
280
     1
  3
ACAD_XREC_ROUNDTRIP
360
16
  0
XRECORD
  5
17
102
{ACAD_REACTORS
330
14
102
}
100
AcDbXrecord
  1
DIM-1_12
  1
DIM-1_12
  1
*
  1
*
 70
     0
  1
*
  1
*
  0
XRECORD
  5
18
102
{ACAD_REACTORS
330
14
102
}
100
AcDbXrecord
  1
dim-1_16
  1
*
  1
*
  1
*
 70
     0
  1
*
  1
*
  0
XRECORD
  5
2F
102
{ACAD_REACTORS
330
2E
102
}
100
AcDbXrecord
102
EXTNAMES
  1
STANDARD
  2
Standard
  0
XRECORD
  5
16
102
{ACAD_REACTORS
330
15
102
}
100
AcDbXrecord
102
EXTNAMES
  1
DIM-1_16
  2
dim-1_16
  0
ENDSEC
  0
EOF
