  0
SECTION
  2
HEADER
  9
$ACADVER
  1
AC1014
  9
$ACADMAINTVER
 70
     0
  9
$DWGCODEPAGE
  3
ANSI_1252
  9
$INSBASE
 10
20.391167
 20
-137.643822
 30
0.0
  9
$EXTMIN
 10
-6.840613
 20
-150.699094
 30
0.0
  9
$EXTMAX
 10
69.369959
 20
-91.413426
 30
0.0
  9
$LIMMIN
 10
0.0
 20
0.0
  9
$LIMMAX
 10
100.502416
 20
51.698548
  9
$ORTHOMODE
 70
     1
  9
$REGENMODE
 70
     1
  9
$FILLMODE
 70
     1
  9
$QTEXTMODE
 70
     0
  9
$MIRRTEXT
 70
     1
  9
$DRAGMODE
 70
     2
  9
$LTSCALE
 40
2.0
  9
$OSMODE
 70
    53
  9
$ATTMODE
 70
     1
  9
$TEXTSIZE
 40
0.1
  9
$TRACEWID
 40
1.0
  9
$TEXTSTYLE
  7
CARTOUCHE
  9
$CLAYER
  8
0
  9
$CELTYPE
  6
BYLAYER
  9
$CECOLOR
 62
   256
  9
$CELTSCALE
 40
1.0
  9
$DELOBJ
 70
     1
  9
$DISPSILH
 70
     0
  9
$DIMSCALE
 40
16.0
  9
$DIMASZ
 40
0.1
  9
$DIMEXO
 40
0.0625
  9
$DIMDLI
 40
0.25
  9
$DIMRND
 40
0.0
  9
$DIMDLE
 40
0.0
  9
$DIMEXE
 40
0.1
  9
$DIMTP
 40
0.0
  9
$DIMTM
 40
0.0
  9
$DIMTXT
 40
0.1
  9
$DIMCEN
 40
0.09
  9
$DIMTSZ
 40
0.0
  9
$DIMTOL
 70
     0
  9
$DIMLIM
 70
     0
  9
$DIMTIH
 70
     1
  9
$DIMTOH
 70
     1
  9
$DIMSE1
 70
     0
  9
$DIMSE2
 70
     0
  9
$DIMTAD
 70
     0
  9
$DIMZIN
 70
     4
  9
$DIMBLK
  1

  9
$DIMASO
 70
     1
  9
$DIMSHO
 70
     1
  9
$DIMPOST
  1
\X
  9
$DIMAPOST
  1
cm
  9
$DIMALT
 70
     1
  9
$DIMALTD
 70
     1
  9
$DIMALTF
 40
2.54
  9
$DIMLFAC
 40
1.0
  9
$DIMTOFL
 70
     0
  9
$DIMTVP
 40
0.0
  9
$DIMTIX
 70
     0
  9
$DIMSOXD
 70
     0
  9
$DIMSAH
 70
     0
  9
$DIMBLK1
  1

  9
$DIMBLK2
  1

  9
$DIMSTYLE
  2
STANDARD
  9
$DIMCLRD
 70
     0
  9
$DIMCLRE
 70
     0
  9
$DIMCLRT
 70
     0
  9
$DIMTFAC
 40
1.0
  9
$DIMGAP
 40
0.08
  9
$DIMJUST
 70
     0
  9
$DIMSD1
 70
     0
  9
$DIMSD2
 70
     0
  9
$DIMTOLJ
 70
     1
  9
$DIMTZIN
 70
     4
  9
$DIMALTZ
 70
     4
  9
$DIMALTTZ
 70
     4
  9
$DIMFIT
 70
     1
  9
$DIMUPT
 70
     0
  9
$DIMUNIT
 70
     2
  9
$DIMDEC
 70
     3
  9
$DIMTDEC
 70
     3
  9
$DIMALTU
 70
     2
  9
$DIMALTTD
 70
     1
  9
$DIMTXSTY
  7
ROMANS
  9
$DIMAUNIT
 70
     0
  9
$LUNITS
 70
     2
  9
$LUPREC
 70
     2
  9
$SKETCHINC
 40
1.0
  9
$FILLETRAD
 40
2.0
  9
$AUNITS
 70
     0
  9
$AUPREC
 70
     0
  9
$MENU
  1
.
  9
$ELEVATION
 40
0.0
  9
$PELEVATION
 40
0.0
  9
$THICKNESS
 40
0.0
  9
$LIMCHECK
 70
     0
  9
$BLIPMODE
 70
     0
  9
$CHAMFERA
 40
0.0
  9
$CHAMFERB
 40
0.0
  9
$CHAMFERC
 40
20.0
  9
$CHAMFERD
 40
0.0
  9
$SKPOLY
 70
     0
  9
$TDCREATE
 40
2452062.343093519
  9
$TDUPDATE
 40
2453689.497220231
  9
$TDINDWG
 40
4.4018195833
  9
$TDUSRTIMER
 40
4.4018195833
  9
$USRTIMER
 70
     1
  9
$ANGBASE
 50
0.0
  9
$ANGDIR
 70
     0
  9
$PDMODE
 70
    34
  9
$PDSIZE
 40
-5.0
  9
$PLINEWID
 40
0.0
  9
$COORDS
 70
     1
  9
$SPLFRAME
 70
     0
  9
$SPLINETYPE
 70
     6
  9
$SPLINESEGS
 70
     8
  9
$ATTDIA
 70
     0
  9
$ATTREQ
 70
     1
  9
$HANDLING
 70
     1
  9
$HANDSEED
  5
115
  9
$SURFTAB1
 70
     6
  9
$SURFTAB2
 70
     6
  9
$SURFTYPE
 70
     6
  9
$SURFU
 70
     6
  9
$SURFV
 70
     6
  9
$UCSNAME
  2

  9
$UCSORG
 10
0.0
 20
0.0
 30
0.0
  9
$UCSXDIR
 10
1.0
 20
0.0
 30
0.0
  9
$UCSYDIR
 10
0.0
 20
1.0
 30
0.0
  9
$PUCSNAME
  2

  9
$PUCSORG
 10
0.0
 20
0.0
 30
0.0
  9
$PUCSXDIR
 10
1.0
 20
0.0
 30
0.0
  9
$PUCSYDIR
 10
0.0
 20
1.0
 30
0.0
  9
$USERI1
 70
     0
  9
$USERI2
 70
     0
  9
$USERI3
 70
     0
  9
$USERI4
 70
     0
  9
$USERI5
 70
     0
  9
$USERR1
 40
0.0
  9
$USERR2
 40
0.0
  9
$USERR3
 40
0.0
  9
$USERR4
 40
0.0
  9
$USERR5
 40
0.0
  9
$WORLDVIEW
 70
     1
  9
$SHADEDGE
 70
     3
  9
$SHADEDIF
 70
    70
  9
$TILEMODE
 70
     1
  9
$MAXACTVP
 70
    48
  9
$PINSBASE
 10
0.0
 20
0.0
 30
0.0
  9
$PLIMCHECK
 70
     0
  9
$PEXTMIN
 10
0.0
 20
0.0
 30
0.0
  9
$PEXTMAX
 10
0.0
 20
0.0
 30
0.0
  9
$PLIMMIN
 10
0.0
 20
0.0
  9
$PLIMMAX
 10
12.0
 20
9.0
  9
$UNITMODE
 70
     0
  9
$VISRETAIN
 70
     1
  9
$PLINEGEN
 70
     0
  9
$PSLTSCALE
 70
     1
  9
$TREEDEPTH
 70
  3020
  9
$PICKSTYLE
 70
     1
  9
$CMLSTYLE
  2
STANDARD
  9
$CMLJUST
 70
     0
  9
$CMLSCALE
 40
20.0
  9
$PROXYGRAPHICS
 70
     1
  9
$MEASUREMENT
 70
     0
  0
ENDSEC
  0
SECTION
  2
CLASSES
  0
CLASS
  1
ACDBDICTIONARYWDFLT
  2
AcDbDictionaryWithDefault
  3
AutoCAD 2000
 90
        0
280
     1
281
     0
  0
CLASS
  1
ACDBPLACEHOLDER
  2
AcDbPlaceHolder
  3
AutoCAD 2000
 90
        0
280
     1
281
     0
  0
CLASS
  1
LAYOUT
  2
AcDbLayout
  3
AutoCAD 2000
 90
        0
280
     1
281
     0
  0
CLASS
  1
DICTIONARYVAR
  2
AcDbDictionaryVar
  3
"AutoCAD"
 90
        0
280
     0
281
     0
  0
CLASS
  1
IMAGEDEF
  2
AcDbRasterImageDef
  3
ISM
 90
        0
280
     1
281
     0
  0
CLASS
  1
LONG_TRANSACTION
  2
AcDbLongTransaction
  3
AutoCAD 2000
 90
        0
280
     1
281
     0
  0
CLASS
  1
LWPOLYLINE
  2
AcDbPolyline
  3
"AutoCAD"
 90
        0
280
     0
281
     1
  0
CLASS
  1
HATCH
  2
AcDbHatch
  3
"ACAD_SEDONA"
 90
        0
280
     0
281
     1
  0
CLASS
  1
XRECORD
  2
AcDbXrecord
  3
"<Built In>"
 90
        0
280
     0
281
     0
  0
ENDSEC
  0
SECTION
  2
TABLES
  0
TABLE
  2
VPORT
  5
26
100
AcDbSymbolTable
 70
     2
  0
VPORT
  5
114
100
AcDbSymbolTableRecord
100
AcDbViewportTableRecord
  2
*ACTIVE
 70
     0
 10
0.0
 20
0.0
 11
1.0
 21
1.0
 12
31.055687
 22
-120.568627
 13
0.0
 23
0.0
 14
10.0
 24
10.0
 15
10.0
 25
10.0
 16
0.0
 26
0.0
 36
1.0
 17
0.0
 27
0.0
 37
0.0
 40
59.700253
 41
1.487748
 42
50.0
 43
0.0
 44
0.0
 50
0.0
 51
0.0
 71
     0
 72
   100
 73
     1
 74
     3
 75
     0
 76
     0
 77
     0
 78
     2
  0
ENDTAB
  0
TABLE
  2
LTYPE
  5
1D
100
AcDbSymbolTable
 70
     2
  0
LTYPE
  5
1E
102
{ACAD_XDICTIONARY
360
1F
102
}
100
AcDbSymbolTableRecord
100
AcDbLinetypeTableRecord
  2
BYBLOCK
 70
     0
  3

 72
    65
 73
     0
 40
0.0
  0
LTYPE
  5
21
102
{ACAD_XDICTIONARY
360
22
102
}
100
AcDbSymbolTableRecord
100
AcDbLinetypeTableRecord
  2
BYLAYER
 70
     0
  3

 72
    65
 73
     0
 40
0.0
  0
LTYPE
  5
8
102
{ACAD_XDICTIONARY
360
9
102
}
100
AcDbSymbolTableRecord
100
AcDbLinetypeTableRecord
  2
CONTINUOUS
 70
     0
  3
Solid line
 72
    65
 73
     0
 40
0.0
  0
LTYPE
  5
75
100
AcDbSymbolTableRecord
100
AcDbLinetypeTableRecord
  2
CENTER
 70
     0
  3
Center ____ _ ____ _ ____ _ ____ _ ____ _ ____
 72
    65
 73
     4
 40
50.8
 49
31.75
 74
     0
 49
-6.35
 74
     0
 49
6.35
 74
     0
 49
-6.35
 74
     0
  0
ENDTAB
  0
TABLE
  2
LAYER
  5
12
102
{ACAD_XDICTIONARY
360
13
102
}
100
AcDbSymbolTable
 70
     2
  0
LAYER
  5
7
100
AcDbSymbolTableRecord
100
AcDbLayerTableRecord
  2
0
 70
     0
 62
     7
  6
CONTINUOUS
  0
LAYER
  5
72
102
{ACAD_XDICTIONARY
360
73
102
}
100
AcDbSymbolTableRecord
100
AcDbLayerTableRecord
  2
CENTER
 70
     0
 62
     1
  6
CENTER
  0
ENDTAB
  0
TABLE
  2
STYLE
  5
19
100
AcDbSymbolTable
 70
     3
  0
STYLE
  5
1A
102
{ACAD_XDICTIONARY
360
1B
102
}
100
AcDbSymbolTableRecord
100
AcDbTextStyleTableRecord
  2
STANDARD
 70
     0
 40
0.0
 41
1.0
 50
0.0
 71
     0
 42
0.125
  3
txt
  4

  0
STYLE
  5
36
100
AcDbSymbolTableRecord
100
AcDbTextStyleTableRecord
  2
CARTOUCHE
 70
     0
 40
0.0
 41
1.0
 50
0.0
 71
     0
 42
0.1
  3
romans.shx
  4

  0
STYLE
  5
33
102
{ACAD_XDICTIONARY
360
34
102
}
100
AcDbSymbolTableRecord
100
AcDbTextStyleTableRecord
  2
ROMANS
 70
     0
 40
0.0
 41
1.0
 50
0.0
 71
     0
 42
1.0
  3
romans.shx
  4

  0
ENDTAB
  0
TABLE
  2
VIEW
  5
24
100
AcDbSymbolTable
 70
     0
  0
ENDTAB
  0
TABLE
  2
UCS
  5
25
100
AcDbSymbolTable
 70
     0
  0
ENDTAB
  0
TABLE
  2
APPID
  5
28
100
AcDbSymbolTable
 70
     1
  0
APPID
  5
29
100
AcDbSymbolTableRecord
100
AcDbRegAppTableRecord
  2
ACAD
 70
     0
  0
ENDTAB
  0
TABLE
  2
DIMSTYLE
  5
2A
100
AcDbSymbolTable
 70
     1
  0
DIMSTYLE
105
38
102
{ACAD_XDICTIONARY
360
39
102
}
100
AcDbSymbolTableRecord
100
AcDbDimStyleTableRecord
  2
STANDARD
 70
     0
  3
\X
  4
cm
  5

  6

  7

 40
16.0
 41
0.1
 42
0.0625
 43
0.25
 44
0.1
 45
0.0
 46
0.0
 47
0.0
 48
0.0
140
0.1
141
0.09
142
0.0
143
2.54
144
1.0
145
0.0
146
1.0
147
0.08
 71
     0
 72
     0
 73
     1
 74
     1
 75
     0
 76
     0
 77
     0
 78
     4
170
     1
171
     1
172
     0
173
     0
174
     0
175
     0
176
     0
177
     0
178
     0
270
     5
271
     3
272
     3
273
     2
274
     1
340
33
275
     0
280
     0
281
     0
282
     0
283
     1
284
     4
285
     4
286
     4
287
     1
288
     0
  0
ENDTAB
  0
TABLE
  2
BLOCK_RECORD
  5
1
100
AcDbSymbolTable
 70
     0
  0
BLOCK_RECORD
  5
2
102
{ACAD_XDICTIONARY
360
3
102
}
100
AcDbSymbolTableRecord
100
AcDbBlockTableRecord
  2
*MODEL_SPACE
  0
BLOCK_RECORD
  5
C
102
{ACAD_XDICTIONARY
360
D
102
}
100
AcDbSymbolTableRecord
100
AcDbBlockTableRecord
  2
*PAPER_SPACE
  0
ENDTAB
  0
ENDSEC
  0
SECTION
  2
BLOCKS
  0
BLOCK
  5
6
100
AcDbEntity
  8
0
100
AcDbBlockBegin
  2
*MODEL_SPACE
 70
     0
 10
0.0
 20
0.0
 30
0.0
  3
*MODEL_SPACE
  1

  0
ENDBLK
  5
B
100
AcDbEntity
  8
0
100
AcDbBlockEnd
  0
BLOCK
  5
10
100
AcDbEntity
 67
     1
  8
0
100
AcDbBlockBegin
  2
*PAPER_SPACE
 70
     0
 10
0.0
 20
0.0
 30
0.0
  3
*PAPER_SPACE
  1

  0
ENDBLK
  5
11
100
AcDbEntity
 67
     1
  8
0
100
AcDbBlockEnd
  0
ENDSEC
  0
SECTION
  2
ENTITIES
  0
LWPOLYLINE
  5
3B
100
AcDbEntity
  8
0
100
AcDbPolyline
 90
        4
 70
     0
 43
0.0
 10
61.089864
 20
-143.661472
 42
0.156762
 10
65.140053
 20
-136.172295
 42
-0.152801
 10
68.209263
 20
-130.307589
 10
69.181535
 20
-129.335317
  0
LWPOLYLINE
  5
3C
100
AcDbEntity
  8
0
100
AcDbPolyline
 90
        5
 70
     0
 43
0.0
 10
61.266641
 20
-143.838249
 42
0.156694
 10
65.386064
 20
-136.216778
 42
-0.152801
 10
68.38604
 20
-130.484366
 10
69.358312
 20
-129.512094
 10
31.262934
 20
-91.416716
  0
ARC
  5
3D
100
AcDbEntity
  8
0
100
AcDbCircle
 10
13.401769
 20
-132.708083
 30
0.0
 40
12.914345
100
AcDbArc
 50
237.612335
 51
253.991851
  0
LINE
  5
3E
100
AcDbEntity
  8
0
100
AcDbLine
 10
1.998217
 20
-126.896787
 30
0.0
 11
9.840327
 21
-145.121642
 31
0.0
  0
LINE
  5
3F
100
AcDbEntity
  8
0
100
AcDbLine
 10
2.112585
 20
-126.686351
 30
0.0
 11
10.071149
 21
-145.185554
 31
0.0
  0
LINE
  5
40
100
AcDbEntity
  8
0
100
AcDbLine
 10
4.876356
 20
-124.53912
 30
0.0
 11
11.187245
 21
-118.232547
 31
0.0
  0
LINE
  5
41
100
AcDbEntity
  8
0
100
AcDbLine
 10
4.808046
 20
-126.638199
 30
0.0
 11
11.978212
 21
-143.28005
 31
0.0
  0
ARC
  5
42
100
AcDbEntity
  8
0
100
AcDbCircle
 10
13.142198
 20
-132.956345
 30
0.0
 40
13.654336
100
AcDbArc
 50
147.293277
 51
258.194137
  0
ARC
  5
43
100
AcDbEntity
  8
0
100
AcDbCircle
 10
13.138
 20
-132.956931
 30
0.0
 40
13.275238
100
AcDbArc
 50
148.158887
 51
257.347713
  0
LINE
  5
44
100
AcDbEntity
  8
0
100
AcDbLine
 10
5.406505
 20
-125.069631
 30
0.0
 11
20.15852
 21
-110.327706
 31
0.0
  0
ARC
  5
45
100
AcDbEntity
  8
0
100
AcDbCircle
 10
14.514877
 20
-130.759377
 30
0.0
 40
18.62132
100
AcDbArc
 50
224.999996
 51
270.0
  0
ARC
  5
46
100
AcDbEntity
  8
0
100
AcDbCircle
 10
14.514877
 20
-130.759377
 30
0.0
 40
18.24632
100
AcDbArc
 50
224.999996
 51
270.0
  0
LWPOLYLINE
  5
47
100
AcDbEntity
  8
0
100
AcDbPolyline
 90
        2
 70
     0
 43
0.0
 10
31.262934
 20
-91.416716
 10
-6.832444
 20
-129.512094
  0
LWPOLYLINE
  5
48
100
AcDbEntity
  8
0
100
AcDbPolyline
 90
        4
 70
     0
 43
0.0
 10
-6.567279
 20
-129.246929
 10
-5.506619
 20
-130.307589
 42
-0.152801
 10
-2.437409
 20
-136.172295
 42
0.156762
 10
1.61278
 20
-143.661472
  0
LWPOLYLINE
  5
49
100
AcDbEntity
  8
0
100
AcDbPolyline
 90
        4
 70
     0
 43
0.0
 10
-6.832444
 20
-129.512094
 10
-5.771784
 20
-130.572754
 42
-0.152801
 10
-2.806425
 20
-136.239019
 42
0.156661
 10
1.347615
 20
-143.926637
  0
ARC
  5
4A
100
AcDbEntity
  8
0
100
AcDbCircle
 10
13.020073
 20
-132.915355
 30
0.0
 40
12.531104
100
AcDbArc
 50
169.766193
 51
237.040115
  0
LINE
  5
4B
100
AcDbEntity
  8
0
100
AcDbLine
 10
0.751756
 20
-130.35857
 30
0.0
 11
6.484264
 21
-143.613515
 31
0.0
  0
LINE
  5
4C
100
AcDbEntity
  8
0
100
AcDbLine
 10
0.688327
 20
-130.689011
 30
0.0
 11
6.202504
 21
-143.429598
 31
0.0
  0
ARC
  5
4D
100
AcDbEntity
  8
0
100
AcDbCircle
 10
13.358734
 20
-132.777304
 30
0.0
 40
11.25
100
AcDbArc
 50
220.154364
 51
223.141195
  0
ARC
  5
4E
100
AcDbEntity
  8
0
100
AcDbCircle
 10
13.358734
 20
-132.777304
 30
0.0
 40
11.25
100
AcDbArc
 50
247.223492
 51
248.576363
  0
LWPOLYLINE
  5
4F
100
AcDbEntity
  8
0
100
AcDbPolyline
 90
        2
 70
     0
 43
0.0
 10
1.652793
 20
-125.578374
 10
3.950576
 20
-125.578374
  0
LWPOLYLINE
  5
50
100
AcDbEntity
  8
0
100
AcDbPolyline
 90
        2
 70
     0
 43
0.0
 10
1.860495
 20
-125.953374
 10
4.611048
 20
-125.953374
  0
LWPOLYLINE
  5
51
100
AcDbEntity
  8
0
100
AcDbPolyline
 90
        2
 70
     0
 43
0.0
 10
2.112585
 20
-126.686351
 10
4.808046
 20
-126.638199
  0
ARC
  5
52
100
AcDbEntity
  8
0
100
AcDbCircle
 10
13.358734
 20
-133.027304
 30
0.0
 40
11.25
100
AcDbArc
 50
182.858805
 51
185.845636
  0
ARC
  5
53
100
AcDbEntity
  8
0
100
AcDbCircle
 10
13.401769
 20
-132.958083
 30
0.0
 40
12.914345
100
AcDbArc
 50
152.008149
 51
168.387665
  0
ARC
  5
54
100
AcDbEntity
  8
0
100
AcDbCircle
 10
13.358734
 20
-133.027304
 30
0.0
 40
11.25
100
AcDbArc
 50
134.9804
 51
145.473973
  0
ARC
  5
55
100
AcDbEntity
  8
0
100
AcDbCircle
 10
13.358734
 20
-133.027304
 30
0.0
 40
11.25
100
AcDbArc
 50
134.9804
 51
145.473973
  0
ARC
  5
56
100
AcDbEntity
  8
0
100
AcDbCircle
 10
13.358734
 20
-133.027304
 30
0.0
 40
11.25
100
AcDbArc
 50
157.423637
 51
158.776508
  0
ARC
  5
57
100
AcDbEntity
  8
0
100
AcDbCircle
 10
13.358734
 20
-133.027304
 30
0.0
 40
12.0
100
AcDbArc
 50
134.9804
 51
141.629503
  0
LWPOLYLINE
  5
58
100
AcDbEntity
  8
0
100
AcDbPolyline
 90
        2
 70
     0
 43
0.0
 10
36.69309
 20
-99.321745
 10
34.394992
 20
-101.619843
  0
LINE
  5
59
100
AcDbEntity
  8
0
100
AcDbLine
 10
36.999826
 20
-114.399249
 30
0.0
 11
33.459625
 21
-110.859048
 31
0.0
  0
ARC
  5
5A
100
AcDbEntity
  8
0
100
AcDbCircle
 10
36.999377
 20
-119.395006
 30
0.0
 40
10.0
100
AcDbArc
 50
87.114387
 51
114.331798
  0
ARC
  5
5B
100
AcDbEntity
  8
0
100
AcDbCircle
 10
34.934603
 20
-146.949518
 30
0.0
 40
1.25
100
AcDbArc
 50
360.0
 51
45.0
  0
LINE
  5
5C
100
AcDbEntity
  8
0
100
AcDbLine
 10
37.403353
 20
-147.035305
 30
0.0
 11
36.184603
 21
-147.035305
 31
0.0
  0
LINE
  5
5D
100
AcDbEntity
  8
0
100
AcDbLine
 10
35.178018
 20
-144.851529
 30
0.0
 11
37.380307
 21
-146.64404
 31
0.0
  0
LINE
  5
5E
100
AcDbEntity
  8
0
100
AcDbLine
 10
35.375287
 20
-144.609164
 30
0.0
 11
37.623668
 21
-146.439191
 31
0.0
  0
LINE
  5
5F
100
AcDbEntity
  8
0
100
AcDbLine
 10
32.545428
 20
-144.00389
 30
0.0
 11
37.986357
 21
-143.997433
 31
0.0
  0
LWPOLYLINE
  5
60
100
AcDbEntity
  8
0
100
AcDbPolyline
 90
        4
 70
     1
 43
0.0
 10
34.394993
 20
-102.150173
 10
45.708701
 20
-113.463881
 10
48.537128
 20
-110.635454
 10
37.22342
 20
-99.321745
  0
LINE
  5
61
100
AcDbEntity
  8
0
100
AcDbLine
 10
13.372119
 20
-144.027296
 30
0.0
 11
52.491679
 21
-143.980753
 31
0.0
  0
LINE
  5
62
100
AcDbEntity
  8
0
100
AcDbLine
 10
48.187767
 20
-149.380697
 30
0.0
 11
14.513178
 21
-149.380697
 31
0.0
  0
LINE
  5
63
100
AcDbEntity
  8
0
100
AcDbLine
 10
48.187767
 20
-149.005697
 30
0.0
 11
14.513178
 21
-149.005697
 31
0.0
  0
LWPOLYLINE
  5
64
100
AcDbEntity
  8
0
100
AcDbPolyline
 90
        3
 70
     0
 43
0.0
 10
31.121727
 20
-147.381417
 10
50.776633
 20
-147.381417
 42
0.414214
 10
56.651633
 20
-141.506417
 42
0.414214
  0
LWPOLYLINE
  5
65
100
AcDbEntity
  8
0
100
AcDbPolyline
 90
        3
 70
     0
 43
0.0
 10
31.121727
 20
-147.006417
 10
50.776633
 20
-147.006417
 42
0.414214
 10
56.276633
 20
-141.506417
 42
0.414214
  0
LWPOLYLINE
  5
66
100
AcDbEntity
  8
0
100
AcDbPolyline
 90
        4
 70
     0
 43
0.0
 10
25.02611
 20
-122.679968
 42
0.080362
 10
17.753518
 20
-117.475929
 10
15.667447
 20
-116.544564
 42
0.012018
 10
14.405603
 20
-116.076688
  0
LWPOLYLINE
  5
67
100
AcDbEntity
  8
0
100
AcDbPolyline
 90
        2
 70
     0
 43
0.0
 10
11.205798
 20
-118.2511
 10
11.202655
 20
-114.542869
  0
LWPOLYLINE
  5
68
100
AcDbEntity
  8
0
100
AcDbPolyline
 90
        2
 70
     0
 43
0.0
 10
11.58138
 20
-118.937523
 10
11.577783
 20
-114.694285
  0
LINE
  5
69
100
AcDbEntity
  8
0
100
AcDbLine
 10
12.997566
 20
-116.41563
 30
0.0
 11
15.088176
 21
-114.32502
 31
0.0
  0
LINE
  5
6A
100
AcDbEntity
  8
0
100
AcDbLine
 10
12.820789
 20
-116.238853
 30
0.0
 11
14.911399
 21
-114.148243
 31
0.0
  0
LINE
  5
6B
100
AcDbEntity
  8
0
100
AcDbLine
 10
13.130148
 20
-116.724989
 30
0.0
 11
15.374466
 21
-114.480671
 31
0.0
  0
LINE
  5
6C
100
AcDbEntity
  8
0
100
AcDbLine
 10
13.351119
 20
-116.94596
 30
0.0
 11
15.595437
 21
-114.701642
 31
0.0
  0
LINE
  5
6D
100
AcDbEntity
  8
0
100
AcDbLine
 10
22.783461
 20
-128.183844
 30
0.0
 11
24.32595
 21
-127.313497
 31
0.0
  0
ARC
  5
6E
100
AcDbEntity
  8
0
100
AcDbCircle
 10
23.073563
 20
-128.737353
 30
0.0
 40
0.5
100
AcDbArc
 50
117.216313
 51
290.116032
  0
LINE
  5
6F
100
AcDbEntity
  8
0
100
AcDbLine
 10
22.844888
 20
-128.29271
 30
0.0
 11
24.387377
 21
-127.422362
 31
0.0
  0
ARC
  5
70
100
AcDbEntity
  8
0
100
AcDbCircle
 10
23.073563
 20
-128.737353
 30
0.0
 40
0.625
100
AcDbArc
 50
117.216313
 51
290.116032
  0
LINE
  5
71
100
AcDbEntity
  8
CENTER
 48
0.05
100
AcDbLine
 10
17.678351
 20
-137.643822
 30
0.0
 11
23.103983
 21
-137.643822
 31
0.0
  0
LWPOLYLINE
  5
76
100
AcDbEntity
  8
0
100
AcDbPolyline
 90
        4
 70
     0
 43
0.0
 10
24.938068
 20
-122.768702
 42
0.079801
 10
17.753518
 20
-117.615557
 10
15.667447
 20
-116.679166
 42
0.012465
 10
14.364975
 20
-116.194901
  0
LINE
  5
77
100
AcDbEntity
  8
0
100
AcDbLine
 10
11.891358
 20
-144.779058
 30
0.0
 11
28.499608
 21
-144.759298
 31
0.0
  0
LINE
  5
78
100
AcDbEntity
  8
CENTER
 48
0.05
100
AcDbLine
 10
20.391167
 20
-135.056006
 30
0.0
 11
20.391167
 21
-140.231637
 31
0.0
  0
LWPOLYLINE
  5
79
100
AcDbEntity
  8
0
100
AcDbPolyline
 90
        2
 70
     0
 43
0.0
 10
11.891358
 20
-144.779058
 10
10.348572
 20
-146.321843
  0
ARC
  5
7A
100
AcDbEntity
  8
0
100
AcDbCircle
 10
13.358734
 20
-132.777304
 30
0.0
 40
11.25
100
AcDbArc
 50
259.98333
 51
270.068167
  0
LWPOLYLINE
  5
7B
100
AcDbEntity
  8
0
100
AcDbPolyline
 90
        2
 70
     0
 43
0.0
 10
12.17521
 20
-143.964876
 10
10.230275
 20
-145.909811
  0
LWPOLYLINE
  5
7C
100
AcDbEntity
  8
0
100
AcDbPolyline
 90
        2
 70
     0
 43
0.0
 10
11.978212
 20
-143.28005
 10
10.071149
 20
-145.185554
  0
CIRCLE
  5
7D
100
AcDbEntity
  8
0
100
AcDbCircle
 10
20.391167
 20
-137.643822
 30
0.0
 40
1.375
  0
ARC
  5
7E
100
AcDbEntity
  8
0
100
AcDbCircle
 10
11.936906
 20
-115.531746
 30
0.0
 40
2.0
100
AcDbArc
 50
270.0
 51
315.0
  0
ARC
  5
7F
100
AcDbEntity
  8
0
100
AcDbCircle
 10
11.936906
 20
-115.531746
 30
0.0
 40
1.6875
100
AcDbArc
 50
257.810162
 51
315.0
  0
ARC
  5
80
100
AcDbEntity
  8
0
100
AcDbCircle
 10
12.113682
 20
-115.531746
 30
0.0
 40
1.25
100
AcDbArc
 50
270.0
 51
315.0
  0
ARC
  5
81
100
AcDbEntity
  8
0
100
AcDbCircle
 10
12.113682
 20
-115.531746
 30
0.0
 40
1.0
100
AcDbArc
 50
270.0
 51
315.0
  0
LINE
  5
82
100
AcDbEntity
  8
0
100
AcDbLine
 10
11.579923
 20
-117.219246
 30
0.0
 11
11.58756
 21
-116.781746
 31
0.0
  0
LINE
  5
83
100
AcDbEntity
  8
0
100
AcDbLine
 10
11.670024
 20
-117.531746
 30
0.0
 11
11.936906
 21
-117.531746
 31
0.0
  0
LINE
  5
84
100
AcDbEntity
  8
0
100
AcDbLine
 10
11.579923
 20
-117.219246
 30
0.0
 11
11.670024
 21
-117.531746
 31
0.0
  0
LINE
  5
85
100
AcDbEntity
  8
0
100
AcDbLine
 10
11.822913
 20
-117.531746
 30
0.0
 11
11.670024
 21
-117.531746
 31
0.0
  0
LINE
  5
86
100
AcDbEntity
  8
0
100
AcDbLine
 10
11.574469
 20
-116.781746
 30
0.0
 11
12.113682
 21
-116.781746
 31
0.0
  0
LINE
  5
87
100
AcDbEntity
  8
0
100
AcDbLine
 10
11.668368
 20
-116.531746
 30
0.0
 11
12.113682
 21
-116.531746
 31
0.0
  0
ELLIPSE
  5
88
100
AcDbEntity
  8
0
100
AcDbEllipse
 10
11.664004
 20
-116.781746
 30
0.0
 11
0.0048136107310561
 21
0.2499956699375371
 31
0.0
210
0.0
220
0.0
230
1.0
 40
0.305675
 41
0.0058856265333722
 42
1.576681953328259
  0
LINE
  5
89
100
AcDbEntity
  8
0
100
AcDbLine
 10
11.668368
 20
-116.531746
 30
0.0
 11
11.859479
 21
-116.531746
 31
0.0
  0
LWPOLYLINE
  5
8A
100
AcDbEntity
  8
0
100
AcDbPolyline
 90
        4
 70
     0
 43
0.0
 10
33.141495
 20
-133.301485
 42
-0.082506
 10
33.013902
 20
-141.975017
 10
32.720802
 20
-143.416383
 42
-0.005397
 10
32.578485
 20
-144.00385
  0
LWPOLYLINE
  5
8B
100
AcDbEntity
  8
0
100
AcDbPolyline
 90
        4
 70
     0
 43
0.0
 10
32.457324
 20
-143.97311
 42
0.005138
 10
32.592499
 20
-143.416383
 10
32.894965
 20
-141.929611
 42
0.082299
 10
33.01782
 20
-133.319639
  0
LINE
  5
8C
100
AcDbEntity
  8
0
100
AcDbLine
 10
29.493153
 20
-145.219486
 30
0.0
 11
29.807912
 21
-145.523446
 31
0.0
  0
ARC
  5
8D
100
AcDbEntity
  8
0
100
AcDbCircle
 10
30.93882
 20
-146.160305
 30
0.0
 40
1.6875
100
AcDbArc
 50
90.0
 51
147.189838
  0
ARC
  5
8E
100
AcDbEntity
  8
0
100
AcDbCircle
 10
30.93882
 20
-146.160305
 30
0.0
 40
2.0
100
AcDbArc
 50
90.0
 51
135.0
  0
LWPOLYLINE
  5
8F
100
AcDbEntity
  8
0
100
AcDbPolyline
 90
        2
 70
     0
 43
0.0
 10
28.276634
 20
-144.005994
 10
31.277057
 20
-147.006417
  0
LWPOLYLINE
  5
90
100
AcDbEntity
  8
0
100
AcDbPolyline
 90
        2
 70
     0
 43
0.0
 10
28.499608
 20
-144.759298
 10
31.121727
 20
-147.381417
  0
LINE
  5
91
100
AcDbEntity
  8
0
100
AcDbLine
 10
29.444002
 20
-144.826696
 30
0.0
 11
29.335893
 21
-144.934805
 31
0.0
  0
LINE
  5
92
100
AcDbEntity
  8
0
100
AcDbLine
 10
29.493153
 20
-145.219486
 30
0.0
 11
29.335893
 21
-144.934805
 31
0.0
  0
LINE
  5
93
100
AcDbEntity
  8
0
100
AcDbLine
 10
29.335893
 20
-144.934805
 30
0.0
 11
29.524607
 21
-144.746091
 31
0.0
  0
LINE
  5
94
100
AcDbEntity
  8
0
100
AcDbLine
 10
34.904273
 20
-145.151421
 30
0.0
 11
35.818486
 21
-146.065635
 31
0.0
  0
LINE
  5
95
100
AcDbEntity
  8
0
100
AcDbLine
 10
34.727496
 20
-145.328198
 30
0.0
 11
35.64171
 21
-146.242411
 31
0.0
  0
LINE
  5
96
100
AcDbEntity
  8
0
100
AcDbLine
 10
36.184603
 20
-147.035305
 30
0.0
 11
36.184603
 21
-146.949518
 31
0.0
  0
LINE
  5
97
100
AcDbEntity
  8
0
100
AcDbLine
 10
35.934603
 20
-146.974119
 30
0.0
 11
35.934603
 21
-147.017823
 31
0.0
  0
LINE
  5
98
100
AcDbEntity
  8
0
100
AcDbLine
 10
35.934603
 20
-146.974119
 30
0.0
 11
35.934603
 21
-146.949518
 31
0.0
  0
ARC
  5
99
100
AcDbEntity
  8
0
100
AcDbCircle
 10
34.934603
 20
-146.949518
 30
0.0
 40
1.0
100
AcDbArc
 50
360.0
 51
45.0
  0
ELLIPSE
  5
9A
100
AcDbEntity
  8
0
100
AcDbEllipse
 10
36.184603
 20
-147.017823
 30
0.0
 11
0.25
 21
0.0000000000000535
 31
0.0
210
0.0
220
0.0
230
-1.0
 40
0.069927
 41
1.570796326794911
 42
3.141592653592852
  0
LINE
  5
9B
100
AcDbEntity
  8
0
100
AcDbLine
 10
31.06382
 20
-145.035305
 30
0.0
 11
34.020389
 21
-145.035305
 31
0.0
  0
LINE
  5
9C
100
AcDbEntity
  8
0
100
AcDbLine
 10
31.06382
 20
-144.785305
 30
0.0
 11
34.020389
 21
-144.785305
 31
0.0
  0
LINE
  5
9D
100
AcDbEntity
  8
0
100
AcDbLine
 10
30.93882
 20
-144.160305
 30
0.0
 11
34.112765
 21
-144.160305
 31
0.0
  0
LINE
  5
9E
100
AcDbEntity
  8
0
100
AcDbLine
 10
30.93882
 20
-144.472805
 30
0.0
 11
34.112765
 21
-144.472805
 31
0.0
  0
ARC
  5
9F
100
AcDbEntity
  8
0
100
AcDbCircle
 10
31.06382
 20
-146.035305
 30
0.0
 40
1.0
100
AcDbArc
 50
90.0
 51
135.0
  0
LINE
  5
A0
100
AcDbEntity
  8
0
100
AcDbLine
 10
30.041829
 20
-145.643082
 30
0.0
 11
30.176965
 21
-145.507947
 31
0.0
  0
LINE
  5
A1
100
AcDbEntity
  8
0
100
AcDbLine
 10
29.798655
 20
-145.532703
 30
0.0
 11
30.179937
 21
-145.151421
 31
0.0
  0
ELLIPSE
  5
A2
100
AcDbEntity
  8
0
100
AcDbEllipse
 10
29.861967
 20
-145.469391
 30
0.0
 11
-0.1801773702700287
 21
0.1733698966901853
 31
0.0
210
0.0
220
0.0
230
-1.0
 40
0.305675
 41
3.14747828012323
 42
4.718274606918049
  0
LINE
  5
A3
100
AcDbEntity
  8
0
100
AcDbLine
 10
30.041829
 20
-145.643082
 30
0.0
 11
30.356714
 21
-145.328198
 31
0.0
  0
ARC
  5
A4
100
AcDbEntity
  8
0
100
AcDbCircle
 10
31.06382
 20
-146.035305
 30
0.0
 40
1.25
100
AcDbArc
 50
90.0
 51
135.0
  0
ARC
  5
A5
100
AcDbEntity
  8
0
100
AcDbCircle
 10
34.112765
 20
-146.160305
 30
0.0
 40
1.6875
100
AcDbArc
 50
50.856786
 51
90.0
  0
ARC
  5
A6
100
AcDbEntity
  8
0
100
AcDbCircle
 10
34.020389
 20
-146.035305
 30
0.0
 40
1.0
100
AcDbArc
 50
45.0
 51
90.0
  0
ARC
  5
A7
100
AcDbEntity
  8
0
100
AcDbCircle
 10
34.020389
 20
-146.035305
 30
0.0
 40
1.25
100
AcDbArc
 50
45.0
 51
90.0
  0
ARC
  5
A8
100
AcDbEntity
  8
0
100
AcDbCircle
 10
34.112765
 20
-146.160305
 30
0.0
 40
2.0
100
AcDbArc
 50
50.856786
 51
90.0
  0
ARC
  5
A9
100
AcDbEntity
  8
0
100
AcDbCircle
 10
27.205111
 20
-134.172892
 30
0.0
 40
6.0
100
AcDbArc
 50
8.350861
 51
109.419178
  0
ARC
  5
AA
100
AcDbEntity
  8
0
100
AcDbCircle
 10
27.205111
 20
-134.172892
 30
0.0
 40
5.875
100
AcDbArc
 50
8.350861
 51
109.419178
  0
ARC
  5
AB
100
AcDbEntity
  8
0
100
AcDbCircle
 10
22.913124
 20
-124.80959
 30
0.0
 40
2.875
100
AcDbArc
 50
299.433809
 51
45.224668
  0
ARC
  5
AC
100
AcDbEntity
  8
0
100
AcDbCircle
 10
22.913124
 20
-124.80959
 30
0.0
 40
3.0
100
AcDbArc
 50
299.433809
 51
45.224668
  0
LINE
  5
AD
100
AcDbEntity
  8
0
100
AcDbLine
 10
25.21025
 20
-128.514223
 30
0.0
 11
23.245525
 21
-129.206852
 31
0.0
  0
LINE
  5
AE
100
AcDbEntity
  8
0
100
AcDbLine
 10
25.25181
 20
-128.632112
 30
0.0
 11
23.287084
 21
-129.324741
 31
0.0
  0
LINE
  5
AF
100
AcDbEntity
  8
0
100
AcDbLine
 10
20.15852
 20
-110.327706
 30
0.0
 11
28.690592
 21
-101.80147
 31
0.0
  0
ARC
  5
B0
100
AcDbEntity
  8
0
100
AcDbCircle
 10
25.813439
 20
-115.986495
 30
0.0
 40
8.0
100
AcDbArc
 50
44.9804
 51
134.9804
  0
LWPOLYLINE
  5
B1
100
AcDbEntity
  8
0
100
AcDbPolyline
 90
        3
 70
     0
 43
0.0
 10
11.184102
 20
-114.524316
 10
25.072229
 20
-100.612624
 42
-0.414214
 10
33.380731
 20
-100.605582
  0
LWPOLYLINE
  5
B2
100
AcDbEntity
  8
0
100
AcDbPolyline
 90
        3
 70
     0
 43
0.0
 10
11.559234
 20
-114.679329
 10
25.337619
 20
-100.877565
 42
-0.414214
 10
33.115791
 20
-100.870971
  0
LINE
  5
B3
100
AcDbEntity
  8
0
100
AcDbLine
 10
16.170784
 20
-113.491513
 30
0.0
 11
16.466605
 21
-110.607643
 31
0.0
  0
LINE
  5
B4
100
AcDbEntity
  8
0
100
AcDbLine
 10
16.394686
 20
-110.405356
 30
0.0
 11
16.150447
 21
-110.161117
 31
0.0
  0
ARC
  5
B5
100
AcDbEntity
  8
0
100
AcDbCircle
 10
14.181224
 20
-113.287428
 30
0.0
 40
2.0
100
AcDbArc
 50
315.0
 51
354.143214
  0
LINE
  5
B6
100
AcDbEntity
  8
0
100
AcDbLine
 10
15.076663
 20
-115.405962
 30
0.0
 11
18.967068
 21
-111.518194
 31
0.0
  0
LINE
  5
B7
100
AcDbEntity
  8
0
100
AcDbLine
 10
15.859915
 20
-113.459625
 30
0.0
 11
16.149671
 21
-110.634875
 31
0.0
  0
LINE
  5
B8
100
AcDbEntity
  8
0
100
AcDbLine
 10
15.889302
 20
-110.341913
 30
0.0
 11
15.027516
 21
-111.2037
 31
0.0
  0
ARC
  5
B9
100
AcDbEntity
  8
0
100
AcDbCircle
 10
14.204292
 20
-112.148243
 30
0.0
 40
1.25
100
AcDbArc
 50
0.0
 51
45.0
  0
LINE
  5
BA
100
AcDbEntity
  8
0
100
AcDbLine
 10
15.454292
 20
-113.441136
 30
0.0
 11
15.454292
 21
-112.148243
 31
0.0
  0
ELLIPSE
  5
BB
100
AcDbEntity
  8
0
100
AcDbEllipse
 10
15.039877
 20
-111.216061
 30
0.0
 11
-0.1767766952966955
 21
-0.1767766952965783
 31
0.0
210
0.0
220
0.0
230
1.0
 40
0.069927
 41
-1.570796326794873
 42
0.0000000000047304
  0
ARC
  5
BC
100
AcDbEntity
  8
0
100
AcDbCircle
 10
14.204292
 20
-112.148243
 30
0.0
 40
1.0
100
AcDbArc
 50
0.0
 51
45.0
  0
LINE
  5
BD
100
AcDbEntity
  8
0
100
AcDbLine
 10
14.894004
 20
-111.423741
 30
0.0
 11
14.911399
 21
-111.441136
 31
0.0
  0
LINE
  5
BE
100
AcDbEntity
  8
0
100
AcDbLine
 10
14.894004
 20
-111.423741
 30
0.0
 11
14.8631
 21
-111.392838
 31
0.0
  0
LINE
  5
BF
100
AcDbEntity
  8
0
100
AcDbLine
 10
15.027516
 20
-111.2037
 30
0.0
 11
15.088176
 21
-111.26436
 31
0.0
  0
LINE
  5
C0
100
AcDbEntity
  8
0
100
AcDbLine
 10
15.204292
 20
-113.441136
 30
0.0
 11
15.204292
 21
-112.148243
 31
0.0
  0
ARC
  5
C1
100
AcDbEntity
  8
0
100
AcDbCircle
 10
14.204292
 20
-113.441136
 30
0.0
 40
1.25
100
AcDbArc
 50
315.0
 51
0.0
  0
ARC
  5
C2
100
AcDbEntity
  8
0
100
AcDbCircle
 10
14.204292
 20
-113.441136
 30
0.0
 40
1.0
100
AcDbArc
 50
315.0
 51
0.0
  0
ARC
  5
C3
100
AcDbEntity
  8
0
100
AcDbCircle
 10
14.181224
 20
-113.287428
 30
0.0
 40
1.6875
100
AcDbArc
 50
315.0
 51
354.143214
  0
LINE
  5
C4
100
AcDbEntity
  8
0
100
AcDbLine
 10
16.131692
 20
-110.584303
 30
0.0
 11
15.889302
 21
-110.341913
 31
0.0
  0
ARC
  5
C5
100
AcDbEntity
  8
0
100
AcDbCircle
 10
16.087498
 20
-110.628497
 30
0.0
 40
0.0625
100
AcDbArc
 50
354.143214
 51
45.0
  0
LINE
  5
C6
100
AcDbEntity
  8
0
100
AcDbLine
 10
16.125725
 20
-110.136394
 30
0.0
 11
15.889302
 21
-110.341913
 31
0.0
  0
LINE
  5
C7
100
AcDbEntity
  8
0
100
AcDbLine
 10
16.125725
 20
-110.136394
 30
0.0
 11
16.150447
 21
-110.161117
 31
0.0
  0
ARC
  5
C8
100
AcDbEntity
  8
0
100
AcDbCircle
 10
16.21791
 20
-110.582132
 30
0.0
 40
0.25
100
AcDbArc
 50
354.143214
 51
45.0
  0
ARC
  5
C9
100
AcDbEntity
  8
0
100
AcDbCircle
 10
29.59929
 20
-102.71079
 30
0.0
 40
1.285534
100
AcDbArc
 50
44.9804
 51
134.9804
  0
LINE
  5
CA
100
AcDbEntity
  8
0
100
AcDbLine
 10
33.459625
 20
-110.859048
 30
0.0
 11
32.209269
 21
-111.070689
 31
0.0
  0
ARC
  5
CB
100
AcDbEntity
  8
0
100
AcDbCircle
 10
33.225584
 20
-111.049334
 30
0.0
 40
0.840757
100
AcDbArc
 50
114.331798
 51
147.515007
  0
LINE
  5
CC
100
AcDbEntity
  8
0
100
AcDbLine
 10
31.472228
 20
-110.331576
 30
0.0
 11
32.210609
 21
-111.070463
 31
0.0
  0
LINE
  5
CD
100
AcDbEntity
  8
0
100
AcDbLine
 10
32.516379
 20
-110.597782
 30
0.0
 11
32.209269
 21
-111.070689
 31
0.0
  0
LINE
  5
CE
100
AcDbEntity
  8
0
100
AcDbLine
 10
33.766735
 20
-110.38614
 30
0.0
 11
33.459625
 21
-110.859048
 31
0.0
  0
ARC
  5
CF
100
AcDbEntity
  8
0
100
AcDbCircle
 10
34.47594
 20
-110.837693
 30
0.0
 40
0.840757
100
AcDbArc
 50
114.331798
 51
147.515007
  0
LINE
  5
D0
100
AcDbEntity
  8
0
100
AcDbLine
 10
33.115791
 20
-100.870971
 30
0.0
 11
34.394993
 21
-102.150173
 31
0.0
  0
LINE
  5
D1
100
AcDbEntity
  8
0
100
AcDbLine
 10
33.380956
 20
-100.605806
 30
0.0
 11
34.394992
 21
-101.619843
 31
0.0
  0
LWPOLYLINE
  5
D2
100
AcDbEntity
  8
0
100
AcDbPolyline
 90
        2
 70
     0
 43
0.0
 10
48.834535
 20
-117.372157
 42
0.143211
 10
47.253292
 20
-114.478142
 42
0.143211
  0
LWPOLYLINE
  5
D3
100
AcDbEntity
  8
0
100
AcDbPolyline
 90
        2
 70
     0
 43
0.0
 10
48.468215
 20
-117.452373
 42
0.143211
 10
46.987902
 20
-114.743083
  0
LWPOLYLINE
  5
D4
100
AcDbEntity
  8
0
100
AcDbPolyline
 90
        3
 70
     0
 43
0.0
 10
39.181216
 20
-119.273148
 42
0.044581
 10
38.629234
 20
-117.487829
 10
36.788411
 20
-115.648265
  0
ARC
  5
D5
100
AcDbEntity
  8
0
100
AcDbCircle
 10
49.933495
 20
-117.13151
 30
0.0
 40
1.125
100
AcDbArc
 50
192.351523
 51
270.0
  0
ARC
  5
D6
100
AcDbEntity
  8
0
100
AcDbCircle
 10
49.933495
 20
-117.13151
 30
0.0
 40
1.5
100
AcDbArc
 50
192.351523
 51
270.0
  0
ARC
  5
D7
100
AcDbEntity
  8
0
100
AcDbCircle
 10
49.424733
 20
-131.144206
 30
0.0
 40
0.840757
100
AcDbArc
 50
69.331798
 51
102.515007
  0
ARC
  5
D8
100
AcDbEntity
  8
0
100
AcDbCircle
 10
49.424733
 20
-134.743721
 30
0.0
 40
0.840757
100
AcDbArc
 50
257.484993
 51
290.668202
  0
ARC
  5
D9
100
AcDbEntity
  8
0
100
AcDbCircle
 10
45.158139
 20
-138.97948
 30
0.0
 40
10.0
100
AcDbArc
 50
42.114387
 51
69.331798
  0
ARC
  5
DA
100
AcDbEntity
  8
0
100
AcDbCircle
 10
45.158139
 20
-126.908447
 30
0.0
 40
10.0
100
AcDbArc
 50
290.668202
 51
317.885613
  0
ARC
  5
DB
100
AcDbEntity
  8
0
100
AcDbCircle
 10
48.187767
 20
-130.759377
 30
0.0
 40
18.62132
100
AcDbArc
 50
270.0
 51
315.000004
  0
ARC
  5
DC
100
AcDbEntity
  8
0
100
AcDbCircle
 10
48.187767
 20
-130.759377
 30
0.0
 40
18.24632
100
AcDbArc
 50
270.0
 51
315.000004
  0
LINE
  5
DD
100
AcDbEntity
  8
0
100
AcDbLine
 10
48.690989
 20
-135.447263
 30
0.0
 11
47.657202
 21
-136.181745
 31
0.0
  0
ARC
  5
DE
100
AcDbEntity
  8
0
100
AcDbCircle
 10
39.870951
 20
-136.208617
 30
0.0
 40
7.789966
100
AcDbArc
 50
268.526557
 51
0.191905
  0
LINE
  5
DF
100
AcDbEntity
  8
0
100
AcDbLine
 10
37.715853
 20
-147.013452
 30
0.0
 11
37.715853
 21
-146.978489
 31
0.0
  0
ARC
  5
E0
100
AcDbEntity
  8
0
100
AcDbCircle
 10
37.465853
 20
-146.633083
 30
0.0
 40
0.25
100
AcDbArc
 50
360.0
 51
50.856786
  0
LINE
  5
E1
100
AcDbEntity
  8
0
100
AcDbLine
 10
37.715853
 20
-146.633083
 30
0.0
 11
37.715853
 21
-146.978489
 31
0.0
  0
ARC
  5
E2
100
AcDbEntity
  8
0
100
AcDbCircle
 10
37.340853
 20
-146.692514
 30
0.0
 40
0.0625
100
AcDbArc
 50
360.0
 51
50.856786
  0
LINE
  5
E3
100
AcDbEntity
  8
0
100
AcDbLine
 10
37.403353
 20
-146.692514
 30
0.0
 11
37.403353
 21
-147.035305
 31
0.0
  0
LINE
  5
E4
100
AcDbEntity
  8
0
100
AcDbLine
 10
37.715853
 20
-147.013452
 30
0.0
 11
37.403353
 21
-147.035305
 31
0.0
  0
LINE
  5
E5
100
AcDbEntity
  8
0
100
AcDbLine
 10
48.208757
 20
-136.298982
 30
0.0
 11
47.657202
 21
-136.181745
 31
0.0
  0
LINE
  5
E6
100
AcDbEntity
  8
0
100
AcDbLine
 10
47.661119
 20
-136.236495
 30
0.0
 11
47.661051
 21
-136.179011
 31
0.0
  0
ARC
  5
E7
100
AcDbEntity
  8
0
100
AcDbCircle
 10
48.390945
 20
-135.478202
 30
0.0
 40
0.840757
100
AcDbArc
 50
257.484993
 51
290.668202
  0
ARC
  5
E8
100
AcDbEntity
  8
0
100
AcDbCircle
 10
41.162681
 20
-128.334292
 30
0.0
 40
6.5
100
AcDbArc
 50
359.931833
 51
109.419178
  0
ARC
  5
E9
100
AcDbEntity
  8
0
100
AcDbCircle
 10
37.225469
 20
-119.691539
 30
0.0
 40
2.0
100
AcDbArc
 50
299.668024
 51
12.075219
  0
ARC
  5
EA
100
AcDbEntity
  8
0
100
AcDbCircle
 10
38.462903
 20
-121.863809
 30
0.0
 40
0.5
100
AcDbArc
 50
119.433809
 51
289.419178
  0
LINE
  5
EB
100
AcDbEntity
  8
0
100
AcDbLine
 10
39.001582
 20
-122.204067
 30
0.0
 11
38.629142
 21
-122.335364
 31
0.0
  0
LINE
  5
EC
100
AcDbEntity
  8
0
100
AcDbLine
 10
48.690989
 20
-135.447263
 30
0.0
 11
48.690989
 21
-130.440663
 31
0.0
  0
LINE
  5
ED
100
AcDbEntity
  8
0
100
AcDbLine
 10
49.242545
 20
-135.5645
 30
0.0
 11
48.690989
 21
-135.447263
 31
0.0
  0
LINE
  5
EE
100
AcDbEntity
  8
0
100
AcDbLine
 10
48.690989
 20
-130.440663
 30
0.0
 11
47.657202
 21
-129.706182
 31
0.0
  0
LINE
  5
EF
100
AcDbEntity
  8
0
100
AcDbLine
 10
48.208757
 20
-129.588945
 30
0.0
 11
47.657202
 21
-129.706182
 31
0.0
  0
LINE
  5
F0
100
AcDbEntity
  8
0
100
AcDbLine
 10
47.662677
 20
-128.342025
 30
0.0
 11
47.661051
 21
-129.708916
 31
0.0
  0
ARC
  5
F1
100
AcDbEntity
  8
0
100
AcDbCircle
 10
48.390945
 20
-130.409725
 30
0.0
 40
0.840757
100
AcDbArc
 50
69.331798
 51
102.515007
  0
LINE
  5
F2
100
AcDbEntity
  8
0
100
AcDbLine
 10
49.242545
 20
-130.323427
 30
0.0
 11
48.690989
 21
-130.440663
 31
0.0
  0
LWPOLYLINE
  5
F3
100
AcDbEntity
  8
0
100
AcDbPolyline
 90
        4
 70
     1
 43
0.0
 10
56.275099
 20
-125.943963
 10
56.275099
 20
-139.693963
 10
60.275099
 20
-139.693963
 10
60.275099
 20
-125.943963
  0
ARC
  5
F4
100
AcDbEntity
  8
0
100
AcDbCircle
 10
52.49015
 20
-142.69522
 30
0.0
 40
1.285534
100
AcDbArc
 50
270.068167
 51
0.068167
  0
LINE
  5
F5
100
AcDbEntity
  8
0
100
AcDbLine
 10
56.276633
 20
-139.693963
 30
0.0
 11
56.276633
 21
-141.506417
 31
0.0
  0
LWPOLYLINE
  5
F6
100
AcDbEntity
  8
0
100
AcDbPolyline
 90
        2
 70
     0
 43
0.0
 10
56.651633
 20
-140.068963
 10
59.900099
 20
-140.068963
  0
LINE
  5
F7
100
AcDbEntity
  8
0
100
AcDbLine
 10
56.651633
 20
-140.068963
 30
0.0
 11
56.651633
 21
-141.506417
 31
0.0
  0
LINE
  5
F8
100
AcDbEntity
  8
0
100
AcDbLine
 10
60.275099
 20
-139.693963
 30
0.0
 11
59.900099
 21
-140.068963
 31
0.0
  0
LWPOLYLINE
  5
F9
100
AcDbEntity
  8
0
100
AcDbPolyline
 90
        2
 70
     0
 43
0.0
 10
50.776633
 20
-118.25651
 42
-0.414214
 10
56.651633
 20
-124.13151
 42
-0.414214
  0
LWPOLYLINE
  5
FA
100
AcDbEntity
  8
0
100
AcDbPolyline
 90
        2
 70
     0
 43
0.0
 10
50.776633
 20
-118.63151
 42
-0.414214
 10
56.276633
 20
-124.13151
  0
ARC
  5
FB
100
AcDbEntity
  8
0
100
AcDbCircle
 10
51.834406
 20
-132.943963
 30
0.0
 40
1.0
100
AcDbArc
 50
0.0
 51
42.114387
  0
ARC
  5
FC
100
AcDbEntity
  8
0
100
AcDbCircle
 10
51.834406
 20
-132.943963
 30
0.0
 40
1.0
100
AcDbArc
 50
317.885613
 51
0.0
  0
LINE
  5
FD
100
AcDbEntity
  8
0
100
AcDbLine
 10
50.776633
 20
-118.25651
 30
0.0
 11
49.933495
 21
-118.25651
 31
0.0
  0
LINE
  5
FE
100
AcDbEntity
  8
0
100
AcDbLine
 10
50.776633
 20
-118.63151
 30
0.0
 11
49.933495
 21
-118.63151
 31
0.0
  0
LINE
  5
FF
100
AcDbEntity
  8
0
100
AcDbLine
 10
56.276633
 20
-124.13151
 30
0.0
 11
56.276633
 21
-125.943963
 31
0.0
  0
LWPOLYLINE
  5
100
100
AcDbEntity
  8
0
100
AcDbPolyline
 90
        2
 70
     0
 43
0.0
 10
59.900099
 20
-125.568963
 10
56.651633
 20
-125.568963
  0
LINE
  5
101
100
AcDbEntity
  8
0
100
AcDbLine
 10
56.651633
 20
-124.13151
 30
0.0
 11
56.651633
 21
-125.568963
 31
0.0
  0
LINE
  5
102
100
AcDbEntity
  8
0
100
AcDbLine
 10
60.275099
 20
-125.943963
 30
0.0
 11
59.900099
 21
-125.568963
 31
0.0
  0
ARC
  5
103
100
AcDbEntity
  8
0
100
AcDbCircle
 10
28.463868
 20
-110.859497
 30
0.0
 40
10.0
100
AcDbArc
 50
335.668202
 51
2.885613
  0
LINE
  5
104
100
AcDbEntity
  8
0
100
AcDbLine
 10
37.472733
 20
-114.092139
 30
0.0
 11
36.999826
 21
-114.399249
 31
0.0
  0
LINE
  5
105
100
AcDbEntity
  8
0
100
AcDbLine
 10
36.999826
 20
-114.399249
 30
0.0
 11
36.788184
 21
-115.649604
 31
0.0
  0
LINE
  5
106
100
AcDbEntity
  8
0
100
AcDbLine
 10
37.261092
 20
-115.342494
 30
0.0
 11
36.788184
 21
-115.649604
 31
0.0
  0
ARC
  5
107
100
AcDbEntity
  8
0
100
AcDbCircle
 10
36.809539
 20
-114.633289
 30
0.0
 40
0.840757
100
AcDbArc
 50
302.484993
 51
335.668202
  0
ARC
  5
108
100
AcDbEntity
  8
0
100
AcDbCircle
 10
37.021181
 20
-113.382934
 30
0.0
 40
0.840757
100
AcDbArc
 50
302.484993
 51
335.668202
  0
ARC
  5
109
100
AcDbEntity
  8
0
100
AcDbCircle
 10
37.452456
 20
-110.406417
 30
0.0
 40
1.0
100
AcDbArc
 50
45.0
 51
87.114387
  0
ARC
  5
10A
100
AcDbEntity
  8
0
100
AcDbCircle
 10
37.452456
 20
-110.406417
 30
0.0
 40
1.0
100
AcDbArc
 50
2.885613
 51
45.0
  0
LINE
  5
10B
100
AcDbEntity
  8
0
100
AcDbLine
 10
37.22342
 20
-99.321745
 30
0.0
 11
36.69309
 21
-99.321745
 31
0.0
  0
LWPOLYLINE
  5
10C
100
AcDbEntity
  8
0
100
AcDbPolyline
 90
        2
 70
     0
 43
0.0
 10
46.239031
 20
-113.463881
 10
48.537128
 20
-111.165784
  0
LINE
  5
10D
100
AcDbEntity
  8
0
100
AcDbLine
 10
45.708701
 20
-113.463881
 30
0.0
 11
46.987902
 21
-114.743083
 31
0.0
  0
LINE
  5
10E
100
AcDbEntity
  8
0
100
AcDbLine
 10
46.239031
 20
-113.463881
 30
0.0
 11
47.253067
 21
-114.477918
 31
0.0
  0
LINE
  5
10F
100
AcDbEntity
  8
0
100
AcDbLine
 10
48.537128
 20
-110.635454
 30
0.0
 11
48.537128
 21
-111.165784
 31
0.0
  0
ENDSEC
  0
SECTION
  2
OBJECTS
  0
DICTIONARY
  5
30
102
{ACAD_XDICTIONARY
360
31
102
}
100
AcDbDictionary
  3
ACAD_GROUP
350
2C
  3
ACAD_MLINESTYLE
350
2D
  0
DICTIONARY
  5
1F
100
AcDbDictionary
280
     1
  3
ACAD_XREC_ROUNDTRIP
360
20
  0
DICTIONARY
  5
22
100
AcDbDictionary
280
     1
  3
ACAD_XREC_ROUNDTRIP
360
23
  0
DICTIONARY
  5
9
100
AcDbDictionary
280
     1
  3
ACAD_XREC_ROUNDTRIP
360
A
  0
DICTIONARY
  5
13
100
AcDbDictionary
280
     1
  3
ACAD_LAYERFILTERS
360
14
  0
DICTIONARY
  5
73
100
AcDbDictionary
280
     1
  3
ACAD_XREC_ROUNDTRIP
360
74
  0
DICTIONARY
  5
1B
100
AcDbDictionary
280
     1
  3
ACAD_XREC_ROUNDTRIP
360
1C
  0
DICTIONARY
  5
34
100
AcDbDictionary
280
     1
  3
ACAD_XREC_ROUNDTRIP
360
35
  0
DICTIONARY
  5
39
100
AcDbDictionary
280
     1
  3
ACAD_XREC_ROUNDTRIP
360
3A
  0
DICTIONARY
  5
3
100
AcDbDictionary
280
     1
  3
ACAD_LAYOUTSELFREF
360
4
  3
ACAD_XREC_ROUNDTRIP
360
5
  0
DICTIONARY
  5
D
100
AcDbDictionary
280
     1
  3
ACAD_LAYOUTSELFREF
360
E
  3
ACAD_XREC_ROUNDTRIP
360
F
  0
DICTIONARY
  5
31
100
AcDbDictionary
280
     1
  3
ACAD_XREC_ROUNDTRIP
360
32
  0
DICTIONARY
  5
2C
102
{ACAD_REACTORS
330
30
102
}
100
AcDbDictionary
  0
DICTIONARY
  5
2D
102
{ACAD_XDICTIONARY
360
2E
102
}
102
{ACAD_REACTORS
330
30
102
}
100
AcDbDictionary
  3
STANDARD
350
37
  0
XRECORD
  5
20
102
{ACAD_REACTORS
330
1F
102
}
100
AcDbXrecord
102
EXTNAMES
  1
BYBLOCK
  2
ByBlock
  0
XRECORD
  5
23
102
{ACAD_REACTORS
330
22
102
}
100
AcDbXrecord
102
EXTNAMES
  1
BYLAYER
  2
ByLayer
  0
XRECORD
  5
A
102
{ACAD_REACTORS
330
9
102
}
100
AcDbXrecord
102
EXTNAMES
  1
CONTINUOUS
  2
Continuous
  0
DICTIONARY
  5
14
102
{ACAD_XDICTIONARY
360
15
102
}
102
{ACAD_REACTORS
330
13
102
}
100
AcDbDictionary
280
     1
  3
DIM-1_12
360
17
  3
DIM-1_16
360
18
  0
XRECORD
  5
74
102
{ACAD_REACTORS
330
73
102
}
100
AcDbXrecord
102
LINEWEIGHT
280
     3
  0
XRECORD
  5
1C
102
{ACAD_REACTORS
330
1B
102
}
100
AcDbXrecord
102
EXTNAMES
  1
STANDARD
  2
Standard
  0
XRECORD
  5
35
102
{ACAD_REACTORS
330
34
102
}
100
AcDbXrecord
102
EXTNAMES
  1
ROMANS
  2
romans
  0
XRECORD
  5
3A
102
{ACAD_REACTORS
330
39
102
}
100
AcDbXrecord
102
ACADR14ROUNDTRIP
1000
DSTYLE
1002
{
1070
    79
 70
     1
1070
   276
 70
     1
1070
   277
 70
     5
1070
   289
 70
     1
1002
}
  0
XRECORD
  5
4
102
{ACAD_REACTORS
330
3
102
}
100
AcDbXrecord
340
2
  0
XRECORD
  5
5
102
{ACAD_REACTORS
330
3
102
}
100
AcDbXrecord
102
EXTNAMES
  1
*MODEL_SPACE
  2
*Model_Space
  0
XRECORD
  5
E
102
{ACAD_REACTORS
330
D
102
}
100
AcDbXrecord
340
C
  0
XRECORD
  5
F
102
{ACAD_REACTORS
330
D
102
}
100
AcDbXrecord
102
EXTNAMES
  1
*PAPER_SPACE
  2
*Paper_Space
  0
XRECORD
  5
32
102
{ACAD_REACTORS
330
31
102
}
100
AcDbXrecord
102
EXTNAMES
  1
ACDBVARIABLEDICTIONARY
  2
AcDbVariableDictionary
  0
DICTIONARY
  5
2E
100
AcDbDictionary
280
     1
  3
ACAD_XREC_ROUNDTRIP
360
2F
  0
MLINESTYLE
  5
37
102
{ACAD_REACTORS
330
2D
102
}
100
AcDbMlineStyle
  2
STANDARD
 70
     0
  3

 62
   256
 51
90.0
 52
90.0
 71
     2
 49
0.5
 62
   256
  6
BYLAYER
 49
-0.5
 62
   256
  6
BYLAYER
  0
DICTIONARY
  5
15
100
AcDbDictionary
280
     1
  3
ACAD_XREC_ROUNDTRIP
360
16
  0
XRECORD
  5
17
102
{ACAD_REACTORS
330
14
102
}
100
AcDbXrecord
  1
DIM-1_12
  1
DIM-1_12
  1
*
  1
*
 70
     0
  1
*
  1
*
  0
XRECORD
  5
18
102
{ACAD_REACTORS
330
14
102
}
100
AcDbXrecord
  1
dim-1_16
  1
*
  1
*
  1
*
 70
     0
  1
*
  1
*
  0
XRECORD
  5
2F
102
{ACAD_REACTORS
330
2E
102
}
100
AcDbXrecord
102
EXTNAMES
  1
STANDARD
  2
Standard
  0
XRECORD
  5
16
102
{ACAD_REACTORS
330
15
102
}
100
AcDbXrecord
102
EXTNAMES
  1
DIM-1_16
  2
dim-1_16
  0
ENDSEC
  0
EOF
