  0
SECTION
  2
HEADER
  9
$ACADVER
  1
AC1014
  9
$ACADMAINTVER
 70
     0
  9
$DWGCODEPAGE
  3
ANSI_1252
  9
$INSBASE
 10
158.569337
 20
-187.110138
 30
0.0
  9
$EXTMIN
 10
146.702877
 20
-189.432355
 30
-0.311148
  9
$EXTMAX
 10
208.795456
 20
-163.597441
 30
4.224703
  9
$LIMMIN
 10
0.0
 20
0.0
  9
$LIMMAX
 10
100.502416
 20
51.698548
  9
$ORTHOMODE
 70
     0
  9
$REGENMODE
 70
     1
  9
$FILLMODE
 70
     1
  9
$QTEXTMODE
 70
     0
  9
$MIRRTEXT
 70
     1
  9
$DRAGMODE
 70
     2
  9
$LTSCALE
 40
2.0
  9
$OSMODE
 70
    37
  9
$ATTMODE
 70
     1
  9
$TEXTSIZE
 40
0.1
  9
$TRACEWID
 40
1.0
  9
$TEXTSTYLE
  7
CARTOUCHE
  9
$CLAYER
  8
0
  9
$CELTYPE
  6
BYLAYER
  9
$CECOLOR
 62
   256
  9
$CELTSCALE
 40
1.0
  9
$DELOBJ
 70
     1
  9
$DISPSILH
 70
     0
  9
$DIMSCALE
 40
16.0
  9
$DIMASZ
 40
0.1
  9
$DIMEXO
 40
0.0625
  9
$DIMDLI
 40
0.25
  9
$DIMRND
 40
0.0
  9
$DIMDLE
 40
0.0
  9
$DIMEXE
 40
0.1
  9
$DIMTP
 40
0.0
  9
$DIMTM
 40
0.0
  9
$DIMTXT
 40
0.1
  9
$DIMCEN
 40
0.09
  9
$DIMTSZ
 40
0.0
  9
$DIMTOL
 70
     0
  9
$DIMLIM
 70
     0
  9
$DIMTIH
 70
     1
  9
$DIMTOH
 70
     1
  9
$DIMSE1
 70
     0
  9
$DIMSE2
 70
     0
  9
$DIMTAD
 70
     0
  9
$DIMZIN
 70
     4
  9
$DIMBLK
  1

  9
$DIMASO
 70
     1
  9
$DIMSHO
 70
     1
  9
$DIMPOST
  1
\X
  9
$DIMAPOST
  1
cm
  9
$DIMALT
 70
     1
  9
$DIMALTD
 70
     1
  9
$DIMALTF
 40
2.54
  9
$DIMLFAC
 40
1.0
  9
$DIMTOFL
 70
     0
  9
$DIMTVP
 40
0.0
  9
$DIMTIX
 70
     0
  9
$DIMSOXD
 70
     0
  9
$DIMSAH
 70
     0
  9
$DIMBLK1
  1

  9
$DIMBLK2
  1

  9
$DIMSTYLE
  2
STANDARD
  9
$DIMCLRD
 70
     0
  9
$DIMCLRE
 70
     0
  9
$DIMCLRT
 70
     0
  9
$DIMTFAC
 40
1.0
  9
$DIMGAP
 40
0.08
  9
$DIMJUST
 70
     0
  9
$DIMSD1
 70
     0
  9
$DIMSD2
 70
     0
  9
$DIMTOLJ
 70
     1
  9
$DIMTZIN
 70
     4
  9
$DIMALTZ
 70
     4
  9
$DIMALTTZ
 70
     4
  9
$DIMFIT
 70
     1
  9
$DIMUPT
 70
     0
  9
$DIMUNIT
 70
     2
  9
$DIMDEC
 70
     4
  9
$DIMTDEC
 70
     3
  9
$DIMALTU
 70
     2
  9
$DIMALTTD
 70
     1
  9
$DIMTXSTY
  7
ROMANS
  9
$DIMAUNIT
 70
     0
  9
$LUNITS
 70
     2
  9
$LUPREC
 70
     2
  9
$SKETCHINC
 40
1.0
  9
$FILLETRAD
 40
0.5
  9
$AUNITS
 70
     0
  9
$AUPREC
 70
     0
  9
$MENU
  1
.
  9
$ELEVATION
 40
0.0
  9
$PELEVATION
 40
0.0
  9
$THICKNESS
 40
0.0
  9
$LIMCHECK
 70
     0
  9
$BLIPMODE
 70
     0
  9
$CHAMFERA
 40
0.0
  9
$CHAMFERB
 40
0.0
  9
$CHAMFERC
 40
20.0
  9
$CHAMFERD
 40
0.0
  9
$SKPOLY
 70
     0
  9
$TDCREATE
 40
2452062.343093519
  9
$TDUPDATE
 40
2453689.512559316
  9
$TDINDWG
 40
3.9740125926
  9
$TDUSRTIMER
 40
3.9740125926
  9
$USRTIMER
 70
     1
  9
$ANGBASE
 50
0.0
  9
$ANGDIR
 70
     0
  9
$PDMODE
 70
    34
  9
$PDSIZE
 40
-5.0
  9
$PLINEWID
 40
0.0
  9
$COORDS
 70
     1
  9
$SPLFRAME
 70
     0
  9
$SPLINETYPE
 70
     6
  9
$SPLINESEGS
 70
     8
  9
$ATTDIA
 70
     0
  9
$ATTREQ
 70
     1
  9
$HANDLING
 70
     1
  9
$HANDSEED
  5
93
  9
$SURFTAB1
 70
     6
  9
$SURFTAB2
 70
     6
  9
$SURFTYPE
 70
     6
  9
$SURFU
 70
     6
  9
$SURFV
 70
     6
  9
$UCSNAME
  2

  9
$UCSORG
 10
0.0
 20
0.0
 30
0.0
  9
$UCSXDIR
 10
1.0
 20
0.0
 30
0.0
  9
$UCSYDIR
 10
0.0
 20
1.0
 30
0.0
  9
$PUCSNAME
  2

  9
$PUCSORG
 10
0.0
 20
0.0
 30
0.0
  9
$PUCSXDIR
 10
1.0
 20
0.0
 30
0.0
  9
$PUCSYDIR
 10
0.0
 20
1.0
 30
0.0
  9
$USERI1
 70
     0
  9
$USERI2
 70
     0
  9
$USERI3
 70
     0
  9
$USERI4
 70
     0
  9
$USERI5
 70
     0
  9
$USERR1
 40
0.0
  9
$USERR2
 40
0.0
  9
$USERR3
 40
0.0
  9
$USERR4
 40
0.0
  9
$USERR5
 40
0.0
  9
$WORLDVIEW
 70
     1
  9
$SHADEDGE
 70
     3
  9
$SHADEDIF
 70
    70
  9
$TILEMODE
 70
     1
  9
$MAXACTVP
 70
    48
  9
$PINSBASE
 10
0.0
 20
0.0
 30
0.0
  9
$PLIMCHECK
 70
     0
  9
$PEXTMIN
 10
0.0
 20
0.0
 30
0.0
  9
$PEXTMAX
 10
0.0
 20
0.0
 30
0.0
  9
$PLIMMIN
 10
0.0
 20
0.0
  9
$PLIMMAX
 10
12.0
 20
9.0
  9
$UNITMODE
 70
     0
  9
$VISRETAIN
 70
     1
  9
$PLINEGEN
 70
     0
  9
$PSLTSCALE
 70
     1
  9
$TREEDEPTH
 70
  3020
  9
$PICKSTYLE
 70
     1
  9
$CMLSTYLE
  2
STANDARD
  9
$CMLJUST
 70
     0
  9
$CMLSCALE
 40
20.0
  9
$PROXYGRAPHICS
 70
     1
  9
$MEASUREMENT
 70
     0
  0
ENDSEC
  0
SECTION
  2
CLASSES
  0
CLASS
  1
ACDBDICTIONARYWDFLT
  2
AcDbDictionaryWithDefault
  3
AutoCAD 2000
 90
        0
280
     1
281
     0
  0
CLASS
  1
ACDBPLACEHOLDER
  2
AcDbPlaceHolder
  3
AutoCAD 2000
 90
        0
280
     1
281
     0
  0
CLASS
  1
LAYOUT
  2
AcDbLayout
  3
AutoCAD 2000
 90
        0
280
     1
281
     0
  0
CLASS
  1
DICTIONARYVAR
  2
AcDbDictionaryVar
  3
"AutoCAD"
 90
        0
280
     0
281
     0
  0
CLASS
  1
IMAGEDEF
  2
AcDbRasterImageDef
  3
ISM
 90
        0
280
     1
281
     0
  0
CLASS
  1
LONG_TRANSACTION
  2
AcDbLongTransaction
  3
AutoCAD 2000
 90
        0
280
     1
281
     0
  0
CLASS
  1
LWPOLYLINE
  2
AcDbPolyline
  3
"AutoCAD"
 90
        0
280
     0
281
     1
  0
CLASS
  1
HATCH
  2
AcDbHatch
  3
"ACAD_SEDONA"
 90
        0
280
     0
281
     1
  0
CLASS
  1
XRECORD
  2
AcDbXrecord
  3
"<Built In>"
 90
        0
280
     0
281
     0
  0
CLASS
  1
LONG_TRANSACTION
  2
AcDbLongTransaction
  3
AutoCAD 2000
 90
        0
280
     1
281
     0
  0
CLASS
  1
LWPOLYLINE
  2
AcDbPolyline
  3
"AutoCAD"
 90
        0
280
     0
281
     1
  0
CLASS
  1
HATCH
  2
AcDbHatch
  3
"ACAD_SEDONA"
 90
        0
280
     0
281
     1
  0
CLASS
  1
XRECORD
  2
AcDbXrecord
  3
"<Built In>"
 90
        0
280
     0
281
     0
  0
ENDSEC
  0
SECTION
  2
TABLES
  0
TABLE
  2
VPORT
  5
26
100
AcDbSymbolTable
 70
     2
  0
VPORT
  5
92
100
AcDbSymbolTableRecord
100
AcDbViewportTableRecord
  2
*ACTIVE
 70
     0
 10
0.0
 20
0.0
 11
1.0
 21
1.0
 12
177.749166
 22
-176.514898
 13
0.0
 23
0.0
 14
10.0
 24
10.0
 15
10.0
 25
10.0
 16
0.0
 26
0.0
 36
1.0
 17
0.0
 27
0.0
 37
0.0
 40
43.190092
 41
1.487748
 42
50.0
 43
0.0
 44
0.0
 50
0.0
 51
0.0
 71
     0
 72
   100
 73
     1
 74
     3
 75
     0
 76
     0
 77
     0
 78
     2
  0
ENDTAB
  0
TABLE
  2
LTYPE
  5
1D
100
AcDbSymbolTable
 70
     3
  0
LTYPE
  5
1E
102
{ACAD_XDICTIONARY
360
1F
102
}
100
AcDbSymbolTableRecord
100
AcDbLinetypeTableRecord
  2
BYBLOCK
 70
     0
  3

 72
    65
 73
     0
 40
0.0
  0
LTYPE
  5
21
102
{ACAD_XDICTIONARY
360
22
102
}
100
AcDbSymbolTableRecord
100
AcDbLinetypeTableRecord
  2
BYLAYER
 70
     0
  3

 72
    65
 73
     0
 40
0.0
  0
LTYPE
  5
8
102
{ACAD_XDICTIONARY
360
9
102
}
100
AcDbSymbolTableRecord
100
AcDbLinetypeTableRecord
  2
CONTINUOUS
 70
     0
  3
Solid line
 72
    65
 73
     0
 40
0.0
  0
LTYPE
  5
4F
100
AcDbSymbolTableRecord
100
AcDbLinetypeTableRecord
  2
CENTER
 70
     0
  3
Center ____ _ ____ _ ____ _ ____ _ ____ _ ____
 72
    65
 73
     4
 40
50.8
 49
31.75
 74
     0
 49
-6.35
 74
     0
 49
6.35
 74
     0
 49
-6.35
 74
     0
  0
LTYPE
  5
3F
100
AcDbSymbolTableRecord
100
AcDbLinetypeTableRecord
  2
HIDDEN
 70
     0
  3
Hidden __ __ __ __ __ __ __ __ __ __ __ __ __ _
 72
    65
 73
     2
 40
9.525
 49
6.35
 74
     0
 49
-3.175
 74
     0
  0
ENDTAB
  0
TABLE
  2
LAYER
  5
12
102
{ACAD_XDICTIONARY
360
13
102
}
100
AcDbSymbolTable
 70
     2
  0
LAYER
  5
7
100
AcDbSymbolTableRecord
100
AcDbLayerTableRecord
  2
0
 70
     0
 62
     7
  6
CONTINUOUS
  0
LAYER
  5
4C
102
{ACAD_XDICTIONARY
360
4D
102
}
100
AcDbSymbolTableRecord
100
AcDbLayerTableRecord
  2
CENTER
 70
     0
 62
     1
  6
CENTER
  0
ENDTAB
  0
TABLE
  2
STYLE
  5
19
100
AcDbSymbolTable
 70
     3
  0
STYLE
  5
1A
102
{ACAD_XDICTIONARY
360
1B
102
}
100
AcDbSymbolTableRecord
100
AcDbTextStyleTableRecord
  2
STANDARD
 70
     0
 40
0.0
 41
1.0
 50
0.0
 71
     0
 42
0.125
  3
txt
  4

  0
STYLE
  5
36
100
AcDbSymbolTableRecord
100
AcDbTextStyleTableRecord
  2
CARTOUCHE
 70
     0
 40
0.0
 41
1.0
 50
0.0
 71
     0
 42
0.1
  3
romans.shx
  4

  0
STYLE
  5
33
102
{ACAD_XDICTIONARY
360
34
102
}
100
AcDbSymbolTableRecord
100
AcDbTextStyleTableRecord
  2
ROMANS
 70
     0
 40
0.0
 41
1.0
 50
0.0
 71
     0
 42
1.0
  3
romans.shx
  4

  0
ENDTAB
  0
TABLE
  2
VIEW
  5
24
100
AcDbSymbolTable
 70
     0
  0
ENDTAB
  0
TABLE
  2
UCS
  5
25
100
AcDbSymbolTable
 70
     0
  0
ENDTAB
  0
TABLE
  2
APPID
  5
28
100
AcDbSymbolTable
 70
     1
  0
APPID
  5
29
100
AcDbSymbolTableRecord
100
AcDbRegAppTableRecord
  2
ACAD
 70
     0
  0
ENDTAB
  0
TABLE
  2
DIMSTYLE
  5
2A
100
AcDbSymbolTable
 70
     1
  0
DIMSTYLE
105
38
102
{ACAD_XDICTIONARY
360
39
102
}
100
AcDbSymbolTableRecord
100
AcDbDimStyleTableRecord
  2
STANDARD
 70
     0
  3
\X
  4
cm
  5

  6

  7

 40
16.0
 41
0.1
 42
0.0625
 43
0.25
 44
0.1
 45
0.0
 46
0.0
 47
0.0
 48
0.0
140
0.1
141
0.09
142
0.0
143
2.54
144
1.0
145
0.0
146
1.0
147
0.08
 71
     0
 72
     0
 73
     1
 74
     1
 75
     0
 76
     0
 77
     0
 78
     4
170
     1
171
     1
172
     0
173
     0
174
     0
175
     0
176
     0
177
     0
178
     0
270
     5
271
     3
272
     3
273
     2
274
     1
340
33
275
     0
280
     0
281
     0
282
     0
283
     1
284
     4
285
     4
286
     4
287
     1
288
     0
  0
ENDTAB
  0
TABLE
  2
BLOCK_RECORD
  5
1
100
AcDbSymbolTable
 70
     0
  0
BLOCK_RECORD
  5
2
102
{ACAD_XDICTIONARY
360
3
102
}
100
AcDbSymbolTableRecord
100
AcDbBlockTableRecord
  2
*MODEL_SPACE
  0
BLOCK_RECORD
  5
C
102
{ACAD_XDICTIONARY
360
D
102
}
100
AcDbSymbolTableRecord
100
AcDbBlockTableRecord
  2
*PAPER_SPACE
  0
ENDTAB
  0
ENDSEC
  0
SECTION
  2
BLOCKS
  0
BLOCK
  5
6
100
AcDbEntity
  8
0
100
AcDbBlockBegin
  2
*MODEL_SPACE
 70
     0
 10
0.0
 20
0.0
 30
0.0
  3
*MODEL_SPACE
  1

  0
ENDBLK
  5
B
100
AcDbEntity
  8
0
100
AcDbBlockEnd
  0
BLOCK
  5
10
100
AcDbEntity
 67
     1
  8
0
100
AcDbBlockBegin
  2
*PAPER_SPACE
 70
     0
 10
0.0
 20
0.0
 30
0.0
  3
*PAPER_SPACE
  1

  0
ENDBLK
  5
11
100
AcDbEntity
 67
     1
  8
0
100
AcDbBlockEnd
  0
ENDSEC
  0
SECTION
  2
ENTITIES
  0
LINE
  5
3B
100
AcDbEntity
  8
0
100
AcDbLine
 10
148.090095
 20
-166.110138
 30
4.22435
 11
151.222635
 21
-166.110138
 31
-0.310764
210
0.0000000000000044
220
1.0
230
-0.0000000000000002
  0
LINE
  5
3C
100
AcDbEntity
  8
0
100
AcDbLine
 10
208.18553
 20
-166.110138
 30
0.0
 11
147.374213
 21
-166.110138
 31
0.0
  0
LINE
  5
3D
100
AcDbEntity
  8
0
100
AcDbLine
 10
166.744074
 20
-167.610138
 30
0.0
 11
208.68553
 21
-167.610138
 31
0.0
  0
LINE
  5
3E
100
AcDbEntity
  8
0
  6
HIDDEN
 62
     9
 48
0.05
100
AcDbLine
 10
160.164317
 20
-186.139079
 30
0.0
 11
170.219719
 21
-185.983061
 31
0.0
  0
LINE
  5
40
100
AcDbEntity
  8
0
100
AcDbLine
 10
166.834227
 20
-166.610138
 30
0.0
 11
146.874213
 21
-166.610138
 31
0.0
  0
LINE
  5
41
100
AcDbEntity
  8
0
100
AcDbLine
 10
166.744074
 20
-167.610138
 30
0.0
 11
146.715828
 21
-167.610138
 31
0.0
  0
LINE
  5
42
100
AcDbEntity
  8
0
100
AcDbLine
 10
157.142672
 20
-163.610138
 30
0.0
 11
172.142672
 21
-163.610138
 31
0.0
  0
ARC
  5
43
100
AcDbEntity
  8
0
100
AcDbCircle
 10
164.642672
 20
-170.472615
 30
0.0
 40
0.5
100
AcDbArc
 50
23.207406
 51
90.0
  0
LINE
  5
44
100
AcDbEntity
  8
0
100
AcDbLine
 10
167.642672
 20
-184.537851
 30
0.0
 11
161.642672
 21
-184.537851
 31
0.0
  0
LINE
  5
45
100
AcDbEntity
  8
0
100
AcDbLine
 10
156.855057
 20
-184.537851
 30
0.0
 11
189.893315
 21
-184.537851
 31
0.0
  0
LINE
  5
46
100
AcDbEntity
  8
0
100
AcDbLine
 10
160.258371
 20
-187.110138
 30
0.0
 11
169.026974
 21
-187.110138
 31
0.0
  0
ARC
  5
47
100
AcDbEntity
  8
0
100
AcDbCircle
 10
200.946507
 20
-186.038013
 30
0.0
 40
40.0
100
AcDbArc
 50
156.792594
 51
171.495971
  0
LINE
  5
48
100
AcDbEntity
  8
0
100
AcDbLine
 10
153.770811
 20
-176.610138
 30
0.0
 11
154.535442
 21
-183.88512
 31
0.0
  0
ARC
  5
49
100
AcDbEntity
  8
0
100
AcDbCircle
 10
156.855057
 20
-182.037851
 30
0.0
 40
2.5
100
AcDbArc
 50
186.0
 51
270.0
  0
ARC
  5
4A
100
AcDbEntity
  8
0
100
AcDbCircle
 10
157.023353
 20
-183.639559
 30
0.0
 40
2.5
100
AcDbArc
 50
185.636936
 51
268.87702
  0
LINE
  5
4B
100
AcDbEntity
  8
CENTER
 48
0.05
100
AcDbLine
 10
158.569337
 20
-183.432452
 30
0.0
 11
158.569337
 21
-189.414139
 31
0.0
  0
LINE
  5
50
100
AcDbEntity
  8
0
  6
HIDDEN
 62
     9
 48
0.05
100
AcDbLine
 10
159.661748
 20
-186.641648
 30
0.0
 11
160.164317
 21
-186.139079
 31
0.0
  0
ARC
  5
51
100
AcDbEntity
  8
0
 48
0.1
100
AcDbCircle
 10
160.258371
 20
-186.110138
 30
0.0
 40
1.0
100
AcDbArc
 50
225.0
 51
270.0
  0
LINE
  5
52
100
AcDbEntity
  8
0
100
AcDbLine
 10
159.449036
 20
-186.641648
 30
0.0
 11
157.476926
 21
-186.641648
 31
0.0
  0
LINE
  5
53
100
AcDbEntity
  8
0
100
AcDbLine
 10
157.476926
 20
-186.641648
 30
0.0
 11
156.974357
 21
-186.139079
 31
0.0
  0
LINE
  5
54
100
AcDbEntity
  8
0
  6
HIDDEN
 62
     9
 48
0.05
100
AcDbLine
 10
159.661748
 20
-186.641648
 30
0.0
 11
159.449036
 21
-186.641648
 31
0.0
  0
LINE
  5
55
100
AcDbEntity
  8
0
 48
0.1
100
AcDbLine
 10
158.224265
 20
-184.537851
 30
0.0
 11
159.551264
 21
-186.817245
 31
0.0
  0
ARC
  5
56
100
AcDbEntity
  8
0
100
AcDbCircle
 10
172.055867
 20
-181.718201
 30
0.0
 40
10.78819
100
AcDbArc
 50
171.495971
 51
195.15104
  0
LINE
  5
57
100
AcDbEntity
  8
0
100
AcDbLine
 10
146.715828
 20
-167.610138
 30
0.0
 11
156.587887
 21
-167.610138
 31
0.0
  0
ARC
  5
58
100
AcDbEntity
  8
0
100
AcDbCircle
 10
155.081858
 20
-164.610138
 30
0.0
 40
1.5
100
AcDbArc
 50
270.0
 51
354.0
  0
LINE
  5
59
100
AcDbEntity
  8
CENTER
 48
0.05
100
AcDbLine
 10
150.350142
 20
-169.641648
 30
0.0
 11
155.726644
 21
-169.641648
 31
0.0
  0
LINE
  5
5A
100
AcDbEntity
  8
0
  6
HIDDEN
 62
     9
 48
0.05
100
AcDbLine
 10
153.770811
 20
-176.610138
 30
0.0
 11
152.772321
 21
-167.110138
 31
0.0
  0
LINE
  5
5B
100
AcDbEntity
  8
0
100
AcDbLine
 10
150.007563
 20
-167.610138
 30
0.0
 11
150.953501
 21
-176.610138
 31
0.0
  0
LINE
  5
5C
100
AcDbEntity
  8
0
100
AcDbLine
 10
153.770811
 20
-176.610138
 30
0.0
 11
150.953501
 21
-176.610138
 31
0.0
  0
LINE
  5
5D
100
AcDbEntity
  8
0
100
AcDbLine
 10
146.874213
 20
-166.610138
 30
0.0
 11
147.374213
 21
-166.110138
 31
0.0
  0
LINE
  5
5E
100
AcDbEntity
  8
0
100
AcDbLine
 10
146.874213
 20
-166.610138
 30
0.0
 11
146.715828
 21
-167.610138
 31
0.0
  0
LINE
  5
5F
100
AcDbEntity
  8
0
  6
HIDDEN
 62
     9
 48
0.05
100
AcDbLine
 10
149.902459
 20
-166.610138
 30
0.0
 11
149.402459
 21
-166.110138
 31
0.0
  0
LINE
  5
60
100
AcDbEntity
  8
0
  6
HIDDEN
 62
     9
 48
0.05
100
AcDbLine
 10
150.007563
 20
-167.610138
 30
0.0
 11
149.902459
 21
-166.610138
 31
0.0
  0
LINE
  5
61
100
AcDbEntity
  8
0
  6
HIDDEN
 62
     9
 48
0.05
100
AcDbLine
 10
151.772321
 20
-166.110138
 30
0.0
 11
152.772321
 21
-167.110138
 31
0.0
  0
ARC
  5
62
100
AcDbEntity
  8
0
100
AcDbCircle
 10
164.642672
 20
-170.472615
 30
0.0
 40
0.5
100
AcDbArc
 50
90.0
 51
156.792594
  0
ARC
  5
63
100
AcDbEntity
  8
0
100
AcDbCircle
 10
155.026552
 20
-164.610138
 30
0.0
 40
2.0
100
AcDbArc
 50
311.409622
 51
354.0
  0
LINE
  5
64
100
AcDbEntity
  8
0
100
AcDbLine
 10
156.642672
 20
-164.110138
 30
0.0
 11
156.573641
 21
-164.766931
 31
0.0
  0
LINE
  5
65
100
AcDbEntity
  8
0
100
AcDbLine
 10
157.142672
 20
-163.610138
 30
0.0
 11
156.642672
 21
-164.110138
 31
0.0
  0
LINE
  5
66
100
AcDbEntity
  8
0
100
AcDbLine
 10
157.142672
 20
-163.610138
 30
0.0
 11
157.015595
 21
-164.819195
 31
0.0
  0
ARC
  5
67
100
AcDbEntity
  8
0
100
AcDbCircle
 10
231.693863
 20
-190.775429
 30
0.0
 40
49.440103
100
AcDbArc
 50
155.662715
 51
172.751999
  0
ARC
  5
68
100
AcDbEntity
  8
0
100
AcDbCircle
 10
219.77902
 20
-191.096329
 30
0.0
 40
39.064304
100
AcDbArc
 50
148.009333
 51
170.334879
  0
ELLIPSE
  5
69
100
AcDbEntity
  8
0
100
AcDbEllipse
 10
184.621838
 20
-166.110138
 30
0.0
 11
0.0000000000002135
 21
2.0
 31
0.0
210
0.0
220
0.0
230
1.0
 40
0.679105
 41
4.712388980384691
 42
7.853981633974484
  0
ELLIPSE
  5
6A
100
AcDbEntity
  8
0
100
AcDbEllipse
 10
185.031394
 20
-166.110138
 30
0.0
 11
0.0000000000001994
 21
2.5
 31
0.0
210
0.0
220
0.0
230
1.0
 40
0.707107
 41
4.712388980384689
 42
7.853981633974482
  0
LINE
  5
6B
100
AcDbEntity
  8
0
100
AcDbLine
 10
176.173089
 20
-166.110138
 30
0.0
 11
185.453891
 21
-166.110138
 31
0.0
  0
LINE
  5
6C
100
AcDbEntity
  8
0
100
AcDbLine
 10
177.383795
 20
-187.110138
 30
0.0
 11
184.996065
 21
-187.110138
 31
0.0
  0
LINE
  5
6D
100
AcDbEntity
  8
0
100
AcDbLine
 10
178.881225
 20
-166.110138
 30
0.0
 11
175.268477
 21
-182.573698
 31
0.0
  0
ARC
  5
6E
100
AcDbEntity
  8
0
100
AcDbCircle
 10
128.338838
 20
-186.038013
 30
0.0
 40
40.0
100
AcDbArc
 50
8.504029
 51
23.207406
  0
ARC
  5
6F
100
AcDbEntity
  8
0
100
AcDbCircle
 10
173.378299
 20
-182.647912
 30
0.0
 40
1.891635
100
AcDbArc
 50
272.426255
 51
2.248429
  0
LINE
  5
70
100
AcDbEntity
  8
0
100
AcDbLine
 10
176.124624
 20
-185.868962
 30
0.0
 11
170.219719
 21
-185.983061
 31
0.0
  0
LINE
  5
71
100
AcDbEntity
  8
0
 48
0.1
100
AcDbLine
 10
171.06108
 20
-184.537851
 30
0.0
 11
169.734081
 21
-186.817245
 31
0.0
  0
ARC
  5
72
100
AcDbEntity
  8
0
100
AcDbCircle
 10
157.229478
 20
-181.718201
 30
0.0
 40
10.78819
100
AcDbArc
 50
344.84896
 51
8.504029
  0
ARC
  5
73
100
AcDbEntity
  8
0
 48
0.1
100
AcDbCircle
 10
169.026974
 20
-186.110138
 30
0.0
 40
1.0
100
AcDbArc
 50
270.0
 51
315.0
  0
ARC
  5
74
100
AcDbEntity
  8
0
 48
0.1
100
AcDbCircle
 10
177.383795
 20
-186.110138
 30
0.0
 40
1.0
100
AcDbArc
 50
225.0
 51
270.0
  0
LINE
  5
75
100
AcDbEntity
  8
0
 48
0.1
100
AcDbLine
 10
175.349689
 20
-184.537851
 30
0.0
 11
176.676688
 21
-186.817245
 31
0.0
  0
LINE
  5
76
100
AcDbEntity
  8
0
 48
0.1
100
AcDbLine
 10
177.714509
 20
-184.537851
 30
0.0
 11
178.385172
 21
-186.817245
 31
0.0
  0
ARC
  5
77
100
AcDbEntity
  8
0
 48
0.1
100
AcDbCircle
 10
179.092279
 20
-186.110138
 30
0.0
 40
1.0
100
AcDbArc
 50
225.0
 51
270.0
  0
ARC
  5
78
100
AcDbEntity
  8
0
100
AcDbCircle
 10
175.064741
 20
-163.381248
 30
0.0
 40
2.730733
100
AcDbArc
 50
210.493454
 51
272.104922
  0
LINE
  5
79
100
AcDbEntity
  8
0
100
AcDbLine
 10
166.834227
 20
-166.610138
 30
0.0
 11
166.834227
 21
-167.610138
 31
0.0
  0
LINE
  5
7A
100
AcDbEntity
  8
0
100
AcDbLine
 10
167.188253
 20
-166.110138
 30
0.0
 11
166.834227
 21
-166.610138
 31
0.0
  0
ARC
  5
7B
100
AcDbEntity
  8
0
100
AcDbCircle
 10
174.258793
 20
-164.610138
 30
0.0
 40
2.0
100
AcDbArc
 50
186.0
 51
228.590378
  0
LINE
  5
7C
100
AcDbEntity
  8
0
100
AcDbLine
 10
172.142672
 20
-163.610138
 30
0.0
 11
172.642672
 21
-164.110138
 31
0.0
  0
LINE
  5
7D
100
AcDbEntity
  8
0
100
AcDbLine
 10
172.142672
 20
-163.610138
 30
0.0
 11
172.269749
 21
-164.819195
 31
0.0
  0
LINE
  5
7E
100
AcDbEntity
  8
0
100
AcDbLine
 10
172.642672
 20
-164.110138
 30
0.0
 11
172.711704
 21
-164.766931
 31
0.0
  0
ARC
  5
7F
100
AcDbEntity
  8
0
100
AcDbCircle
 10
166.468999
 20
-175.372649
 30
0.0
 40
21.745808
100
AcDbArc
 50
335.072581
 51
13.349179
  0
LINE
  5
80
100
AcDbEntity
  8
0
100
AcDbLine
 10
196.068528
 20
-176.610138
 30
0.0
 11
192.036609
 21
-183.32482
 31
0.0
  0
LINE
  5
81
100
AcDbEntity
  8
0
 48
0.1
100
AcDbLine
 10
187.030171
 20
-184.537851
 30
0.0
 11
185.703172
 21
-186.817245
 31
0.0
  0
ARC
  5
82
100
AcDbEntity
  8
0
 48
0.1
100
AcDbCircle
 10
184.996065
 20
-186.110138
 30
0.0
 40
1.0
100
AcDbArc
 50
270.0
 51
315.0
  0
ARC
  5
83
100
AcDbEntity
  8
0
100
AcDbCircle
 10
189.893315
 20
-182.037851
 30
0.0
 40
2.5
100
AcDbArc
 50
270.0
 51
329.016736
  0
LINE
  5
84
100
AcDbEntity
  8
0
100
AcDbLine
 10
185.031394
 20
-163.610138
 30
0.0
 11
197.052209
 21
-163.610138
 31
0.0
  0
ARC
  5
85
100
AcDbEntity
  8
0
100
AcDbCircle
 10
187.142056
 20
-170.472615
 30
0.0
 40
0.5
100
AcDbArc
 50
12.694251
 51
171.741916
  0
LINE
  5
86
100
AcDbEntity
  8
0
100
AcDbLine
 10
199.602575
 20
-167.610138
 30
0.0
 11
197.836295
 21
-176.610138
 31
0.0
  0
LINE
  5
87
100
AcDbEntity
  8
0
100
AcDbLine
 10
197.836295
 20
-176.610138
 30
0.0
 11
196.068528
 21
-176.610138
 31
0.0
  0
ELLIPSE
  5
88
100
AcDbEntity
  8
0
100
AcDbEllipse
 10
197.052209
 20
-166.110138
 30
0.0
 11
0.0000000000000347
 21
-2.500000000000198
 31
0.0
210
0.0
220
0.0
230
1.0
 40
0.707107
 41
1.570796326794886
 42
3.141592653589772
  0
LINE
  5
89
100
AcDbEntity
  8
0
 62
     9
100
AcDbLine
 10
199.741236
 20
-166.903598
 30
0.0
 11
199.602575
 21
-167.610138
 31
0.0
  0
LINE
  5
8A
100
AcDbEntity
  8
0
 62
     9
100
AcDbLine
 10
199.896955
 20
-166.110138
 30
0.0
 11
199.811154
 21
-166.547333
 31
0.0
  0
ARC
  5
8B
100
AcDbEntity
  8
0
100
AcDbCircle
 10
208.18553
 20
-166.610138
 30
0.0
 40
0.5
100
AcDbArc
 50
0.0
 51
90.0
  0
LINE
  5
8C
100
AcDbEntity
  8
0
100
AcDbLine
 10
208.68553
 20
-166.610138
 30
0.0
 11
208.68553
 21
-167.610138
 31
0.0
  0
LINE
  5
8D
100
AcDbEntity
  8
0
100
AcDbLine
 10
150.547191
 20
-166.110138
 30
2.572113
 11
148.765539
 21
-166.110138
 31
1.341473
210
0.0000000000000044
220
1.0
230
-0.0000000000000002
  0
ENDSEC
  0
SECTION
  2
OBJECTS
  0
DICTIONARY
  5
30
102
{ACAD_XDICTIONARY
360
31
102
}
100
AcDbDictionary
  3
ACAD_GROUP
350
2C
  3
ACAD_MLINESTYLE
350
2D
  0
DICTIONARY
  5
1F
100
AcDbDictionary
280
     1
  3
ACAD_XREC_ROUNDTRIP
360
20
  0
DICTIONARY
  5
22
100
AcDbDictionary
280
     1
  3
ACAD_XREC_ROUNDTRIP
360
23
  0
DICTIONARY
  5
9
100
AcDbDictionary
280
     1
  3
ACAD_XREC_ROUNDTRIP
360
A
  0
DICTIONARY
  5
13
100
AcDbDictionary
280
     1
  3
ACAD_LAYERFILTERS
360
14
  0
DICTIONARY
  5
4D
100
AcDbDictionary
280
     1
  3
ACAD_XREC_ROUNDTRIP
360
4E
  0
DICTIONARY
  5
1B
100
AcDbDictionary
280
     1
  3
ACAD_XREC_ROUNDTRIP
360
1C
  0
DICTIONARY
  5
34
100
AcDbDictionary
280
     1
  3
ACAD_XREC_ROUNDTRIP
360
35
  0
DICTIONARY
  5
39
100
AcDbDictionary
280
     1
  3
ACAD_XREC_ROUNDTRIP
360
3A
  0
DICTIONARY
  5
3
100
AcDbDictionary
280
     1
  3
ACAD_LAYOUTSELFREF
360
4
  3
ACAD_XREC_ROUNDTRIP
360
5
  0
DICTIONARY
  5
D
100
AcDbDictionary
280
     1
  3
ACAD_LAYOUTSELFREF
360
E
  3
ACAD_XREC_ROUNDTRIP
360
F
  0
DICTIONARY
  5
31
100
AcDbDictionary
280
     1
  3
ACAD_XREC_ROUNDTRIP
360
32
  0
DICTIONARY
  5
2C
102
{ACAD_REACTORS
330
30
102
}
100
AcDbDictionary
  0
DICTIONARY
  5
2D
102
{ACAD_XDICTIONARY
360
2E
102
}
102
{ACAD_REACTORS
330
30
102
}
100
AcDbDictionary
  3
STANDARD
350
37
  0
XRECORD
  5
20
102
{ACAD_REACTORS
330
1F
102
}
100
AcDbXrecord
102
EXTNAMES
  1
BYBLOCK
  2
ByBlock
  0
XRECORD
  5
23
102
{ACAD_REACTORS
330
22
102
}
100
AcDbXrecord
102
EXTNAMES
  1
BYLAYER
  2
ByLayer
  0
XRECORD
  5
A
102
{ACAD_REACTORS
330
9
102
}
100
AcDbXrecord
102
EXTNAMES
  1
CONTINUOUS
  2
Continuous
  0
DICTIONARY
  5
14
102
{ACAD_XDICTIONARY
360
15
102
}
102
{ACAD_REACTORS
330
13
102
}
100
AcDbDictionary
280
     1
  3
DIM-1_12
360
17
  3
DIM-1_16
360
18
  0
XRECORD
  5
4E
102
{ACAD_REACTORS
330
4D
102
}
100
AcDbXrecord
102
LINEWEIGHT
280
     3
  0
XRECORD
  5
1C
102
{ACAD_REACTORS
330
1B
102
}
100
AcDbXrecord
102
EXTNAMES
  1
STANDARD
  2
Standard
  0
XRECORD
  5
35
102
{ACAD_REACTORS
330
34
102
}
100
AcDbXrecord
102
EXTNAMES
  1
ROMANS
  2
romans
  0
XRECORD
  5
3A
102
{ACAD_REACTORS
330
39
102
}
100
AcDbXrecord
102
ACADR14ROUNDTRIP
1000
DSTYLE
1002
{
1070
    79
 70
     1
1070
   276
 70
     1
1070
   277
 70
     5
1070
   289
 70
     1
1002
}
  0
XRECORD
  5
4
102
{ACAD_REACTORS
330
3
102
}
100
AcDbXrecord
340
2
  0
XRECORD
  5
5
102
{ACAD_REACTORS
330
3
102
}
100
AcDbXrecord
102
EXTNAMES
  1
*MODEL_SPACE
  2
*Model_Space
  0
XRECORD
  5
E
102
{ACAD_REACTORS
330
D
102
}
100
AcDbXrecord
340
C
  0
XRECORD
  5
F
102
{ACAD_REACTORS
330
D
102
}
100
AcDbXrecord
102
EXTNAMES
  1
*PAPER_SPACE
  2
*Paper_Space
  0
XRECORD
  5
32
102
{ACAD_REACTORS
330
31
102
}
100
AcDbXrecord
102
EXTNAMES
  1
ACDBVARIABLEDICTIONARY
  2
AcDbVariableDictionary
  0
DICTIONARY
  5
2E
100
AcDbDictionary
280
     1
  3
ACAD_XREC_ROUNDTRIP
360
2F
  0
MLINESTYLE
  5
37
102
{ACAD_REACTORS
330
2D
102
}
100
AcDbMlineStyle
  2
STANDARD
 70
     0
  3

 62
   256
 51
90.0
 52
90.0
 71
     2
 49
0.5
 62
   256
  6
BYLAYER
 49
-0.5
 62
   256
  6
BYLAYER
  0
DICTIONARY
  5
15
100
AcDbDictionary
280
     1
  3
ACAD_XREC_ROUNDTRIP
360
16
  0
XRECORD
  5
17
102
{ACAD_REACTORS
330
14
102
}
100
AcDbXrecord
  1
DIM-1_12
  1
DIM-1_12
  1
*
  1
*
 70
     0
  1
*
  1
*
  0
XRECORD
  5
18
102
{ACAD_REACTORS
330
14
102
}
100
AcDbXrecord
  1
dim-1_16
  1
*
  1
*
  1
*
 70
     0
  1
*
  1
*
  0
XRECORD
  5
2F
102
{ACAD_REACTORS
330
2E
102
}
100
AcDbXrecord
102
EXTNAMES
  1
STANDARD
  2
Standard
  0
XRECORD
  5
16
102
{ACAD_REACTORS
330
15
102
}
100
AcDbXrecord
102
EXTNAMES
  1
DIM-1_16
  2
dim-1_16
  0
ENDSEC
  0
EOF
