  0
SECTION
  2
HEADER
  9
$ACADVER
  1
AC1014
  9
$ACADMAINTVER
 70
     0
  9
$DWGCODEPAGE
  3
ANSI_1252
  9
$INSBASE
 10
83.733232
 20
-121.305709
 30
0.0
  9
$EXTMIN
 10
49.350165
 20
-134.214693
 30
0.0
  9
$EXTMAX
 10
133.849426
 20
-71.189516
 30
0.0
  9
$LIMMIN
 10
0.0
 20
0.0
  9
$LIMMAX
 10
100.502416
 20
51.698548
  9
$ORTHOMODE
 70
     1
  9
$REGENMODE
 70
     1
  9
$FILLMODE
 70
     1
  9
$QTEXTMODE
 70
     0
  9
$MIRRTEXT
 70
     1
  9
$DRAGMODE
 70
     2
  9
$LTSCALE
 40
2.0
  9
$OSMODE
 70
    37
  9
$ATTMODE
 70
     1
  9
$TEXTSIZE
 40
0.1
  9
$TRACEWID
 40
1.0
  9
$TEXTSTYLE
  7
CARTOUCHE
  9
$CLAYER
  8
0
  9
$CELTYPE
  6
BYLAYER
  9
$CECOLOR
 62
   256
  9
$CELTSCALE
 40
1.0
  9
$DELOBJ
 70
     1
  9
$DISPSILH
 70
     0
  9
$DIMSCALE
 40
16.0
  9
$DIMASZ
 40
0.1
  9
$DIMEXO
 40
0.0625
  9
$DIMDLI
 40
0.25
  9
$DIMRND
 40
0.0
  9
$DIMDLE
 40
0.0
  9
$DIMEXE
 40
0.1
  9
$DIMTP
 40
0.0
  9
$DIMTM
 40
0.0
  9
$DIMTXT
 40
0.1
  9
$DIMCEN
 40
0.09
  9
$DIMTSZ
 40
0.0
  9
$DIMTOL
 70
     0
  9
$DIMLIM
 70
     0
  9
$DIMTIH
 70
     1
  9
$DIMTOH
 70
     1
  9
$DIMSE1
 70
     0
  9
$DIMSE2
 70
     0
  9
$DIMTAD
 70
     0
  9
$DIMZIN
 70
     4
  9
$DIMBLK
  1

  9
$DIMASO
 70
     1
  9
$DIMSHO
 70
     1
  9
$DIMPOST
  1
\X
  9
$DIMAPOST
  1
cm
  9
$DIMALT
 70
     1
  9
$DIMALTD
 70
     1
  9
$DIMALTF
 40
2.54
  9
$DIMLFAC
 40
1.0
  9
$DIMTOFL
 70
     0
  9
$DIMTVP
 40
0.0
  9
$DIMTIX
 70
     0
  9
$DIMSOXD
 70
     0
  9
$DIMSAH
 70
     0
  9
$DIMBLK1
  1

  9
$DIMBLK2
  1

  9
$DIMSTYLE
  2
STANDARD
  9
$DIMCLRD
 70
     0
  9
$DIMCLRE
 70
     0
  9
$DIMCLRT
 70
     0
  9
$DIMTFAC
 40
1.0
  9
$DIMGAP
 40
0.08
  9
$DIMJUST
 70
     0
  9
$DIMSD1
 70
     0
  9
$DIMSD2
 70
     0
  9
$DIMTOLJ
 70
     1
  9
$DIMTZIN
 70
     4
  9
$DIMALTZ
 70
     4
  9
$DIMALTTZ
 70
     4
  9
$DIMFIT
 70
     1
  9
$DIMUPT
 70
     0
  9
$DIMUNIT
 70
     2
  9
$DIMDEC
 70
     4
  9
$DIMTDEC
 70
     3
  9
$DIMALTU
 70
     2
  9
$DIMALTTD
 70
     1
  9
$DIMTXSTY
  7
ROMANS
  9
$DIMAUNIT
 70
     0
  9
$LUNITS
 70
     2
  9
$LUPREC
 70
     2
  9
$SKETCHINC
 40
1.0
  9
$FILLETRAD
 40
2.0
  9
$AUNITS
 70
     0
  9
$AUPREC
 70
     0
  9
$MENU
  1
.
  9
$ELEVATION
 40
0.0
  9
$PELEVATION
 40
0.0
  9
$THICKNESS
 40
0.0
  9
$LIMCHECK
 70
     0
  9
$BLIPMODE
 70
     0
  9
$CHAMFERA
 40
0.0
  9
$CHAMFERB
 40
0.0
  9
$CHAMFERC
 40
20.0
  9
$CHAMFERD
 40
0.0
  9
$SKPOLY
 70
     0
  9
$TDCREATE
 40
2452062.343093519
  9
$TDUPDATE
 40
2453689.513084849
  9
$TDINDWG
 40
3.9739004398
  9
$TDUSRTIMER
 40
3.9739004398
  9
$USRTIMER
 70
     1
  9
$ANGBASE
 50
0.0
  9
$ANGDIR
 70
     0
  9
$PDMODE
 70
    34
  9
$PDSIZE
 40
-5.0
  9
$PLINEWID
 40
0.0
  9
$COORDS
 70
     1
  9
$SPLFRAME
 70
     0
  9
$SPLINETYPE
 70
     6
  9
$SPLINESEGS
 70
     8
  9
$ATTDIA
 70
     0
  9
$ATTREQ
 70
     1
  9
$HANDLING
 70
     1
  9
$HANDSEED
  5
13B
  9
$SURFTAB1
 70
     6
  9
$SURFTAB2
 70
     6
  9
$SURFTYPE
 70
     6
  9
$SURFU
 70
     6
  9
$SURFV
 70
     6
  9
$UCSNAME
  2

  9
$UCSORG
 10
0.0
 20
0.0
 30
0.0
  9
$UCSXDIR
 10
1.0
 20
0.0
 30
0.0
  9
$UCSYDIR
 10
0.0
 20
1.0
 30
0.0
  9
$PUCSNAME
  2

  9
$PUCSORG
 10
0.0
 20
0.0
 30
0.0
  9
$PUCSXDIR
 10
1.0
 20
0.0
 30
0.0
  9
$PUCSYDIR
 10
0.0
 20
1.0
 30
0.0
  9
$USERI1
 70
     0
  9
$USERI2
 70
     0
  9
$USERI3
 70
     0
  9
$USERI4
 70
     0
  9
$USERI5
 70
     0
  9
$USERR1
 40
0.0
  9
$USERR2
 40
0.0
  9
$USERR3
 40
0.0
  9
$USERR4
 40
0.0
  9
$USERR5
 40
0.0
  9
$WORLDVIEW
 70
     1
  9
$SHADEDGE
 70
     3
  9
$SHADEDIF
 70
    70
  9
$TILEMODE
 70
     1
  9
$MAXACTVP
 70
    48
  9
$PINSBASE
 10
0.0
 20
0.0
 30
0.0
  9
$PLIMCHECK
 70
     0
  9
$PEXTMIN
 10
0.0
 20
0.0
 30
0.0
  9
$PEXTMAX
 10
0.0
 20
0.0
 30
0.0
  9
$PLIMMIN
 10
0.0
 20
0.0
  9
$PLIMMAX
 10
12.0
 20
9.0
  9
$UNITMODE
 70
     0
  9
$VISRETAIN
 70
     1
  9
$PLINEGEN
 70
     0
  9
$PSLTSCALE
 70
     1
  9
$TREEDEPTH
 70
  3020
  9
$PICKSTYLE
 70
     1
  9
$CMLSTYLE
  2
STANDARD
  9
$CMLJUST
 70
     0
  9
$CMLSCALE
 40
20.0
  9
$PROXYGRAPHICS
 70
     1
  9
$MEASUREMENT
 70
     0
  0
ENDSEC
  0
SECTION
  2
CLASSES
  0
CLASS
  1
ACDBDICTIONARYWDFLT
  2
AcDbDictionaryWithDefault
  3
AutoCAD 2000
 90
        0
280
     1
281
     0
  0
CLASS
  1
ACDBPLACEHOLDER
  2
AcDbPlaceHolder
  3
AutoCAD 2000
 90
        0
280
     1
281
     0
  0
CLASS
  1
LAYOUT
  2
AcDbLayout
  3
AutoCAD 2000
 90
        0
280
     1
281
     0
  0
CLASS
  1
DICTIONARYVAR
  2
AcDbDictionaryVar
  3
"AutoCAD"
 90
        0
280
     0
281
     0
  0
CLASS
  1
IMAGEDEF
  2
AcDbRasterImageDef
  3
ISM
 90
        0
280
     1
281
     0
  0
CLASS
  1
LONG_TRANSACTION
  2
AcDbLongTransaction
  3
AutoCAD 2000
 90
        0
280
     1
281
     0
  0
CLASS
  1
LWPOLYLINE
  2
AcDbPolyline
  3
"AutoCAD"
 90
        0
280
     0
281
     1
  0
CLASS
  1
HATCH
  2
AcDbHatch
  3
"ACAD_SEDONA"
 90
        0
280
     0
281
     1
  0
CLASS
  1
XRECORD
  2
AcDbXrecord
  3
"<Built In>"
 90
        0
280
     0
281
     0
  0
CLASS
  1
LONG_TRANSACTION
  2
AcDbLongTransaction
  3
AutoCAD 2000
 90
        0
280
     1
281
     0
  0
CLASS
  1
LWPOLYLINE
  2
AcDbPolyline
  3
"AutoCAD"
 90
        0
280
     0
281
     1
  0
CLASS
  1
HATCH
  2
AcDbHatch
  3
"ACAD_SEDONA"
 90
        0
280
     0
281
     1
  0
CLASS
  1
XRECORD
  2
AcDbXrecord
  3
"<Built In>"
 90
        0
280
     0
281
     0
  0
ENDSEC
  0
SECTION
  2
TABLES
  0
TABLE
  2
VPORT
  5
26
100
AcDbSymbolTable
 70
     2
  0
VPORT
  5
13A
100
AcDbSymbolTableRecord
100
AcDbViewportTableRecord
  2
*ACTIVE
 70
     0
 10
0.0
 20
0.0
 11
1.0
 21
1.0
 12
92.493842
 22
-104.050889
 13
0.0
 23
0.0
 14
10.0
 24
10.0
 15
10.0
 25
10.0
 16
0.0
 26
0.0
 36
1.0
 17
0.0
 27
0.0
 37
0.0
 40
68.213594
 41
1.487748
 42
50.0
 43
0.0
 44
0.0
 50
0.0
 51
0.0
 71
     0
 72
   100
 73
     1
 74
     3
 75
     0
 76
     0
 77
     0
 78
     2
  0
ENDTAB
  0
TABLE
  2
LTYPE
  5
1D
100
AcDbSymbolTable
 70
     2
  0
LTYPE
  5
1E
102
{ACAD_XDICTIONARY
360
1F
102
}
100
AcDbSymbolTableRecord
100
AcDbLinetypeTableRecord
  2
BYBLOCK
 70
     0
  3

 72
    65
 73
     0
 40
0.0
  0
LTYPE
  5
21
102
{ACAD_XDICTIONARY
360
22
102
}
100
AcDbSymbolTableRecord
100
AcDbLinetypeTableRecord
  2
BYLAYER
 70
     0
  3

 72
    65
 73
     0
 40
0.0
  0
LTYPE
  5
8
102
{ACAD_XDICTIONARY
360
9
102
}
100
AcDbSymbolTableRecord
100
AcDbLinetypeTableRecord
  2
CONTINUOUS
 70
     0
  3
Solid line
 72
    65
 73
     0
 40
0.0
  0
LTYPE
  5
4F
100
AcDbSymbolTableRecord
100
AcDbLinetypeTableRecord
  2
CENTER
 70
     0
  3
Center ____ _ ____ _ ____ _ ____ _ ____ _ ____
 72
    65
 73
     4
 40
50.8
 49
31.75
 74
     0
 49
-6.35
 74
     0
 49
6.35
 74
     0
 49
-6.35
 74
     0
  0
ENDTAB
  0
TABLE
  2
LAYER
  5
12
102
{ACAD_XDICTIONARY
360
13
102
}
100
AcDbSymbolTable
 70
     2
  0
LAYER
  5
7
100
AcDbSymbolTableRecord
100
AcDbLayerTableRecord
  2
0
 70
     0
 62
     7
  6
CONTINUOUS
  0
LAYER
  5
4C
102
{ACAD_XDICTIONARY
360
4D
102
}
100
AcDbSymbolTableRecord
100
AcDbLayerTableRecord
  2
CENTER
 70
     0
 62
     1
  6
CENTER
  0
ENDTAB
  0
TABLE
  2
STYLE
  5
19
100
AcDbSymbolTable
 70
     3
  0
STYLE
  5
1A
102
{ACAD_XDICTIONARY
360
1B
102
}
100
AcDbSymbolTableRecord
100
AcDbTextStyleTableRecord
  2
STANDARD
 70
     0
 40
0.0
 41
1.0
 50
0.0
 71
     0
 42
0.125
  3
txt
  4

  0
STYLE
  5
36
100
AcDbSymbolTableRecord
100
AcDbTextStyleTableRecord
  2
CARTOUCHE
 70
     0
 40
0.0
 41
1.0
 50
0.0
 71
     0
 42
0.1
  3
romans.shx
  4

  0
STYLE
  5
33
102
{ACAD_XDICTIONARY
360
34
102
}
100
AcDbSymbolTableRecord
100
AcDbTextStyleTableRecord
  2
ROMANS
 70
     0
 40
0.0
 41
1.0
 50
0.0
 71
     0
 42
1.0
  3
romans.shx
  4

  0
ENDTAB
  0
TABLE
  2
VIEW
  5
24
100
AcDbSymbolTable
 70
     0
  0
ENDTAB
  0
TABLE
  2
UCS
  5
25
100
AcDbSymbolTable
 70
     0
  0
ENDTAB
  0
TABLE
  2
APPID
  5
28
100
AcDbSymbolTable
 70
     1
  0
APPID
  5
29
100
AcDbSymbolTableRecord
100
AcDbRegAppTableRecord
  2
ACAD
 70
     0
  0
ENDTAB
  0
TABLE
  2
DIMSTYLE
  5
2A
100
AcDbSymbolTable
 70
     1
  0
DIMSTYLE
105
38
102
{ACAD_XDICTIONARY
360
39
102
}
100
AcDbSymbolTableRecord
100
AcDbDimStyleTableRecord
  2
STANDARD
 70
     0
  3
\X
  4
cm
  5

  6

  7

 40
16.0
 41
0.1
 42
0.0625
 43
0.25
 44
0.1
 45
0.0
 46
0.0
 47
0.0
 48
0.0
140
0.1
141
0.09
142
0.0
143
2.54
144
1.0
145
0.0
146
1.0
147
0.08
 71
     0
 72
     0
 73
     1
 74
     1
 75
     0
 76
     0
 77
     0
 78
     4
170
     1
171
     1
172
     0
173
     0
174
     0
175
     0
176
     0
177
     0
178
     0
270
     5
271
     3
272
     3
273
     2
274
     1
340
33
275
     0
280
     0
281
     0
282
     0
283
     1
284
     4
285
     4
286
     4
287
     1
288
     0
  0
ENDTAB
  0
TABLE
  2
BLOCK_RECORD
  5
1
100
AcDbSymbolTable
 70
     0
  0
BLOCK_RECORD
  5
2
102
{ACAD_XDICTIONARY
360
3
102
}
100
AcDbSymbolTableRecord
100
AcDbBlockTableRecord
  2
*MODEL_SPACE
  0
BLOCK_RECORD
  5
C
102
{ACAD_XDICTIONARY
360
D
102
}
100
AcDbSymbolTableRecord
100
AcDbBlockTableRecord
  2
*PAPER_SPACE
  0
ENDTAB
  0
ENDSEC
  0
SECTION
  2
BLOCKS
  0
BLOCK
  5
6
100
AcDbEntity
  8
0
100
AcDbBlockBegin
  2
*MODEL_SPACE
 70
     0
 10
0.0
 20
0.0
 30
0.0
  3
*MODEL_SPACE
  1

  0
ENDBLK
  5
B
100
AcDbEntity
  8
0
100
AcDbBlockEnd
  0
BLOCK
  5
10
100
AcDbEntity
 67
     1
  8
0
100
AcDbBlockBegin
  2
*PAPER_SPACE
 70
     0
 10
0.0
 20
0.0
 30
0.0
  3
*PAPER_SPACE
  1

  0
ENDBLK
  5
11
100
AcDbEntity
 67
     1
  8
0
100
AcDbBlockEnd
  0
ENDSEC
  0
SECTION
  2
ENTITIES
  0
LWPOLYLINE
  5
3B
100
AcDbEntity
  8
0
100
AcDbPolyline
 90
        2
 70
     0
 43
0.0
 10
127.538606
 20
-121.93699
 42
-0.098491
 10
124.198761
 20
-126.92098
 42
-0.098491
  0
LWPOLYLINE
  5
3C
100
AcDbEntity
  8
0
100
AcDbPolyline
 90
        2
 70
     0
 43
0.0
 10
128.000289
 20
-122.128949
 42
-0.098491
 10
124.551841
 20
-127.275006
 42
-0.098491
  0
LINE
  5
3D
100
AcDbEntity
  8
0
100
AcDbLine
 10
133.849426
 20
-113.439146
 30
0.0
 11
91.599795
 21
-71.189516
 31
0.0
  0
LINE
  5
3E
100
AcDbEntity
  8
0
100
AcDbLine
 10
91.599795
 20
-71.189516
 30
0.0
 11
49.350165
 21
-113.439146
 31
0.0
  0
LWPOLYLINE
  5
3F
100
AcDbEntity
  8
0
100
AcDbPolyline
 90
        5
 70
     0
 43
0.0
 10
95.808495
 20
-83.529943
 10
95.808495
 20
-83.529943
 10
93.014002
 20
-80.73545
 42
0.414214
 10
85.235827
 20
-80.73545
 10
70.240138
 20
-95.731139
  0
LWPOLYLINE
  5
40
100
AcDbEntity
  8
0
100
AcDbPolyline
 90
        5
 70
     0
 43
0.0
 10
101.818903
 20
-90.247458
 10
95.454942
 20
-83.883497
 10
92.660449
 20
-81.089004
 42
0.414214
 10
85.589381
 20
-81.089004
 10
70.740138
 20
-95.938246
  0
ARC
  5
41
100
AcDbEntity
  8
0
100
AcDbCircle
 10
83.575999
 20
-107.469942
 30
0.0
 40
2.8567
100
AcDbArc
 50
294.216313
 51
40.54566
  0
ARC
  5
42
100
AcDbEntity
  8
0
100
AcDbCircle
 10
83.575999
 20
-107.469942
 30
0.0
 40
3.0
100
AcDbArc
 50
294.216313
 51
40.54566
  0
LINE
  5
43
100
AcDbEntity
  8
0
100
AcDbLine
 10
86.560244
 20
-111.768163
 30
0.0
 11
82.635322
 21
-112.976829
 31
0.0
  0
LINE
  5
44
100
AcDbEntity
  8
0
100
AcDbLine
 10
112.681032
 20
-132.630971
 30
0.0
 11
70.434923
 21
-132.630971
 31
0.0
  0
LINE
  5
45
100
AcDbEntity
  8
0
100
AcDbLine
 10
112.681032
 20
-133.130971
 30
0.0
 11
70.434923
 21
-133.130971
 31
0.0
  0
LINE
  5
46
100
AcDbEntity
  8
0
100
AcDbLine
 10
89.918282
 20
-128.130971
 30
0.0
 11
72.33276
 21
-128.130971
 31
0.0
  0
LINE
  5
47
100
AcDbEntity
  8
0
100
AcDbLine
 10
93.685389
 20
-126.880971
 30
0.0
 11
71.577177
 21
-126.880971
 31
0.0
  0
ARC
  5
48
100
AcDbEntity
  8
0
100
AcDbCircle
 10
85.375976
 20
-87.66637
 30
0.0
 40
4.0
100
AcDbArc
 50
45.0
 51
135.0
  0
LWPOLYLINE
  5
49
100
AcDbEntity
  8
0
100
AcDbPolyline
 90
        5
 70
     0
 43
0.0
 10
93.943331
 20
-93.544114
 10
92.116702
 20
-91.717484
 10
92.116699
 20
-91.717481
 42
0.414319
 10
79.245045
 20
-91.719755
 10
76.281932
 20
-94.639093
  0
ARC
  5
4A
100
AcDbEntity
  8
0
100
AcDbCircle
 10
87.143743
 20
-89.434137
 30
0.0
 40
4.0
100
AcDbArc
 50
45.0
 51
135.0
  0
LINE
  5
4B
100
AcDbEntity
  8
CENTER
 48
0.05
100
AcDbLine
 10
81.044981
 20
-121.305709
 30
0.0
 11
86.421484
 21
-121.305709
 31
0.0
  0
ARC
  5
50
100
AcDbEntity
  8
0
100
AcDbCircle
 10
64.578795
 20
-123.721287
 30
0.0
 40
28.0
100
AcDbArc
 50
40.54566
 51
71.032919
  0
LINE
  5
51
100
AcDbEntity
  8
0
100
AcDbLine
 10
86.518069
 20
-111.631209
 30
0.0
 11
82.593147
 21
-112.839875
 31
0.0
  0
ARC
  5
52
100
AcDbEntity
  8
0
100
AcDbCircle
 10
70.380739
 20
-116.118541
 30
0.0
 40
13.51696
100
AcDbArc
 50
133.50408
 51
271.929688
  0
ARC
  5
53
100
AcDbEntity
  8
0
100
AcDbCircle
 10
70.376707
 20
-116.118951
 30
0.0
 40
13.013082
100
AcDbArc
 50
134.722415
 51
270.731885
  0
ARC
  5
54
100
AcDbEntity
  8
0
100
AcDbCircle
 10
68.940423
 20
-116.537081
 30
0.0
 40
10.939678
100
AcDbArc
 50
166.434992
 51
241.249437
  0
LINE
  5
55
100
AcDbEntity
  8
0
100
AcDbLine
 10
58.305914
 20
-113.971196
 30
0.0
 11
63.678467
 21
-126.128138
 31
0.0
  0
LINE
  5
56
100
AcDbEntity
  8
0
100
AcDbLine
 10
58.391409
 20
-113.532785
 30
0.0
 11
64.053223
 21
-126.371183
 31
0.0
  0
LINE
  5
57
100
AcDbEntity
  8
0
100
AcDbLine
 10
59.598887
 20
-110.299075
 30
0.0
 11
67.218144
 21
-127.99892
 31
0.0
  0
LINE
  5
58
100
AcDbEntity
  8
0
100
AcDbLine
 10
59.746736
 20
-110.00756
 30
0.0
 11
67.530547
 21
-128.095069
 31
0.0
  0
LINE
  5
59
100
AcDbEntity
  8
0
100
AcDbLine
 10
61.380274
 20
-107.777586
 30
0.0
 11
70.269407
 21
-128.469071
 31
0.0
  0
LINE
  5
5A
100
AcDbEntity
  8
0
100
AcDbLine
 10
64.236172
 20
-107.787484
 30
0.0
 11
72.24616
 21
-126.157834
 31
0.0
  0
LINE
  5
5B
100
AcDbEntity
  8
0
100
AcDbLine
 10
61.632379
 20
-107.731681
 30
0.0
 11
70.477555
 21
-128.31961
 31
0.0
  0
ARC
  5
5C
100
AcDbEntity
  8
0
100
AcDbCircle
 10
41.173012
 20
-125.060983
 30
0.0
 40
14.5
100
AcDbArc
 50
16.642124
 51
45.0
  0
ARC
  5
5D
100
AcDbEntity
  8
0
100
AcDbCircle
 10
41.173012
 20
-125.060983
 30
0.0
 40
14.0
100
AcDbArc
 50
16.642124
 51
45.0
  0
ARC
  5
5E
100
AcDbEntity
  8
0
100
AcDbCircle
 10
70.434923
 20
-118.130971
 30
0.0
 40
14.5
100
AcDbArc
 50
225.0
 51
270.0
  0
ARC
  5
5F
100
AcDbEntity
  8
0
100
AcDbCircle
 10
70.434923
 20
-118.130971
 30
0.0
 40
15.0
100
AcDbArc
 50
225.0
 51
270.0
  0
ARC
  5
60
100
AcDbEntity
  8
0
100
AcDbCircle
 10
71.223057
 20
-116.321139
 30
0.0
 40
12.34544
100
AcDbArc
 50
234.495438
 51
251.070515
  0
ARC
  5
61
100
AcDbEntity
  8
0
100
AcDbCircle
 10
70.542929
 20
-115.696014
 30
0.0
 40
11.184957
100
AcDbArc
 50
248.998559
 51
250.753235
  0
LWPOLYLINE
  5
62
100
AcDbEntity
  8
0
100
AcDbPolyline
 90
        2
 70
     0
 43
0.0
 10
55.592015
 20
-121.888885
 42
0.098491
 10
58.925193
 20
-126.877338
 42
0.098491
  0
LWPOLYLINE
  5
63
100
AcDbEntity
  8
0
100
AcDbPolyline
 90
        2
 70
     0
 43
0.0
 10
55.130076
 20
-122.080227
 42
0.098491
 10
58.571639
 20
-127.230891
 42
0.098491
  0
LWPOLYLINE
  5
64
100
AcDbEntity
  8
0
100
AcDbPolyline
 90
        2
 70
     0
 43
0.0
 10
54.586584
 20
-121.051483
 42
0.035651
 10
55.130076
 20
-122.080227
  0
LWPOLYLINE
  5
65
100
AcDbEntity
  8
0
100
AcDbPolyline
 90
        2
 70
     0
 43
0.0
 10
55.06564
 20
-120.908286
 42
0.036096
 10
55.592015
 20
-121.888885
 42
0.025565
  0
LINE
  5
66
100
AcDbEntity
  8
0
100
AcDbLine
 10
58.925193
 20
-126.877338
 30
0.0
 11
60.181875
 21
-128.38402
 31
0.0
  0
LINE
  5
67
100
AcDbEntity
  8
0
100
AcDbLine
 10
58.571639
 20
-127.230891
 30
0.0
 11
59.828321
 21
-128.737573
 31
0.0
  0
ARC
  5
68
100
AcDbEntity
  8
0
100
AcDbCircle
 10
70.542929
 20
-115.696014
 30
0.0
 40
11.184957
100
AcDbArc
 50
224.663693
 51
227.903916
  0
LWPOLYLINE
  5
69
100
AcDbEntity
  8
0
100
AcDbPolyline
 90
        2
 70
     0
 43
0.0
 10
72.625653
 20
-126.880971
 10
70.625653
 20
-129.130971
  0
LWPOLYLINE
  5
6A
100
AcDbEntity
  8
0
100
AcDbPolyline
 90
        2
 70
     0
 43
0.0
 10
72.24616
 20
-126.157834
 10
70.477555
 20
-128.31961
  0
LWPOLYLINE
  5
6B
100
AcDbEntity
  8
0
100
AcDbPolyline
 90
        2
 70
     0
 43
0.0
 10
72.33276
 20
-128.130971
 10
70.835896
 20
-129.627835
  0
ARC
  5
6C
100
AcDbEntity
  8
0
100
AcDbCircle
 10
72.019242
 20
-105.439305
 30
0.0
 40
23.096148
100
AcDbArc
 50
258.79335
 51
265.654933
  0
LWPOLYLINE
  5
6D
100
AcDbEntity
  8
0
100
AcDbPolyline
 90
        2
 70
     0
 43
0.0
 10
70.542929
 20
-129.130971
 10
70.625653
 20
-129.130971
  0
ARC
  5
6E
100
AcDbEntity
  8
0
100
AcDbCircle
 10
70.542929
 20
-115.696014
 30
0.0
 40
11.184957
100
AcDbArc
 50
265.61378
 51
267.046931
  0
LINE
  5
6F
100
AcDbEntity
  8
CENTER
 48
0.05
100
AcDbLine
 10
83.733232
 20
-118.605706
 30
0.0
 11
83.733232
 21
-124.005711
 31
0.0
  0
CIRCLE
  5
70
100
AcDbEntity
  8
0
100
AcDbCircle
 10
83.733232
 20
-121.305709
 30
0.0
 40
1.375
  0
LWPOLYLINE
  5
71
100
AcDbEntity
  8
0
100
AcDbPolyline
 90
        4
 70
     0
 43
0.0
 10
71.948506
 20
-94.729879
 10
70.740138
 20
-95.938246
 10
70.740138
 20
-100.180887
 10
63.156676
 20
-107.764349
  0
LWPOLYLINE
  5
72
100
AcDbEntity
  8
0
100
AcDbPolyline
 90
        2
 70
     0
 43
0.0
 10
70.240138
 20
-99.266673
 10
63.192465
 20
-106.314347
  0
LINE
  5
73
100
AcDbEntity
  8
0
100
AcDbLine
 10
73.568566
 20
-97.35246
 30
0.0
 11
63.856678
 21
-107.064347
 31
0.0
  0
LINE
  5
74
100
AcDbEntity
  8
0
100
AcDbLine
 10
49.350165
 20
-113.439146
 30
0.0
 11
51.072507
 21
-115.161488
 31
0.0
  0
LINE
  5
75
100
AcDbEntity
  8
0
100
AcDbLine
 10
49.703719
 20
-113.085593
 30
0.0
 11
51.426061
 21
-114.807934
 31
0.0
  0
LWPOLYLINE
  5
76
100
AcDbEntity
  8
0
100
AcDbPolyline
 90
        2
 70
     0
 43
0.0
 10
61.632379
 20
-107.731681
 10
64.236172
 20
-107.787484
  0
ARC
  5
77
100
AcDbEntity
  8
0
100
AcDbCircle
 10
79.162039
 20
-122.51668
 30
0.0
 40
23.096148
100
AcDbArc
 50
140.345067
 51
147.20665
  0
ARC
  5
78
100
AcDbEntity
  8
0
100
AcDbCircle
 10
69.757342
 20
-115.934567
 30
0.0
 40
11.616926
100
AcDbArc
 50
150.980294
 51
168.068128
  0
ARC
  5
79
100
AcDbEntity
  8
0
100
AcDbCircle
 10
70.542929
 20
-116.196014
 30
0.0
 40
11.184957
100
AcDbArc
 50
178.096084
 51
181.336307
  0
ARC
  5
7A
100
AcDbEntity
  8
0
100
AcDbCircle
 10
70.542929
 20
-116.196014
 30
0.0
 40
11.184957
100
AcDbArc
 50
155.246765
 51
157.001441
  0
ARC
  5
7B
100
AcDbEntity
  8
0
100
AcDbCircle
 10
70.542929
 20
-116.196014
 30
0.0
 40
11.184957
100
AcDbArc
 50
138.953069
 51
140.38622
  0
LWPOLYLINE
  5
7C
100
AcDbEntity
  8
0
100
AcDbPolyline
 90
        2
 70
     0
 43
0.0
 10
61.07558
 20
-106.314347
 10
63.192465
 20
-106.314347
  0
LWPOLYLINE
  5
7D
100
AcDbEntity
  8
0
100
AcDbPolyline
 90
        2
 70
     0
 43
0.0
 10
61.278251
 20
-106.814347
 10
64.106678
 20
-106.814347
  0
LWPOLYLINE
  5
7E
100
AcDbEntity
  8
0
100
AcDbPolyline
 90
        2
 70
     0
 43
0.0
 10
61.278251
 20
-106.814347
 10
61.219757
 20
-106.872842
  0
ARC
  5
7F
100
AcDbEntity
  8
0
100
AcDbCircle
 10
64.578795
 20
-123.721287
 30
0.0
 40
27.8567
100
AcDbArc
 50
40.54566
 51
71.176972
  0
LWPOLYLINE
  5
80
100
AcDbEntity
  8
0
100
AcDbPolyline
 90
        3
 70
     0
 43
0.0
 10
72.302059
 20
-95.083432
 10
71.240138
 20
-96.145353
 10
71.240138
 20
-97.775708
  0
ARC
  5
81
100
AcDbEntity
  8
0
100
AcDbCircle
 10
71.276038
 20
-96.775708
 30
0.0
 40
1.0
100
AcDbArc
 50
270.0
 51
315.0
  0
ARC
  5
82
100
AcDbEntity
  8
0
100
AcDbCircle
 10
71.276038
 20
-96.775708
 30
0.0
 40
1.25
100
AcDbArc
 50
270.0
 51
315.0
  0
LWPOLYLINE
  5
83
100
AcDbEntity
  8
0
100
AcDbPolyline
 90
        3
 70
     0
 43
0.0
 10
71.594953
 20
-94.376325
 10
70.240138
 20
-95.731139
 10
70.240138
 20
-99.266673
  0
LINE
  5
84
100
AcDbEntity
  8
0
100
AcDbLine
 10
72.292504
 20
-97.96895
 30
0.0
 11
74.536822
 21
-95.724632
 31
0.0
  0
LINE
  5
85
100
AcDbEntity
  8
0
100
AcDbLine
 10
72.513474
 20
-98.189921
 30
0.0
 11
74.757792
 21
-95.945603
 31
0.0
  0
ARC
  5
86
100
AcDbEntity
  8
0
100
AcDbCircle
 10
71.099261
 20
-96.775708
 30
0.0
 40
2.0
100
AcDbArc
 50
270.0
 51
315.0
  0
ARC
  5
87
100
AcDbEntity
  8
0
100
AcDbCircle
 10
71.099261
 20
-96.775708
 30
0.0
 40
1.6875
100
AcDbArc
 50
257.810162
 51
315.0
  0
LINE
  5
88
100
AcDbEntity
  8
0
100
AcDbLine
 10
70.830723
 20
-97.775708
 30
0.0
 11
71.276038
 21
-97.775708
 31
0.0
  0
LINE
  5
89
100
AcDbEntity
  8
0
100
AcDbLine
 10
70.830723
 20
-97.775708
 30
0.0
 11
71.021834
 21
-97.775708
 31
0.0
  0
LINE
  5
8A
100
AcDbEntity
  8
0
100
AcDbLine
 10
70.742279
 20
-98.463208
 30
0.0
 11
70.749915
 21
-98.025708
 31
0.0
  0
LINE
  5
8B
100
AcDbEntity
  8
0
100
AcDbLine
 10
70.736824
 20
-98.025708
 30
0.0
 11
71.276038
 21
-98.025708
 31
0.0
  0
LINE
  5
8C
100
AcDbEntity
  8
0
100
AcDbLine
 10
70.832379
 20
-98.775708
 30
0.0
 11
71.099261
 21
-98.775708
 31
0.0
  0
LINE
  5
8D
100
AcDbEntity
  8
0
100
AcDbLine
 10
70.742279
 20
-98.463208
 30
0.0
 11
70.832379
 21
-98.775708
 31
0.0
  0
LINE
  5
8E
100
AcDbEntity
  8
0
100
AcDbLine
 10
70.985268
 20
-98.775708
 30
0.0
 11
70.832379
 21
-98.775708
 31
0.0
  0
LINE
  5
8F
100
AcDbEntity
  8
0
100
AcDbLine
 10
71.086278
 20
-98.463208
 30
0.0
 11
71.099261
 21
-98.463208
 31
0.0
  0
LINE
  5
90
100
AcDbEntity
  8
0
100
AcDbLine
 10
71.086278
 20
-98.463208
 30
0.0
 11
71.099261
 21
-98.463208
 31
0.0
  0
ELLIPSE
  5
91
100
AcDbEntity
  8
0
100
AcDbEllipse
 10
70.82636
 20
-98.025708
 30
0.0
 11
0.0048136107310561
 21
0.2499956699375371
 31
0.0
210
0.0
220
0.0
230
1.0
 40
0.305675
 41
0.0058856265333722
 42
1.576681953328259
  0
LWPOLYLINE
  5
92
100
AcDbEntity
  8
0
100
AcDbPolyline
 90
        2
 70
     0
 43
0.0
 10
71.240138
 20
-98.77074
 10
71.240138
 20
-99.680887
  0
ARC
  5
93
100
AcDbEntity
  8
0
100
AcDbCircle
 10
82.372417
 20
-112.123092
 30
0.0
 40
0.8933
100
AcDbArc
 50
114.216313
 51
287.116032
  0
ARC
  5
94
100
AcDbEntity
  8
0
100
AcDbCircle
 10
82.372417
 20
-112.123092
 30
0.0
 40
0.75
100
AcDbArc
 50
114.216313
 51
287.116032
  0
LINE
  5
95
100
AcDbEntity
  8
0
100
AcDbLine
 10
82.006
 20
-111.3084
 30
0.0
 11
84.747768
 21
-110.075262
 31
0.0
  0
LINE
  5
96
100
AcDbEntity
  8
0
100
AcDbLine
 10
82.06478
 20
-111.43909
 30
0.0
 11
84.806547
 21
-110.205952
 31
0.0
  0
LWPOLYLINE
  5
97
100
AcDbEntity
  8
0
100
AcDbPolyline
 90
        2
 70
     0
 43
0.0
 10
82.547549
 20
-84.837942
 10
75.622238
 20
-91.763253
  0
LINE
  5
98
100
AcDbEntity
  8
0
100
AcDbLine
 10
73.568566
 20
-97.35246
 30
0.0
 11
84.315316
 21
-86.605709
 31
0.0
  0
LWPOLYLINE
  5
99
100
AcDbEntity
  8
0
100
AcDbPolyline
 90
        2
 70
     0
 43
0.0
 10
74.313868
 20
-93.071623
 10
71.240138
 20
-96.145353
  0
ARC
  5
9A
100
AcDbEntity
  8
0
100
AcDbCircle
 10
73.366648
 20
-93.392205
 30
0.0
 40
1.25
100
AcDbArc
 50
0.0
 51
45.0
  0
LINE
  5
9B
100
AcDbEntity
  8
0
100
AcDbLine
 10
74.056359
 20
-92.667703
 30
0.0
 11
74.025456
 21
-92.636799
 31
0.0
  0
LINE
  5
9C
100
AcDbEntity
  8
0
100
AcDbLine
 10
75.333139
 20
-94.735474
 30
0.0
 11
75.62896
 21
-91.851604
 31
0.0
  0
LINE
  5
9D
100
AcDbEntity
  8
0
100
AcDbLine
 10
75.02227
 20
-94.703586
 30
0.0
 11
75.312027
 21
-91.878836
 31
0.0
  0
LINE
  5
9E
100
AcDbEntity
  8
0
100
AcDbLine
 10
72.159921
 20
-97.659591
 30
0.0
 11
74.250531
 21
-95.568981
 31
0.0
  0
ARC
  5
9F
100
AcDbEntity
  8
0
100
AcDbCircle
 10
73.366648
 20
-94.685098
 30
0.0
 40
1.0
100
AcDbArc
 50
315.0
 51
0.0
  0
ARC
  5
A0
100
AcDbEntity
  8
0
100
AcDbCircle
 10
73.366648
 20
-93.392205
 30
0.0
 40
1.0
100
AcDbArc
 50
0.0
 51
45.0
  0
LINE
  5
A1
100
AcDbEntity
  8
0
100
AcDbLine
 10
71.983144
 20
-97.482815
 30
0.0
 11
74.073754
 21
-95.392205
 31
0.0
  0
LINE
  5
A2
100
AcDbEntity
  8
0
100
AcDbLine
 10
74.056359
 20
-92.667703
 30
0.0
 11
74.073754
 21
-92.685098
 31
0.0
  0
ARC
  5
A3
100
AcDbEntity
  8
0
100
AcDbCircle
 10
73.343579
 20
-94.53139
 30
0.0
 40
2.0
100
AcDbArc
 50
315.0
 51
354.143214
  0
ARC
  5
A4
100
AcDbEntity
  8
0
100
AcDbCircle
 10
73.366648
 20
-94.685098
 30
0.0
 40
1.25
100
AcDbArc
 50
315.0
 51
0.0
  0
ARC
  5
A5
100
AcDbEntity
  8
0
100
AcDbCircle
 10
73.343579
 20
-94.53139
 30
0.0
 40
1.6875
100
AcDbArc
 50
315.0
 51
354.143214
  0
LINE
  5
A6
100
AcDbEntity
  8
0
100
AcDbLine
 10
74.366648
 20
-94.685098
 30
0.0
 11
74.366648
 21
-93.392205
 31
0.0
  0
LINE
  5
A7
100
AcDbEntity
  8
0
100
AcDbLine
 10
74.616648
 20
-94.685098
 30
0.0
 11
74.616648
 21
-93.392205
 31
0.0
  0
ELLIPSE
  5
A8
100
AcDbEntity
  8
0
100
AcDbEllipse
 10
74.202232
 20
-92.460022
 30
0.0
 11
-0.1767766952966955
 21
-0.1767766952965783
 31
0.0
210
0.0
220
0.0
230
1.0
 40
0.069927
 41
-1.570796326794873
 42
0.0000000000047304
  0
LINE
  5
A9
100
AcDbEntity
  8
0
100
AcDbLine
 10
75.051657
 20
-91.585875
 30
0.0
 11
74.189871
 21
-92.447661
 31
0.0
  0
LINE
  5
AA
100
AcDbEntity
  8
0
100
AcDbLine
 10
74.189871
 20
-92.447661
 30
0.0
 11
74.250531
 21
-92.508321
 31
0.0
  0
LINE
  5
AB
100
AcDbEntity
  8
0
100
AcDbLine
 10
75.294047
 20
-91.828264
 30
0.0
 11
75.051657
 21
-91.585875
 31
0.0
  0
LINE
  5
AC
100
AcDbEntity
  8
0
100
AcDbLine
 10
75.557042
 20
-91.649317
 30
0.0
 11
75.312803
 21
-91.405078
 31
0.0
  0
ARC
  5
AD
100
AcDbEntity
  8
0
100
AcDbCircle
 10
75.380265
 20
-91.826094
 30
0.0
 40
0.25
100
AcDbArc
 50
354.143214
 51
45.0
  0
ARC
  5
AE
100
AcDbEntity
  8
0
100
AcDbCircle
 10
75.249853
 20
-91.872459
 30
0.0
 40
0.0625
100
AcDbArc
 50
354.143214
 51
45.0
  0
LINE
  5
AF
100
AcDbEntity
  8
0
100
AcDbLine
 10
75.28808
 20
-91.380355
 30
0.0
 11
75.051657
 21
-91.585875
 31
0.0
  0
LINE
  5
B0
100
AcDbEntity
  8
0
100
AcDbLine
 10
75.28808
 20
-91.380355
 30
0.0
 11
75.312803
 21
-91.405078
 31
0.0
  0
LWPOLYLINE
  5
B1
100
AcDbEntity
  8
0
100
AcDbPolyline
 90
        4
 70
     0
 43
0.0
 10
92.625389
 20
-130.130971
 10
113.685389
 20
-130.130971
 42
0.403991
 10
118.685389
 20
-124.880971
 10
118.685389
 20
-115.510619
  0
LINE
  5
B2
100
AcDbEntity
  8
0
100
AcDbLine
 10
123.685389
 20
-115.510619
 30
0.0
 11
123.685389
 21
-122.510619
 31
0.0
  0
ARC
  5
B3
100
AcDbEntity
  8
0
100
AcDbCircle
 10
69.613921
 20
-120.84673
 30
0.0
 40
24.991386
100
AcDbArc
 50
350.824457
 51
10.380579
  0
ARC
  5
B4
100
AcDbEntity
  8
0
100
AcDbCircle
 10
69.606366
 20
-120.847376
 30
0.0
 40
24.855641
100
AcDbArc
 50
350.77542
 51
10.382222
  0
ARC
  5
B5
100
AcDbEntity
  8
0
100
AcDbCircle
 10
106.845114
 20
-108.740622
 30
0.0
 40
10.0
100
AcDbArc
 50
290.668202
 51
301.757497
  0
ARC
  5
B6
100
AcDbEntity
  8
0
100
AcDbCircle
 10
105.811326
 20
-109.475103
 30
0.0
 40
10.0
100
AcDbArc
 50
290.668202
 51
317.885613
  0
LINE
  5
B7
100
AcDbEntity
  8
0
100
AcDbLine
 10
109.344177
 20
-118.013919
 30
0.0
 11
109.344177
 21
-113.007319
 31
0.0
  0
LWPOLYLINE
  5
B8
100
AcDbEntity
  8
0
100
AcDbPolyline
 90
        3
 70
     0
 43
0.0
 10
103.030049
 20
-126.880971
 42
0.179841
 10
108.310389
 20
-121.086798
 10
108.310389
 20
-118.748401
  0
LWPOLYLINE
  5
B9
100
AcDbEntity
  8
0
100
AcDbPolyline
 90
        4
 70
     0
 43
0.0
 10
92.418282
 20
-130.630971
 10
113.685389
 20
-130.630971
 42
0.404909
 10
119.185389
 20
-124.880971
 10
119.185389
 20
-123.010619
  0
LINE
  5
BA
100
AcDbEntity
  8
0
100
AcDbLine
 10
93.685389
 20
-126.880971
 30
0.0
 11
108.823623
 21
-126.880971
 31
0.0
  0
LWPOLYLINE
  5
BB
100
AcDbEntity
  8
0
100
AcDbPolyline
 90
        2
 70
     0
 43
0.0
 10
99.029721
 20
-129.630971
 10
108.823623
 20
-129.630971
  0
LWPOLYLINE
  5
BC
100
AcDbEntity
  8
0
100
AcDbPolyline
 90
        2
 70
     0
 43
0.0
 10
92.832496
 20
-129.630971
 10
97.179406
 20
-129.630971
  0
LINE
  5
BD
100
AcDbEntity
  8
0
100
AcDbLine
 10
96.075828
 20
-128.452752
 30
0.0
 11
96.990041
 21
-129.366965
 31
0.0
  0
ARC
  5
BE
100
AcDbEntity
  8
0
100
AcDbCircle
 10
95.461097
 20
-129.034859
 30
0.0
 40
1.6875
100
AcDbArc
 50
50.856786
 51
90.0
  0
ARC
  5
BF
100
AcDbEntity
  8
0
100
AcDbCircle
 10
95.461097
 20
-129.034859
 30
0.0
 40
2.0
100
AcDbArc
 50
50.856786
 51
90.0
  0
ARC
  5
C0
100
AcDbEntity
  8
0
100
AcDbCircle
 10
94.965802
 20
-129.179958
 30
0.0
 40
1.572592
100
AcDbArc
 50
35.088155
 51
75.154511
  0
LWPOLYLINE
  5
C1
100
AcDbEntity
  8
0
100
AcDbPolyline
 90
        2
 70
     0
 43
0.0
 10
89.625389
 20
-126.880971
 10
92.625389
 20
-130.130971
  0
ARC
  5
C2
100
AcDbEntity
  8
0
100
AcDbCircle
 10
92.60438
 20
-129.281728
 30
0.0
 40
1.960209
100
AcDbArc
 50
99.313342
 51
152.297815
  0
LINE
  5
C3
100
AcDbEntity
  8
0
100
AcDbLine
 10
90.684225
 20
-128.059359
 30
0.0
 11
90.872939
 21
-127.620645
 31
0.0
  0
ARC
  5
C4
100
AcDbEntity
  8
0
100
AcDbCircle
 10
92.815071
 20
-129.179958
 30
0.0
 40
1.572592
100
AcDbArc
 50
104.845489
 51
144.911845
  0
LWPOLYLINE
  5
C5
100
AcDbEntity
  8
0
100
AcDbPolyline
 90
        2
 70
     0
 43
0.0
 10
89.918282
 20
-128.130971
 10
92.418282
 20
-130.630971
  0
LINE
  5
C6
100
AcDbEntity
  8
0
100
AcDbLine
 10
91.156244
 20
-128.648
 30
0.0
 11
91.528269
 21
-128.275975
 31
0.0
  0
ELLIPSE
  5
C7
100
AcDbEntity
  8
0
100
AcDbEllipse
 10
91.210298
 20
-128.593945
 30
0.0
 11
-0.1801773702700292
 21
0.1733698966901882
 31
0.0
210
0.0
220
0.0
230
-1.0
 40
0.305675
 41
3.147478280123178
 42
4.718274606918067
  0
LINE
  5
C8
100
AcDbEntity
  8
0
100
AcDbLine
 10
90.841485
 20
-128.34404
 30
0.0
 11
91.156244
 21
-128.648
 31
0.0
  0
LINE
  5
C9
100
AcDbEntity
  8
0
100
AcDbLine
 10
90.841485
 20
-128.34404
 30
0.0
 11
90.684225
 21
-128.059359
 31
0.0
  0
LINE
  5
CA
100
AcDbEntity
  8
0
100
AcDbLine
 10
92.412152
 20
-128.159859
 30
0.0
 11
95.368721
 21
-128.159859
 31
0.0
  0
LINE
  5
CB
100
AcDbEntity
  8
0
100
AcDbLine
 10
91.390161
 20
-128.767637
 30
0.0
 11
91.525296
 21
-128.632501
 31
0.0
  0
LINE
  5
CC
100
AcDbEntity
  8
0
100
AcDbLine
 10
91.390161
 20
-128.767637
 30
0.0
 11
91.705045
 21
-128.452752
 31
0.0
  0
ARC
  5
CD
100
AcDbEntity
  8
0
100
AcDbCircle
 10
92.412152
 20
-129.159859
 30
0.0
 40
1.0
100
AcDbArc
 50
90.0
 51
135.0
  0
LWPOLYLINE
  5
CE
100
AcDbEntity
  8
0
100
AcDbPolyline
 90
        2
 70
     0
 43
0.0
 10
91.679661
 20
-128.478136
 10
92.832496
 20
-129.630971
  0
ARC
  5
CF
100
AcDbEntity
  8
0
100
AcDbCircle
 10
95.368721
 20
-129.159859
 30
0.0
 40
1.0
100
AcDbArc
 50
45.0
 51
90.0
  0
ARC
  5
D0
100
AcDbEntity
  8
0
100
AcDbCircle
 10
92.287152
 20
-129.034859
 30
0.0
 40
2.0
100
AcDbArc
 50
90.0
 51
135.0
  0
LWPOLYLINE
  5
D1
100
AcDbEntity
  8
0
100
AcDbPolyline
 90
        2
 70
     0
 43
0.0
 10
90.332496
 20
-126.880971
 10
90.976067
 20
-127.524542
  0
ARC
  5
D2
100
AcDbEntity
  8
0
100
AcDbCircle
 10
66.605308
 20
-120.612202
 30
0.0
 40
27.8567
100
AcDbArc
 50
346.994987
 51
348.443309
  0
LINE
  5
D3
100
AcDbEntity
  8
0
100
AcDbLine
 10
92.287152
 20
-127.034859
 30
0.0
 11
95.461097
 21
-127.034859
 31
0.0
  0
LINE
  5
D4
100
AcDbEntity
  8
0
100
AcDbLine
 10
92.287152
 20
-127.347359
 30
0.0
 11
95.461097
 21
-127.347359
 31
0.0
  0
LINE
  5
D5
100
AcDbEntity
  8
0
100
AcDbLine
 10
92.412152
 20
-127.659859
 30
0.0
 11
95.368721
 21
-127.659859
 31
0.0
  0
ARC
  5
D6
100
AcDbEntity
  8
0
100
AcDbCircle
 10
66.605308
 20
-120.612202
 30
0.0
 40
28.0
100
AcDbArc
 50
347.062702
 51
348.503264
  0
LINE
  5
D7
100
AcDbEntity
  8
0
100
AcDbLine
 10
94.140564
 20
-124.831851
 30
0.0
 11
93.897268
 21
-126.192942
 31
0.0
  0
LINE
  5
D8
100
AcDbEntity
  8
0
100
AcDbLine
 10
94.285528
 20
-124.831851
 30
0.0
 11
94.043518
 21
-126.192942
 31
0.0
  0
LINE
  5
D9
100
AcDbEntity
  8
0
100
AcDbLine
 10
96.723619
 20
-127.483718
 30
0.0
 11
98.972
 21
-129.563745
 31
0.0
  0
LINE
  5
DA
100
AcDbEntity
  8
0
100
AcDbLine
 10
96.52635
 20
-127.726083
 30
0.0
 11
98.728638
 21
-129.768594
 31
0.0
  0
LINE
  5
DB
100
AcDbEntity
  8
0
100
AcDbLine
 10
98.751685
 20
-130.159859
 30
0.0
 11
97.532935
 21
-130.159859
 31
0.0
  0
LINE
  5
DC
100
AcDbEntity
  8
0
100
AcDbLine
 10
96.252605
 20
-128.275975
 30
0.0
 11
97.166818
 21
-129.190189
 31
0.0
  0
LINE
  5
DD
100
AcDbEntity
  8
0
100
AcDbLine
 10
97.282935
 20
-130.098673
 30
0.0
 11
97.282935
 21
-130.074072
 31
0.0
  0
LINE
  5
DE
100
AcDbEntity
  8
0
100
AcDbLine
 10
97.282935
 20
-130.098673
 30
0.0
 11
97.282935
 21
-130.142377
 31
0.0
  0
LINE
  5
DF
100
AcDbEntity
  8
0
100
AcDbLine
 10
97.532935
 20
-130.159859
 30
0.0
 11
97.532935
 21
-130.074072
 31
0.0
  0
ELLIPSE
  5
E0
100
AcDbEntity
  8
0
100
AcDbEllipse
 10
97.532935
 20
-130.142377
 30
0.0
 11
0.25
 21
0.0000000000000394
 31
0.0
210
0.0
220
0.0
230
-1.0
 40
0.069927
 41
1.570796326794907
 42
3.141592653592045
  0
ARC
  5
E1
100
AcDbEntity
  8
0
100
AcDbCircle
 10
96.282935
 20
-130.074072
 30
0.0
 40
1.0
100
AcDbArc
 50
360.0
 51
45.0
  0
ARC
  5
E2
100
AcDbEntity
  8
0
100
AcDbCircle
 10
96.282935
 20
-130.074072
 30
0.0
 40
1.25
100
AcDbArc
 50
360.0
 51
45.0
  0
LINE
  5
E3
100
AcDbEntity
  8
0
100
AcDbLine
 10
99.064185
 20
-130.138006
 30
0.0
 11
98.751685
 21
-130.159859
 31
0.0
  0
ARC
  5
E4
100
AcDbEntity
  8
0
100
AcDbCircle
 10
98.689185
 20
-129.817068
 30
0.0
 40
0.0625
100
AcDbArc
 50
360.0
 51
50.856786
  0
LINE
  5
E5
100
AcDbEntity
  8
0
100
AcDbLine
 10
98.751685
 20
-129.817068
 30
0.0
 11
98.751685
 21
-130.159859
 31
0.0
  0
ARC
  5
E6
100
AcDbEntity
  8
0
100
AcDbCircle
 10
98.814185
 20
-129.757637
 30
0.0
 40
0.25
100
AcDbArc
 50
360.0
 51
50.856786
  0
LINE
  5
E7
100
AcDbEntity
  8
0
100
AcDbLine
 10
99.064185
 20
-130.138006
 30
0.0
 11
99.064185
 21
-130.103043
 31
0.0
  0
LINE
  5
E8
100
AcDbEntity
  8
0
100
AcDbLine
 10
99.064185
 20
-129.757637
 30
0.0
 11
99.064185
 21
-130.103043
 31
0.0
  0
ARC
  5
E9
100
AcDbEntity
  8
0
100
AcDbCircle
 10
112.701071
 20
-118.159231
 30
0.0
 40
14.5
100
AcDbArc
 50
269.923383
 51
314.923383
  0
ARC
  5
EA
100
AcDbEntity
  8
0
100
AcDbCircle
 10
112.701071
 20
-118.159231
 30
0.0
 40
15.0
100
AcDbArc
 50
269.923383
 51
314.923383
  0
ARC
  5
EB
100
AcDbEntity
  8
0
100
AcDbCircle
 10
108.603717
 20
-125.416648
 30
0.0
 40
4.220057
100
AcDbArc
 50
272.987019
 51
0.48439
  0
ARC
  5
EC
100
AcDbEntity
  8
0
100
AcDbCircle
 10
108.823623
 20
-122.880971
 30
0.0
 40
4.0
100
AcDbArc
 50
270.0
 51
0.0
  0
LINE
  5
ED
100
AcDbEntity
  8
0
100
AcDbLine
 10
108.861945
 20
-118.865638
 30
0.0
 11
108.310389
 21
-118.748401
 31
0.0
  0
LINE
  5
EE
100
AcDbEntity
  8
0
100
AcDbLine
 10
109.344177
 20
-118.013919
 30
0.0
 11
108.310389
 21
-118.748401
 31
0.0
  0
LINE
  5
EF
100
AcDbEntity
  8
0
100
AcDbLine
 10
109.895732
 20
-118.131156
 30
0.0
 11
109.344177
 21
-118.013919
 31
0.0
  0
ARC
  5
F0
100
AcDbEntity
  8
0
100
AcDbCircle
 10
110.07792
 20
-117.310377
 30
0.0
 40
0.840757
100
AcDbArc
 50
257.484993
 51
290.668202
  0
ARC
  5
F1
100
AcDbEntity
  8
0
100
AcDbCircle
 10
109.044133
 20
-118.044858
 30
0.0
 40
0.840757
100
AcDbArc
 50
257.484993
 51
290.668202
  0
LINE
  5
F2
100
AcDbEntity
  8
0
100
AcDbLine
 10
112.823623
 20
-125.380971
 30
0.0
 11
112.823623
 21
-122.880971
 31
0.0
  0
LINE
  5
F3
100
AcDbEntity
  8
0
100
AcDbLine
 10
124.198761
 20
-126.92098
 30
0.0
 11
122.9404
 21
-128.425981
 31
0.0
  0
LINE
  5
F4
100
AcDbEntity
  8
0
100
AcDbLine
 10
124.551841
 20
-127.275006
 30
0.0
 11
123.29348
 21
-128.780006
 31
0.0
  0
LINE
  5
F5
100
AcDbEntity
  8
0
100
AcDbLine
 10
123.026989
 20
-123.010619
 30
0.0
 11
119.185389
 21
-123.010619
 31
0.0
  0
LINE
  5
F6
100
AcDbEntity
  8
0
100
AcDbLine
 10
123.685389
 20
-122.510619
 30
0.0
 11
118.685389
 21
-122.510619
 31
0.0
  0
LINE
  5
F7
100
AcDbEntity
  8
0
100
AcDbLine
 10
123.026989
 20
-123.010619
 30
0.0
 11
123.685389
 21
-122.510619
 31
0.0
  0
LWPOLYLINE
  5
F8
100
AcDbEntity
  8
0
100
AcDbPolyline
 90
        2
 70
     0
 43
0.0
 10
101.818903
 20
-90.247458
 10
108.182864
 20
-96.611419
  0
LWPOLYLINE
  5
F9
100
AcDbEntity
  8
0
100
AcDbPolyline
 90
        4
 70
     0
 43
0.0
 10
101.818903
 20
-90.247458
 10
108.182864
 20
-96.611419
 10
110.977357
 20
-99.405912
 42
-0.022678
 10
111.283043
 20
-99.74066
 42
-0.022678
  0
LINE
  5
FA
100
AcDbEntity
  8
0
100
AcDbLine
 10
111.364844
 20
-92.722331
 30
0.0
 11
105.354437
 21
-86.711924
 31
0.0
  0
LWPOLYLINE
  5
FB
100
AcDbEntity
  8
0
100
AcDbPolyline
 90
        3
 70
     0
 43
0.0
 10
105.560241
 20
-105.423377
 42
-0.109367
 10
108.310389
 20
-109.434441
 10
108.310389
 20
-112.272838
  0
LINE
  5
FC
100
AcDbEntity
  8
0
100
AcDbLine
 10
98.733888
 20
-96.872674
 30
0.0
 11
98.522246
 21
-98.123029
 31
0.0
  0
ARC
  5
FD
100
AcDbEntity
  8
0
100
AcDbCircle
 10
98.543601
 20
-97.106714
 30
0.0
 40
0.840757
100
AcDbArc
 50
302.484993
 51
335.668202
  0
ARC
  5
FE
100
AcDbEntity
  8
0
100
AcDbCircle
 10
88.283916
 20
-117.365474
 30
0.0
 40
6.0
100
AcDbArc
 50
9.805603
 51
107.116032
  0
ARC
  5
FF
100
AcDbEntity
  8
0
100
AcDbCircle
 10
88.283916
 20
-117.365474
 30
0.0
 40
5.8567
100
AcDbArc
 50
9.805603
 51
107.116032
  0
LWPOLYLINE
  5
100
100
AcDbEntity
  8
0
100
AcDbPolyline
 90
        4
 70
     0
 43
0.0
 10
98.522246
 20
-98.123029
 10
99.712497
 20
-99.31328
 10
99.7125
 20
-99.313283
 42
-0.087137
 10
101.519854
 20
-101.890601
  0
ARC
  5
101
100
AcDbEntity
  8
0
100
AcDbCircle
 10
101.3442
 20
-104.919203
 30
0.0
 40
0.75
100
AcDbArc
 50
126.769584
 51
288.0144
  0
ARC
  5
102
100
AcDbEntity
  8
0
100
AcDbCircle
 10
99.698055
 20
-102.716318
 30
0.0
 40
2.0
100
AcDbArc
 50
306.769584
 51
25.276931
  0
LINE
  5
103
100
AcDbEntity
  8
0
100
AcDbLine
 10
98.995154
 20
-97.815919
 30
0.0
 11
98.522246
 21
-98.123029
 31
0.0
  0
ARC
  5
104
100
AcDbEntity
  8
0
100
AcDbCircle
 10
104.194178
 20
-106.884155
 30
0.0
 40
2.0
100
AcDbArc
 50
46.918998
 51
108.0144
  0
LINE
  5
105
100
AcDbEntity
  8
0
100
AcDbLine
 10
103.575665
 20
-104.982197
 30
0.0
 11
101.576142
 21
-105.632437
 31
0.0
  0
LINE
  5
106
100
AcDbEntity
  8
0
100
AcDbLine
 10
99.344029
 20
-80.701516
 30
0.0
 11
95.808495
 21
-84.23705
 31
0.0
  0
LINE
  5
107
100
AcDbEntity
  8
0
100
AcDbLine
 10
98.524916
 20
-80.813522
 30
0.0
 11
95.808495
 21
-83.529943
 31
0.0
  0
ARC
  5
108
100
AcDbEntity
  8
0
100
AcDbCircle
 10
99.983794
 20
-101.656789
 30
0.0
 40
10.0
100
AcDbArc
 50
103.242503
 51
114.331798
  0
LINE
  5
109
100
AcDbEntity
  8
0
100
AcDbLine
 10
98.733888
 20
-96.872674
 30
0.0
 11
95.193687
 21
-93.332473
 31
0.0
  0
LWPOLYLINE
  5
10A
100
AcDbEntity
  8
0
100
AcDbPolyline
 90
        2
 70
     0
 43
0.0
 10
101.818903
 20
-90.247458
 10
95.454942
 20
-83.883497
  0
ARC
  5
10B
100
AcDbEntity
  8
0
100
AcDbCircle
 10
98.733439
 20
-101.86843
 30
0.0
 40
10.0
100
AcDbArc
 50
87.114387
 51
114.331798
  0
ARC
  5
10C
100
AcDbEntity
  8
0
100
AcDbCircle
 10
96.210002
 20
-93.311118
 30
0.0
 40
0.840757
100
AcDbArc
 50
114.331798
 51
147.515007
  0
LINE
  5
10D
100
AcDbEntity
  8
0
100
AcDbLine
 10
95.500797
 20
-92.859565
 30
0.0
 11
95.193687
 21
-93.332473
 31
0.0
  0
LINE
  5
10E
100
AcDbEntity
  8
0
100
AcDbLine
 10
94.250441
 20
-93.071207
 30
0.0
 11
93.943331
 21
-93.544114
 31
0.0
  0
ARC
  5
10F
100
AcDbEntity
  8
0
100
AcDbCircle
 10
94.959646
 20
-93.522759
 30
0.0
 40
0.840757
100
AcDbArc
 50
114.331798
 51
147.515007
  0
LINE
  5
110
100
AcDbEntity
  8
0
100
AcDbLine
 10
95.193687
 20
-93.332473
 30
0.0
 11
93.943331
 21
-93.544114
 31
0.0
  0
LINE
  5
111
100
AcDbEntity
  8
0
100
AcDbLine
 10
88.204403
 20
-84.837942
 30
0.0
 11
89.97217
 21
-86.605709
 31
0.0
  0
ARC
  5
112
100
AcDbEntity
  8
0
100
AcDbCircle
 10
99.186518
 20
-92.879842
 30
0.0
 40
1.0
100
AcDbArc
 50
2.885613
 51
45.0
  0
ARC
  5
113
100
AcDbEntity
  8
0
100
AcDbCircle
 10
90.19793
 20
-93.332922
 30
0.0
 40
10.0
100
AcDbArc
 50
335.668202
 51
2.885613
  0
ARC
  5
114
100
AcDbEntity
  8
0
100
AcDbCircle
 10
90.409571
 20
-92.082566
 30
0.0
 40
10.0
100
AcDbArc
 50
335.668202
 51
346.757497
  0
LINE
  5
115
100
AcDbEntity
  8
0
100
AcDbLine
 10
99.206795
 20
-96.565564
 30
0.0
 11
98.733888
 21
-96.872674
 31
0.0
  0
ARC
  5
116
100
AcDbEntity
  8
0
100
AcDbCircle
 10
98.755243
 20
-95.856359
 30
0.0
 40
0.840757
100
AcDbArc
 50
302.484993
 51
335.668202
  0
ARC
  5
117
100
AcDbEntity
  8
0
100
AcDbCircle
 10
99.186518
 20
-92.879842
 30
0.0
 40
1.0
100
AcDbArc
 50
45.0
 51
87.114387
  0
LINE
  5
118
100
AcDbEntity
  8
0
100
AcDbLine
 10
99.344029
 20
-80.701516
 30
0.0
 11
105.354437
 21
-86.711924
 31
0.0
  0
LINE
  5
119
100
AcDbEntity
  8
0
100
AcDbLine
 10
98.524916
 20
-80.813522
 30
0.0
 11
99.344029
 21
-80.701516
 31
0.0
  0
LWPOLYLINE
  5
11A
100
AcDbEntity
  8
0
100
AcDbPolyline
 90
        3
 70
     0
 43
0.0
 10
108.536417
 20
-96.257865
 10
111.33091
 20
-99.052358
 42
-0.022678
 10
111.667165
 20
-99.420582
  0
LWPOLYLINE
  5
11B
100
AcDbEntity
  8
0
100
AcDbPolyline
 90
        4
 70
     0
 43
0.0
 10
113.203653
 20
-100.640268
 10
113.685389
 20
-100.640268
 42
-0.414214
 10
118.685389
 20
-105.640268
 10
118.685389
 20
-107.510619
  0
LWPOLYLINE
  5
11C
100
AcDbEntity
  8
0
100
AcDbPolyline
 90
        4
 70
     0
 43
0.0
 10
113.203653
 20
-100.140268
 10
113.685389
 20
-100.140268
 42
-0.414214
 10
119.185389
 20
-105.640268
 10
119.185389
 20
-107.510619
  0
ARC
  5
11D
100
AcDbEntity
  8
0
100
AcDbCircle
 10
106.845114
 20
-122.280617
 30
0.0
 40
10.0
100
AcDbArc
 50
58.242503
 51
69.331798
  0
ARC
  5
11E
100
AcDbEntity
  8
0
100
AcDbCircle
 10
105.811326
 20
-121.546136
 30
0.0
 40
10.0
100
AcDbArc
 50
42.114387
 51
69.331798
  0
LINE
  5
11F
100
AcDbEntity
  8
0
100
AcDbLine
 10
109.344177
 20
-113.007319
 30
0.0
 11
108.310389
 21
-112.272838
 31
0.0
  0
LINE
  5
120
100
AcDbEntity
  8
0
100
AcDbLine
 10
109.895732
 20
-112.890083
 30
0.0
 11
109.344177
 21
-113.007319
 31
0.0
  0
ARC
  5
121
100
AcDbEntity
  8
0
100
AcDbCircle
 10
110.07792
 20
-113.710862
 30
0.0
 40
0.840757
100
AcDbArc
 50
69.331798
 51
102.515007
  0
LINE
  5
122
100
AcDbEntity
  8
0
100
AcDbLine
 10
108.861945
 20
-112.155601
 30
0.0
 11
108.310389
 21
-112.272838
 31
0.0
  0
ARC
  5
123
100
AcDbEntity
  8
0
100
AcDbCircle
 10
109.044133
 20
-112.976381
 30
0.0
 40
0.840757
100
AcDbArc
 50
69.331798
 51
102.515007
  0
ARC
  5
124
100
AcDbEntity
  8
0
100
AcDbCircle
 10
112.487593
 20
-115.510619
 30
0.0
 40
1.0
100
AcDbArc
 50
317.885613
 51
0.0
  0
ARC
  5
125
100
AcDbEntity
  8
0
100
AcDbCircle
 10
112.487593
 20
-115.510619
 30
0.0
 40
1.0
100
AcDbArc
 50
0.0
 51
42.114387
  0
ARC
  5
126
100
AcDbEntity
  8
0
100
AcDbCircle
 10
113.203653
 20
-98.140268
 30
0.0
 40
2.5
100
AcDbArc
 50
219.803533
 51
270.0
  0
ARC
  5
127
100
AcDbEntity
  8
0
100
AcDbCircle
 10
113.203653
 20
-98.140268
 30
0.0
 40
2.0
100
AcDbArc
 50
219.803533
 51
270.0
  0
LWPOLYLINE
  5
128
100
AcDbEntity
  8
0
100
AcDbPolyline
 90
        2
 70
     0
 43
0.0
 10
118.685389
 20
-115.510619
 10
118.685389
 20
-107.510619
  0
LINE
  5
129
100
AcDbEntity
  8
0
100
AcDbLine
 10
123.026989
 20
-107.510619
 30
0.0
 11
123.685389
 21
-108.010619
 31
0.0
  0
LINE
  5
12A
100
AcDbEntity
  8
0
100
AcDbLine
 10
123.685389
 20
-108.010619
 30
0.0
 11
118.685389
 21
-108.010619
 31
0.0
  0
LINE
  5
12B
100
AcDbEntity
  8
0
100
AcDbLine
 10
123.685389
 20
-115.510619
 30
0.0
 11
123.685389
 21
-108.010619
 31
0.0
  0
LINE
  5
12C
100
AcDbEntity
  8
0
100
AcDbLine
 10
123.026989
 20
-107.510619
 30
0.0
 11
119.185389
 21
-107.510619
 31
0.0
  0
LINE
  5
12D
100
AcDbEntity
  8
0
100
AcDbLine
 10
111.364844
 20
-92.722331
 30
0.0
 11
107.82931
 21
-96.257865
 31
0.0
  0
LINE
  5
12E
100
AcDbEntity
  8
0
100
AcDbLine
 10
111.252838
 20
-93.541444
 30
0.0
 11
108.536417
 21
-96.257865
 31
0.0
  0
LINE
  5
12F
100
AcDbEntity
  8
0
100
AcDbLine
 10
111.252838
 20
-93.541444
 30
0.0
 11
111.364844
 21
-92.722331
 31
0.0
  0
ARC
  5
130
100
AcDbEntity
  8
0
100
AcDbCircle
 10
141.954023
 20
-125.128366
 30
0.0
 40
14.5
100
AcDbArc
 50
134.923383
 51
163.281259
  0
ARC
  5
131
100
AcDbEntity
  8
0
100
AcDbCircle
 10
141.954023
 20
-125.128366
 30
0.0
 40
14.0
100
AcDbArc
 50
134.923383
 51
163.281259
  0
LWPOLYLINE
  5
132
100
AcDbEntity
  8
0
100
AcDbPolyline
 90
        2
 70
     0
 43
0.0
 10
128.545825
 20
-121.100933
 42
-0.035641
 10
128.000289
 20
-122.128949
  0
LWPOLYLINE
  5
133
100
AcDbEntity
  8
0
100
AcDbPolyline
 90
        2
 70
     0
 43
0.0
 10
128.06696
 20
-120.957096
 42
-0.036086
 10
127.538606
 20
-121.93699
 42
-0.025565
  0
LINE
  5
134
100
AcDbEntity
  8
0
100
AcDbLine
 10
133.495673
 20
-113.085394
 30
0.0
 11
131.714694
 21
-114.861616
 31
0.0
  0
LINE
  5
135
100
AcDbEntity
  8
0
100
AcDbLine
 10
133.849227
 20
-113.438947
 30
0.0
 11
132.067775
 21
-115.215642
 31
0.0
  0
ENDSEC
  0
SECTION
  2
OBJECTS
  0
DICTIONARY
  5
30
102
{ACAD_XDICTIONARY
360
31
102
}
100
AcDbDictionary
  3
ACAD_GROUP
350
2C
  3
ACAD_MLINESTYLE
350
2D
  0
DICTIONARY
  5
1F
100
AcDbDictionary
280
     1
  3
ACAD_XREC_ROUNDTRIP
360
20
  0
DICTIONARY
  5
22
100
AcDbDictionary
280
     1
  3
ACAD_XREC_ROUNDTRIP
360
23
  0
DICTIONARY
  5
9
100
AcDbDictionary
280
     1
  3
ACAD_XREC_ROUNDTRIP
360
A
  0
DICTIONARY
  5
13
100
AcDbDictionary
280
     1
  3
ACAD_LAYERFILTERS
360
14
  0
DICTIONARY
  5
4D
100
AcDbDictionary
280
     1
  3
ACAD_XREC_ROUNDTRIP
360
4E
  0
DICTIONARY
  5
1B
100
AcDbDictionary
280
     1
  3
ACAD_XREC_ROUNDTRIP
360
1C
  0
DICTIONARY
  5
34
100
AcDbDictionary
280
     1
  3
ACAD_XREC_ROUNDTRIP
360
35
  0
DICTIONARY
  5
39
100
AcDbDictionary
280
     1
  3
ACAD_XREC_ROUNDTRIP
360
3A
  0
DICTIONARY
  5
3
100
AcDbDictionary
280
     1
  3
ACAD_LAYOUTSELFREF
360
4
  3
ACAD_XREC_ROUNDTRIP
360
5
  0
DICTIONARY
  5
D
100
AcDbDictionary
280
     1
  3
ACAD_LAYOUTSELFREF
360
E
  3
ACAD_XREC_ROUNDTRIP
360
F
  0
DICTIONARY
  5
31
100
AcDbDictionary
280
     1
  3
ACAD_XREC_ROUNDTRIP
360
32
  0
DICTIONARY
  5
2C
102
{ACAD_REACTORS
330
30
102
}
100
AcDbDictionary
  0
DICTIONARY
  5
2D
102
{ACAD_XDICTIONARY
360
2E
102
}
102
{ACAD_REACTORS
330
30
102
}
100
AcDbDictionary
  3
STANDARD
350
37
  0
XRECORD
  5
20
102
{ACAD_REACTORS
330
1F
102
}
100
AcDbXrecord
102
EXTNAMES
  1
BYBLOCK
  2
ByBlock
  0
XRECORD
  5
23
102
{ACAD_REACTORS
330
22
102
}
100
AcDbXrecord
102
EXTNAMES
  1
BYLAYER
  2
ByLayer
  0
XRECORD
  5
A
102
{ACAD_REACTORS
330
9
102
}
100
AcDbXrecord
102
EXTNAMES
  1
CONTINUOUS
  2
Continuous
  0
DICTIONARY
  5
14
102
{ACAD_XDICTIONARY
360
15
102
}
102
{ACAD_REACTORS
330
13
102
}
100
AcDbDictionary
280
     1
  3
DIM-1_12
360
17
  3
DIM-1_16
360
18
  0
XRECORD
  5
4E
102
{ACAD_REACTORS
330
4D
102
}
100
AcDbXrecord
102
LINEWEIGHT
280
     3
  0
XRECORD
  5
1C
102
{ACAD_REACTORS
330
1B
102
}
100
AcDbXrecord
102
EXTNAMES
  1
STANDARD
  2
Standard
  0
XRECORD
  5
35
102
{ACAD_REACTORS
330
34
102
}
100
AcDbXrecord
102
EXTNAMES
  1
ROMANS
  2
romans
  0
XRECORD
  5
3A
102
{ACAD_REACTORS
330
39
102
}
100
AcDbXrecord
102
ACADR14ROUNDTRIP
1000
DSTYLE
1002
{
1070
    79
 70
     1
1070
   276
 70
     1
1070
   277
 70
     5
1070
   289
 70
     1
1002
}
  0
XRECORD
  5
4
102
{ACAD_REACTORS
330
3
102
}
100
AcDbXrecord
340
2
  0
XRECORD
  5
5
102
{ACAD_REACTORS
330
3
102
}
100
AcDbXrecord
102
EXTNAMES
  1
*MODEL_SPACE
  2
*Model_Space
  0
XRECORD
  5
E
102
{ACAD_REACTORS
330
D
102
}
100
AcDbXrecord
340
C
  0
XRECORD
  5
F
102
{ACAD_REACTORS
330
D
102
}
100
AcDbXrecord
102
EXTNAMES
  1
*PAPER_SPACE
  2
*Paper_Space
  0
XRECORD
  5
32
102
{ACAD_REACTORS
330
31
102
}
100
AcDbXrecord
102
EXTNAMES
  1
ACDBVARIABLEDICTIONARY
  2
AcDbVariableDictionary
  0
DICTIONARY
  5
2E
100
AcDbDictionary
280
     1
  3
ACAD_XREC_ROUNDTRIP
360
2F
  0
MLINESTYLE
  5
37
102
{ACAD_REACTORS
330
2D
102
}
100
AcDbMlineStyle
  2
STANDARD
 70
     0
  3

 62
   256
 51
90.0
 52
90.0
 71
     2
 49
0.5
 62
   256
  6
BYLAYER
 49
-0.5
 62
   256
  6
BYLAYER
  0
DICTIONARY
  5
15
100
AcDbDictionary
280
     1
  3
ACAD_XREC_ROUNDTRIP
360
16
  0
XRECORD
  5
17
102
{ACAD_REACTORS
330
14
102
}
100
AcDbXrecord
  1
DIM-1_12
  1
DIM-1_12
  1
*
  1
*
 70
     0
  1
*
  1
*
  0
XRECORD
  5
18
102
{ACAD_REACTORS
330
14
102
}
100
AcDbXrecord
  1
dim-1_16
  1
*
  1
*
  1
*
 70
     0
  1
*
  1
*
  0
XRECORD
  5
2F
102
{ACAD_REACTORS
330
2E
102
}
100
AcDbXrecord
102
EXTNAMES
  1
STANDARD
  2
Standard
  0
XRECORD
  5
16
102
{ACAD_REACTORS
330
15
102
}
100
AcDbXrecord
102
EXTNAMES
  1
DIM-1_16
  2
dim-1_16
  0
ENDSEC
  0
EOF
