  0
SECTION
  2
HEADER
  9
$ACADVER
  1
AC1014
  9
$ACADMAINTVER
 70
     9
  9
$DWGCODEPAGE
  3
ANSI_1252
  9
$INSBASE
 10
5.8713055992
 20
2.290895173492225
 30
0.0
  9
$EXTMIN
 10
-26.82644970822829
 20
-12.67945991656838
 30
-0.0015258207003583
  9
$EXTMAX
 10
33.91191907395497
 20
12.52237076973983
 30
0.0000000349246037
  9
$LIMMIN
 10
0.0
 20
0.0
  9
$LIMMAX
 10
17.0
 20
11.0
  9
$ORTHOMODE
 70
     1
  9
$REGENMODE
 70
     1
  9
$FILLMODE
 70
     1
  9
$QTEXTMODE
 70
     0
  9
$MIRRTEXT
 70
     1
  9
$DRAGMODE
 70
     2
  9
$LTSCALE
 40
2.0
  9
$OSMODE
 70
    55
  9
$ATTMODE
 70
     1
  9
$TEXTSIZE
 40
0.2
  9
$TRACEWID
 40
0.05
  9
$TEXTSTYLE
  7
STANDARD
  9
$CLAYER
  8
0
  9
$CELTYPE
  6
BYLAYER
  9
$CECOLOR
 62
   256
  9
$CELTSCALE
 40
1.0
  9
$DELOBJ
 70
     1
  9
$DISPSILH
 70
     0
  9
$DIMSCALE
 40
1.0
  9
$DIMASZ
 40
0.1875
  9
$DIMEXO
 40
0.0625
  9
$DIMDLI
 40
0.38
  9
$DIMRND
 40
0.0
  9
$DIMDLE
 40
0.0
  9
$DIMEXE
 40
0.18
  9
$DIMTP
 40
0.0
  9
$DIMTM
 40
0.0
  9
$DIMTXT
 40
0.125
  9
$DIMCEN
 40
0.09
  9
$DIMTSZ
 40
0.0
  9
$DIMTOL
 70
     0
  9
$DIMLIM
 70
     0
  9
$DIMTIH
 70
     1
  9
$DIMTOH
 70
     1
  9
$DIMSE1
 70
     0
  9
$DIMSE2
 70
     0
  9
$DIMTAD
 70
     0
  9
$DIMZIN
 70
     4
  9
$DIMBLK
  1
_FILLED
  9
$DIMASO
 70
     1
  9
$DIMSHO
 70
     1
  9
$DIMPOST
  1

  9
$DIMAPOST
  1

  9
$DIMALT
 70
     0
  9
$DIMALTD
 70
     2
  9
$DIMALTF
 40
25.4
  9
$DIMLFAC
 40
1.0
  9
$DIMTOFL
 70
     0
  9
$DIMTVP
 40
0.0
  9
$DIMTIX
 70
     0
  9
$DIMSOXD
 70
     0
  9
$DIMSAH
 70
     0
  9
$DIMBLK1
  1

  9
$DIMBLK2
  1

  9
$DIMSTYLE
  2
STANDARD
  9
$DIMCLRD
 70
     0
  9
$DIMCLRE
 70
     0
  9
$DIMCLRT
 70
     0
  9
$DIMTFAC
 40
1.0
  9
$DIMGAP
 40
0.09
  9
$DIMJUST
 70
     0
  9
$DIMSD1
 70
     0
  9
$DIMSD2
 70
     0
  9
$DIMTOLJ
 70
     1
  9
$DIMTZIN
 70
     4
  9
$DIMALTZ
 70
     0
  9
$DIMALTTZ
 70
     0
  9
$DIMFIT
 70
     3
  9
$DIMUPT
 70
     0
  9
$DIMUNIT
 70
     2
  9
$DIMDEC
 70
     1
  9
$DIMTDEC
 70
     1
  9
$DIMALTU
 70
     2
  9
$DIMALTTD
 70
     2
  9
$DIMTXSTY
  7
STANDARD
  9
$DIMAUNIT
 70
     0
  9
$LUNITS
 70
     2
  9
$LUPREC
 70
     4
  9
$SKETCHINC
 40
0.1
  9
$FILLETRAD
 40
0.0
  9
$AUNITS
 70
     0
  9
$AUPREC
 70
     0
  9
$MENU
  1
acad
  9
$ELEVATION
 40
0.0
  9
$PELEVATION
 40
0.0
  9
$THICKNESS
 40
0.0
  9
$LIMCHECK
 70
     0
  9
$BLIPMODE
 70
     0
  9
$CHAMFERA
 40
0.0
  9
$CHAMFERB
 40
0.0
  9
$CHAMFERC
 40
0.0
  9
$CHAMFERD
 40
0.0
  9
$SKPOLY
 70
     0
  9
$TDCREATE
 40
2453676.839854954
  9
$TDUPDATE
 40
2453685.592060752
  9
$TDINDWG
 40
0.0224396412
  9
$TDUSRTIMER
 40
0.0224396412
  9
$USRTIMER
 70
     1
  9
$ANGBASE
 50
0.0
  9
$ANGDIR
 70
     0
  9
$PDMODE
 70
     3
  9
$PDSIZE
 40
0.3125
  9
$PLINEWID
 40
0.0
  9
$COORDS
 70
     1
  9
$SPLFRAME
 70
     0
  9
$SPLINETYPE
 70
     6
  9
$SPLINESEGS
 70
     8
  9
$ATTDIA
 70
     0
  9
$ATTREQ
 70
     1
  9
$HANDLING
 70
 22529
  9
$HANDSEED
  5
37E
  9
$SURFTAB1
 70
     6
  9
$SURFTAB2
 70
     6
  9
$SURFTYPE
 70
     6
  9
$SURFU
 70
     6
  9
$SURFV
 70
     6
  9
$UCSNAME
  2

  9
$UCSORG
 10
0.0
 20
0.0
 30
0.0
  9
$UCSXDIR
 10
1.0
 20
0.0
 30
0.0
  9
$UCSYDIR
 10
0.0
 20
1.0
 30
0.0
  9
$PUCSNAME
  2

  9
$PUCSORG
 10
0.0
 20
0.0
 30
0.0
  9
$PUCSXDIR
 10
1.0
 20
0.0
 30
0.0
  9
$PUCSYDIR
 10
0.0
 20
1.0
 30
0.0
  9
$USERI1
 70
     0
  9
$USERI2
 70
     0
  9
$USERI3
 70
     0
  9
$USERI4
 70
     0
  9
$USERI5
 70
     0
  9
$USERR1
 40
0.0
  9
$USERR2
 40
0.0
  9
$USERR3
 40
0.0
  9
$USERR4
 40
0.0
  9
$USERR5
 40
0.0
  9
$WORLDVIEW
 70
     1
  9
$SHADEDGE
 70
     3
  9
$SHADEDIF
 70
    70
  9
$TILEMODE
 70
     1
  9
$MAXACTVP
 70
    16
  9
$PINSBASE
 10
0.0
 20
0.0
 30
0.0
  9
$PLIMCHECK
 70
     0
  9
$PEXTMIN
 10
1.000000000000000E+20
 20
1.000000000000000E+20
 30
1.000000000000000E+20
  9
$PEXTMAX
 10
-1.000000000000000E+20
 20
-1.000000000000000E+20
 30
-1.000000000000000E+20
  9
$PLIMMIN
 10
0.0
 20
0.0
  9
$PLIMMAX
 10
12.0
 20
9.0
  9
$UNITMODE
 70
     0
  9
$VISRETAIN
 70
     0
  9
$PLINEGEN
 70
     1
  9
$PSLTSCALE
 70
     0
  9
$TREEDEPTH
 70
  3020
  9
$PICKSTYLE
 70
     1
  9
$CMLSTYLE
  2
STANDARD
  9
$CMLJUST
 70
     0
  9
$CMLSCALE
 40
1.0
  9
$PROXYGRAPHICS
 70
     0
  9
$MEASUREMENT
 70
     0
  0
ENDSEC
  0
SECTION
  2
CLASSES
  0
CLASS
  1
ACDBDICTIONARYWDFLT
  2
AcDbDictionaryWithDefault
  3
AutoCAD 2000
 90
        0
280
     0
281
     0
  0
CLASS
  1
ACDBPLACEHOLDER
  2
AcDbPlaceHolder
  3
AutoCAD 2000
 90
        0
280
     0
281
     0
  0
CLASS
  1
LAYOUT
  2
AcDbLayout
  3
AutoCAD 2000
 90
        0
280
     0
281
     0
  0
CLASS
  1
LWPOLYLINE
  2
AcDbPolyline
  3
AutoCAD 2000
 90
        0
280
     0
281
     1
  0
CLASS
  1
IMAGE
  2
AcDbRasterImage
  3
ISM
 90
      127
280
     0
281
     1
  0
CLASS
  1
OLE2FRAME
  2
AcDbOle2Frame
  3
AutoCAD 2000
 90
        0
280
     0
281
     1
  0
CLASS
  1
HATCH
  2
AcDbHatch
  3
AutoCAD 2000
 90
        0
280
     0
281
     1
  0
CLASS
  1
DICTIONARYVAR
  2
AcDbDictionaryVar
  3
AutoCAD 2000
 90
        0
280
     0
281
     0
  0
CLASS
  1
RASTERVARIABLES
  2
AcDbRasterVariables
  3
ISM
 90
        0
280
     0
281
     0
  0
CLASS
  1
IMAGEDEF
  2
AcDbRasterImageDef
  3
ISM
 90
        0
280
     0
281
     0
  0
CLASS
  1
IMAGEDEF_REACTOR
  2
AcDbRasterImageDefReactor
  3
ISM
 90
        1
280
     0
281
     0
  0
CLASS
  1
IDBUFFER
  2
AcDbIdBuffer
  3
AutoCAD 2000
 90
        0
280
     0
281
     0
  0
CLASS
  1
SPATIAL_FILTER
  2
AcDbSpatialFilter
  3
AutoCAD 2000
 90
        0
280
     0
281
     0
  0
CLASS
  1
XRECORD
  2
AcDbXrecord
  3
AutoCAD 2000
 90
        0
280
     0
281
     0
  0
CLASS
  1
SORTENTSTABLE
  2
AcDbSortentsTable
  3
AutoCAD 2000
 90
        0
280
     0
281
     0
  0
CLASS
  1
LAYER_INDEX
  2
AcDbLayerIndex
  3
AutoCAD 2000
 90
        0
280
     0
281
     0
  0
CLASS
  1
SPATIAL_INDEX
  2
AcDbSpatialIndex
  3
AutoCAD 2000
 90
        0
280
     0
281
     0
  0
CLASS
  1
OBJECT_PTR
  2
CAseDLPNTableRecord
  3
ASE-LPNTableRecord
 90
        1
280
     0
281
     0
  0
CLASS
  1
PLOTSETTINGS
  2
AcDbPlotSettings
  3
AutoCAD 2000
 90
        0
280
     0
281
     0
  0
CLASS
  1
VBA_PROJECT
  2
AcDbVbaProject
  3
acadvba
 90
        0
280
     0
281
     0
  0
CLASS
  1
WIPEOUT
  2
AcDbWipeout
  3
"WipeOut|Product Desc: Object Enabler for WipeOut entity^I^I^I^I^I^I|Company: Autodesk, Inc.^I^I^I^I^I^I|WEB Address: www.autodesk.com"
 90
      127
280
     0
281
     1
  0
CLASS
  1
WIPEOUTVARIABLES
  2
AcDbWipeoutVariables
  3
"WipeOut|Product Desc:     WipeOut Dbx Application|Company:          Autodesk, Inc.|WEB Address:      www.autodesk.com"
 90
        0
280
     0
281
     0
  0
CLASS
  1
RTEXT
  2
RText
  3
RText|AutoCAD Express Tool|expresstools@autodesk.com
 90
        0
280
     1
281
     1
  0
CLASS
  1
ARCALIGNEDTEXT
  2
AcDbArcAlignedText
  3
ATEXT|AutoCAD Express Tool|expresstools@autodesk.com
 90
        0
280
     1
281
     1
  0
CLASS
  1
TABLESTYLE
  2
AcDbTableStyle
  3
ObjectDBX Classes
 90
     2047
280
     0
281
     0
  0
CLASS
  1
ACAD_PROXY_OBJECT_WRAPPER
  2
AcDbProxyObjectWrapper
  3
AutoCAD 2000
 90
        0
280
     0
281
     0
  0
CLASS
  1
LONG_TRANSACTION
  2
AcDbLongTransaction
  3
AutoCAD 2000
 90
        0
280
     0
281
     0
  0
CLASS
  1
LWPOLYLINE
  2
AcDbPolyline
  3
AutoCAD 2000
 90
        0
280
     0
281
     1
  0
CLASS
  1
HATCH
  2
AcDbHatch
  3
AutoCAD 2000
 90
        0
280
     0
281
     1
  0
CLASS
  1
XRECORD
  2
AcDbXrecord
  3
AutoCAD 2000
 90
        0
280
     0
281
     0
  0
CLASS
  1
LONG_TRANSACTION
  2
AcDbLongTransaction
  3
AutoCAD 2000
 90
        0
280
     0
281
     0
  0
CLASS
  1
LWPOLYLINE
  2
AcDbPolyline
  3
AutoCAD 2000
 90
        0
280
     0
281
     1
  0
CLASS
  1
HATCH
  2
AcDbHatch
  3
AutoCAD 2000
 90
        0
280
     0
281
     1
  0
CLASS
  1
XRECORD
  2
AcDbXrecord
  3
AutoCAD 2000
 90
        0
280
     0
281
     0
  0
ENDSEC
  0
SECTION
  2
TABLES
  0
TABLE
  2
VPORT
  5
1E
330
0
100
AcDbSymbolTable
 70
     3
  0
VPORT
  5
35A
330
1E
100
AcDbSymbolTableRecord
100
AcDbViewportTableRecord
  2
*ACTIVE
 70
     0
 10
0.0
 20
0.0
 11
1.0
 21
1.0
 12
3.542734660506596
 22
-0.0785446345313545
 13
0.0
 23
0.0
 14
1.0
 24
1.0
 15
0.0
 25
0.0
 16
0.0
 26
0.0
 36
1.0
 17
0.0
 27
0.0
 37
0.0
 40
39.68119816899676
 41
1.786792452830188
 42
50.0
 43
0.0
 44
0.0
 50
0.0
 51
0.0
 71
     0
 72
   100
 73
     1
 74
     1
 75
     0
 76
     0
 77
     0
 78
     0
  0
ENDTAB
  0
TABLE
  2
LTYPE
  5
19
330
0
100
AcDbSymbolTable
 70
     3
  0
LTYPE
  5
1A
330
19
100
AcDbSymbolTableRecord
100
AcDbLinetypeTableRecord
  2
BYBLOCK
 70
     0
  3

 72
    65
 73
     0
 40
0.0
  0
LTYPE
  5
1B
330
19
100
AcDbSymbolTableRecord
100
AcDbLinetypeTableRecord
  2
BYLAYER
 70
     0
  3

 72
    65
 73
     0
 40
0.0
  0
LTYPE
  5
8
330
19
100
AcDbSymbolTableRecord
100
AcDbLinetypeTableRecord
  2
CONTINUOUS
 70
     0
  3
Solid line
 72
    65
 73
     0
 40
0.0
  0
LTYPE
  5
174
330
19
100
AcDbSymbolTableRecord
100
AcDbLinetypeTableRecord
  2
CENTER
 70
     0
  3
____ _ ____ _ ____ _ ____ _ ____ _ ____ _ ____
 72
    65
 73
     4
 40
0.6
 49
0.375
 74
     0
 49
-0.075
 74
     0
 49
0.075
 74
     0
 49
-0.075
 74
     0
  0
LTYPE
  5
2CE
330
19
100
AcDbSymbolTableRecord
100
AcDbLinetypeTableRecord
  2
HIDDEN
 70
     0
  3
Hidden __ __ __ __ __ __ __ __ __ __ __ __ __ _
 72
    65
 73
     2
 40
0.375
 49
0.25
 74
     0
 49
-0.125
 74
     0
  0
ENDTAB
  0
TABLE
  2
LAYER
  5
11
102
{ACAD_XDICTIONARY
360
12
102
}
330
0
100
AcDbSymbolTable
 70
     3
  0
LAYER
  5
6
330
11
100
AcDbSymbolTableRecord
100
AcDbLayerTableRecord
  2
0
 70
     0
 62
     7
  6
CONTINUOUS
  0
LAYER
  5
173
330
11
100
AcDbSymbolTableRecord
100
AcDbLayerTableRecord
  2
CENTER
 70
     0
 62
     1
  6
CENTER
1001
ACAECLAYERSTANDARD
1000

1000

  0
LAYER
  5
252
330
11
100
AcDbSymbolTableRecord
100
AcDbLayerTableRecord
  2
DEFPOINTS
 70
     0
 62
     7
  6
CONTINUOUS
  0
ENDTAB
  0
TABLE
  2
STYLE
  5
16
330
0
100
AcDbSymbolTable
 70
     1
  0
STYLE
  5
17
330
16
100
AcDbSymbolTableRecord
100
AcDbTextStyleTableRecord
  2
STANDARD
 70
     0
 40
0.0
 41
0.8
 50
0.0
 71
     0
 42
0.2
  3
txt
  4

  0
ENDTAB
  0
TABLE
  2
VIEW
  5
1C
330
0
100
AcDbSymbolTable
 70
     0
  0
ENDTAB
  0
TABLE
  2
UCS
  5
1D
330
0
100
AcDbSymbolTable
 70
     0
  0
ENDTAB
  0
TABLE
  2
APPID
  5
20
330
0
100
AcDbSymbolTable
 70
     4
  0
APPID
  5
15
330
20
100
AcDbSymbolTableRecord
100
AcDbRegAppTableRecord
  2
ACAD
 70
     0
  0
APPID
  5
175
330
20
100
AcDbSymbolTableRecord
100
AcDbRegAppTableRecord
  2
ACAECLAYERSTANDARD
 70
     0
  0
APPID
  5
224
330
20
100
AcDbSymbolTableRecord
100
AcDbRegAppTableRecord
  2
DCO15
 70
     0
  0
APPID
  5
22C
330
20
100
AcDbSymbolTableRecord
100
AcDbRegAppTableRecord
  2
ACAD_DSTYLE_DIMTEXT_FILL
 70
     0
  0
ENDTAB
  0
TABLE
  2
DIMSTYLE
  5
21
330
0
100
AcDbSymbolTable
 70
     1
  0
DIMSTYLE
105
22
330
21
100
AcDbSymbolTableRecord
100
AcDbDimStyleTableRecord
  2
STANDARD
 70
     0
  3

  4

  5
_FILLED
  6

  7

 40
1.0
 41
0.1875
 42
0.0625
 43
0.38
 44
0.18
 45
0.0
 46
0.0
 47
0.0
 48
0.0
140
0.125
141
0.09
142
0.0
143
25.4
144
1.0
145
0.0
146
1.0
147
0.09
 71
     0
 72
     0
 73
     1
 74
     1
 75
     0
 76
     0
 77
     0
 78
     4
170
     0
171
     2
172
     0
173
     0
174
     0
175
     0
176
     0
177
     0
178
     0
270
     2
271
     1
272
     1
273
     2
274
     2
340
17
275
     0
280
     0
281
     0
282
     0
283
     1
284
     4
285
     0
286
     0
287
     3
288
     0
  0
ENDTAB
  0
TABLE
  2
BLOCK_RECORD
  5
1
330
0
100
AcDbSymbolTable
 70
     2
  0
BLOCK_RECORD
  5
2
102
{ACAD_XDICTIONARY
360
3
102
}
330
1
100
AcDbSymbolTableRecord
100
AcDbBlockTableRecord
  2
*MODEL_SPACE
  0
BLOCK_RECORD
  5
D
102
{ACAD_XDICTIONARY
360
300
102
}
330
1
100
AcDbSymbolTableRecord
100
AcDbBlockTableRecord
  2
*PAPER_SPACE
  0
BLOCK_RECORD
  5
23
330
1
100
AcDbSymbolTableRecord
100
AcDbBlockTableRecord
  2
_FILLED
  0
BLOCK_RECORD
  5
315
330
1
100
AcDbSymbolTableRecord
100
AcDbBlockTableRecord
  2
*D1
  0
ENDTAB
  0
ENDSEC
  0
SECTION
  2
BLOCKS
  0
BLOCK
  5
5
330
2
100
AcDbEntity
  8
0
100
AcDbBlockBegin
  2
*MODEL_SPACE
 70
     0
 10
0.0
 20
0.0
 30
0.0
  3
*MODEL_SPACE
  1

  0
ENDBLK
  5
9
330
2
100
AcDbEntity
  8
0
100
AcDbBlockEnd
  0
BLOCK
  5
E
330
D
100
AcDbEntity
 67
     1
  8
0
100
AcDbBlockBegin
  2
*PAPER_SPACE
 70
     0
 10
0.0
 20
0.0
 30
0.0
  3
*PAPER_SPACE
  1

  0
ENDBLK
  5
F
330
D
100
AcDbEntity
 67
     1
  8
0
100
AcDbBlockEnd
  0
BLOCK
  5
24
330
23
100
AcDbEntity
  8
0
100
AcDbBlockBegin
  2
_FILLED
 70
     0
 10
0.0
 20
0.0
 30
0.0
  3
_FILLED
  1

  0
SOLID
  5
25
330
23
100
AcDbEntity
  8
0
  6
BYBLOCK
 62
     0
100
AcDbTrace
 10
0.0
 20
0.0
 30
0.0
 11
-1.0
 21
0.1666666667
 31
0.0
 12
-1.0
 22
-0.1666666667
 32
0.0
 13
-1.0
 23
-0.1666666667
 33
0.0
  0
ENDBLK
  5
26
330
23
100
AcDbEntity
  8
0
  6
BYBLOCK
 62
     0
100
AcDbBlockEnd
  0
BLOCK
  5
320
330
315
100
AcDbEntity
  8
0
100
AcDbBlockBegin
  2
*D1
 70
     1
 10
0.0
 20
0.0
 30
0.0
  3
*D1
  1

  0
LINE
  5
316
330
315
100
AcDbEntity
  8
0
 62
     0
100
AcDbLine
 10
-26.88721256579999
 20
8.899607633300005
 30
0.0
 11
-31.79075601776124
 21
8.899607633300007
 31
0.0
  0
LINE
  5
317
330
315
100
AcDbEntity
  8
0
 62
     0
100
AcDbLine
 10
-9.708684393799993
 20
-10.63164236669999
 30
0.0
 11
-31.79075601776125
 21
-10.63164236669998
 31
0.0
  0
LINE
  5
318
330
315
100
AcDbEntity
  8
0
 62
     0
100
AcDbLine
 10
-31.61075601776124
 20
8.712107633300007
 30
0.0
 11
-31.61075601776124
 21
-0.7135173666999899
 31
0.0
  0
LINE
  5
319
330
315
100
AcDbEntity
  8
0
 62
     0
100
AcDbLine
 10
-31.61075601776125
 20
-10.44414236669998
 30
0.0
 11
-31.61075601776124
 21
-1.018517366699989
 31
0.0
  0
INSERT
  5
31A
330
315
100
AcDbEntity
  8
0
 62
     0
100
AcDbBlockReference
  2
_FILLED
 10
-31.61075601776124
 20
8.899607633300007
 30
0.0
 41
0.1875
 42
0.1875
 43
0.1875
 50
90.0
  0
INSERT
  5
31B
330
315
100
AcDbEntity
  8
0
 62
     0
100
AcDbBlockReference
  2
_FILLED
 10
-31.61075601776125
 20
-10.63164236669998
 30
0.0
 41
0.1875
 42
0.1875
 43
0.1875
 50
270.0
  0
MTEXT
  5
31C
330
315
100
AcDbEntity
  8
0
 62
     0
100
AcDbMText
 10
-31.61075601776124
 20
-0.8660173666999948
 30
0.0
 40
0.125
 41
0.0
 71
     5
 72
     1
  1
\A1;19.5
1001
ACAD
1000
MTEXTBEGIN
1070
    73
1070
     1
1070
    44
1040
1.0
1070
    74
1070
     0
1000
MTEXTEND
  0
POINT
  5
31D
330
315
100
AcDbEntity
  8
DEFPOINTS
 62
     0
100
AcDbPoint
 10
-26.82471256579999
 20
8.899607633300005
 30
0.0
  0
POINT
  5
31E
330
315
100
AcDbEntity
  8
DEFPOINTS
 62
     0
100
AcDbPoint
 10
-9.646184393799993
 20
-10.63164236669999
 30
0.0
  0
POINT
  5
31F
330
315
100
AcDbEntity
  8
DEFPOINTS
 62
     0
100
AcDbPoint
 10
-31.61075601776125
 20
-10.63164236669998
 30
0.0
  0
ENDBLK
  5
321
330
315
100
AcDbEntity
  8
0
100
AcDbBlockEnd
  0
ENDSEC
  0
SECTION
  2
ENTITIES
  0
LWPOLYLINE
  5
31
330
2
100
AcDbEntity
  8
0
100
AcDbPolyline
 90
       43
 70
     0
 43
0.0
 10
-19.81248489699999
 20
5.592943439700007
 10
-19.78322979139998
 20
5.533181582100006
 10
-19.76471721219999
 20
5.495216890900003
 10
-19.74333356739998
 20
5.451112815700007
 10
-19.71890897859999
 20
5.400355463700002
 10
-19.69156489539999
 20
5.342995148500001
 10
-19.66158303459999
 20
5.279402102100007
 10
-19.62953784579998
 20
5.210559540500007
 10
-19.59666596099999
 20
5.138932865300006
 10
-19.56470617379999
 20
5.068223441300006
 10
-19.53513884579999
 20
5.001743978900002
 10
-19.50775906019998
 20
4.939106938900003
 10
-19.48099854019999
 20
4.876694682900001
 10
-19.45349033379999
 20
4.811192135700004
 10
-19.42415346659998
 20
4.739993366100001
 10
-19.39222505859999
 20
4.661204487700004
 10
-19.35745373379998
 20
4.574136148500002
 10
-19.31996646819998
 20
4.479059233300006
 10
-19.27993717219998
 20
4.376412159700002
 10
-19.23731379459999
 20
4.266052780500004
 10
-19.19198249379999
 20
4.147495012500002
 10
-19.14378190019998
 20
4.020091542100004
 10
-19.09253407459998
 20
3.883131791700002
 10
-19.03802332259999
 20
3.735771858900001
 10
-18.97998925379999
 20
3.577005574100006
 10
-18.91814169699999
 20
3.405691769300005
 10
-18.85218281859999
 20
3.220575871700006
 10
-18.78183476259999
 20
3.020334969300002
 10
-18.70680395139999
 20
2.803490470100001
 10
-18.62679307779998
 20
2.568424294100005
 10
-18.54151062019998
 20
2.313361954900003
 10
-18.45056054019998
 20
2.035982746900003
 10
-18.35339703779998
 20
1.733250908500004
 10
-18.24929104579998
 20
1.401205721300001
 10
-18.13707747139999
 20
1.033838156500003
 10
-18.01602761699999
 20
0.625668412500005
 10
-17.88498477539999
 20
0.168940391700005
 10
-17.74205999139999
 20
-0.348305877099996
 10
-17.66691866499999
 20
-0.6290532962999933
 10
-17.59341934339998
 20
-0.9102346434999972
 10
-17.52172454339999
 20
-1.191237875499993
 10
-17.45151168579998
 20
-1.472615539499997
 10
-17.32357238659999
 20
-1.999292971499997
  0
LWPOLYLINE
  5
32
330
2
100
AcDbEntity
  8
0
100
AcDbPolyline
 90
        4
 70
     0
 43
0.0
 10
-19.83529585379999
 20
5.640748225300001
 10
-19.83070309859999
 20
5.630634852500001
 10
-19.82306713059998
 20
5.614675207700003
 10
-19.81248489699999
 20
5.592943439700007
  0
LWPOLYLINE
  5
33
330
2
100
AcDbEntity
  8
0
100
AcDbPolyline
 90
       63
 70
     0
 43
0.0
 10
-16.43740586659999
 20
-6.086417336299994
 10
-16.42726456899998
 20
-6.125322454699997
 10
-16.41626361699999
 20
-6.164040165099997
 10
-16.40400479779999
 20
-6.203745376299998
 10
-16.38975091619998
 20
-6.246318640299996
 10
-16.37259060579999
 20
-6.293569717099998
 10
-16.35175227619998
 20
-6.346373477099994
 10
-16.32683220099998
 20
-6.404335577899992
 10
-16.29763624739998
 20
-6.466572798699992
 10
-16.26438471459999
 20
-6.531597961899997
 10
-16.22773130019999
 20
-6.597515029099994
 10
-16.18779158339999
 20
-6.663719408299996
 10
-16.16607762499998
 20
-6.697606534699993
 10
-16.14374313699998
 20
-6.731088065899996
 10
-16.11945937059999
 20
-6.766043203499997
 10
-16.09450270179999
 20
-6.800521363499996
 10
-16.06711299459998
 20
-6.836808769899995
 10
-16.03897858179998
 20
-6.872522041899998
 10
-16.00856087299998
 20
-6.909494472299996
 10
-15.97735691139998
 20
-6.945806037099998
 10
-15.94512851619998
 20
-6.981739832299993
 10
-15.91215478659999
 20
-7.016990883499993
 10
-15.87904435139999
 20
-7.050968478699992
 10
-15.84526041539999
 20
-7.084276393899997
 10
-15.81115398179998
 20
-7.116601861099994
 10
-15.77642643139999
 20
-7.148259089899994
 10
-15.74090298499999
 20
-7.179409945899998
 10
-15.70479114499998
 20
-7.209876825899996
 10
-15.66730934979998
 20
-7.240295281899996
 10
-15.62925545539999
 20
-7.269995041899996
 10
-15.58970394979999
 20
-7.299671150699992
 10
-15.54959627299999
 20
-7.328591251499993
 10
-15.50837869699999
 20
-7.357146798699993
 10
-15.46663508099998
 20
-7.384927769899995
 10
-15.42360355939998
 20
-7.412429376299996
 10
-15.38007454339999
 20
-7.439136736299992
 10
-15.33453663619999
 20
-7.465941238699997
 10
-15.28851610179999
 20
-7.491908667499998
 10
-15.24044978819999
 20
-7.517885096299998
 10
-15.19191744899998
 20
-7.542980006699998
 10
-15.14242884899999
 20
-7.567451973099998
 10
-15.09252029699998
 20
-7.591055925099993
 10
-15.04297565379999
 20
-7.613482416299994
 10
-14.99307627139999
 20
-7.635108030699996
 10
-14.94513162819998
 20
-7.655015909099994
 10
-14.89689431619999
 20
-7.674203102699998
 10
-14.80551217539999
 20
-7.708305392299998
 10
-14.71629349379998
 20
-7.738937289899993
 10
-14.62668706339999
 20
-7.767274952299992
 10
-14.53632971779998
 20
-7.793549286699992
 10
-14.44521371459998
 20
-7.817810115499995
 10
-14.35278454339999
 20
-7.840232905899995
 10
-14.25783622019999
 20
-7.861098600299996
 10
-14.15802160579998
 20
-7.880808697899993
 10
-14.05133831459998
 20
-7.899477877099997
 10
-13.94115535459999
 20
-7.916273723499998
 10
-13.83734642179999
 20
-7.929867814699996
 10
-13.74526699619998
 20
-7.940173257899992
 10
-13.66211460579999
 20
-7.948065385899994
 10
-13.58540378979999
 20
-7.954166133099995
 10
-13.51474743939999
 20
-7.958739557099995
 10
-13.45014823939998
 20
-7.961948685099997
 10
-13.39153914339998
 20
-7.963965217899996
  0
LWPOLYLINE
  5
34
330
2
100
AcDbEntity
  8
0
100
AcDbPolyline
 90
       10
 70
     0
 43
0.0
 10
-16.43740586659999
 20
-6.086417336299994
 10
-16.44024548099999
 20
-6.075222587499993
 10
-16.44302427779999
 20
-6.064012499499995
 10
-16.44574160739998
 20
-6.052787352299993
 10
-16.44839680579998
 20
-6.041548904299993
 10
-16.45099117859999
 20
-6.030296264299998
 10
-16.45352600419998
 20
-6.019030019499993
 10
-16.45632704259998
 20
-6.006250355499993
 10
-16.45905267299998
 20
-5.993454419499997
 10
-16.46170228099998
 20
-5.980642645099997
  0
LINE
  5
35
330
2
100
AcDbEntity
  8
0
100
AcDbLine
 10
-16.46167682339999
 20
-5.980641033899994
 30
0.0
 11
-16.5149646506
 21
-5.712450494699995
 31
0.0
  0
LWPOLYLINE
  5
36
330
2
100
AcDbEntity
  8
0
100
AcDbPolyline
 90
       12
 70
     0
 43
0.0
 10
-16.51815191619999
 20
-5.708459341099995
 10
-16.57724950659999
 20
-5.406251515499995
 10
-16.63643797059999
 20
-5.104061021099994
 10
-16.70694972419998
 20
-4.751909861099996
 10
-16.77957768899998
 20
-4.400189891499998
 10
-16.83823036739998
 20
-4.124397585899998
 10
-16.89818043299998
 20
-3.848883006699992
 10
-16.95922185539998
 20
-3.573607569899998
 10
-17.05437913539999
 20
-3.152543141099997
 10
-17.15121900259998
 20
-2.731862945899997
 10
-17.23678226979998
 20
-2.365433198699996
 10
-17.32357238659999
 20
-1.999292971499997
  0
LWPOLYLINE
  5
37
330
2
100
AcDbEntity
  8
0
  6
HIDDEN
 48
0.5
100
AcDbPolyline
 90
       39
 70
     0
 43
0.0
 10
6.394658575000008
 20
7.211692553300004
 10
6.389606098200005
 20
7.216659353300002
 10
6.384487493400015
 20
7.221557986900002
 10
6.376156344600005
 20
7.229256670100006
 10
6.367660863000011
 20
7.236773609300001
 10
6.359004242200015
 20
7.244104390100005
 10
6.350299787800011
 20
7.251157334100007
 10
6.341444464600016
 20
7.258019866900006
 10
6.332441458200008
 20
7.264687455700006
 10
6.323450211800007
 20
7.271047583700003
 10
6.314322578200005
 20
7.277210342100005
 10
6.305061810200015
 20
7.283171138900002
 10
6.295863218200011
 20
7.288810545300002
 10
6.286543341400005
 20
7.294247127700003
 10
6.277105555800005
 20
7.299476310100004
 10
6.267766115800014
 20
7.304384673300006
 10
6.258320720600011
 20
7.309085863700005
 10
6.248772927000004
 20
7.313575393300006
 10
6.239363464600018
 20
7.317746847700007
 10
6.229863703000006
 20
7.321708295700005
 10
6.220277408600011
 20
7.325455430100006
 10
6.210844103000013
 20
7.328900902100002
 10
6.201336002200008
 20
7.332134177300005
 10
6.191757106200014
 20
7.335151193300006
 10
6.182364269400011
 20
7.337877676500006
 10
6.172912314200004
 20
7.340391462100001
 10
6.163405466200003
 20
7.342688823700001
 10
6.154083821400007
 20
7.344717598100004
 10
6.144718407000013
 20
7.346533567700006
 10
6.135313655000004
 20
7.348133375700001
 10
6.126113288600009
 20
7.349481524500006
 10
6.116884459800004
 20
7.350618226900003
 10
6.107631866200009
 20
7.351540586900007
 10
6.098572275800009
 20
7.352232081300002
 10
6.089499034200017
 20
7.352713711700005
 10
6.080416696600011
 20
7.352983041300007
 10
6.071540479000006
 20
7.353038884500001
 10
6.062665717400008
 20
7.352887970900006
 10
6.053798200600013
 20
7.352528454100003
  0
LWPOLYLINE
  5
38
330
2
100
AcDbEntity
  8
0
  6
HIDDEN
 48
0.5
100
AcDbPolyline
 90
       42
 70
     0
 43
0.0
 10
3.904295355800016
 20
6.421168788500004
 10
3.906894736600008
 20
6.411900484500002
 10
3.909708053400009
 20
6.402693490900006
 10
3.912730791000015
 20
6.393552718100004
 10
3.916059407000005
 20
6.384209226900004
 10
3.919601003800011
 20
6.374944722900004
 10
3.923351061400012
 20
6.365762695700006
 10
3.927423895000003
 20
6.356401510100006
 10
3.931707896600016
 20
6.347134919700003
 10
3.936198171800015
 20
6.337966446100004
 10
3.941033840600013
 20
6.328628799700005
 10
3.946078071000016
 20
6.319402148500003
 10
3.951325759000013
 20
6.310289658900003
 10
3.956923661400011
 20
6.301049868500001
 10
3.962725666200014
 20
6.291936820500005
 10
3.968726514200014
 20
6.282953426900007
 10
3.975093027800014
 20
6.273862410900001
 10
3.981658464600016
 20
6.264913970900003
 10
3.988417442200017
 20
6.256110772500001
 10
3.995537069400015
 20
6.247245335700007
 10
4.002848736600014
 20
6.238537578900007
 10
4.010347008600007
 20
6.229989945300005
 10
4.018206962200011
 20
6.221412030100005
 10
4.026251123800008
 20
6.213006588500007
 10
4.034474021400015
 20
6.204775890900002
 10
4.043028883800005
 20
6.196573247700001
 10
4.051758135000014
 20
6.188556420500006
 10
4.060656355800006
 20
6.180727532500007
 10
4.069878288600008
 20
6.172956612500001
 10
4.079264175000005
 20
6.165384510100004
 10
4.088808639000006
 20
6.158013266900006
 10
4.098639127000012
 20
6.150748927700007
 10
4.108621714200012
 20
6.143695046100006
 10
4.118751109400008
 20
6.136853630100006
 10
4.129107120600011
 20
6.130173058900005
 10
4.139601808600005
 20
6.123712521300006
 10
4.150229999000003
 20
6.117474033300005
 10
4.16101973500001
 20
6.111441519700001
 10
4.171933557400009
 20
6.105636521300006
 10
4.182966439000011
 20
6.100061106900007
 10
4.193838576600015
 20
6.094845670100006
 10
4.204814651800006
 20
6.089852679700001
  0
LWPOLYLINE
  5
39
330
2
100
AcDbEntity
  8
0
  6
HIDDEN
 48
0.5
100
AcDbPolyline
 90
        5
 70
     0
 43
0.0
 10
3.904295355800016
 20
6.421168788500004
 10
3.895338120600015
 20
6.454730820500003
 10
3.886445277400014
 20
6.488309986900006
 10
3.877585151000005
 20
6.522026354900006
 10
3.868789483800014
 20
6.555759580500001
  0
LWPOLYLINE
  5
3A
330
2
100
AcDbEntity
  8
0
100
AcDbPolyline
 90
       32
 70
     0
 43
0.0
 10
-23.59251436099999
 20
12.1932358221
 10
-23.53694927139998
 20
12.1703700685
 10
-23.49709657859998
 20
12.1513577149
 10
-23.45817609539999
 20
12.1305038381
 10
-23.42015174019999
 20
12.1077731021
 10
-23.38322621219998
 20
12.0832964189
 10
-23.34612046499999
 20
12.0561166749
 10
-23.31032252579999
 20
12.0272372605
 10
-23.27253948099998
 20
11.9937060477
 10
-23.23628413379999
 20
11.9585224381
 10
-23.19673415459998
 20
11.9167943709
 10
-23.15882386979998
 20
11.8735692701
 10
-23.11743193699999
 20
11.8229112733
 10
-23.07763991619999
 20
11.7709850637
 10
-23.03437441379998
 20
11.7112566493
 10
-22.99249988579998
 20
11.6505442957
 10
-22.94679187299998
 20
11.5815180301
 10
-22.90212923139999
 20
11.5118104973
 10
-22.85283354179998
 20
11.4329798205
 10
-22.80411306179999
 20
11.3537922029
 10
-22.69554768739998
 20
11.1751279229
 10
-22.57475369699999
 20
10.9734294477
 10
-22.44033642019999
 20
10.7458106973
 10
-22.29087011779999
 20
10.4892003565
 10
-22.12501006819999
 20
10.2004843933
 10
-21.94169061859999
 20
9.876803473300007
 10
-21.73872254339998
 20
9.512952318100005
 10
-21.51317673379999
 20
9.101723534100003
 10
-21.38519197539999
 20
8.864953375700004
 10
-21.25833935299998
 20
8.627574503700003
 10
-21.12958885699999
 20
8.383627206100001
 10
-21.00217017539999
 20
8.138982633300003
  0
LWPOLYLINE
  5
3B
330
2
100
AcDbEntity
  8
0
  6
HIDDEN
 48
0.5
100
AcDbPolyline
 90
       42
 70
     0
 43
0.0
 10
4.204814651800006
 20
6.089852679700001
 10
4.355503159000008
 20
6.023126532500008
 10
4.508296677400011
 20
5.962996318100003
 10
4.662991115800011
 20
5.909009180500007
 10
4.819382379800003
 20
5.860712266900002
 10
4.977266378200013
 20
5.817652721300007
 10
5.175210704600004
 20
5.770765542100001
 10
5.374752973400006
 20
5.730396138900005
 10
5.575501691800013
 20
5.695675839700001
 10
5.777065365400005
 20
5.665735970900001
 10
6.047277287000014
 20
5.631963226900005
 10
6.31812454620001
 20
5.604889847700007
 10
6.58948555580001
 20
5.584223031700005
 10
6.861238725400014
 20
5.569669977300002
 10
7.111615288600006
 20
5.561443335700005
 10
7.362116027800013
 20
5.558022582100001
 10
7.61263588700001
 20
5.559281884500002
 10
7.863069805400016
 20
5.565095406100006
 10
8.198819315800008
 20
5.579554774100003
 10
8.534272144600009
 20
5.600030050900002
 10
8.869475455000014
 20
5.624564831700006
 10
9.35582126460001
 20
5.664013462100001
 10
9.841958728600005
 20
5.705554242900007
 10
10.328106055
 20
5.746845977300004
 10
10.78326900220001
 20
5.784028714900003
 10
11.2383726982
 20
5.822034329300002
 10
11.69315808220001
 20
5.863954998100005
 10
11.96381663260001
 20
5.892192807700006
 10
12.23401920860001
 20
5.924349799700003
 10
12.50351476860001
 20
5.961857967700005
 10
12.75617784540001
 20
6.003117878100006
 10
13.007831351
 20
6.050422082900006
 10
13.25831358460001
 20
6.103811828500006
 10
13.50746284540001
 20
6.163328359700003
 10
13.75511743100001
 20
6.229012922900004
 10
13.93231908220001
 20
6.280254674900007
 10
14.10826761180001
 20
6.335435449300007
 10
14.28256820380001
 20
6.395276751700002
 10
14.45482603740001
 20
6.460500082900004
 10
14.57352754300001
 20
6.509551230100001
 10
14.69090985340001
 20
6.561814986900003
 10
14.80683908700001
 20
6.617536009300003
  0
LWPOLYLINE
  5
3C
330
2
100
AcDbEntity
  8
0
  6
HIDDEN
 48
0.5
100
AcDbPolyline
 90
       49
 70
     0
 43
0.0
 10
6.394658575000008
 20
7.211692553300004
 10
6.477757160600006
 20
7.167982756500002
 10
6.562338426200014
 20
7.127960207700006
 10
6.648284131800011
 20
7.091469236500003
 10
6.735476037400005
 20
7.058354172500003
 10
6.823795904600004
 20
7.028459345300007
 10
6.925818207000006
 20
6.998077268500004
 10
7.028979875800004
 20
6.971455270100001
 10
7.133105157400009
 20
6.948361954900001
 10
7.238018293400017
 20
6.928565929300006
 10
7.343543531800008
 20
6.911835798100007
 10
7.449505114200007
 20
6.897940166100006
 10
7.55572728540001
 20
6.886647639700001
 10
7.709322927000016
 20
6.874498412500003
 10
7.863057895000011
 20
6.866804222100007
 10
8.016894575000009
 20
6.863073156500007
 10
8.170795343000008
 20
6.862813297300007
 10
8.32472258300001
 20
6.865532732500007
 10
8.478638672600013
 20
6.870739543700004
 10
8.632505991000016
 20
6.877941818900005
 10
8.786286922200005
 20
6.886647639700001
 10
9.128514533400007
 20
6.909675268500002
 10
9.470265791000016
 20
6.936582810900006
 10
9.811679968600017
 20
6.966228094100003
 10
10.1528963366
 20
6.997468940500006
 10
10.49405416700001
 20
7.029163177300006
 10
10.83529273020001
 20
7.060168628500001
 10
11.05560920060001
 20
7.079544282900002
 10
11.2758962342
 20
7.099441929300006
 10
11.49603275100001
 20
7.121146228500002
 10
11.7158976742
 20
7.145941838100007
 10
11.8586424166
 20
7.164353210900003
 10
12.00107088380001
 20
7.185091001300001
 10
12.14303283260001
 20
7.208631356500006
 10
12.28437801980001
 20
7.235450417300008
 10
12.4249562006
 20
7.266024329300002
 10
12.52832016380001
 20
7.291335948500005
 10
12.63103837660001
 20
7.319196174100007
 10
12.73296671100001
 20
7.349839769300004
 10
12.83396104060001
 20
7.383501492500002
 10
12.93387724060001
 20
7.420416105300006
 10
12.99266280220001
 20
7.444095079700005
 10
13.0506066246
 20
7.469582124500007
 10
13.10729923260001
 20
7.497451882900001
 10
13.15156529340001
 20
7.521900804500006
 10
13.1945532838
 20
7.548546094100004
 10
13.2360522774
 20
7.577683756500007
 10
13.27585134780001
 20
7.609609798100002
 10
13.31373956700001
 20
7.644620222100002
  0
LWPOLYLINE
  5
3D
330
2
100
AcDbEntity
  8
0
  6
HIDDEN
 48
0.5
100
AcDbPolyline
 90
       57
 70
     0
 43
0.0
 10
15.1769661942
 20
7.148396002900007
 10
15.1803328886
 20
7.168638110100005
 10
15.18307500700001
 20
7.188976207700001
 10
15.185131983
 20
7.208863524500003
 10
15.18656963740001
 20
7.228804575700003
 10
15.18736318140001
 20
7.248277156500002
 10
15.18754554460001
 20
7.267765100500007
 10
15.18712339100001
 20
7.286795862100007
 10
15.18609872540001
 20
7.305803594900005
 10
15.1845080518
 20
7.324325670100002
 10
15.18232700380001
 20
7.342787474900006
 10
15.17961165500001
 20
7.360793695700003
 10
15.17631795900001
 20
7.378703087700003
 10
15.17252481980001
 20
7.396139193300001
 10
15.16816848220001
 20
7.413443122900005
 10
15.1633348854
 20
7.430304009300002
 10
15.1579533782
 20
7.446998042900005
 10
15.15211852860001
 20
7.463253743700001
 10
15.145752935
 20
7.479308986900001
 10
15.13895608380001
 20
7.494929431700001
 10
15.1316476518
 20
7.510317122900005
 10
15.1239098454
 20
7.525307526100007
 10
15.11567938140001
 20
7.540033161300002
 10
15.10704039900001
 20
7.554351345300005
 10
15.097930543
 20
7.568374622100002
 10
15.08839921980001
 20
7.582028996500007
 10
15.07841836060001
 20
7.595358295700002
 10
15.0680214598
 20
7.608318721300001
 10
15.05719835260001
 20
7.620925404500006
 10
15.04595359740001
 20
7.633172047700007
 10
15.03430719740001
 20
7.645037393300007
 10
15.0222118166
 20
7.656565305300006
 10
15.0097394854
 20
7.667684321300001
 10
14.996821839
 20
7.678451316500002
 10
14.9835542998
 20
7.688784132500003
 10
14.96979617500001
 20
7.698784754900003
 10
14.95571503580001
 20
7.708325262100004
 10
14.941132175
 20
7.717518831700004
 10
14.9262550038
 20
7.726228191700002
 10
14.91084129180001
 20
7.734585470100007
 10
14.8951628294
 20
7.742434964500006
 10
14.87890585340001
 20
7.749922169300006
 10
14.86241456220001
 20
7.756878266900002
 10
14.84533158300001
 20
7.763442348500007
 10
14.8280464774
 20
7.769454281300006
 10
14.81010512860001
 20
7.775057511700005
 10
14.79199437980001
 20
7.780086660500003
 10
14.77321234460001
 20
7.784666476500007
 10
14.7542953302
 20
7.788652642900004
 10
14.73464643100001
 20
7.792153858900007
 10
14.7148978726
 20
7.795041391700003
 10
14.69439881660001
 20
7.797392873300005
 10
14.67383716060001
 20
7.799112810900005
 10
14.6524815398
 20
7.800243086100003
 10
14.6311008022
 20
7.800724447700005
 10
14.60888590940001
 20
7.800554063700005
 10
14.58668803420001
 20
7.799718260500007
  0
LWPOLYLINE
  5
3E
330
2
100
AcDbEntity
  8
0
  6
HIDDEN
 48
0.5
100
AcDbPolyline
 90
        5
 70
     0
 43
0.0
 10
15.1513685926
 20
7.010603002900005
 10
15.15784645820001
 20
7.044947481300006
 10
15.164261367
 20
7.079303788500006
 10
15.17064529340001
 20
7.113844108500003
 10
15.1769661942
 20
7.148396002900007
  0
LWPOLYLINE
  5
3F
330
2
100
AcDbEntity
  8
0
  6
HIDDEN
 48
0.5
100
AcDbPolyline
 90
       57
 70
     0
 43
0.0
 10
4.395009165400011
 20
7.265595004500006
 10
4.373764531800006
 20
7.264166289300007
 10
4.352570474200007
 20
7.262100372500007
 10
4.332135037400007
 20
7.259483402900002
 10
4.311789007000015
 20
7.256247734100007
 10
4.292169031000014
 20
7.252510607700003
 10
4.272672736600014
 20
7.248174074900006
 10
4.253859019800017
 20
7.243376538900001
 10
4.235202877400013
 20
7.237999178900004
 10
4.217217991000012
 20
7.232204036500007
 10
4.199422640600005
 20
7.225850873300004
 10
4.182241679000014
 20
7.219102876500002
 10
4.165281464600013
 20
7.211817999700002
 10
4.148916794200005
 20
7.2041682141
 10
4.132802522200009
 20
7.196004282900005
 10
4.117237517400013
 20
7.187486420500007
 10
4.101951914200014
 20
7.178476884500007
 10
4.087220050200016
 20
7.169146986900003
 10
4.072794183000013
 20
7.159350684500005
 10
4.058863243800004
 20
7.149222361300004
 10
4.045265114200006
 20
7.138651465300007
 10
4.032130984600016
 20
7.127743874900005
 10
4.019356088600005
 20
7.116417713300002
 10
4.007055791000013
 20
7.104780058900004
 10
3.995138565400011
 20
7.092750454100006
 10
3.983663719000006
 20
7.080390359700004
 10
3.972595853400008
 20
7.067664556500005
 10
3.961975080600012
 20
7.054620674900007
 10
3.951783072600008
 20
7.041239100500007
 10
3.942022130200015
 20
7.027521290900004
 10
3.932711437400016
 20
7.013493974100001
 10
3.923827520600013
 20
6.999117482900004
 10
3.915414607000016
 20
6.984460372500002
 10
3.907440136600015
 20
6.969460610900007
 10
3.899955333400015
 20
6.954210578900003
 10
3.892905875800011
 20
6.938588649300001
 10
3.886364923800016
 20
6.922747046100006
 10
3.880284672600012
 20
6.906559369300005
 10
3.874728347800015
 20
6.890184426900006
 10
3.869634090200008
 20
6.873418167700002
 10
3.865080343000016
 20
6.856497063700004
 10
3.861011611800009
 20
6.839185852500001
 10
3.857498179800018
 20
6.821753410900001
 10
3.854496663000006
 20
6.803946566100002
 10
3.852062578200005
 20
6.786053274900005
 10
3.850163322200018
 20
6.767764999700006
 10
3.848843373400015
 20
6.749425750100002
 10
3.848088763800006
 20
6.730715825300002
 10
3.847922351000008
 20
6.711991375700002
 10
3.848351802200014
 20
6.692875406100007
 10
3.849378351000012
 20
6.673782090900004
 10
3.851032669400012
 20
6.654334742100004
 10
3.853289435800007
 20
6.634948134100007
 10
3.856208930200011
 20
6.615206186900003
 10
3.859735562200015
 20
6.595563012500001
 10
3.863958239000012
 20
6.575591094100005
 10
3.868789483800014
 20
6.555759580500001
  0
LWPOLYLINE
  5
40
330
2
100
AcDbEntity
  8
0
  6
HIDDEN
 48
0.5
100
AcDbPolyline
 90
       38
 70
     0
 43
0.0
 10
13.55773166460001
 20
7.745792942100003
 10
13.54907900540001
 20
7.745235124500005
 10
13.54044089980001
 20
7.744470609300002
 10
13.53182299260001
 20
7.743501548500006
 10
13.52524742460001
 20
7.742623505300002
 10
13.518688815
 20
7.741628137300004
 10
13.5121490006
 20
7.740516562900005
 10
13.5056298118
 20
7.739289898900004
 10
13.4990042854
 20
7.737921514900001
 10
13.49240398940001
 20
7.736435921300007
 10
13.48583078940001
 20
7.734834452500003
 10
13.47928655260001
 20
7.733118442900007
 10
13.47262317020001
 20
7.731245708500004
 10
13.46599378620001
 20
7.729256018900002
 10
13.4594001302
 20
7.727150906900007
 10
13.45284392540001
 20
7.724931910100004
 10
13.44617752860001
 20
7.722545671700004
 10
13.4395537446
 20
7.720043564500002
 10
13.43297418620001
 20
7.717427295700005
 10
13.4264404646
 20
7.714698574100005
 10
13.4197881286
 20
7.711784708500005
 10
13.4131871958
 20
7.708756196500004
 10
13.406639151
 20
7.705614906900002
 10
13.40014548220001
 20
7.702362703700003
 10
13.3935476742
 20
7.698916175700006
 10
13.3870099046
 20
7.695357074900002
 10
13.38053352860001
 20
7.691687393300007
 10
13.3741198966
 20
7.687909116500001
 10
13.36760697980001
 20
7.683922356500005
 10
13.36116275260001
 20
7.679825494100001
 10
13.3547884486
 20
7.675620615700005
 10
13.34848529980001
 20
7.671309809300005
 10
13.34210872380001
 20
7.666789998100007
 10
13.33580909820001
 20
7.662163543700003
 10
13.32958753660001
 20
7.657432586900007
 10
13.32344515580001
 20
7.652599271700005
 10
13.31856617500001
 20
7.648641593300006
 10
13.31373956700001
 20
7.644620222100002
  0
LINE
  5
41
330
2
100
AcDbEntity
  8
0
  6
HIDDEN
 48
0.5
100
AcDbLine
 10
14.5866880342
 20
7.799718260500005
 30
0.0
 11
13.5577316646
 21
7.745792942100001
 31
0.0
  0
LINE
  5
42
330
2
100
AcDbEntity
  8
0
  6
HIDDEN
 48
0.5
100
AcDbLine
 10
6.053798200600008
 20
7.352528454100001
 30
0.0
 11
4.395009165400006
 21
7.265595004500005
 31
0.0
  0
LWPOLYLINE
  5
43
330
2
100
AcDbEntity
  8
0
  6
HIDDEN
 48
0.5
100
AcDbPolyline
 90
       48
 70
     0
 43
0.0
 10
14.80683908700001
 20
6.617536009300003
 10
14.81690441180001
 20
6.621806778900001
 10
14.8268934598
 20
6.626253049300004
 10
14.8385206198
 20
6.631695001300002
 10
14.85003409500001
 20
6.637373519700005
 10
14.8614292774
 20
6.643285847700006
 10
14.8726914054
 20
6.649423602900007
 10
14.8838261702
 20
6.655789476500004
 10
14.89482888700001
 20
6.662380950100001
 10
14.90564324060001
 20
6.669162439700002
 10
14.9163173654
 20
6.676162556500003
 10
14.9268464662
 20
6.683378972500001
 10
14.9371713862
 20
6.690769639700008
 10
14.9473430774
 20
6.698369796500003
 10
14.9573565622
 20
6.706177215700002
 10
14.9671036966
 20
6.714104023700002
 10
14.9766859254
 20
6.722229380500003
 10
14.98609810460001
 20
6.730551108500002
 10
14.99518972060001
 20
6.738930252500004
 10
15.00410639900001
 20
6.747495292500005
 10
15.01284286940001
 20
6.756244049300001
 10
15.0212280086
 20
6.764997546900005
 10
15.02942951260001
 20
6.773923298900001
 10
15.03744202140001
 20
6.783019073300003
 10
15.04509517340001
 20
6.792082977300005
 10
15.05255673820001
 20
6.801305209300004
 10
15.0598212726
 20
6.810683404500004
 10
15.06670241500001
 20
6.819965604500005
 10
15.07338602300001
 20
6.829391001300002
 10
15.07986664860001
 20
6.838957070100001
 10
15.0859695814
 20
6.848393238100001
 10
15.0918699526
 20
6.857957342100007
 10
15.0975623478
 20
6.867646641300005
 10
15.102879279
 20
6.877160738900002
 10
15.10799018940001
 20
6.886787041300003
 10
15.11288977180001
 20
6.896522569300003
 10
15.1174341062
 20
6.906064735700006
 10
15.12176956700001
 20
6.915703575700007
 10
15.1258909942
 20
6.925435854100001
 10
15.1296683702
 20
6.934933750100007
 10
15.1332357926
 20
6.944512418900004
 10
15.13658831900001
 20
6.954168268500005
 10
15.13962389020001
 20
6.963584228500003
 10
15.14244890300001
 20
6.973065558100003
 10
15.1450587462
 20
6.982608690900001
 10
15.14737351580001
 20
6.991892318100006
 10
15.1494782886
 20
7.001225418900006
 10
15.1513685926
 20
7.010603002900005
  0
LINE
  5
46
330
2
100
AcDbEntity
  8
0
100
AcDbLine
 10
-26.82471256579999
 20
8.899607633300005
 30
0.0
 11
-26.713769297
 21
10.1676950013
 31
0.0
  0
LINE
  5
47
330
2
100
AcDbEntity
  8
0
100
AcDbLine
 10
-25.1955981578
 20
11.2393249117
 30
0.0
 11
-25.20830261539999
 21
11.0939299549
 31
0.0
  0
LWPOLYLINE
  5
48
330
2
100
AcDbEntity
  8
0
100
AcDbPolyline
 90
        7
 70
     0
 43
0.0
 10
-25.30989319139998
 20
10.4736485565
 10
-25.30359245059998
 20
10.5183493645
 10
-25.29711703299999
 20
10.5630256397
 10
-25.29047178659999
 20
10.6076773341
 10
-25.28366155619998
 20
10.6523043981
 10
-25.27669118499999
 20
10.6969067805
 10
-25.26956551779999
 20
10.7414844349
  0
LINE
  5
4A
330
2
100
AcDbEntity
  8
0
100
AcDbLine
 10
-25.30989319139999
 20
10.4736485565
 30
0.0
 11
-25.26510782499999
 21
10.76890220129999
 31
0.0
  0
LWPOLYLINE
  5
4C
330
2
100
AcDbEntity
  8
0
100
AcDbPolyline
 90
        3
 70
     0
 43
0.0
 10
-25.22968412579999
 20
10.9763801917
 10
-25.26956551779999
 20
10.7414844349
 10
-25.30989319139998
 20
10.4736485565
  0
LINE
  5
4D
330
2
100
AcDbEntity
  8
0
100
AcDbLine
 10
-25.26510782499999
 20
10.76890220129999
 30
0.0
 11
-25.22220484579999
 21
11.0183260973
 31
0.0
  0
LINE
  5
4F
330
2
100
AcDbEntity
  8
0
100
AcDbLine
 10
-25.22220484579999
 20
11.0183260973
 30
0.0
 11
-25.20830261539999
 21
11.0939299549
 31
0.0
  0
LINE
  5
50
330
2
100
AcDbEntity
  8
0
100
AcDbLine
 10
-25.30989319139999
 20
10.4736485565
 30
0.0
 11
-25.31507045379999
 21
10.4514655453
 31
0.0
  0
LINE
  5
51
330
2
100
AcDbEntity
  8
0
100
AcDbLine
 10
-25.09123350339999
 20
11.7448211037
 30
0.0
 11
-25.15666148739999
 21
11.5034349181
 31
0.0
  0
LWPOLYLINE
  5
52
330
2
100
AcDbEntity
  8
0
100
AcDbPolyline
 90
        3
 70
     0
 43
0.0
 10
-25.09115441859999
 20
11.7450348525
 10
-25.15655294499998
 20
11.5039895789
 10
-25.19569470019998
 20
11.2384475325
  0
LWPOLYLINE
  5
53
330
2
100
AcDbEntity
  8
0
100
AcDbPolyline
 90
        4
 70
     0
 43
0.0
 10
-25.31507045379999
 20
10.4514655453
 10
-25.32418528099999
 20
10.4305943005
 10
-25.33693494499999
 20
10.4117242125
 10
-25.34884116525633
 20
10.3996076333
  0
LINE
  5
54
330
2
100
AcDbEntity
  8
0
100
AcDbLine
 10
-25.06045741539999
 20
11.8063399869
 30
0.0
 11
-25.09123409219999
 21
11.74481951169999
 31
0.0
  0
LINE
  5
55
330
2
100
AcDbEntity
  8
0
100
AcDbLine
 10
-24.98574335619999
 20
11.9557038909
 30
0.0
 11
-25.09115472419999
 21
11.7450340269
 31
0.0
  0
LWPOLYLINE
  5
56
330
2
100
AcDbEntity
  8
0
100
AcDbPolyline
 90
        6
 70
     0
 43
0.0
 10
-24.95286005699998
 20
11.9991410925
 10
-24.90872257699999
 20
12.0726586493
 10
-24.83304097859999
 20
12.1692095197
 10
-24.75105626499999
 20
12.2500693421
 10
-24.66154321379999
 20
12.3190743517
 10
-24.56293553699998
 20
12.3782904989
  0
LINE
  5
5A
330
2
100
AcDbEntity
  8
0
100
AcDbLine
 10
-19.66718347779999
 20
4.914641282900005
 30
0.0
 11
-19.67794371779999
 21
4.950379150100003
 31
0.0
  0
LWPOLYLINE
  5
5B
330
2
100
AcDbEntity
  8
0
100
AcDbPolyline
 90
        3
 70
     0
 43
0.0
 10
-19.67794371779999
 20
4.950379150100005
 10
-19.68834502979999
 20
4.985445450900002
 10
-19.69838209699999
 20
5.019716375700006
  0
LWPOLYLINE
  5
5C
330
2
100
AcDbEntity
  8
0
100
AcDbPolyline
 90
       12
 70
     0
 43
0.0
 10
-19.81919350819998
 20
5.855343247700005
 10
-19.81095358659998
 20
5.804807671700004
 10
-19.80688208099999
 20
5.752239150100002
 10
-19.80428136899998
 20
5.697252746900005
 10
-19.80211230819998
 20
5.635163439700001
 10
-19.79980258819998
 20
5.566145815700004
 10
-19.79630074019999
 20
5.488885892500007
 10
-19.78944953379999
 20
5.403427106900004
 10
-19.77672084899998
 20
5.315377079700006
 10
-19.75682093059998
 20
5.225933398100004
 10
-19.72962367459999
 20
5.128187484500003
 10
-19.69838209699999
 20
5.019716375700006
  0
LWPOLYLINE
  5
5F
330
2
100
AcDbEntity
  8
0
100
AcDbPolyline
 90
        5
 70
     0
 43
0.0
 10
-24.44544117379999
 20
12.4332090701
 10
-24.55608797059999
 20
12.3779399133
 10
-24.69968866659999
 20
12.2789226093
 10
-24.85004167139999
 20
12.1349591389
 10
-24.98574335779998
 20
11.9557038877
  0
LINE
  5
60
330
2
100
AcDbEntity
  8
0
100
AcDbLine
 10
-24.56293553699999
 20
12.3782904989
 30
0.0
 11
-24.46727414179999
 21
12.4223032845
 31
0.0
  0
LINE
  5
61
330
2
100
AcDbEntity
  8
0
100
AcDbLine
 10
-13.39338533219999
 20
-7.700629121899995
 30
0.0
 11
-13.39153784419999
 21
-7.7033406419
 31
0.0
  0
LWPOLYLINE
  5
62
330
2
100
AcDbEntity
  8
0
100
AcDbPolyline
 90
        4
 70
     0
 43
0.0
 10
-21.01106239779999
 20
8.395024775700001
 10
-20.64315128739998
 20
7.665947071700003
 10
-20.24697985379999
 20
6.833353068500002
 10
-19.83527751939998
 20
5.901352335700003
  0
LINE
  5
63
330
2
100
AcDbEntity
  8
0
100
AcDbLine
 10
-19.83529585379999
 20
5.901373225300003
 30
0.0
 11
-19.81919350819999
 21
5.855343247700004
 31
0.0
  0
LINE
  5
64
330
2
100
AcDbEntity
  8
0
100
AcDbLine
 10
-19.56671748099999
 20
4.599261938900005
 30
0.0
 11
-19.67037593059999
 21
4.913588478100001
 31
0.0
  0
LWPOLYLINE
  5
68
330
2
100
AcDbEntity
  8
0
100
AcDbPolyline
 90
        9
 70
     0
 43
0.0
 10
-24.47176342979999
 20
12.4200608429
 10
-24.50684611139998
 20
12.4058497901
 10
-24.59259797379999
 20
12.3620371917
 10
-24.66944196419999
 20
12.3136374701
 10
-24.73886556899999
 20
12.2605034429
 10
-24.80187025379999
 20
12.2023547837
 10
-24.85924145219998
 20
12.1386385405
 10
-24.91141820099999
 20
12.0687012061
 10
-24.95897767139999
 20
11.9910600285
  0
LINE
  5
69
330
2
100
AcDbEntity
  8
0
100
AcDbLine
 10
-24.37464189539999
 20
12.4603197597
 30
0.0
 11
-24.44544104579999
 21
12.4332091181
 31
0.0
  0
LWPOLYLINE
  5
6A
330
2
100
AcDbEntity
  8
0
100
AcDbPolyline
 90
        3
 70
     0
 43
0.0
 10
-21.01105219779999
 20
8.395013108500002
 10
-21.25438563619999
 20
8.859456826900007
 10
-21.27592562979998
 20
8.899607633300007
  0
LINE
  5
6B
330
2
100
AcDbEntity
  8
0
100
AcDbLine
 10
-10.24829745699999
 20
-10.4231852227
 30
0.0
 11
-10.83796995939999
 21
-8.222497483499994
 31
0.0
  0
LINE
  5
6E
330
2
100
AcDbEntity
  8
0
100
AcDbLine
 10
-24.37464162019999
 20
12.4603198541
 30
0.0
 11
-24.28809389059999
 21
12.4859613069
 31
0.0
  0
LINE
  5
6F
330
2
100
AcDbEntity
  8
0
100
AcDbLine
 10
27.4113818998
 20
-9.557148593899997
 30
0.0
 11
27.43659392539999
 21
-9.550258422699998
 31
0.0
  0
LINE
  5
70
330
2
100
AcDbEntity
  8
0
100
AcDbLine
 10
-19.66718347779999
 20
4.914641281300005
 30
0.0
 11
-19.67333548739999
 21
4.922562828500003
 31
0.0
  0
LINE
  5
71
330
2
100
AcDbEntity
  8
0
100
AcDbLine
 10
27.41138186940001
 20
-9.557148601899998
 30
0.0
 11
27.4231071542
 21
-9.555607933099993
 31
0.0
  0
LWPOLYLINE
  5
72
330
2
100
AcDbEntity
  8
0
100
AcDbPolyline
 90
       18
 70
     0
 43
0.0
 10
27.08896879420001
 20
-9.609623435499997
 10
27.1940928086
 20
-9.604060699499996
 10
27.31464009820001
 20
-9.588499917099994
 10
27.43353293500002
 20
-9.563297102699998
 10
27.55001418140001
 20
-9.528614277099997
 10
27.663341271
 20
-9.484670801899994
 10
27.7727902854
 20
-9.431742195499992
 10
27.87764639420001
 20
-9.370167422699992
 10
27.9771824902
 20
-9.300374649899993
 10
28.070708527
 20
-9.222866925099992
 10
28.15763673340001
 20
-9.138161601899994
 10
28.23755258300001
 20
-9.046659405099994
 10
28.31005652380001
 20
-8.948730899499992
 10
28.37457937660001
 20
-8.845009734699992
 10
28.43027264220001
 20
-8.736917344299996
 10
28.47654771100001
 20
-8.626149670699994
 10
28.51318269180001
 20
-8.514497208299992
 10
28.54030055260001
 20
-8.403878361899998
  0
LINE
  5
73
330
2
100
AcDbEntity
  8
0
100
AcDbLine
 10
25.01499541180001
 20
-9.749431721899997
 30
0.0
 11
24.9101599638
 21
-9.754020977899999
 31
0.0
  0
LINE
  5
74
330
2
100
AcDbEntity
  8
0
100
AcDbLine
 10
22.2858581542
 20
-9.701547736299994
 30
0.0
 11
22.7795363174
 21
-9.692727763499997
 31
0.0
  0
LWPOLYLINE
  5
75
330
2
100
AcDbEntity
  8
0
100
AcDbPolyline
 90
        3
 70
     0
 43
0.0
 10
22.77992602460001
 20
-9.661494782699996
 10
22.12267659420001
 20
-9.673169881899994
 10
21.4714033574
 20
-9.684292321899995
  0
LINE
  5
76
330
2
100
AcDbEntity
  8
0
100
AcDbLine
 10
21.4714033574
 20
-9.684292321899997
 30
0.0
 11
20.80488609820001
 21
-9.695168355499996
 31
0.0
  0
LWPOLYLINE
  5
77
330
2
100
AcDbEntity
  8
0
100
AcDbPolyline
 90
        4
 70
     0
 43
0.0
 10
20.80452816540001
 20
-9.726404950699993
 10
21.29836119900001
 20
-9.718412896299994
 10
21.7921341046
 20
-9.710083405099993
 10
22.28585815420001
 20
-9.701547736299993
  0
LINE
  5
78
330
2
100
AcDbEntity
  8
0
100
AcDbLine
 10
26.9688848534
 20
-9.611574624299999
 30
0.0
 11
27.0877738774
 21
-9.609667789099995
 31
0.0
  0
LINE
  5
79
330
2
100
AcDbEntity
  8
0
100
AcDbLine
 10
26.8880810374
 20
-9.612661641899999
 30
0.0
 11
26.9818513302
 21
-9.6113821891
 31
0.0
  0
LWPOLYLINE
  5
7A
330
2
100
AcDbEntity
  8
0
100
AcDbPolyline
 90
        8
 70
     0
 43
0.0
 10
22.77953631740001
 20
-9.692727763499995
 10
23.03295240380001
 20
-9.689803345899996
 10
23.3312034278
 20
-9.689200526699998
 10
23.6533304854
 20
-9.690818209899994
 10
23.97852704700001
 20
-9.694537352299995
 10
24.2883023094
 20
-9.700082539499994
 10
24.565967807
 20
-9.707064753899992
 10
24.7949609494
 20
-9.715171181099996
  0
LINE
  5
7B
330
2
100
AcDbEntity
  8
0
100
AcDbLine
 10
26.83130846620001
 20
-9.613332883499994
 30
0.0
 11
26.9190358054
 21
-9.612261125099999
 31
0.0
  0
LINE
  5
7C
330
2
100
AcDbEntity
  8
0
100
AcDbLine
 10
20.7685873734
 20
-9.726779997099997
 30
0.0
 11
20.8045281654
 21
-9.726404950699995
 31
0.0
  0
LINE
  5
7D
330
2
100
AcDbEntity
  8
0
100
AcDbLine
 10
23.0894158582
 20
-9.658266497899996
 30
0.0
 11
22.7799260246
 21
-9.661494782699998
 31
0.0
  0
LINE
  5
7E
330
2
100
AcDbEntity
  8
0
100
AcDbLine
 10
26.7620640502
 20
-9.614052368299995
 30
0.0
 11
26.77237187259999
 21
-9.613951267499993
 31
0.0
  0
LINE
  5
7F
330
2
100
AcDbEntity
  8
0
100
AcDbLine
 10
26.7443144918
 20
-9.614224246699999
 30
0.0
 11
26.8598512934
 21
-9.613001717099999
 31
0.0
  0
LINE
  5
80
330
2
100
AcDbEntity
  8
0
100
AcDbLine
 10
20.80488609820001
 20
-9.695168355499996
 30
0.0
 11
20.7554501878
 21
-9.695611233899997
 31
0.0
  0
LINE
  5
81
330
2
100
AcDbEntity
  8
0
100
AcDbLine
 10
26.6503688518
 20
-9.615013011499998
 30
0.0
 11
26.7519047366
 21
-9.614149875499998
 31
0.0
  0
LINE
  5
82
330
2
100
AcDbEntity
  8
0
100
AcDbLine
 10
26.6037736486
 20
-9.6153480419
 30
0.0
 11
26.6535058454
 21
-9.614992144299998
 31
0.0
  0
LINE
  5
83
330
2
100
AcDbEntity
  8
0
100
AcDbLine
 10
26.52605214940001
 20
-9.615818493099995
 30
0.0
 11
26.6099375254
 21
-9.615303603499997
 31
0.0
  0
LINE
  5
84
330
2
100
AcDbEntity
  8
0
100
AcDbLine
 10
26.51357090780001
 20
-9.615885523499999
 30
0.0
 11
26.52605214940001
 21
-9.615818493099995
 31
0.0
  0
LINE
  5
85
330
2
100
AcDbEntity
  8
0
100
AcDbLine
 10
26.50143094620001
 20
-9.615948453099997
 30
0.0
 11
26.51357090780001
 21
-9.615885523499999
 31
0.0
  0
LINE
  5
86
330
2
100
AcDbEntity
  8
0
100
AcDbLine
 10
26.4896472214
 20
-9.616007429099996
 30
0.0
 11
26.50143094620001
 21
-9.615948453099997
 31
0.0
  0
LINE
  5
87
330
2
100
AcDbEntity
  8
0
100
AcDbLine
 10
26.478235503
 20
-9.616062595499998
 30
0.0
 11
26.4896472214
 21
-9.616007429099996
 31
0.0
  0
LINE
  5
88
330
2
100
AcDbEntity
  8
0
100
AcDbLine
 10
26.46721154139999
 20
-9.616114097899997
 30
0.0
 11
26.478235503
 21
-9.616062595499998
 31
0.0
  0
LWPOLYLINE
  5
89
330
2
100
AcDbEntity
  8
0
100
AcDbPolyline
 90
        3
 70
     0
 43
0.0
 10
26.4514196198
 20
-9.616184861099995
 10
26.45658845660001
 20
-9.616162086699993
 10
26.4672115414
 20
-9.616114097899995
  0
LINE
  5
8A
330
2
100
AcDbEntity
  8
0
100
AcDbLine
 10
26.4413245334
 20
-9.6162282691
 30
0.0
 11
26.4514196198
 21
-9.616184861099997
 31
0.0
  0
LWPOLYLINE
  5
8B
330
2
100
AcDbEntity
  8
0
100
AcDbPolyline
 90
        3
 70
     0
 43
0.0
 10
26.42665662620001
 20
-9.616288846699994
 10
26.43149432700001
 20
-9.616269190699995
 10
26.44132453340001
 20
-9.616228269099998
  0
LWPOLYLINE
  5
8C
330
2
100
AcDbEntity
  8
0
100
AcDbPolyline
 90
        3
 70
     0
 43
0.0
 10
26.4123918182
 20
-9.616344976299998
 10
26.41710644060001
 20
-9.616326725099995
 10
26.42665662620001
 20
-9.616288846699994
  0
LWPOLYLINE
  5
8D
330
2
100
AcDbEntity
  8
0
100
AcDbPolyline
 90
        3
 70
     0
 43
0.0
 10
26.39848119580001
 20
-9.616397123499993
 10
26.4030799142
 20
-9.616380163499997
 10
26.4123918182
 20
-9.616344976299998
  0
LWPOLYLINE
  5
8E
330
2
100
AcDbEntity
  8
0
100
AcDbPolyline
 90
        3
 70
     0
 43
0.0
 10
26.38490535100001
 20
-9.616445595499996
 10
26.38939463100001
 20
-9.616429829099992
 10
26.39848119580001
 20
-9.616397123499993
  0
LWPOLYLINE
  5
8F
330
2
100
AcDbEntity
  8
0
100
AcDbPolyline
 90
        3
 70
     0
 43
0.0
 10
26.371644919
 20
-9.616490680299996
 10
26.37603121020001
 20
-9.616476011499997
 10
26.38490535100001
 20
-9.616445595499996
  0
LWPOLYLINE
  5
90
330
2
100
AcDbEntity
  8
0
100
AcDbPolyline
 90
        3
 70
     0
 43
0.0
 10
26.35868058300001
 20
-9.616532637099993
 10
26.36297032060001
 20
-9.616518984299993
 10
26.371644919
 20
-9.616490680299996
  0
LWPOLYLINE
  5
91
330
2
100
AcDbEntity
  8
0
100
AcDbPolyline
 90
        4
 70
     0
 43
0.0
 10
26.34182207420001
 20
-9.616584125099997
 10
26.34599305980001
 20
-9.616571705899993
 10
26.35019266620001
 20
-9.616558989099992
 10
26.35868058300001
 20
-9.616532637099993
  0
LWPOLYLINE
  5
92
330
2
100
AcDbEntity
  8
0
100
AcDbPolyline
 90
        3
 70
     0
 43
0.0
 10
26.3294737142
 20
-9.616619678699997
 10
26.33356311100001
 20
-9.616608104299992
 10
26.34182207420001
 20
-9.616584125099997
  0
LWPOLYLINE
  5
93
330
2
100
AcDbEntity
  8
0
100
AcDbPolyline
 90
        4
 70
     0
 43
0.0
 10
26.31336732220001
 20
-9.616663369899995
 10
26.31735732860001
 20
-9.616652825899997
 10
26.32137153180001
 20
-9.616642032299992
 10
26.3294737142
 20
-9.616619678699997
  0
LWPOLYLINE
  5
94
330
2
100
AcDbEntity
  8
0
100
AcDbPolyline
 90
        4
 70
     0
 43
0.0
 10
26.29776312860001
 20
-9.616702864299995
 10
26.30159696220001
 20
-9.616693414699994
 10
26.3054802486
 20
-9.616683675499992
 10
26.31336732220001
 20
-9.616663369899995
  0
LWPOLYLINE
  5
95
330
2
100
AcDbEntity
  8
0
100
AcDbPolyline
 90
        5
 70
     0
 43
0.0
 10
26.2795750006
 20
-9.616745467499995
 10
26.2830593446
 20
-9.616737587499997
 10
26.28662687260001
 20
-9.616729381099993
 10
26.2902712374
 20
-9.616720854699998
 10
26.29776312860001
 20
-9.616702864299995
  0
LWPOLYLINE
  5
96
330
2
100
AcDbEntity
  8
0
100
AcDbPolyline
 90
        5
 70
     0
 43
0.0
 10
26.26326671580001
 20
-9.616780611499997
 10
26.26640054460001
 20
-9.616774078699997
 10
26.2695920854
 20
-9.616767318699992
 10
26.27284753020001
 20
-9.616760310699994
 10
26.2795750006
 20
-9.616745467499995
  0
LWPOLYLINE
  5
97
330
2
100
AcDbEntity
  8
0
100
AcDbPolyline
 90
        5
 70
     0
 43
0.0
 10
26.24833898620001
 20
-9.616810317099997
 10
26.25123412220002
 20
-9.616804737899997
 10
26.2541719686
 20
-9.616798985899997
 10
26.25715501980001
 20
-9.616793054699996
 10
26.26326671580001
 20
-9.616780611499997
  0
LWPOLYLINE
  5
98
330
2
100
AcDbEntity
  8
0
100
AcDbPolyline
 90
        7
 70
     0
 43
0.0
 10
26.22905977820001
 20
-9.616845291499998
 10
26.23172563260002
 20
-9.616840678699993
 10
26.23441678780001
 20
-9.616835950699993
 10
26.23713572380001
 20
-9.616831099499997
 10
26.2398849254
 20
-9.616826117099996
 10
26.24266687740001
 20
-9.616820998699992
 10
26.24833898620001
 20
-9.616810317099997
  0
LWPOLYLINE
  5
99
330
2
100
AcDbEntity
  8
0
100
AcDbPolyline
 90
        7
 70
     0
 43
0.0
 10
26.21103935100001
 20
-9.616874625899995
 10
26.2135468886
 20
-9.616870734699993
 10
26.21607629340001
 20
-9.616866747499997
 10
26.218627807
 20
-9.616862661099993
 10
26.22120167100002
 20
-9.616858475499995
 10
26.22379812700001
 20
-9.616854185899995
 10
26.22905977820001
 20
-9.616845291499998
  0
LWPOLYLINE
  5
9A
330
2
100
AcDbEntity
  8
0
100
AcDbPolyline
 90
        7
 70
     0
 43
0.0
 10
26.19407869820001
 20
-9.616899363499996
 10
26.19643988860001
 20
-9.616896083499995
 10
26.19882126620001
 20
-9.616892721899994
 10
26.20122307100001
 20
-9.616889277099993
 10
26.2036455414
 20
-9.616885747499992
 10
26.20608891740001
 20
-9.616882129899998
 10
26.21103935100001
 20
-9.616874625899995
  0
LINE
  5
9B
330
2
100
AcDbEntity
  8
0
100
AcDbLine
 10
26.1894159158
 20
-9.616905686699995
 30
0.0
 11
26.19407869820001
 21
-9.616899363499998
 31
0.0
  0
LINE
  5
9C
330
2
100
AcDbEntity
  8
0
100
AcDbLine
 10
26.08915500860001
 20
-9.6169944531
 30
0.0
 11
26.1894159158
 21
-9.616905686699995
 31
0.0
  0
LINE
  5
9D
330
2
100
AcDbEntity
  8
0
100
AcDbLine
 10
-9.976630818599991
 20
-10.63164236669999
 30
0.0
 11
-9.315737968999995
 21
-10.63164236669999
 31
0.0
  0
LINE
  5
9E
330
2
100
AcDbEntity
  8
0
100
AcDbLine
 10
-7.583687160999991
 20
-10.63164236669999
 30
0.0
 11
-6.922794312999995
 21
-10.63164236669999
 31
0.0
  0
LINE
  5
9F
330
2
100
AcDbEntity
  8
0
100
AcDbLine
 10
6.091589611800012
 20
-10.60039236669999
 30
0.0
 11
23.8162544902
 21
-10.60039236669999
 31
0.0
  0
LINE
  5
A0
330
2
100
AcDbEntity
  8
0
100
AcDbLine
 10
25.9467330358
 20
-10.1103923667
 30
0.0
 11
24.59954879739999
 21
-10.1103923667
 31
0.0
  0
LINE
  5
A1
330
2
100
AcDbEntity
  8
0
100
AcDbLine
 10
20.7554501878
 20
-9.695611233899997
 30
0.0
 11
20.69754086940001
 21
-9.695593805099997
 31
0.0
  0
LINE
  5
A2
330
2
100
AcDbEntity
  8
0
100
AcDbLine
 10
26.08737601020001
 20
-9.6169953955
 30
0.0
 11
26.04467169979999
 21
-9.616960505899998
 31
0.0
  0
LWPOLYLINE
  5
A3
330
2
100
AcDbEntity
  8
0
100
AcDbPolyline
 90
        3
 70
     0
 43
0.0
 10
20.68176311900001
 20
-9.726753624299995
 10
20.7268544758
 20
-9.726895817899993
 10
20.76858737340001
 20
-9.726779997099995
  0
LINE
  5
A4
330
2
100
AcDbEntity
  8
0
100
AcDbLine
 10
26.0500643958
 20
-9.616976179499994
 30
0.0
 11
25.938522935
 21
-9.616573289899998
 31
0.0
  0
LINE
  5
A5
330
2
100
AcDbEntity
  8
0
100
AcDbLine
 10
25.9386459158
 20
-9.616591382699995
 30
0.0
 11
25.82177747739999
 21
-9.616069925099994
 31
0.0
  0
LINE
  5
A6
330
2
100
AcDbEntity
  8
0
100
AcDbLine
 10
25.85664751259999
 20
-9.616215625899998
 30
0.0
 11
25.8348182198
 21
-9.616114078699995
 31
0.0
  0
LINE
  5
A7
330
2
100
AcDbEntity
  8
0
100
AcDbLine
 10
24.9680727398
 20
-9.611477118699996
 30
0.0
 11
24.8849759158
 21
-9.611081918699996
 31
0.0
  0
LINE
  5
A8
330
2
100
AcDbEntity
  8
0
100
AcDbLine
 10
24.6618503846
 20
-9.609975825899995
 30
0.0
 11
24.67075560540001
 21
-9.6100192451
 31
0.0
  0
LINE
  5
A9
330
2
100
AcDbEntity
  8
0
100
AcDbLine
 10
24.904180327
 20
-9.611191165099997
 30
0.0
 11
24.8197326662
 21
-9.610762581099999
 31
0.0
  0
LINE
  5
AA
330
2
100
AcDbEntity
  8
0
100
AcDbLine
 10
24.8467743926
 20
-9.610914086699994
 30
0.0
 11
24.7328688758
 21
-9.610333592299996
 31
0.0
  0
LINE
  5
AB
330
2
100
AcDbEntity
  8
0
100
AcDbLine
 10
25.125924447
 20
-9.612260801899994
 30
0.0
 11
24.9623190454
 21
-9.611466909099997
 31
0.0
  0
LWPOLYLINE
  5
AC
330
2
100
AcDbEntity
  8
0
100
AcDbPolyline
 90
        3
 70
     0
 43
0.0
 10
24.76200070620001
 20
-9.610467096299998
 10
24.7330294726
 20
-9.610317179499993
 10
24.67075560540001
 20
-9.610019245099998
  0
LINE
  5
AD
330
2
100
AcDbEntity
  8
0
100
AcDbLine
 10
25.8348182198
 20
-9.616114078699995
 30
0.0
 11
25.6419227942
 21
-9.615137203499999
 31
0.0
  0
LWPOLYLINE
  5
AE
330
2
100
AcDbEntity
  8
0
100
AcDbPolyline
 90
        3
 70
     0
 43
0.0
 10
25.66656234940001
 20
-9.615285832299996
 10
25.54341952220001
 20
-9.614600793899995
 10
25.4896379894
 20
-9.614301726699991
  0
LINE
  5
AF
330
2
100
AcDbEntity
  8
0
100
AcDbLine
 10
25.586937631
 20
-9.614857413099999
 30
0.0
 11
25.51499152059999
 21
-9.614460608299994
 31
0.0
  0
LINE
  5
B0
330
2
100
AcDbEntity
  8
0
100
AcDbLine
 10
25.51499152059999
 20
-9.614460608299994
 30
0.0
 11
25.3915866054
 21
-9.6137672291
 31
0.0
  0
LINE
  5
B1
330
2
100
AcDbEntity
  8
0
100
AcDbLine
 10
25.2707592102
 20
-9.6130809091
 30
0.0
 11
25.083724671
 21
-9.612058835499995
 31
0.0
  0
LINE
  5
B2
330
2
100
AcDbEntity
  8
0
100
AcDbLine
 10
25.4335580934
 20
-9.613986893099999
 30
0.0
 11
25.3752543222
 21
-9.613657272299997
 31
0.0
  0
LINE
  5
B3
330
2
100
AcDbEntity
  8
0
100
AcDbLine
 10
25.3915866054
 20
-9.6137672291
 30
0.0
 11
25.18792429020001
 21
-9.612597480299998
 31
0.0
  0
LINE
  5
B4
330
2
100
AcDbEntity
  8
0
100
AcDbLine
 10
20.69754086940001
 20
-9.695593805099997
 30
0.0
 11
20.636107879
 21
-9.695117019499997
 31
0.0
  0
LINE
  5
B5
330
2
100
AcDbEntity
  8
0
100
AcDbLine
 10
20.63574696060001
 20
-9.726353624299997
 30
0.0
 11
20.681763119
 21
-9.726753624299997
 31
0.0
  0
LINE
  5
B6
330
2
100
AcDbEntity
  8
0
100
AcDbLine
 10
-15.33816528259999
 20
-7.647987533099994
 30
0.0
 11
-15.47888024579999
 21
-7.632368403499997
 31
0.0
  0
LWPOLYLINE
  5
B7
330
2
100
AcDbEntity
  8
0
100
AcDbPolyline
 90
       47
 70
     0
 43
0.0
 10
-15.47888024579999
 20
-7.632368403499995
 10
-15.63032132099999
 20
-7.607199960299993
 10
-15.78381595459998
 20
-7.572319816299994
 10
-15.93182042339999
 20
-7.529100619499992
 10
-16.07351594979999
 20
-7.478156094699997
 10
-16.20832807459999
 20
-7.420086950699996
 10
-16.33639151779998
 20
-7.355211992299992
 10
-16.45851405379998
 20
-7.283367886699998
 10
-16.57587475939998
 20
-7.204001669099994
 10
-16.68874400899999
 20
-7.116912712299992
 10
-16.79765655299998
 20
-7.021439600299999
 10
-16.90344938019998
 20
-6.916377918699993
 10
-17.00608773859998
 20
-6.801138011499993
 10
-17.10485373859999
 20
-6.675736800299993
 10
-17.19868329219998
 20
-6.540707422699995
 10
-17.28639958179999
 20
-6.396987061099991
 10
-17.36701110979999
 20
-6.245494517099992
 10
-17.43979622179998
 20
-6.086929893099998
 10
-17.50399488099999
 20
-5.922403685099993
 10
-17.55877398179998
 20
-5.753693310699993
 10
-17.60359131619998
 20
-5.582366848299997
 10
-17.63841208259999
 20
-5.407901958699994
 10
-17.66452786179999
 20
-5.220624699499992
 10
-17.68295648259999
 20
-5.011663625899998
 10
-17.69500837059998
 20
-4.778916933099992
 10
-17.70386820419999
 20
-4.523228489899992
 10
-17.71425203939998
 20
-4.246765128299998
 10
-17.73067737859999
 20
-3.950802115499996
 10
-17.75487442979999
 20
-3.629620771499993
 10
-17.78846576899999
 20
-3.275465289899997
 10
-17.83312519939998
 20
-2.879008438699997
 10
-17.89019001219998
 20
-2.434410689899998
 10
-17.96144889219998
 20
-1.936780278699998
 10
-18.04928647139998
 20
-1.380946808299995
 10
-18.15586966179998
 20
-0.7655855506999956
 10
-18.27412568419998
 20
-0.1390692466999965
 10
-18.39185050979998
 20
0.4367068573000026
 10
-18.50591822659998
 20
0.9526690045000023
 10
-18.61484803459998
 20
1.410979649300003
 10
-18.71844779779999
 20
1.821415388500007
 10
-18.81634258339998
 20
2.191995940500007
 10
-18.91638792899998
 20
2.558788966100003
 10
-19.03272519779999
 20
2.970615676500003
 10
-19.16495754819998
 20
3.414317318100003
 10
-19.30467028419998
 20
3.848787478100007
 10
-19.44189500259999
 20
4.244968978900004
 10
-19.56671748099999
 20
4.599261938900006
  0
LWPOLYLINE
  5
B8
330
2
100
AcDbEntity
  8
0
100
AcDbPolyline
 90
       24
 70
     0
 43
0.0
 10
-6.05664600099999
 20
-2.020139577899996
 10
-6.076066207399989
 20
-1.984322933099996
 10
-6.10729130979999
 20
-1.915647515499998
 10
-6.13249288419999
 20
-1.843241400299994
 10
-6.151034850599991
 20
-1.768128755499994
 10
-6.162540420199988
 20
-1.691210648299993
 10
-6.16680136099999
 20
-1.613367888299997
 10
-6.163757127399989
 20
-1.535501681899994
 10
-6.153441967399992
 20
-1.458212681899993
 10
-6.135958644199988
 20
-1.382214790699997
 10
-6.111422669799992
 20
-1.308031611499998
 10
-6.080099517799986
 20
-1.236465099499994
 10
-6.042192253799989
 20
-1.167977368299993
 10
-5.998120965799991
 20
-1.103320478699998
 10
-5.948155320999987
 20
-1.042886925099992
 10
-5.892852792999988
 20
-0.9873487282999988
 10
-5.832559842599991
 20
-0.9370503362999968
 10
-5.76796994659999
 20
-0.8925618386999971
 10
-5.699482885799987
 20
-0.8541477074999974
 10
-5.627752612199991
 20
-0.8221845698999956
 10
-5.553302394599988
 20
-0.7969196210999954
 10
-5.477251868199985
 20
-0.7786906338999984
 10
-5.400614458599989
 20
-0.7675837826999939
 10
-5.324566629799988
 20
-0.7635024738999974
  0
LWPOLYLINE
  5
B9
330
2
100
AcDbEntity
  8
0
100
AcDbPolyline
 90
        3
 70
     0
 43
0.0
 10
4.769882602200013
 20
-9.377957195499995
 10
4.780156290200011
 20
-9.376731793899992
 10
4.862196383000011
 20
-9.376394933099994
  0
LWPOLYLINE
  5
BA
330
2
100
AcDbEntity
  8
0
100
AcDbPolyline
 90
        3
 70
     0
 43
0.0
 10
4.77103966300001
 20
-9.346729094699995
 10
4.787042163800009
 20
-9.345315497899996
 10
4.900557416600008
 20
-9.345556537899994
  0
LINE
  5
BB
330
2
100
AcDbEntity
  8
0
100
AcDbLine
 10
4.862196383000005
 20
-9.376394933099996
 30
0.0
 11
5.019619088600004
 21
-9.378682656299995
 31
0.0
  0
LWPOLYLINE
  5
BC
330
2
100
AcDbEntity
  8
0
100
AcDbPolyline
 90
        5
 70
     0
 43
0.0
 10
4.900557416600008
 20
-9.345556537899994
 10
5.111513426200005
 20
-9.349243451499994
 10
5.411510139800014
 20
-9.356232643499993
 10
5.775604051800016
 20
-9.366004182699995
 10
6.178693173400006
 20
-9.378191587499998
  0
LINE
  5
BD
330
2
100
AcDbEntity
  8
0
100
AcDbLine
 10
27.0877890486
 20
-9.609683723499999
 30
0.0
 11
27.08782704219999
 21
-9.609684432299994
 31
0.0
  0
LINE
  5
BE
330
2
100
AcDbEntity
  8
0
100
AcDbLine
 10
-14.99938716739999
 20
-7.6614374403
 30
0.0
 11
-15.09918051619999
 21
-7.659357206699995
 31
0.0
  0
LWPOLYLINE
  5
BF
330
2
100
AcDbEntity
  8
0
100
AcDbPolyline
 90
        5
 70
     0
 43
0.0
 10
5.019619088600009
 20
-9.378682656299993
 10
5.245390936600017
 20
-9.383454537899993
 10
5.527943840600016
 20
-9.390489489899998
 10
5.846155152600005
 20
-9.399287373099994
 10
6.177688136600011
 20
-9.409421150699998
  0
LINE
  5
C0
330
2
100
AcDbEntity
  8
0
100
AcDbLine
 10
25.1056604982
 20
-9.539643392299995
 30
0.0
 11
24.960196007
 21
-9.536447713899997
 31
0.0
  0
LINE
  5
C1
330
2
100
AcDbEntity
  8
0
100
AcDbLine
 10
24.9625523206
 20
-9.536516129899995
 30
0.0
 11
24.8923435638
 21
-9.534978697899996
 31
0.0
  0
LINE
  5
C2
330
2
100
AcDbEntity
  8
0
100
AcDbLine
 10
24.960196007
 20
-9.536447713899997
 30
0.0
 11
24.8900332854
 21
-9.534909344299999
 31
0.0
  0
LINE
  5
C3
330
2
100
AcDbEntity
  8
0
100
AcDbLine
 10
24.8923435638
 20
-9.534978697899996
 30
0.0
 11
24.6752330614
 21
-9.530197110699996
 31
0.0
  0
LWPOLYLINE
  5
C4
330
2
100
AcDbEntity
  8
0
100
AcDbPolyline
 90
        5
 70
     0
 43
0.0
 10
24.47556669660001
 20
-9.673292328299993
 10
24.1682192134
 20
-9.666448451499995
 10
23.81804229980001
 20
-9.661206395499995
 10
23.44632932860001
 20
-9.658301289899995
 10
23.08941585820001
 20
-9.658266497899994
  0
LINE
  5
C5
330
2
100
AcDbEntity
  8
0
100
AcDbLine
 10
25.28400690139999
 20
-9.543607313899999
 30
0.0
 11
25.09841505819999
 21
-9.539467038699998
 31
0.0
  0
LWPOLYLINE
  5
C6
330
2
100
AcDbEntity
  8
0
100
AcDbPolyline
 90
        3
 70
     0
 43
0.0
 10
10.5691482918
 20
-9.506063261099995
 10
15.3343629702
 20
-9.613666797099995
 10
20.636107879
 20
-9.695117019499996
  0
LINE
  5
C7
330
2
100
AcDbEntity
  8
0
100
AcDbLine
 10
25.3676522646
 20
-9.545508480299995
 30
0.0
 11
25.2322581126
 21
-9.542424141099994
 31
0.0
  0
LINE
  5
C8
330
2
100
AcDbEntity
  8
0
100
AcDbLine
 10
25.4454147702
 20
-9.547341933099994
 30
0.0
 11
25.28400690139999
 21
-9.543607313899999
 31
0.0
  0
LINE
  5
C9
330
2
100
AcDbEntity
  8
0
100
AcDbLine
 10
25.53004305179999
 20
-9.549403001899998
 30
0.0
 11
25.3865223254
 21
-9.545966214699996
 31
0.0
  0
LINE
  5
CA
330
2
100
AcDbEntity
  8
0
100
AcDbLine
 10
25.61550287259999
 20
-9.551559878699999
 30
0.0
 11
25.4882374646
 21
-9.548393627499999
 31
0.0
  0
LINE
  5
CB
330
2
100
AcDbEntity
  8
0
100
AcDbLine
 10
-14.82007068259999
 20
-7.665961493099993
 30
0.0
 11
-14.69239768259999
 21
-7.669191174699998
 31
0.0
  0
LINE
  5
CC
330
2
100
AcDbEntity
  8
0
100
AcDbLine
 10
-14.69239768259999
 20
-7.669191174699998
 30
0.0
 11
-14.66231576259999
 21
-7.669965689899997
 31
0.0
  0
LINE
  5
CD
330
2
100
AcDbEntity
  8
0
100
AcDbLine
 10
-5.553977044199994
 20
-8.114472259499999
 30
0.0
 11
-11.38090939299999
 21
-7.962083368299994
 31
0.0
  0
LINE
  5
CE
330
2
100
AcDbEntity
  8
0
100
AcDbLine
 10
-5.553160056999997
 20
-8.083232941099995
 30
0.0
 11
-11.38009240579999
 21
-7.930844049899997
 31
0.0
  0
LINE
  5
CF
330
2
100
AcDbEntity
  8
0
100
AcDbLine
 10
2.863962459800001
 20
-8.125801110699997
 30
0.0
 11
-13.39161214179999
 21
-7.700677073899997
 31
0.0
  0
LINE
  5
D0
330
2
100
AcDbEntity
  8
0
100
AcDbLine
 10
-13.39345525699999
 20
-7.703290259499995
 30
0.0
 11
-13.39153784419999
 21
-7.7033406419
 31
0.0
  0
LWPOLYLINE
  5
D1
330
2
100
AcDbEntity
  8
0
100
AcDbPolyline
 90
        4
 70
     0
 43
0.0
 10
-14.18491860739998
 20
-7.682513568299995
 10
-13.79774803619999
 20
-7.692669112299995
 10
-13.59085199779998
 20
-7.698103360299995
 10
-13.43973484899999
 20
-7.702074192299996
  0
LINE
  5
D2
330
2
100
AcDbEntity
  8
0
100
AcDbLine
 10
-14.63105230659999
 20
-7.670774961899995
 30
0.0
 11
-14.18491860739999
 21
-7.682513568299997
 31
0.0
  0
LWPOLYLINE
  5
D3
330
2
100
AcDbEntity
  8
0
100
AcDbPolyline
 90
        3
 70
     0
 43
0.0
 10
25.77185076380001
 20
-9.555681733099994
 10
25.69701283420001
 20
-9.553682462699995
 10
25.58746761980001
 20
-9.550862070699992
  0
LINE
  5
D4
330
2
100
AcDbEntity
  8
0
100
AcDbLine
 10
25.83799566780001
 20
-9.557487462699997
 30
0.0
 11
25.6851363926
 21
-9.553387411499999
 31
0.0
  0
LINE
  5
D5
330
2
100
AcDbEntity
  8
0
100
AcDbLine
 10
25.9466783414
 20
-9.5605140355
 30
0.0
 11
25.7823669174
 21
-9.555984225899999
 31
0.0
  0
LINE
  5
D6
330
2
100
AcDbEntity
  8
0
100
AcDbLine
 10
6.178693173400001
 20
-9.378191587499999
 30
0.0
 11
10.56914829179999
 21
-9.506063261099997
 31
0.0
  0
LINE
  5
D7
330
2
100
AcDbEntity
  8
0
100
AcDbLine
 10
26.1569107222
 20
-9.566566934699993
 30
0.0
 11
25.87832160540001
 21
-9.558619888299995
 31
0.0
  0
LWPOLYLINE
  5
D8
330
2
100
AcDbEntity
  8
0
100
AcDbPolyline
 90
        5
 70
     0
 43
0.0
 10
6.177688136600011
 20
-9.409421150699998
 10
9.791513898200008
 20
-9.516688005099993
 10
13.40588665340001
 20
-9.605260067499997
 10
17.0206688246
 20
-9.675219835499994
 10
20.63574696060001
 20
-9.726353624299996
  0
LINE
  5
D9
330
2
100
AcDbEntity
  8
0
100
AcDbLine
 10
26.24902930140001
 20
-9.569359038699994
 30
0.0
 11
26.20161828860001
 21
-9.567912187499993
 31
0.0
  0
LWPOLYLINE
  5
DA
330
2
100
AcDbEntity
  8
0
100
AcDbPolyline
 90
        3
 70
     0
 43
0.0
 10
-15.09918051619998
 20
-7.659357206699993
 10
-15.21273335779999
 20
-7.655877761899994
 10
-15.33816528259998
 20
-7.647987533099993
  0
LINE
  5
DB
330
2
100
AcDbEntity
  8
0
100
AcDbLine
 10
26.2517413782
 20
-9.569426446699994
 30
0.0
 11
26.10038558779999
 21
-9.564933061099994
 31
0.0
  0
LINE
  5
DC
330
2
100
AcDbEntity
  8
0
100
AcDbLine
 10
24.72224801019999
 20
-9.681020325099995
 30
0.0
 11
24.4755666966
 21
-9.673292328299995
 31
0.0
  0
LINE
  5
DD
330
2
100
AcDbEntity
  8
0
100
AcDbLine
 10
26.295749903
 20
-9.570850481899997
 30
0.0
 11
26.24902930140001
 21
-9.569359038699994
 31
0.0
  0
LINE
  5
DE
330
2
100
AcDbEntity
  8
0
100
AcDbLine
 10
-13.39338533219999
 20
-7.700629121899995
 30
0.0
 11
-13.45297335779999
 21
-7.698529110699995
 31
0.0
  0
LINE
  5
DF
330
2
100
AcDbEntity
  8
0
100
AcDbLine
 10
26.3567343078
 20
-9.573050339499994
 30
0.0
 11
26.294302823
 21
-9.570819809899996
 31
0.0
  0
LINE
  5
E0
330
2
100
AcDbEntity
  8
0
100
AcDbLine
 10
26.4141353222
 20
-9.575242000299995
 30
0.0
 11
26.3366785638
 21
-9.5723189971
 31
0.0
  0
LINE
  5
E1
330
2
100
AcDbEntity
  8
0
100
AcDbLine
 10
26.456031431
 20
-9.576870305899996
 30
0.0
 11
26.3964745926
 21
-9.574578897899998
 31
0.0
  0
LINE
  5
E2
330
2
100
AcDbEntity
  8
0
100
AcDbLine
 10
26.4696958166
 20
-9.577380689899998
 30
0.0
 11
26.45113361980001
 21
-9.576665483499995
 31
0.0
  0
LINE
  5
E3
330
2
100
AcDbEntity
  8
0
100
AcDbLine
 10
26.49624092380001
 20
-9.578422525099997
 30
0.0
 11
26.456031431
 21
-9.576870305899996
 31
0.0
  0
LINE
  5
E4
330
2
100
AcDbEntity
  8
0
100
AcDbLine
 10
26.6543947142
 20
-9.584646397099996
 30
0.0
 11
26.4891141798
 21
-9.578130619499996
 31
0.0
  0
LWPOLYLINE
  5
E5
330
2
100
AcDbEntity
  8
0
100
AcDbPolyline
 90
        4
 70
     0
 43
0.0
 10
26.87615537660001
 20
-9.594003709099993
 10
26.8716705094
 20
-9.593814627499995
 10
26.86673448380001
 20
-9.593606392299996
 10
26.86129551900001
 20
-9.593376765099996
  0
LINE
  5
E6
330
2
100
AcDbEntity
  8
0
100
AcDbLine
 10
26.87528020540001
 20
-9.593981200299994
 30
0.0
 11
26.865406223
 21
-9.593564846699999
 31
0.0
  0
LINE
  5
E7
330
2
100
AcDbEntity
  8
0
100
AcDbLine
 10
26.865406223
 20
-9.593564846699999
 30
0.0
 11
26.84865514940001
 21
-9.592842179499998
 31
0.0
  0
LWPOLYLINE
  5
E8
330
2
100
AcDbEntity
  8
0
100
AcDbPolyline
 90
       11
 70
     0
 43
0.0
 10
2.824538858200014
 20
-9.130724005099992
 10
4.906138818200005
 20
-9.220045157099995
 10
6.953426275800012
 20
-9.299931333099998
 10
8.976549935000008
 20
-9.370779262699997
 10
10.98510825180001
 20
-9.432808624299994
 10
12.9874053798
 20
-9.486056358699997
 10
14.97974839580001
 20
-9.530167918699994
 10
16.95420089820001
 20
-9.564783217899993
 10
18.90357305340001
 20
-9.589702441899994
 10
20.82066206460001
 20
-9.604865190699996
 10
22.696798455
 20
-9.610363006699998
  0
LWPOLYLINE
  5
E9
330
2
100
AcDbEntity
  8
0
100
AcDbPolyline
 90
        3
 70
     0
 43
0.0
 10
26.8542672454
 20
-9.593094358699993
 10
26.80297104700001
 20
-9.590890222699997
 10
26.64424004540001
 20
-9.584250947499995
  0
LINE
  5
EA
330
2
100
AcDbEntity
  8
0
100
AcDbLine
 10
26.81125707580001
 20
-9.5912620019
 30
0.0
 11
26.74775408539999
 21
-9.588540456299996
 31
0.0
  0
LINE
  5
EB
330
2
100
AcDbEntity
  8
0
100
AcDbLine
 10
26.9134167382
 20
-9.595605417899998
 30
0.0
 11
26.87528020540001
 21
-9.593981200299994
 31
0.0
  0
LINE
  5
EC
330
2
100
AcDbEntity
  8
0
100
AcDbLine
 10
26.9071583238
 20
-9.595332817899995
 30
0.0
 11
26.90567231739999
 21
-9.595266885099997
 31
0.0
  0
LINE
  5
ED
330
2
100
AcDbEntity
  8
0
100
AcDbLine
 10
24.90541450460001
 20
-9.689308115499999
 30
0.0
 11
24.72224801019999
 21
-9.681020325099995
 31
0.0
  0
LINE
  5
EE
330
2
100
AcDbEntity
  8
0
100
AcDbLine
 10
26.92551433500001
 20
-9.596244329899997
 30
0.0
 11
26.91665416379999
 21
-9.595831867499997
 31
0.0
  0
LINE
  5
EF
330
2
100
AcDbEntity
  8
0
100
AcDbLine
 10
26.9207261398
 20
-9.596020933099994
 30
0.0
 11
26.919295295
 21
-9.5959537587
 31
0.0
  0
LINE
  5
F0
330
2
100
AcDbEntity
  8
0
100
AcDbLine
 10
-13.45297335779999
 20
-7.698529110699995
 30
0.0
 11
-13.51525522179999
 21
-7.695398368299999
 31
0.0
  0
LINE
  5
F1
330
2
100
AcDbEntity
  8
0
100
AcDbLine
 10
27.001077679
 20
-9.599918165099994
 30
0.0
 11
26.9238705414
 21
-9.596181473899997
 31
0.0
  0
LINE
  5
F2
330
2
100
AcDbEntity
  8
0
100
AcDbLine
 10
24.7949609494
 20
-9.715171181099998
 30
0.0
 11
24.9621150278
 21
-9.724041937899999
 31
0.0
  0
LINE
  5
F3
330
2
100
AcDbEntity
  8
0
100
AcDbLine
 10
4.898092831000008
 20
-9.3878148771
 30
0.0
 11
4.861910427800006
 21
-9.385863089899993
 31
0.0
  0
LINE
  5
F4
330
2
100
AcDbEntity
  8
0
100
AcDbLine
 10
27.0244334534
 20
-9.601175867499998
 30
0.0
 11
26.9951932182
 21
-9.599629369899995
 31
0.0
  0
LINE
  5
F5
330
2
100
AcDbEntity
  8
0
100
AcDbLine
 10
27.0329852086
 20
-9.601670337899998
 30
0.0
 11
27.0176218198
 21
-9.600810382699998
 31
0.0
  0
LINE
  5
F6
330
2
100
AcDbEntity
  8
0
100
AcDbLine
 10
27.0420236646
 20
-9.602236453099999
 30
0.0
 11
27.0299420918
 21
-9.601504393899995
 31
0.0
  0
LWPOLYLINE
  5
F7
330
2
100
AcDbEntity
  8
0
100
AcDbPolyline
 90
        3
 70
     0
 43
0.0
 10
26.9186576726
 20
-9.595938534699996
 10
26.914738111
 20
-9.595699021099996
 10
26.91016515580001
 20
-9.595480371499995
  0
LWPOLYLINE
  5
F8
330
2
100
AcDbEntity
  8
0
100
AcDbPolyline
 90
       46
 70
     0
 43
0.0
 10
-13.51525522179999
 20
-7.695398368299997
 10
-13.57919475619999
 20
-7.691298517099994
 10
-13.64389922339999
 20
-7.686302518699996
 10
-13.70891997219998
 20
-7.680459069099995
 10
-13.77622342339999
 20
-7.673555984299994
 10
-13.84859312259998
 20
-7.665163901099994
 10
-13.92797166499998
 20
-7.654790462699992
 10
-14.01325027459999
 20
-7.642252673899996
 10
-14.10505785379999
 20
-7.627089637099992
 10
-14.20361865539998
 20
-7.608811525099994
 10
-14.30153798019999
 20
-7.588504537899993
 10
-14.39288182179998
 20
-7.567529302699995
 10
-14.47798735139999
 20
-7.546127203499992
 10
-14.55887656579999
 20
-7.524033573099998
 10
-14.63742142979998
 20
-7.500865125099998
 10
-14.71487008259998
 20
-7.476282753899994
 10
-14.79188730499998
 20
-7.450038235499995
 10
-14.86810096419999
 20
-7.422175280299995
 10
-14.94338057539999
 20
-7.392682326699997
 10
-15.01852883779999
 20
-7.361190384299995
 10
-15.09339311619999
 20
-7.327680637099994
 10
-15.16616843299998
 20
-7.292902323499994
 10
-15.23846832259999
 20
-7.256003606699998
 10
-15.31636889539998
 20
-7.213422393899996
 10
-15.40125431779999
 20
-7.163412115499994
 10
-15.49133613699999
 20
-7.105797632299996
 10
-15.58583522019999
 20
-7.039717051499998
 10
-15.68426257859999
 20
-6.963913230699994
 10
-15.78617445539998
 20
-6.876760526699996
 10
-15.88591191619998
 20
-6.781328936299992
 10
-15.97315650019999
 20
-6.687893990699997
 10
-16.04479436419998
 20
-6.602651997099997
 10
-16.10436160419998
 20
-6.524615347499995
 10
-16.15456996419998
 20
-6.452732424299995
 10
-16.19772873059999
 20
-6.385552641899998
 10
-16.23592365219998
 20
-6.321084937899996
 10
-16.27054380579998
 20
-6.257730965099995
 10
-16.30185159139998
 20
-6.195512099499993
 10
-16.32966613379998
 20
-6.135368075499997
 10
-16.35390548099999
 20
-6.078309369899997
 10
-16.37449248899999
 20
-6.025628504299994
 10
-16.39146403459999
 20
-5.978557550699996
 10
-16.40533768899999
 20
-5.936988597099997
 10
-16.41710722819999
 20
-5.898999342699994
 10
-16.42761493059998
 20
-5.862482470699994
 10
-16.43742030179998
 20
-5.825735811499995
  0
LINE
  5
F9
330
2
100
AcDbEntity
  8
0
100
AcDbLine
 10
27.05275692060001
 20
-9.6029549043
 30
0.0
 11
27.0418672614
 21
-9.602214099499997
 31
0.0
  0
LWPOLYLINE
  5
FA
330
2
100
AcDbEntity
  8
0
100
AcDbPolyline
 90
        3
 70
     0
 43
0.0
 10
4.861910427800012
 20
-9.385863089899991
 10
4.78013996540001
 20
-9.379897851499997
 10
4.769882602200013
 20
-9.377957195499995
  0
LWPOLYLINE
  5
FB
330
2
100
AcDbEntity
  8
0
100
AcDbPolyline
 90
        4
 70
     0
 43
0.0
 10
26.915723295
 20
-9.595772198699997
 10
26.91509100860001
 20
-9.595715469099992
 10
26.9143272614
 20
-9.595657571499998
 10
26.91341673820001
 20
-9.595605417899996
  0
LWPOLYLINE
  5
FC
330
2
100
AcDbEntity
  8
0
100
AcDbPolyline
 90
        3
 70
     0
 43
0.0
 10
24.96211502780001
 20
-9.724041937899997
 10
25.0588706422
 20
-9.733153320299997
 10
25.0800410182
 20
-9.739552249899993
  0
LWPOLYLINE
  5
FD
330
2
100
AcDbEntity
  8
0
100
AcDbPolyline
 90
        3
 70
     0
 43
0.0
 10
27.07302272380001
 20
-9.604721128299992
 10
27.06660681340001
 20
-9.604057632299998
 10
27.05910480380001
 20
-9.603417373099993
  0
LWPOLYLINE
  5
FE
330
2
100
AcDbEntity
  8
0
100
AcDbPolyline
 90
        4
 70
     0
 43
0.0
 10
27.07501078780001
 20
-9.604970104299994
 10
27.06918922300001
 20
-9.604317929899998
 10
27.06180635100001
 20
-9.603646926699994
 10
27.050728551
 20
-9.602800424299992
  0
LWPOLYLINE
  5
FF
330
2
100
AcDbEntity
  8
0
100
AcDbPolyline
 90
        3
 70
     0
 43
0.0
 10
2.046239229400015
 20
-8.113315950699998
 10
1.998873863000014
 20
-8.105516800299994
 10
1.945240418200015
 20
-8.101774881899991
  0
LWPOLYLINE
  5
100
330
2
100
AcDbEntity
  8
0
100
AcDbPolyline
 90
        4
 70
     0
 43
0.0
 10
4.890254955800017
 20
-9.386181832299996
 10
4.922941003800005
 20
-9.393029648299993
 10
4.977238914200015
 20
-9.411738456299993
 10
5.038164906200009
 20
-9.445227537899995
  0
LINE
  5
101
330
2
100
AcDbEntity
  8
0
100
AcDbLine
 10
2.086792463000003
 20
-8.124372787499995
 30
0.0
 11
2.04623922940001
 21
-8.1133159507
 31
0.0
  0
LWPOLYLINE
  5
102
330
2
100
AcDbEntity
  8
0
100
AcDbPolyline
 90
        3
 70
     0
 43
0.0
 10
4.92218621340001
 20
-9.392834806699994
 10
4.976696186200015
 20
-9.411503512299994
 10
5.037946419800007
 20
-9.445079547499993
  0
LWPOLYLINE
  5
103
330
2
100
AcDbEntity
  8
0
100
AcDbPolyline
 90
        5
 70
     0
 43
0.0
 10
5.037946419800007
 20
-9.445079547499993
 10
5.095053975000013
 20
-9.492638686699997
 10
5.14297663740001
 20
-9.552583877099998
 10
5.177773203800015
 20
-9.621268182699992
 10
5.196911370200012
 20
-9.690342875499993
  0
LINE
  5
104
330
2
100
AcDbEntity
  8
0
100
AcDbLine
 10
-4.607517812199992
 20
-1.155919779499997
 30
0.0
 11
-4.593346888999993
 21
-1.179656440299994
 31
0.0
  0
LWPOLYLINE
  5
105
330
2
100
AcDbEntity
  8
0
100
AcDbPolyline
 90
       24
 70
     0
 43
0.0
 10
-4.593346888999988
 20
-1.179656440299993
 10
-4.571698600999994
 20
-1.219880469099997
 10
-4.541227271399989
 20
-1.287970707499994
 10
-4.516630101799989
 20
-1.359895649899996
 10
-4.498565560999992
 20
-1.434693449899995
 10
-4.48745642019999
 20
-1.511472790699997
 10
-4.483556456999991
 20
-1.589205165099997
 10
-4.486924128999987
 20
-1.666948326699994
 10
-4.497514522599985
 20
-1.744091526699996
 10
-4.515228116199992
 20
-1.819975827499995
 10
-4.539945229799982
 20
-1.894054126699998
 10
-4.571385140199993
 20
-1.965497907499994
 10
-4.609316012199982
 20
-2.033814145899995
 10
-4.653531879399992
 20
-2.098566886699998
 10
-4.703531628199982
 20
-2.158978526699996
 10
-4.758780063399981
 20
-2.214444505899997
 10
-4.819005722599982
 20
-2.264697129899992
 10
-4.883506037799989
 20
-2.309144598699994
 10
-4.951887301799985
 20
-2.347517345899994
 10
-5.023481357799994
 20
-2.379425790699997
 10
-5.097730861799988
 20
-2.404612742699995
 10
-5.173421999399991
 20
-2.422734565099993
 10
-5.249460704999989
 20
-2.433737475499995
 10
-5.324572716199988
 20
-2.437779937899996
  0
LINE
  5
106
330
2
100
AcDbEntity
  8
0
100
AcDbLine
 10
-6.651127674599996
 20
-10.4231852227
 30
0.0
 11
-6.099315028199994
 21
-8.3637923923
 31
0.0
  0
LINE
  5
108
330
2
100
AcDbEntity
  8
0
100
AcDbLine
 10
27.0794301398
 20
-9.605598296299996
 30
0.0
 11
27.0750107878
 21
-9.604970104299995
 31
0.0
  0
LWPOLYLINE
  5
109
330
2
100
AcDbEntity
  8
0
100
AcDbPolyline
 90
        3
 70
     0
 43
0.0
 10
27.08218512220001
 20
-9.606091166699997
 10
27.07823495740001
 20
-9.605405014699996
 10
27.07302272380001
 20
-9.604721128299992
  0
LWPOLYLINE
  5
10A
330
2
100
AcDbEntity
  8
0
100
AcDbPolyline
 90
       14
 70
     0
 43
0.0
 10
2.338371135000016
 20
-8.653140438699992
 10
2.332196551000009
 20
-8.571543329899995
 10
2.323982229400016
 20
-8.498017333099994
 10
2.313274877400004
 20
-8.432503888299997
 10
2.299912733400006
 20
-8.375002742699997
 10
2.284046351000014
 20
-8.325353054699995
 10
2.266108392600017
 20
-8.283319758699995
 10
2.246632067800007
 20
-8.248290187499996
 10
2.225819015000013
 20
-8.219033725099997
 10
2.203427498200014
 20
-8.194190841899995
 10
2.179010895000004
 20
-8.172777027499996
 10
2.152000818200008
 20
-8.154189841899992
 10
2.121613147800005
 20
-8.138079465899998
 10
2.086792463000008
 20
-8.124372787499993
  0
LWPOLYLINE
  5
10B
330
2
100
AcDbEntity
  8
0
100
AcDbPolyline
 90
       14
 70
     0
 43
0.0
 10
-5.324572716199988
 20
-2.437779937899996
 10
-5.397979183399989
 20
-2.435256749099998
 10
-5.46951663619999
 20
-2.426572752299996
 10
-5.538914332199986
 20
-2.412078243499998
 10
-5.606074261799989
 20
-2.392037187499994
 10
-5.67068210979999
 20
-2.366729030699993
 10
-5.732720911399987
 20
-2.336280411499998
 10
-5.791992703399991
 20
-2.300822501099993
 10
-5.848442276199989
 20
-2.260325737899997
 10
-5.901703149799992
 20
-2.214900235499996
 10
-5.95147001379999
 20
-2.164582325099992
 10
-5.997557930599988
 20
-2.109174558699997
 10
-6.039305960999989
 20
-2.048955334699996
 10
-6.05664600099999
 20
-2.020139577899996
  0
LINE
  5
10C
330
2
100
AcDbEntity
  8
0
100
AcDbLine
 10
27.0877297046
 20
-9.609668561899995
 30
0.0
 11
27.0877890486
 21
-9.609683723499999
 31
0.0
  0
LINE
  5
10D
330
2
100
AcDbEntity
  8
0
100
AcDbLine
 10
-11.57108822819999
 20
0.0999939997000028
 30
0.0
 11
-11.55962754659999
 21
0.1032662957000014
 31
0.0
  0
LWPOLYLINE
  5
10E
330
2
100
AcDbEntity
  8
0
100
AcDbPolyline
 90
       24
 70
     0
 43
0.0
 10
-5.325291599399989
 20
-2.436528041899997
 10
-5.250172936999987
 20
-2.432485083499997
 10
-5.174130656999992
 20
-2.421480881899995
 10
-5.098438290599986
 20
-2.403357545899993
 10
-5.024189215399985
 20
-2.378169224299995
 10
-4.952596458599984
 20
-2.346259661099992
 10
-4.884216823399995
 20
-2.307886016299995
 10
-4.819718095399991
 20
-2.263437758699993
 10
-4.759493914599985
 20
-2.213184477099993
 10
-4.704246892199989
 20
-2.157718117099996
 10
-4.654248490599982
 20
-2.097306504299993
 10
-4.610033911399995
 20
-2.032554397099993
 10
-4.572103949799995
 20
-1.964239051499994
 10
-4.540664576999986
 20
-1.892796395499992
 10
-4.515947703399987
 20
-1.818719619499994
 10
-4.498234037799988
 20
-1.742837216299996
 10
-4.487643244199986
 20
-1.665696173099995
 10
-4.484274861799988
 20
-1.587955112299994
 10
-4.488173914599983
 20
-1.510224621099993
 10
-4.499281928999991
 20
-1.433447630699994
 10
-4.517344812199993
 20
-1.358653369899997
 10
-4.541939517799988
 20
-1.286732878699993
 10
-4.572407460199983
 20
-1.218647493099993
 10
-4.593381669799995
 20
-1.179675158699993
  0
LWPOLYLINE
  5
10F
330
2
100
AcDbEntity
  8
0
100
AcDbPolyline
 90
       13
 70
     0
 43
0.0
 10
-5.324566629799988
 20
-0.7635024738999974
 10
-5.249900164199985
 20
-0.7661402530999979
 10
-5.177046077799985
 20
-0.7751375378999939
 10
-5.106419706599993
 20
-0.7901339410999953
 10
-5.038262095399986
 20
-0.8108126098999974
 10
-4.972964396199984
 20
-0.8368217618999977
 10
-4.910440722599986
 20
-0.8680339346999943
 10
-4.850981927399985
 20
-0.9042289170999922
 10
-4.794807813799991
 20
-0.945243896299992
 10
-4.742092900199992
 20
-0.9909991826999942
 10
-4.693114157799982
 20
-1.041390129899994
 10
-4.648100216999992
 20
-1.096432728299994
 10
-4.607517812199986
 20
-1.155919779499996
  0
LWPOLYLINE
  5
110
330
2
100
AcDbEntity
  8
0
100
AcDbPolyline
 90
        3
 70
     0
 43
0.0
 10
-23.58214231459999
 20
12.4501435805
 10
-23.60176939299999
 20
12.4583451933
 10
-23.68624394659998
 20
12.4848530253
  0
LINE
  5
111
330
2
100
AcDbEntity
  8
0
100
AcDbLine
 10
5.229882855000008
 20
-9.877334678699996
 30
0.0
 11
5.196924351000001
 21
-9.690417712299998
 31
0.0
  0
LINE
  5
112
330
2
100
AcDbEntity
  8
0
100
AcDbLine
 10
4.770921307800003
 20
-9.346724597099994
 30
0.0
 11
4.769734847000004
 21
-9.377951581099994
 31
0.0
  0
LINE
  5
113
330
2
100
AcDbEntity
  8
0
100
AcDbLine
 10
-11.55592235299999
 20
0.1043313197000004
 30
0.0
 11
-11.54134247299999
 21
0.1083406349000016
 31
0.0
  0
LINE
  5
114
330
2
100
AcDbEntity
  8
0
100
AcDbLine
 10
-11.39295241859999
 20
0.1488080173000044
 30
0.0
 11
-11.53646184259999
 21
0.1096763229000062
 31
0.0
  0
LWPOLYLINE
  5
115
330
2
100
AcDbEntity
  8
0
100
AcDbPolyline
 90
       24
 70
     0
 43
0.0
 10
-11.53651071779999
 20
0.1096686637000062
 10
-11.22949724899999
 20
0.193396334100008
 10
-10.90010135139998
 20
0.2818237485000026
 10
-10.54496690019998
 20
0.3755714365000031
 10
-10.16002441059998
 20
0.4753616781000077
 10
-9.740365613799987
 20
0.5820590397000061
 10
-9.280063580199986
 20
0.6966499213000077
 10
-8.771663252199985
 20
0.8203446061000079
 10
-8.20583063299999
 20
0.9546052541000022
 10
-7.581022623399988
 20
1.098791894100003
 10
-7.000233781799991
 20
1.229028049300005
 10
-6.477498516199986
 20
1.343142318100007
 10
-6.006547140199991
 20
1.443453441300007
 10
-5.57909876099999
 20
1.532466407700006
 10
-5.18938860899999
 20
1.611949319700002
 10
-4.832791511399989
 20
1.683294756500004
 10
-4.505533066599994
 20
1.747617151700005
 10
-4.204424975399987
 20
1.805833345300001
 10
-3.926855644199989
 20
1.858685606100003
 10
-3.670571980199994
 20
1.906798279700005
 10
-3.433610989799987
 20
1.950701961300005
 10
-3.214244082599989
 20
1.990851943700008
 10
-3.010966204199988
 20
2.027636561300006
 10
-2.822994722599986
 20
2.061294178900006
  0
LWPOLYLINE
  5
116
330
2
100
AcDbEntity
  8
0
100
AcDbPolyline
 90
       28
 70
     0
 43
0.0
 10
-2.563726996199989
 20
2.104364222100002
 10
-2.97204611939999
 20
2.0317783005
 10
-3.372916562599982
 20
1.958952609300006
 10
-3.773021455399984
 20
1.884698836500007
 10
-4.17597783939999
 20
1.808311703700006
 10
-4.579549712999991
 20
1.730174012500008
 10
-4.981599605799985
 20
1.650686983700005
 10
-5.381764373799988
 20
1.569925514900006
 10
-5.790508831399989
 20
1.485717668500001
 10
-6.222863639399989
 20
1.394740161300006
 10
-6.685567736999992
 20
1.295195692500001
 10
-7.157671620199991
 20
1.191300804500002
 10
-7.613270023399991
 20
1.088803463700003
 10
-8.044833786599987
 20
0.9896825869000025
 10
-8.457690676199987
 20
0.8929852397000033
 10
-8.848612250599991
 20
0.7997007773000036
 10
-9.207037079399988
 20
0.7126651565000018
 10
-9.527329344999991
 20
0.6336456189000046
 10
-9.812184301799987
 20
0.5623640653000024
 10
-10.06491557379998
 20
0.4983161293000081
 10
-10.28810439779999
 20
0.4411163453000029
 10
-10.48413423939999
 20
0.390375814100004
 10
-10.65666388899998
 20
0.3453250477000012
 10
-10.81254706499999
 20
0.3043004701000029
 10
-10.95925228739999
 20
0.2654098477000062
 10
-11.10382330339999
 20
0.2268145709000038
 10
-11.24855132419998
 20
0.187904982100008
 10
-11.39295241859999
 20
0.1488080173000057
  0
LWPOLYLINE
  5
117
330
2
100
AcDbEntity
  8
0
100
AcDbPolyline
 90
       10
 70
     0
 43
0.0
 10
-2.822993463399996
 20
2.061286415700003
 10
0.0077381094000089
 20
2.528535370900002
 10
2.872731195800014
 20
2.933471682900005
 10
5.345575653400004
 20
3.237933122900003
 10
7.485268271000009
 20
3.475004298900003
 10
9.602602591000007
 20
3.689606569300003
 10
11.77466574300001
 20
3.890412434900007
 10
14.00311248060001
 20
4.076729268500002
 10
16.2888572038
 20
4.247978535700006
 10
18.6330654438
 20
4.403464402900006
  0
LWPOLYLINE
  5
118
330
2
100
AcDbEntity
  8
0
100
AcDbPolyline
 90
       40
 70
     0
 43
0.0
 10
13.6306859606
 20
4.044694913300006
 10
13.07763315260001
 20
3.999553039700003
 10
12.58441064700001
 20
3.958287914900004
 10
12.1313680246
 20
3.919540791700001
 10
11.6989048022
 20
3.881793540500005
 10
11.26910358300001
 20
3.843536422100001
 10
10.83801848220001
 20
3.804414958100004
 10
10.40798524540001
 20
3.764632663700005
 10
9.977577858200007
 20
3.724050516500007
 10
9.546025042200014
 20
3.682582393300002
 10
9.118992655000013
 20
3.640771991700006
 10
8.701380584600016
 20
3.599127802900007
 10
8.292622333400004
 20
3.557637607700002
 10
7.890335434200011
 20
3.516097070100002
 10
7.490554450200008
 20
3.474117982100004
 10
7.089281991000007
 20
3.431281562900004
 10
6.683069328600012
 20
3.387188519700004
 10
6.272176651800009
 20
3.341809846100005
 10
5.860268327000014
 20
3.295501274900004
 10
5.449501991000005
 20
3.248472911700005
 10
5.039404063000006
 20
3.200642329300002
 10
4.617706810200004
 20
3.150501010900001
 10
4.168696754200013
 20
3.095992337300003
 10
3.691329429400013
 20
3.036712087700003
 10
3.195125949400008
 20
2.973568687700002
 10
2.683191376600007
 20
2.906718945300006
 10
2.158531437400014
 20
2.836331678100002
 10
1.660563416600012
 20
2.767693852500002
 10
1.23351538140001
 20
2.707355806100004
 10
0.8655593606000167
 20
2.654240198100005
 10
0.5284533254000082
 20
2.604638855700002
 10
0.1947316710000137
 20
2.554630652500001
 10
-0.146283488999984
 20
2.502579126100002
 10
-0.4902388905999829
 20
2.449084735700004
 10
-0.8280078905999914
 20
2.395561487700007
 10
-1.151289562599984
 20
2.343397426900004
 10
-1.470405104999983
 20
2.290991894100002
 10
-1.802558892199982
 20
2.235465198100001
 10
-2.165163988199992
 20
2.173687828500007
 10
-2.563726996199989
 20
2.104364222100002
  0
LWPOLYLINE
  5
119
330
2
100
AcDbEntity
  8
0
100
AcDbPolyline
 90
        7
 70
     0
 43
0.0
 10
18.64151849980001
 20
4.401091996500007
 10
17.70238149820001
 20
4.341326756500002
 10
16.7515838518
 20
4.277573377300001
 10
15.833812855
 20
4.212887567700001
 10
14.993772527
 20
4.150927474900001
 10
14.26298741180001
 20
4.094856943700001
 10
13.6306859606
 20
4.044694913300006
  0
LINE
  5
11A
330
2
100
AcDbEntity
  8
0
100
AcDbLine
 10
18.6456441942
 20
4.404245031700005
 30
0.0
 11
18.6534017158
 21
4.404726177300004
 31
0.0
  0
LINE
  5
11B
330
2
100
AcDbEntity
  8
0
100
AcDbLine
 10
18.6534017158
 20
4.404726177300004
 30
0.0
 11
18.661162271
 21
4.4052072957
 31
0.0
  0
LWPOLYLINE
  5
11C
330
2
100
AcDbEntity
  8
0
100
AcDbPolyline
 90
        3
 70
     0
 43
0.0
 10
-23.69804259139999
 20
12.4878993853
 10
-23.59029328099998
 20
12.4540722317
 10
-23.58118033379999
 20
12.4499893613
  0
LINE
  5
11D
330
2
100
AcDbEntity
  8
0
  6
HIDDEN
 48
0.5
100
AcDbLine
 10
5.539754016600008
 20
6.644933769300001
 30
0.0
 11
5.531156429400008
 21
6.654675407700002
 31
0.0
  0
LINE
  5
11E
330
2
100
AcDbEntity
  8
0
  6
HIDDEN
 48
0.5
100
AcDbLine
 10
5.531156429400008
 20
6.654675407700002
 30
0.0
 11
5.523704543000002
 21
6.6643779277
 31
0.0
  0
LINE
  5
11F
330
2
100
AcDbEntity
  8
0
  6
HIDDEN
 48
0.5
100
AcDbLine
 10
5.820851298200006
 20
6.892796978899999
 30
0.0
 11
5.828400275800001
 21
6.882958908500006
 31
0.0
  0
LWPOLYLINE
  5
120
330
2
100
AcDbEntity
  8
0
  6
HIDDEN
 48
0.5
100
AcDbPolyline
 90
       17
 70
     0
 43
0.0
 10
5.523704543000008
 20
6.664377927700002
 10
5.510481690200009
 20
6.685754092500005
 10
5.500189851800016
 20
6.708954102100001
 10
5.493125288600012
 20
6.733507474900001
 10
5.489503299800006
 20
6.758681113300006
 10
5.489340130200005
 20
6.784055082900003
 10
5.492666829400008
 20
6.809461034900003
 10
5.499491368600004
 20
6.834348887700002
 10
5.50960113180001
 20
6.857941383700001
 10
5.522755231000004
 20
6.879833407700004
 10
5.538864311000011
 20
6.899870591700008
 10
5.55765949820001
 20
6.917622462100005
 10
5.578559602200016
 20
6.932549278100005
 10
5.601139712600016
 20
6.944430554900002
 10
5.625245474200013
 20
6.953189185300004
 10
5.650452643800008
 20
6.958607014100003
 10
5.676003959000013
 20
6.960518892500004
  0
LWPOLYLINE
  5
121
330
2
100
AcDbEntity
  8
0
  6
HIDDEN
 48
0.5
100
AcDbPolyline
 90
       17
 70
     0
 43
0.0
 10
5.828400275800007
 20
6.882958908500008
 10
5.841635832600005
 20
6.861510289300007
 10
5.851919813400016
 20
6.838237778900001
 10
5.858954563800011
 20
6.813627846100004
 10
5.862531402200005
 20
6.788427570900005
 10
5.862645135000008
 20
6.763055534100004
 10
5.859274435800017
 20
6.737681671700002
 10
5.852421138200014
 20
6.712851153300007
 10
5.84230195260001
 20
6.689326302100006
 10
5.829152117400013
 20
6.667494658900004
 10
5.813056026200015
 20
6.647506737300005
 10
5.794281459800004
 20
6.629794641300001
 10
5.773405155800006
 20
6.614896297300006
 10
5.750846355800007
 20
6.603031929300001
 10
5.726756083800012
 20
6.594281135700001
 10
5.701556983000017
 20
6.588865383700003
 10
5.676003959000013
 20
6.586953258900003
  0
LWPOLYLINE
  5
122
330
2
100
AcDbEntity
  8
0
  6
HIDDEN
 48
0.5
100
AcDbPolyline
 90
       17
 70
     0
 43
0.0
 10
5.675287434200015
 20
6.587824817300003
 10
5.700840456600005
 20
6.589736942100003
 10
5.726039559000014
 20
6.595152692500001
 10
5.750129831000009
 20
6.603903487700002
 10
5.772688631000008
 20
6.615767855700006
 10
5.793564933400006
 20
6.630666198100001
 10
5.812339499800017
 20
6.648378294100005
 10
5.828435592600015
 20
6.668366217300004
 10
5.841585427800012
 20
6.690197858900006
 10
5.851704611800016
 20
6.713722710100007
 10
5.858557909400005
 20
6.738553230100002
 10
5.86192860860001
 20
6.763927090900004
 10
5.861814875800007
 20
6.789299129300005
 10
5.858238039000013
 20
6.814499404500004
 10
5.851203288600004
 20
6.839109335700001
 10
5.840919307800007
 20
6.862381846100007
 10
5.827683751000009
 20
6.883830465300007
  0
LWPOLYLINE
  5
125
330
2
100
AcDbEntity
  8
0
  6
HIDDEN
 48
0.5
100
AcDbPolyline
 90
       18
 70
     0
 43
0.0
 10
13.7707725334
 20
7.012091214100003
 10
13.79523098300001
 20
7.013848972500007
 10
13.81893817980001
 20
7.018694452500007
 10
13.84158102620001
 20
7.026441140500004
 10
13.86284509820001
 20
7.036873458900004
 10
13.88249648540001
 20
7.049785615700002
 10
13.90032803580001
 20
7.064982439700003
 10
13.91614602940001
 20
7.082281244500002
 10
13.92976090460001
 20
7.101515178900001
 10
13.94094594620001
 20
7.122472001300003
 10
13.94948595580001
 20
7.144953754900001
 10
13.95512888380001
 20
7.168630535700003
 10
13.9576614454
 20
7.193106873300003
 10
13.95693781980001
 20
7.217859481300003
 10
13.9528741798
 20
7.242563353300006
 10
13.9454702838
 20
7.266643318100001
 10
13.93493110300001
 20
7.289389314900006
 10
13.92153189340001
 20
7.310349001300004
  0
LWPOLYLINE
  5
129
330
2
100
AcDbEntity
  8
0
  6
HIDDEN
 48
0.5
100
AcDbPolyline
 90
        7
 70
     0
 43
0.0
 10
13.77148905820001
 20
7.011219655700003
 10
13.74662394300001
 20
7.012721834900006
 10
13.7220865654
 20
7.017544231700007
 10
13.6985639334
 20
7.025547276500006
 10
13.67639333500001
 20
7.036572210900004
 10
13.65569635420001
 20
7.050600540500006
 10
13.63698832860001
 20
7.067378159700005
  0
LWPOLYLINE
  5
12A
330
2
100
AcDbEntity
  8
0
  6
HIDDEN
 48
0.5
100
AcDbPolyline
 90
        7
 70
     0
 43
0.0
 10
5.676003959000013
 20
6.960518892500004
 10
5.701344675800015
 20
6.958955359700006
 10
5.726371410200016
 20
6.953933642900004
 10
5.750286171800013
 20
6.945619527700003
 10
5.77274207580001
 20
6.934196641300005
 10
5.793592480600011
 20
6.919717178900008
 10
5.812323538200004
 20
6.902464814100007
  0
LWPOLYLINE
  5
12B
330
2
100
AcDbEntity
  8
0
  6
HIDDEN
 48
0.5
100
AcDbPolyline
 90
        7
 70
     0
 43
0.0
 10
5.676003959000013
 20
6.586953258900003
 10
5.650615858200012
 20
6.588522974100001
 10
5.625577539800005
 20
6.593554620500007
 10
5.601677867800006
 20
6.601871322900002
 10
5.579254635800012
 20
6.613282206100002
 10
5.558445895000005
 20
6.627730574100006
 10
5.539754016600014
 20
6.644933769300003
  0
LINE
  5
131
330
2
100
AcDbEntity
  8
0
100
AcDbLine
 10
-23.31434403299999
 20
12.4069876541
 30
0.0
 11
-23.34279839139999
 21
12.4116796685
 31
0.0
  0
LWPOLYLINE
  5
132
330
2
100
AcDbEntity
  8
0
100
AcDbPolyline
 90
       13
 70
     0
 43
0.0
 10
-20.95610413059998
 20
11.9934248669
 10
-21.01314676899999
 20
12.0029631645
 10
-21.13395496739998
 20
12.0233280493
 10
-21.25027586979999
 20
12.0430864301
 10
-21.36226417859998
 20
12.0622452429
 10
-21.47007209379999
 20
12.0808123229
 10
-21.57385056899998
 20
12.0987965981
 10
-21.67374910979999
 20
12.1162080637
 10
-21.76990889699998
 20
12.1330565389
 10
-21.86246832899998
 20
12.1493525213
 10
-21.95156330499998
 20
12.1651071629
 10
-22.03732700579998
 20
12.1803321837
 10
-22.11988982659998
 20
12.1950397853
  0
LINE
  5
133
330
2
100
AcDbEntity
  8
0
100
AcDbLine
 10
-23.7534038106
 20
12.4777103165
 30
0.0
 11
-23.75604788739999
 21
12.4781529261
 31
0.0
  0
LINE
  5
134
330
2
100
AcDbEntity
  8
0
100
AcDbLine
 10
-23.75604788739999
 20
12.4781529261
 30
0.0
 11
-23.7563693882
 21
12.4782078349
 31
0.0
  0
LINE
  5
135
330
2
100
AcDbEntity
  8
0
100
AcDbLine
 10
-21.08983273699999
 20
12.0158717469
 30
0.0
 11
-21.13395496739999
 21
12.0233280493
 31
0.0
  0
LINE
  5
136
330
2
100
AcDbEntity
  8
0
100
AcDbLine
 10
-21.22159620099999
 20
12.0382013517
 30
0.0
 11
-21.25027586979999
 21
12.0430864301
 31
0.0
  0
LINE
  5
137
330
2
100
AcDbEntity
  8
0
100
AcDbLine
 10
-21.34852786819999
 20
12.0598881549
 30
0.0
 11
-21.47078807619999
 21
12.0809360285
 31
0.0
  0
LINE
  5
138
330
2
100
AcDbEntity
  8
0
100
AcDbLine
 10
-23.11610070499999
 20
12.3732129325
 30
0.0
 11
-23.1591122794
 21
12.3806758077
 31
0.0
  0
LWPOLYLINE
  5
139
330
2
100
AcDbEntity
  8
0
100
AcDbPolyline
 90
       11
 70
     0
 43
0.0
 10
-23.07620417859998
 20
12.3662418093
 10
-23.11620379619998
 20
12.3732308893
 10
-23.15411640419998
 20
12.3798120765
 10
-23.18996044419999
 20
12.3859892733
 10
-23.22376570019998
 20
12.3917691997
 10
-23.25565496419998
 20
12.3971750861
 10
-23.28581626979998
 20
12.4022412637
 10
-23.31434403299998
 20
12.4069876541
 10
-23.34132103459998
 20
12.4114370413
 10
-23.36688351939999
 20
12.4156208077
 10
-23.41418190179999
 20
12.4232890029
  0
LINE
  5
13A
330
2
100
AcDbEntity
  8
0
100
AcDbLine
 10
-22.98991462179999
 20
12.3510366333
 30
0.0
 11
-23.07620417859999
 21
12.3662418093
 31
0.0
  0
LINE
  5
13B
330
2
100
AcDbEntity
  8
0
100
AcDbLine
 10
-22.89509477379999
 20
12.3341815085
 30
0.0
 11
-22.98991462179999
 21
12.3510366333
 31
0.0
  0
LWPOLYLINE
  5
13C
330
2
100
AcDbEntity
  8
0
100
AcDbPolyline
 90
        3
 70
     0
 43
0.0
 10
-22.03732700579998
 20
12.1803321837
 10
-22.11123584419998
 20
12.1934959805
 10
-22.11988982659998
 20
12.1950397853
  0
LINE
  5
13D
330
2
100
AcDbEntity
  8
0
100
AcDbLine
 10
-22.11988982659999
 20
12.1950397853
 30
0.0
 11
-22.27590830179999
 21
12.2229501517
 31
0.0
  0
LINE
  5
13E
330
2
100
AcDbEntity
  8
0
100
AcDbLine
 10
-22.79123221539999
 20
12.3156031837
 30
0.0
 11
-22.89509477379999
 21
12.3341815085
 31
0.0
  0
LINE
  5
13F
330
2
100
AcDbEntity
  8
0
100
AcDbLine
 10
-22.79123221539999
 20
12.3156031837
 30
0.0
 11
-22.8029830474
 21
12.3177096269
 31
0.0
  0
LINE
  5
140
330
2
100
AcDbEntity
  8
0
100
AcDbLine
 10
-22.20317547619999
 20
12.2099215357
 30
0.0
 11
-22.37515756739999
 21
12.2407684749
 31
0.0
  0
LINE
  5
141
330
2
100
AcDbEntity
  8
0
100
AcDbLine
 10
-22.27590830179999
 20
12.2229501517
 30
0.0
 11
-22.42054282339999
 21
12.2489284605
 31
0.0
  0
LINE
  5
142
330
2
100
AcDbEntity
  8
0
100
AcDbLine
 10
-22.42054282339999
 20
12.2489284605
 30
0.0
 11
-22.79123221539999
 21
12.3156031837
 31
0.0
  0
LWPOLYLINE
  5
143
330
2
100
AcDbEntity
  8
0
100
AcDbPolyline
 90
        3
 70
     0
 43
0.0
 10
-22.45539554979998
 20
12.2551985005
 10
-22.53193498179999
 20
12.2689753661
 10
-22.61737840259999
 20
12.2843575773
  0
LINE
  5
144
330
2
100
AcDbEntity
  8
0
100
AcDbLine
 10
-23.81447266819999
 20
12.5101795373
 30
0.0
 11
-23.69804259139999
 21
12.4878993853
 31
0.0
  0
LINE
  5
145
330
2
100
AcDbEntity
  8
0
100
AcDbLine
 10
-23.68624394659999
 20
12.4848530253
 30
0.0
 11
-23.77646548419999
 21
12.5043957261
 31
0.0
  0
LINE
  5
146
330
2
100
AcDbEntity
  8
0
  6
HIDDEN
 48
0.5
100
AcDbLine
 10
5.812323538199999
 20
6.902464814100005
 30
0.0
 11
5.820851298200006
 21
6.892796978899999
 31
0.0
  0
LWPOLYLINE
  5
147
330
2
100
AcDbEntity
  8
0
100
AcDbPolyline
 90
        3
 70
     0
 43
0.0
 10
4.87951657020001
 20
-9.384689414699998
 10
4.879511339800004
 20
-9.384697029099996
 10
4.890254955800017
 20
-9.386181832299996
  0
LWPOLYLINE
  5
15C
330
2
100
AcDbEntity
  8
0
  6
HIDDEN
 48
0.5
100
AcDbPolyline
 90
        7
 70
     0
 43
0.0
 10
13.77148905820001
 20
7.384785289300005
 10
13.7963289334
 20
7.383286332500006
 10
13.82086230780001
 20
7.378468527700007
 10
13.84439738460001
 20
7.370464666900005
 10
13.8665904342
 20
7.359429434900008
 10
13.88731445020001
 20
7.345378863700005
 10
13.90604650940001
 20
7.328568478100002
  0
LINE
  5
15D
330
2
100
AcDbEntity
  8
0
100
AcDbLine
 10
-9.104833077799993
 20
10.3923399149
 30
0.0
 11
-9.163188983399995
 21
10.3983807549
 31
0.0
  0
LINE
  5
15E
330
2
100
AcDbEntity
  8
0
100
AcDbLine
 10
-9.163092368999995
 20
10.3983707021
 30
0.0
 11
-9.242050074599992
 21
10.4066395565
 31
0.0
  0
LINE
  5
15F
330
2
100
AcDbEntity
  8
0
100
AcDbLine
 10
-9.241945557799992
 20
10.4066285421
 30
0.0
 11
-9.322263554599997
 21
10.4151426861
 31
0.0
  0
LINE
  5
160
330
2
100
AcDbEntity
  8
0
100
AcDbLine
 10
-9.322154176999992
 20
10.4151310253
 30
0.0
 11
-9.403689477799991
 21
10.4238724061
 31
0.0
  0
LINE
  5
161
330
2
100
AcDbEntity
  8
0
100
AcDbLine
 10
-9.403578108199992
 20
10.4238604029
 30
0.0
 11
-9.486193994599991
 21
10.4328110701
 31
0.0
  0
LINE
  5
162
330
2
100
AcDbEntity
  8
0
100
AcDbLine
 10
-9.486083260199995
 20
10.4327990141
 30
0.0
 11
-9.569665495399993
 21
10.4419431373
 31
0.0
  0
LINE
  5
163
330
2
100
AcDbEntity
  8
0
100
AcDbLine
 10
-9.569557815399994
 20
10.4419313021
 30
0.0
 11
-9.654001645799992
 21
10.4512540829
 31
0.0
  0
LINE
  5
164
330
2
100
AcDbEntity
  8
0
100
AcDbLine
 10
-9.653899234599995
 20
10.4512427277
 30
0.0
 11
-9.739109128999997
 21
10.4607304381
 31
0.0
  0
LINE
  5
165
330
2
100
AcDbEntity
  8
0
100
AcDbLine
 10
-9.739013994599991
 20
10.4607198013
 30
0.0
 11
-9.824903146599991
 21
10.4703597789
 31
0.0
  0
LINE
  5
166
330
2
100
AcDbEntity
  8
0
100
AcDbLine
 10
-9.824817103399992
 20
10.4703500845
 30
0.0
 11
-9.911306924199996
 21
10.4801307181
 31
0.0
  0
LINE
  5
167
330
2
100
AcDbEntity
  8
0
100
AcDbLine
 10
-9.911231594599994
 20
10.4801221677
 30
0.0
 11
-9.998250701799994
 21
10.4900328349
 31
0.0
  0
LINE
  5
168
330
2
100
AcDbEntity
  8
0
100
AcDbLine
 10
-9.998187533799997
 20
10.4900256157
 30
0.0
 11
-10.08566539939999
 21
10.5000563741
 31
0.0
  0
LINE
  5
169
330
2
100
AcDbEntity
  8
0
100
AcDbLine
 10
-10.08561566659999
 20
10.5000506525
 30
0.0
 11
-10.17348722979999
 21
10.5101926141
 31
0.0
  0
LINE
  5
16A
330
2
100
AcDbEntity
  8
0
100
AcDbLine
 10
-10.17348722979999
 20
10.5101926141
 30
0.0
 11
-10.26165803779999
 21
10.5204333469
 31
0.0
  0
LINE
  5
16B
330
2
100
AcDbEntity
  8
0
100
AcDbLine
 10
-10.26165803779999
 20
10.5204333469
 30
0.0
 11
-10.35012240259999
 21
10.53077054849999
 31
0.0
  0
LINE
  5
16C
330
2
100
AcDbEntity
  8
0
100
AcDbLine
 10
-10.35011895619999
 20
10.5307701437
 30
0.0
 11
-10.43879290019999
 21
10.5411922893
 31
0.0
  0
LINE
  5
16D
330
2
100
AcDbEntity
  8
0
100
AcDbLine
 10
-10.43879290019999
 20
10.5411922893
 30
0.0
 11
-10.52774031299999
 21
10.5517051869
 31
0.0
  0
LINE
  5
16E
330
2
100
AcDbEntity
  8
0
100
AcDbLine
 10
-10.52774031299999
 20
10.5517051869
 30
0.0
 11
-10.64706459619999
 21
10.5658968077
 31
0.0
  0
LINE
  5
16F
330
2
100
AcDbEntity
  8
0
100
AcDbLine
 10
-10.64701272099999
 20
10.5658906173
 30
0.0
 11
-10.76758288099999
 21
10.5803275165
 31
0.0
  0
LINE
  5
170
330
2
100
AcDbEntity
  8
0
100
AcDbLine
 10
-10.76751117859999
 20
10.5803189037
 30
0.0
 11
-10.88966140739999
 21
10.5950372141
 31
0.0
  0
LINE
  5
171
330
2
100
AcDbEntity
  8
0
100
AcDbLine
 10
-10.88957289219999
 20
10.5950265165
 30
0.0
 11
-10.91019060579999
 21
10.5975200717
 31
0.0
  0
LINE
  5
172
330
2
100
AcDbEntity
  8
CENTER
 48
4.0
100
AcDbLine
 10
27.105325407
 20
7.338939278100005
 30
0.0
 11
33.9100389222
 21
6.5034255165
 31
0.0
  0
LWPOLYLINE
  5
176
330
2
100
AcDbEntity
  8
0
100
AcDbPolyline
 90
       17
 70
     0
 43
0.0
 10
-10.91019156899999
 20
10.5975201917
 10
-11.02831684739999
 20
10.6121475085
 10
-11.34061337859999
 20
10.6515354285
 10
-11.66426893219998
 20
10.6930898957
 10
-11.99863449379999
 20
10.7368083853
 10
-12.34344520099998
 20
10.7827334941
 10
-12.69911029219999
 20
10.8309401677
 10
-13.06576105539998
 20
10.8813779501
 10
-13.43878741219998
 20
10.9332456589
 10
-13.81272547299998
 20
10.9855184813
 10
-14.18312686979999
 20
11.0372293693
 10
-14.54677155459999
 20
11.0875403197
 10
-14.89999986499999
 20
11.1357637709
 10
-15.24137386499998
 20
11.1818148157
 10
-15.57135467939998
 20
11.2258863293
 10
-15.89036774819999
 20
11.2681586605
 10
-16.19868472739998
 20
11.3087991293
  0
LWPOLYLINE
  5
177
330
2
100
AcDbEntity
  8
0
100
AcDbPolyline
 90
       10
 70
     0
 43
0.0
 10
-10.91423293379998
 20
10.5980089661
 10
-11.13551898019998
 20
10.6255886461
 10
-11.44978576739998
 20
10.6654688973
 10
-11.77642146019999
 20
10.7076641229
 10
-12.11946467299998
 20
10.7528051725
 10
-12.47668484099998
 20
10.8006993869
 10
-12.84258718979998
 20
10.8505979469
 10
-13.21218039619999
 20
10.9016847661
 10
-13.58139662339999
 20
10.9531651069
 10
-13.94698397539998
 20
11.0042904477
  0
LINE
  5
178
330
2
100
AcDbEntity
  8
0
100
AcDbLine
 10
-16.19868431619999
 20
11.3087990749
 30
0.0
 11
-16.7842787098
 21
11.3857925149
 31
0.0
  0
LWPOLYLINE
  5
179
330
2
100
AcDbEntity
  8
0
100
AcDbPolyline
 90
        3
 70
     0
 43
0.0
 10
-16.19868472739998
 20
11.3087991293
 10
-16.27371089699998
 20
11.3186687117
 10
-16.57002841379998
 20
11.3576187997
  0
LWPOLYLINE
  5
17A
330
2
100
AcDbEntity
  8
0
100
AcDbPolyline
 90
       10
 70
     0
 43
0.0
 10
-16.78427870979999
 20
11.3857925149
 10
-17.06203718339998
 20
11.4224018941
 10
-17.32997724899998
 20
11.4578817213
 10
-17.58828203619999
 20
11.4923137261
 10
-17.83719826019999
 20
11.5257721229
 10
-18.07698838179999
 20
11.5583265629
 10
-18.30788801219998
 20
11.5900367501
 10
-18.53003579779999
 20
11.6209454957
 10
-18.74359514179998
 20
11.6510924221
 10
-18.93473834499999
 20
11.6785025037
  0
LINE
  5
17B
330
2
100
AcDbEntity
  8
0
100
AcDbLine
 10
-15.65454806019999
 20
11.2369381949
 30
0.0
 11
-15.96856482979999
 21
11.2784818925
 31
0.0
  0
LINE
  5
17C
330
2
100
AcDbEntity
  8
0
100
AcDbLine
 10
-15.33159432259999
 20
11.19390437889999
 30
0.0
 11
-15.65454642499999
 21
11.2369379789
 31
0.0
  0
LWPOLYLINE
  5
17D
330
2
100
AcDbEntity
  8
0
100
AcDbPolyline
 90
        8
 70
     0
 43
0.0
 10
-17.40735307459998
 20
11.4681692429
 10
-17.66924106339998
 20
11.5031627213
 10
-17.92257551139999
 20
11.5373234301
 10
-18.16743470019999
 20
11.5707017373
 10
-18.40391835619998
 20
11.6033460061
 10
-18.63220062499999
 20
11.6353104317
 10
-18.85242565699999
 20
11.6666404269
 10
-18.94469859619999
 20
11.6799881053
  0
LWPOLYLINE
  5
17E
330
2
100
AcDbEntity
  8
0
100
AcDbPolyline
 90
        4
 70
     0
 43
0.0
 10
-14.30674782819998
 20
11.0544029565
 10
-14.65798957539998
 20
11.1027916781
 10
-14.99950291619998
 20
11.1492394605
 10
-15.33159607619998
 20
11.1939046141
  0
LINE
  5
17F
330
2
100
AcDbEntity
  8
0
100
AcDbLine
 10
-13.94698196739999
 20
11.0042901661
 30
0.0
 11
-14.30674582499999
 21
11.0544026797
 31
0.0
  0
LINE
  5
180
330
2
100
AcDbEntity
  8
0
100
AcDbLine
 10
-18.9347412538
 20
11.6785029213
 30
0.0
 11
-19.02017394019999
 21
11.6912635581
 31
0.0
  0
LINE
  5
181
330
2
100
AcDbEntity
  8
0
100
AcDbLine
 10
-19.01997763299999
 20
11.6912341725
 30
0.0
 11
-19.11907307139999
 21
11.7061040317
 31
0.0
  0
LINE
  5
182
330
2
100
AcDbEntity
  8
0
100
AcDbLine
 10
-19.11888024899999
 20
11.7060750301
 30
0.0
 11
-19.21801023299999
 21
11.7210200301
 31
0.0
  0
LINE
  5
183
330
2
100
AcDbEntity
  8
0
100
AcDbLine
 10
-19.21782094659999
 20
11.7209914285
 30
0.0
 11
-19.31697593539999
 21
11.7360085373
 31
0.0
  0
LINE
  5
184
330
2
100
AcDbEntity
  8
0
100
AcDbLine
 10
-19.3167902282
 20
11.7359803485
 30
0.0
 11
-19.41596055299999
 21
11.7510663069
 31
0.0
  0
LINE
  5
185
330
2
100
AcDbEntity
  8
0
100
AcDbLine
 10
-19.41577846339999
 20
11.7510385469
 30
0.0
 11
-19.51495435299999
 21
11.7661898557
 31
0.0
  0
LINE
  5
186
330
2
100
AcDbEntity
  8
0
100
AcDbLine
 10
-19.51477591299999
 20
11.7661625373
 30
0.0
 11
-19.61394566179999
 21
11.7813752493
 31
0.0
  0
LINE
  5
187
330
2
100
AcDbEntity
  8
0
100
AcDbLine
 10
-19.61377090979999
 20
11.7813483869
 30
0.0
 11
-19.71290911459999
 21
11.7966176573
 31
0.0
  0
LINE
  5
188
330
2
100
AcDbEntity
  8
0
100
AcDbLine
 10
-19.71273810499999
 20
11.7965912653
 30
0.0
 11
-19.81181658179999
 21
11.8119129021
 31
0.0
  0
LINE
  5
189
330
2
100
AcDbEntity
  8
0
100
AcDbLine
 10
-19.81164936099999
 20
11.8118869901
 30
0.0
 11
-19.91063924419999
 21
11.8272566557
 31
0.0
  0
LINE
  5
18A
330
2
100
AcDbEntity
  8
0
100
AcDbLine
 10
-19.91047585059999
 20
11.8272312365
 30
0.0
 11
-20.00934701699999
 21
11.8426443133
 31
0.0
  0
LINE
  5
18B
330
2
100
AcDbEntity
  8
0
100
AcDbLine
 10
-20.00918748419999
 20
11.8426193933
 30
0.0
 11
-20.1079085258
 21
11.8580709725
 31
0.0
  0
LINE
  5
18C
330
2
100
AcDbEntity
  8
0
100
AcDbLine
 10
-20.10775288259999
 20
11.8580465629
 30
0.0
 11
-20.20629128419999
 21
11.8735314669
 31
0.0
  0
LINE
  5
18D
330
2
100
AcDbEntity
  8
0
100
AcDbLine
 10
-20.20613955619999
 20
11.8735075757
 30
0.0
 11
-20.30446502499999
 21
11.8890208829
 31
0.0
  0
LINE
  5
18E
330
2
100
AcDbEntity
  8
0
100
AcDbLine
 10
-20.30431722659999
 20
11.8889975165
 30
0.0
 11
-20.40239860259999
 21
11.9045341229
 31
0.0
  0
LINE
  5
18F
330
2
100
AcDbEntity
  8
0
100
AcDbLine
 10
-20.40225475299999
 20
11.9045112909
 30
0.0
 11
-20.50005967619999
 21
11.9200659677
 31
0.0
  0
LINE
  5
190
330
2
100
AcDbEntity
  8
0
100
AcDbLine
 10
-20.49991979299999
 20
11.9200436765
 30
0.0
 11
-20.59741455939999
 21
11.9356109181
 31
0.0
  0
LINE
  5
191
330
2
100
AcDbEntity
  8
0
100
AcDbLine
 10
-23.52855794979999
 20
12.4415790189
 30
0.0
 11
-23.55871549859999
 21
12.4463918205
 31
0.0
  0
LINE
  5
192
330
2
100
AcDbEntity
  8
0
100
AcDbLine
 10
-23.43601951299999
 20
12.4268022653
 30
0.0
 11
-23.48085420099999
 21
12.4339759661
 31
0.0
  0
LINE
  5
193
330
2
100
AcDbEntity
  8
0
100
AcDbLine
 10
-20.59727865859999
 20
11.9355891757
 30
0.0
 11
-20.69442781379999
 21
11.9511631005
 31
0.0
  0
LINE
  5
194
330
2
100
AcDbEntity
  8
0
100
AcDbLine
 10
-23.4141819018
 20
12.4232890029
 30
0.0
 11
-23.59900835619999
 21
12.45285061889999
 31
0.0
  0
LINE
  5
195
330
2
100
AcDbEntity
  8
0
100
AcDbLine
 10
-20.6942959098
 20
11.9511419133
 30
0.0
 11
-20.79106222019999
 21
11.9667162541
 31
0.0
  0
LINE
  5
196
330
2
100
AcDbEntity
  8
0
100
AcDbLine
 10
-23.6233007034
 20
12.4567582429
 30
0.0
 11
-23.7534038106
 21
12.4777103165
 31
0.0
  0
LINE
  5
197
330
2
100
AcDbEntity
  8
0
100
AcDbLine
 10
-23.5827386506
 20
12.4502388525
 30
0.0
 11
-23.59900835619999
 21
12.45285061889999
 31
0.0
  0
LINE
  5
198
330
2
100
AcDbEntity
  8
0
100
AcDbLine
 10
-23.61139086499999
 20
12.4548413757
 30
0.0
 11
-23.63173096739999
 21
12.4581161309
 31
0.0
  0
LINE
  5
199
330
2
100
AcDbEntity
  8
0
100
AcDbLine
 10
-23.59900835619999
 20
12.45285061889999
 30
0.0
 11
-23.6233007034
 21
12.4567582429
 31
0.0
  0
LINE
  5
19A
330
2
100
AcDbEntity
  8
0
100
AcDbLine
 10
-20.79093433059999
 20
11.9666956301
 30
0.0
 11
-20.88727877539999
 21
11.9822637181
 31
0.0
  0
LINE
  5
19B
330
2
100
AcDbEntity
  8
0
100
AcDbLine
 10
-20.88715491459999
 20
11.9822436637
 30
0.0
 11
-20.95610359779999
 21
11.9934247789
 31
0.0
  0
LINE
  5
19C
330
2
100
AcDbEntity
  8
0
100
AcDbLine
 10
-23.36688351939999
 20
12.4156208077
 30
0.0
 11
-23.37376406019999
 21
12.4167419213
 31
0.0
  0
LINE
  5
19D
330
2
100
AcDbEntity
  8
0
100
AcDbLine
 10
18.6466929686
 20
4.4035912829
 30
0.0
 11
18.640983583
 21
4.394432015700003
 31
0.0
  0
LINE
  5
1AC
330
2
100
AcDbEntity
  8
0
100
AcDbLine
 10
-3.960522685799992
 20
10.39229306209999
 30
0.0
 11
-5.545092112999993
 21
10.3918369133
 31
0.0
  0
LWPOLYLINE
  5
1B0
330
2
100
AcDbEntity
  8
0
100
AcDbPolyline
 90
        3
 70
     0
 43
0.0
 10
18.80004401500001
 20
10.3941317389
 10
9.349893138200016
 20
10.3935086029
 10
5.933676896600005
 20
10.3931966253
  0
LINE
  5
1C0
330
2
100
AcDbEntity
  8
0
  6
HIDDEN
 48
0.5
100
AcDbLine
 10
13.6369883286
 20
7.067378159700004
 30
0.0
 11
13.626640959
 21
7.078942494100003
 31
0.0
  0
LINE
  5
1C1
330
2
100
AcDbEntity
  8
0
  6
HIDDEN
 48
0.5
100
AcDbLine
 10
13.9060465094
 20
7.328568478100001
 30
0.0
 11
13.9163371606
 21
7.317062446100001
 31
0.0
  0
LINE
  5
1C2
330
2
100
AcDbEntity
  8
0
  6
HIDDEN
 48
0.5
100
AcDbLine
 10
13.626640959
 20
7.078942494100003
 30
0.0
 11
13.62081099900001
 21
7.086417481300001
 31
0.0
  0
LINE
  5
1C3
330
2
100
AcDbEntity
  8
0
  6
HIDDEN
 48
0.5
100
AcDbLine
 10
13.9163371606
 20
7.317062446100001
 30
0.0
 11
13.92223934460001
 21
7.309489732500003
 31
0.0
  0
LWPOLYLINE
  5
1C4
330
2
100
AcDbEntity
  8
0
  6
HIDDEN
 48
0.5
100
AcDbPolyline
 90
       18
 70
     0
 43
0.0
 10
13.62081099900001
 20
7.086417481300003
 10
13.60741673820001
 20
7.107330082900006
 10
13.59687065660001
 20
7.130026663700007
 10
13.58944676860001
 20
7.154060898900006
 10
13.58535185980001
 20
7.178726828500003
 10
13.58458841340001
 20
7.203446916500006
 10
13.58707519100001
 20
7.227906892500001
 10
13.5926761622
 20
7.251598921300001
 10
13.6011911542
 20
7.274130364500003
 10
13.61237781020001
 20
7.295162151700004
 10
13.62602269980001
 20
7.314479985300003
 10
13.64189139900001
 20
7.331853342100004
 10
13.65977889660001
 20
7.347101233300001
 10
13.67947524380001
 20
7.360036586900001
 10
13.70075964860001
 20
7.370468148500002
 10
13.72339451260001
 20
7.378201409300004
 10
13.7470717398
 20
7.383033202900001
 10
13.77148905820001
 20
7.384785289300005
  0
LWPOLYLINE
  5
1C5
330
2
100
AcDbEntity
  8
0
  6
HIDDEN
 48
0.5
100
AcDbPolyline
 90
       18
 70
     0
 43
0.0
 10
13.92223934460001
 20
7.309489732500004
 10
13.9356395526
 20
7.288532484500002
 10
13.94618009820001
 20
7.265789255700006
 10
13.9535861094
 20
7.241711382100007
 10
13.95765243740001
 20
7.217007788500005
 10
13.95837863100001
 20
7.1922530653
 10
13.9558475782
 20
7.167771702100004
 10
13.95020402620001
 20
7.144087214100004
 10
13.9416607926
 20
7.121596753300003
 10
13.93047088220001
 20
7.100633023700005
 10
13.91685112860001
 20
7.081395516500002
 10
13.90102927900001
 20
7.064096127700004
 10
13.88319538140001
 20
7.048900833300002
 10
13.863543911
 20
7.035991786900005
 10
13.84228256060001
 20
7.025563364500001
 10
13.819644695
 20
7.017820167700001
 10
13.795943167
 20
7.012976815700007
 10
13.77148905820001
 20
7.011219655700003
  0
LWPOLYLINE
  5
1C9
330
2
100
AcDbEntity
  8
0
100
AcDbPolyline
 90
        3
 70
     0
 43
0.0
 10
-23.99399356259999
 20
12.5186065933
 10
-23.93969891779998
 20
12.5200364349
 10
-23.81447266819999
 20
12.5101795373
  0
LWPOLYLINE
  5
1CE
330
2
100
AcDbEntity
  8
0
100
AcDbPolyline
 90
        4
 70
     0
 43
0.0
 10
25.07998033500001
 20
-9.708314766699992
 10
25.07923458620001
 20
-9.706890120299995
 10
25.02638449980001
 20
-9.697985381099996
 10
24.90541450460002
 20
-9.689308115499997
  0
LWPOLYLINE
  5
1D1
330
2
100
AcDbEntity
  8
0
100
AcDbPolyline
 90
        3
 70
     0
 43
0.0
 10
-24.28809389059999
 20
12.4859613069
 10
-24.03009942019998
 20
12.5215991869
 10
-24.00207714499998
 20
12.5192765917
  0
LWPOLYLINE
  5
1D4
330
2
100
AcDbEntity
  8
0
100
AcDbPolyline
 90
        8
 70
     0
 43
0.0
 10
27.08852398460001
 20
-9.608675635499992
 10
27.08841962620001
 20
-9.608458405099995
 10
27.08809835420001
 20
-9.608115480299993
 10
27.08750372540001
 20
-9.607717552299995
 10
27.08650785500001
 20
-9.607262416299995
 10
27.0849553558
 20
-9.606752539499993
 10
27.08266785500001
 20
-9.606195184299998
 10
27.07943013980001
 20
-9.605598296299994
  0
LINE
  5
1DB
330
2
100
AcDbEntity
  8
CENTER
 48
4.0
100
AcDbLine
 10
24.6752874342
 20
-7.543239315519304
 30
0.0
 11
24.6752874342
 21
-12.67754541788069
 31
0.0
  0
LINE
  5
1DC
330
2
100
AcDbEntity
  8
0
100
AcDbLine
 10
24.675226927
 20
-9.530178777899999
 30
0.0
 11
24.6751789766
 21
-9.6100238867
 31
0.0
  0
LINE
  5
1DD
330
2
100
AcDbEntity
  8
0
100
AcDbLine
 10
25.0801852806
 20
-9.739552979499999
 30
0.0
 11
25.080345623
 21
-9.708316673899995
 31
0.0
  0
LWPOLYLINE
  5
1DE
330
2
100
AcDbEntity
  8
0
100
AcDbPolyline
 90
       10
 70
     0
 43
0.0
 10
24.67521082460001
 20
-9.542157449899995
 10
24.67514841340001
 20
-9.549721848299995
 10
24.67509006940001
 20
-9.553594694699995
 10
24.67500057500001
 20
-9.557764592299996
 10
24.67486281180001
 20
-9.562360947499996
 10
24.67465874940001
 20
-9.567308021099997
 10
24.6743723862
 20
-9.572424331499995
 10
24.67398736700001
 20
-9.577563125099992
 10
24.6734820614
 20
-9.582644077099992
 10
24.67283568700001
 20
-9.587549125099997
  0
LINE
  5
1DF
330
2
100
AcDbEntity
  8
0
100
AcDbLine
 10
24.6631219334
 20
-9.609333811499995
 30
0.0
 11
24.6618503942
 21
-9.609973617899997
 31
0.0
  0
LWPOLYLINE
  5
1E0
330
2
100
AcDbEntity
  8
0
100
AcDbPolyline
 90
        5
 70
     0
 43
0.0
 10
24.8070976502
 20
-9.797733533099993
 10
24.87040221180001
 20
-9.766177336299996
 10
24.91592002140001
 20
-9.752259779499993
 10
24.93617611580001
 20
-9.748390285099993
 10
24.93874642620001
 20
-9.748044048299995
  0
LINE
  5
1E1
330
2
100
AcDbEntity
  8
0
100
AcDbLine
 10
27.4231071542
 20
-9.555607933099993
 30
0.0
 11
27.43659392539999
 21
-9.550258422699998
 31
0.0
  0
LINE
  5
1E3
330
2
100
AcDbEntity
  8
0
100
AcDbLine
 10
27.08858273820001
 20
-9.608908629099994
 30
0.0
 11
27.08852398460001
 21
-9.608675635499993
 31
0.0
  0
LWPOLYLINE
  5
1E4
330
2
100
AcDbEntity
  8
0
100
AcDbPolyline
 90
        3
 70
     0
 43
0.0
 10
24.67283568700001
 20
-9.587549125099997
 10
24.6720516678
 20
-9.592038846699992
 10
24.67115968220001
 20
-9.595923577899995
  0
LWPOLYLINE
  5
1E5
330
2
100
AcDbEntity
  8
0
100
AcDbPolyline
 90
        7
 70
     0
 43
0.0
 10
24.67115968220001
 20
-9.595923577899995
 10
24.67020380060001
 20
-9.599129489899993
 10
24.6692407654
 20
-9.601654432299994
 10
24.66831120220001
 20
-9.603596785899995
 10
24.6673973462
 20
-9.605141147499992
 10
24.66645659420001
 20
-9.606429998699994
 10
24.6656691942
 20
-9.607318701099998
  0
LINE
  5
1E6
330
2
100
AcDbEntity
  8
0
100
AcDbLine
 10
24.6505962342
 20
-9.997850069099998
 30
0.0
 11
24.6852211782
 21
-9.922021019499995
 31
0.0
  0
LINE
  5
1E7
330
2
100
AcDbEntity
  8
0
100
AcDbLine
 10
24.6852211782
 20
-9.922021019499995
 30
0.0
 11
24.74126168859999
 21
-9.850170209899994
 31
0.0
  0
LWPOLYLINE
  5
1E8
330
2
100
AcDbEntity
  8
0
100
AcDbPolyline
 90
        4
 70
     0
 43
0.0
 10
24.6656691942
 20
-9.607318701099998
 10
24.66543547100001
 20
-9.607554161899997
 10
24.66432069500001
 20
-9.608525606699998
 10
24.6631219334
 20
-9.609333811499993
  0
LINE
  5
1E9
330
2
100
AcDbEntity
  8
0
100
AcDbLine
 10
24.74126168859999
 20
-9.850170209899994
 30
0.0
 11
24.8070976502
 21
-9.797733533099995
 31
0.0
  0
LWPOLYLINE
  5
1EA
330
2
100
AcDbEntity
  8
0
100
AcDbPolyline
 90
        3
 70
     0
 43
0.0
 10
25.0800410182
 20
-9.739552249899993
 10
25.07709353980001
 20
-9.741856040299992
 10
25.01499541180001
 20
-9.749431721899995
  0
LINE
  5
1EB
330
2
100
AcDbEntity
  8
0
100
AcDbLine
 10
24.67528765339999
 20
-9.600041489899995
 30
0.0
 11
24.6674686566
 21
-9.605822169899996
 31
0.0
  0
LWPOLYLINE
  5
1EC
330
2
100
AcDbEntity
  8
0
100
AcDbPolyline
 90
        5
 70
     0
 43
0.0
 10
30.27423203580001
 20
3.896966956500001
 10
30.3132730054
 20
4.177574166100001
 10
30.35016704860001
 20
4.441899558100004
 10
30.38496737500001
 20
4.690429047700007
 10
30.41542352220001
 20
4.907265050900001
  0
LINE
  5
1ED
330
2
100
AcDbEntity
  8
0
100
AcDbLine
 10
30.415419895
 20
4.907265593300001
 30
0.0
 11
30.97702513179999
 21
8.899607633300005
 31
0.0
  0
LINE
  5
1EE
330
2
100
AcDbEntity
  8
0
100
AcDbLine
 10
28.55638623259999
 20
-8.310977307499998
 30
0.0
 11
28.63720187100001
 21
-7.738994446699999
 31
0.0
  0
LINE
  5
1EF
330
2
100
AcDbEntity
  8
0
100
AcDbLine
 10
28.63720187100001
 20
-7.738994446699999
 30
0.0
 11
28.73096266140001
 21
-7.076457387499994
 31
0.0
  0
LWPOLYLINE
  5
1F0
330
2
100
AcDbEntity
  8
0
100
AcDbPolyline
 90
        3
 70
     0
 43
0.0
 10
28.73096266140001
 20
-7.076457387499992
 10
28.83445568220001
 20
-6.346027529899998
 10
28.88987465020001
 20
-5.955114110699994
  0
LINE
  5
1F1
330
2
100
AcDbEntity
  8
0
100
AcDbLine
 10
28.88987465020001
 20
-5.955114110699996
 30
0.0
 11
29.07351216380001
 21
-4.660179709099994
 31
0.0
  0
LWPOLYLINE
  5
1F2
330
2
100
AcDbEntity
  8
0
100
AcDbPolyline
 90
       16
 70
     0
 43
0.0
 10
29.48689342460001
 20
-1.747005913899997
 10
29.55188330780001
 20
-1.288708573099995
 10
29.6142281542
 20
-0.8483802642999975
 10
29.6742410006
 20
-0.4235744066999985
 10
29.73224337180001
 20
-0.011840139499995
 10
29.78856070940001
 20
0.389275458900002
 10
29.84350007100001
 20
0.7820825405000065
 10
29.8971312694
 20
1.167177420500003
 10
29.94937771580001
 20
1.544029364500005
 10
30.00022593340001
 20
1.912116868500007
 10
30.04969073020001
 20
2.270955986900005
 10
30.09777935260001
 20
2.620075809300004
 10
30.14447697020001
 20
2.958946007700006
 10
30.18962068380001
 20
3.286063652500004
 10
30.2329592278
 20
3.599397916500002
 10
30.27423203580001
 20
3.896966956500001
  0
LINE
  5
1F3
330
2
100
AcDbEntity
  8
0
100
AcDbLine
 10
29.07351216380001
 20
-4.660179709099994
 30
0.0
 11
29.27954369980001
 21
-3.207946659499997
 31
0.0
  0
LINE
  5
1F4
330
2
100
AcDbEntity
  8
0
100
AcDbLine
 10
29.27954369980001
 20
-3.207946659499997
 30
0.0
 11
29.4868934246
 21
-1.747005913899998
 31
0.0
  0
LINE
  5
1F5
330
2
100
AcDbEntity
  8
0
100
AcDbLine
 10
28.5403005526
 20
-8.4038783619
 30
0.0
 11
28.556388111
 21
-8.310971352299995
 31
0.0
  0
LINE
  5
1F6
330
2
100
AcDbEntity
  8
0
100
AcDbLine
 10
28.2175195718
 20
-9.036012891499995
 30
0.0
 11
28.3527785382
 21
-8.862709648299999
 31
0.0
  0
LINE
  5
1F7
330
2
100
AcDbEntity
  8
0
100
AcDbLine
 10
28.27142961980001
 20
-8.979516382699999
 30
0.0
 11
28.21271706620001
 21
-9.051533411499997
 31
0.0
  0
LINE
  5
1F8
330
2
100
AcDbEntity
  8
0
100
AcDbLine
 10
28.2702896054
 20
-8.981069619499999
 30
0.0
 11
28.2248044454
 21
-9.036719133099994
 31
0.0
  0
LINE
  5
1F9
330
2
100
AcDbEntity
  8
0
100
AcDbLine
 10
28.2617916022
 20
-8.992517912299996
 30
0.0
 11
28.213663159
 21
-9.0500334419
 31
0.0
  0
LINE
  5
1FA
330
2
100
AcDbEntity
  8
0
100
AcDbLine
 10
26.4851843174
 20
-9.679637617899993
 30
0.0
 11
26.130581807
 21
-10.0342401299
 31
0.0
  0
LWPOLYLINE
  5
1FB
330
2
100
AcDbEntity
  8
0
100
AcDbPolyline
 90
        3
 70
     0
 43
0.0
 10
28.12471232380001
 20
-9.154923718699997
 10
28.173689687
 20
-9.106094021099998
 10
28.27166818940002
 20
-8.985802849899997
  0
LINE
  5
1FE
330
2
100
AcDbEntity
  8
0
100
AcDbLine
 10
28.37059982779999
 20
-8.822637229099997
 30
0.0
 11
28.356353295
 21
-8.8501517299
 31
0.0
  0
LINE
  5
1FF
330
2
100
AcDbEntity
  8
0
100
AcDbLine
 10
28.36917323099999
 20
-8.825251141099998
 30
0.0
 11
28.3553160678
 21
-8.851922049899998
 31
0.0
  0
LINE
  5
200
330
2
100
AcDbEntity
  8
0
100
AcDbLine
 10
28.37119391419999
 20
-8.820634299499994
 30
0.0
 11
28.34619068860001
 21
-8.867262825899993
 31
0.0
  0
LINE
  5
201
330
2
100
AcDbEntity
  8
0
100
AcDbLine
 10
28.4003006518
 20
-8.754131382699997
 30
0.0
 11
28.2090518022
 21
-9.057344457899995
 31
0.0
  0
LINE
  5
202
330
2
100
AcDbEntity
  8
0
100
AcDbLine
 10
28.27166818940001
 20
-8.985802849899998
 30
0.0
 11
28.3537691574
 21
-8.860446285099998
 31
0.0
  0
LINE
  5
203
330
2
100
AcDbEntity
  8
0
100
AcDbLine
 10
28.356353295
 20
-8.8501517299
 30
0.0
 11
28.27142961980001
 21
-8.979516382699999
 31
0.0
  0
LINE
  5
204
330
2
100
AcDbEntity
  8
0
100
AcDbLine
 10
28.3553160678
 20
-8.851922049899998
 30
0.0
 11
28.3236013798
 21
-8.900093814699994
 31
0.0
  0
LINE
  5
205
330
2
100
AcDbEntity
  8
0
100
AcDbLine
 10
28.30369350459999
 20
-8.9303320915
 30
0.0
 11
28.2702896054
 21
-8.981069619499999
 31
0.0
  0
LINE
  5
206
330
2
100
AcDbEntity
  8
0
100
AcDbLine
 10
28.34619068860001
 20
-8.867262825899993
 30
0.0
 11
28.2617916022
 21
-8.992517912299996
 31
0.0
  0
LINE
  5
208
330
2
100
AcDbEntity
  8
0
100
AcDbLine
 10
33.1752874342
 20
8.899607633300005
 30
0.0
 11
33.064395839
 21
10.1671043661
 31
0.0
  0
ARC
  5
20B
330
2
100
AcDbEntity
  8
0
100
AcDbCircle
 10
27.06161403099999
 20
-8.092754747499997
 30
0.0
 40
1.499999993599999
100
AcDbArc
 50
319.9485315175999
 51
330.7573976063999
  0
ARC
  5
20E
330
2
100
AcDbEntity
  8
0
100
AcDbCircle
 10
25.94673404379999
 20
-9.850392366699994
 30
0.0
 40
0.26
100
AcDbArc
 50
270.0
 51
315.0
  0
ARC
  5
20F
330
2
100
AcDbEntity
  8
0
100
AcDbCircle
 10
26.6548896918
 20
-9.849343497899996
 30
0.0
 40
0.24
100
AcDbArc
 50
102.3186152118999
 51
134.9999999912
  0
ARC
  5
210
330
2
100
AcDbEntity
  8
0
100
AcDbCircle
 10
22.696706855
 20
-9.850365161899995
 30
0.0
 40
0.2399999984
100
AcDbArc
 50
52.4961441007
 51
89.9768611864
  0
ARC
  5
211
330
2
100
AcDbEntity
  8
0
100
AcDbCircle
 10
2.847372184599999
 20
-8.621235398699996
 30
0.0
 40
0.51
100
AcDbArc
 50
183.5867037332
 51
267.4339420104999
  0
ARC
  5
212
330
2
100
AcDbEntity
  8
0
100
AcDbCircle
 10
6.091589611800012
 20
-9.725392366699994
 30
0.0
 40
0.875
100
AcDbArc
 50
190.0000104053999
 51
270.0
  0
ARC
  5
213
330
2
100
AcDbEntity
  8
0
100
AcDbCircle
 10
23.8191065558
 20
-9.725392366699994
 30
0.0
 40
0.875
100
AcDbArc
 50
270.0
 51
341.8611842777
  0
ARC
  5
214
330
2
100
AcDbEntity
  8
0
100
AcDbCircle
 10
-8.449712565799996
 20
-11.16289236669999
 30
0.0
 40
0.90625
100
AcDbArc
 50
43.17284397409999
 51
136.8269261764
  0
ARC
  5
215
330
2
100
AcDbEntity
  8
0
100
AcDbCircle
 10
-7.583687160999991
 20
-10.35039236669999
 30
0.0
 40
0.28125
100
AcDbArc
 50
223.1762028567
 51
270.0
  0
ARC
  5
216
330
2
100
AcDbEntity
  8
0
100
AcDbCircle
 10
-6.92280894499999
 20
-10.35039236669999
 30
0.0
 40
0.28125
100
AcDbArc
 50
270.0029809136
 51
345.0007714784
  0
ARC
  5
217
330
2
100
AcDbEntity
  8
0
100
AcDbCircle
 10
-9.976620125799994
 20
-10.35039236669999
 30
0.0
 40
0.28125
100
AcDbArc
 50
194.9994362616999
 51
269.9978218025
  0
ARC
  5
218
330
2
100
AcDbEntity
  8
0
100
AcDbCircle
 10
-11.16996904739999
 20
-8.311467521899993
 30
0.0
 40
0.3437355024
100
AcDbArc
 50
15.0017954673
 51
88.5082344996
  0
ARC
  5
219
330
2
100
AcDbEntity
  8
0
100
AcDbCircle
 10
-5.767295968999993
 20
-8.452760969899999
 30
0.0
 40
0.3437429488
100
AcDbArc
 50
88.4989213481
 51
164.9993014393
  0
ARC
  5
21A
330
2
100
AcDbEntity
  8
0
100
AcDbCircle
 10
-11.17000696259999
 20
-8.311466529899997
 30
0.0
 40
0.34375
100
AcDbArc
 50
15.0
 51
64.00111537399999
  0
ARC
  5
21B
330
2
100
AcDbEntity
  8
0
100
AcDbCircle
 10
-9.315737968999995
 20
-10.35039236669999
 30
0.0
 40
0.28125
100
AcDbArc
 50
269.9999999879
 51
316.8246498474999
  0
ARC
  5
21C
330
2
100
AcDbEntity
  8
0
100
AcDbCircle
 10
-26.46471264579999
 20
10.14963642329747
 30
0.0
 40
0.2499995232
100
AcDbArc
 50
89.13768369519999
 51
175.0142913320999
  0
LINE
  5
244
330
2
100
AcDbEntity
  8
0
100
AcDbLine
 10
-13.39153914339999
 20
-7.963965217899998
 30
0.0
 11
-11.38090939299999
 21
-7.962083368299994
 31
0.0
  0
LINE
  5
30F
330
2
100
AcDbEntity
  8
0
100
AcDbLine
 10
32.80697344591196
 20
10.3996076333
 30
0.0
 11
-26.46847506126077
 21
10.3996076333
 31
0.0
  0
LINE
  5
310
330
2
100
AcDbEntity
  8
0
100
AcDbLine
 10
-26.82471256579999
 20
8.899607633300005
 30
0.0
 11
33.1752874342
 21
8.899607633300005
 31
0.0
  0
ARC
  5
312
330
2
100
AcDbEntity
  8
0
100
AcDbCircle
 10
-25.43370410339999
 20
10.4908490781
 30
0.0
 40
0.125
100
AcDbArc
 50
313.1193433392859
 51
352.0907659837
  0
ARC
  5
313
330
2
100
AcDbEntity
  8
0
100
AcDbCircle
 10
32.79323258229641
 20
10.12563627959365
 30
0.0
 40
0.2743157195360745
100
AcDbArc
 50
8.694689192225828
 51
87.12877152908033
  0
ENDSEC
  0
SECTION
  2
OBJECTS
  0
DICTIONARY
  5
C
330
0
100
AcDbDictionary
  3
ACAD_COLOR
350
2D
  3
ACAD_GROUP
350
28
  3
ACAD_LAYOUT
350
B
  3
ACAD_MATERIAL
350
2C
  3
ACAD_MLINESTYLE
350
29
  3
ACAD_PLOTSETTINGS
350
2A
  3
ACAD_PLOTSTYLENAME
350
2B
  3
ACAD_TABLESTYLE
350
2E
  3
ACDBHEADERROUNDTRIPXREC
350
35B
  3
ACDBVARIABLEDICTIONARY
350
226
  0
DICTIONARY
  5
12
330
11
100
AcDbDictionary
280
     1
  3
ACAD_LAYERFILTERS
360
13
  3
ACLYDICTIONARY
360
14
  0
DICTIONARY
  5
3
330
2
100
AcDbDictionary
280
     1
  3
ACAD_LAYOUTSELFREF
360
37C
  3
ACAD_SORTENTS
360
221
  0
DICTIONARY
  5
300
330
D
100
AcDbDictionary
280
     1
  3
ACAD_LAYOUTSELFREF
360
37D
  0
DICTIONARY
  5
2D
102
{ACAD_REACTORS
330
C
102
}
330
C
100
AcDbDictionary
  0
DICTIONARY
  5
28
102
{ACAD_REACTORS
330
C
102
}
330
C
100
AcDbDictionary
  0
DICTIONARY
  5
B
102
{ACAD_REACTORS
330
C
102
}
330
C
100
AcDbDictionary
  0
DICTIONARY
  5
2C
102
{ACAD_REACTORS
330
C
102
}
330
C
100
AcDbDictionary
  0
DICTIONARY
  5
29
102
{ACAD_REACTORS
330
C
102
}
330
C
100
AcDbDictionary
  3
STANDARD
350
2F
  0
DICTIONARY
  5
2A
102
{ACAD_REACTORS
330
C
102
}
330
C
100
AcDbDictionary
  0
ACDBDICTIONARYWDFLT
  5
2B
102
{ACAD_REACTORS
330
C
102
}
330
C
100
AcDbDictionary
281
     1
  3
Normal
350
7
100
AcDbDictionaryWithDefault
340
7
  0
DICTIONARY
  5
2E
102
{ACAD_REACTORS
330
C
102
}
330
C
100
AcDbDictionary
  3
STANDARD
350
30
  0
DICTIONARY
  5
35B
102
{ACAD_REACTORS
330
C
102
}
330
C
100
AcDbDictionary
  3
CEPSNTYPE
350
365
  3
DIMSTYLEDATA
350
369
  3
FINGERPRINTGUID
350
366
  3
HYPERLINKBASE
350
35E
  3
INSUNITS
350
364
  3
LAYOUTDICT
350
360
  3
LWETCUNION
350
363
  3
PLOTSETDICT
350
361
  3
PLOTSTYLNAMDICT
350
362
  3
PSVPSCALE
350
368
  3
PUCSBASE
350
36C
  3
PUCSORGBACK
350
372
  3
PUCSORGBOTTOM
350
36E
  3
PUCSORGFRONT
350
371
  3
PUCSORGLEFT
350
36F
  3
PUCSORGRIGHT
350
370
  3
PUCSORGTOP
350
36D
  3
PUCSORTHOREF
350
36A
  3
PUCSORTHOVIEW
350
36B
  3
STYLESHEET
350
35F
  3
TSTACKALIGN
350
35C
  3
TSTACKSIZE
350
35D
  3
UCSBASE
350
375
  3
UCSORGBACK
350
37B
  3
UCSORGBOTTOM
350
377
  3
UCSORGFRONT
350
37A
  3
UCSORGLEFT
350
378
  3
UCSORGRIGHT
350
379
  3
UCSORGTOP
350
376
  3
UCSORTHOREF
350
373
  3
UCSORTHOVIEW
350
374
  3
VERSIONGUID
350
367
  0
DICTIONARY
  5
226
102
{ACAD_REACTORS
330
C
102
}
330
C
100
AcDbDictionary
  3
CTABLESTYLE
350
227
  3
DIMASSOC
350
24C
  3
HIDETEXT
350
24B
  3
PROJECTNAME
350
24D
  0
DICTIONARY
  5
13
102
{ACAD_REACTORS
330
12
102
}
330
12
100
AcDbDictionary
  0
DICTIONARY
  5
14
102
{ACAD_REACTORS
330
12
102
}
330
12
100
AcDbDictionary
1001
ACAD
1000
<All
  0
XRECORD
  5
37C
102
{ACAD_REACTORS
330
3
102
}
330
3
100
AcDbXrecord
340
2
  0
SORTENTSTABLE
  5
221
102
{ACAD_REACTORS
330
3
102
}
330
3
100
AcDbSortentsTable
330
2
  0
XRECORD
  5
37D
102
{ACAD_REACTORS
330
300
102
}
330
300
100
AcDbXrecord
340
D
  0
MLINESTYLE
  5
2F
102
{ACAD_REACTORS
330
29
102
}
330
29
100
AcDbMlineStyle
  2
STANDARD
 70
     0
  3

 62
   256
 51
90.0
 52
90.0
 71
     2
 49
0.5
 62
   256
  6
BYLAYER
 49
-0.5
 62
   256
  6
BYLAYER
  0
ACDBPLACEHOLDER
  5
7
102
{ACAD_REACTORS
330
2B
102
}
330
0
100
AcDbPlaceHolder
280
     0
  0
ACAD_PROXY_OBJECT
  5
30
102
{ACAD_REACTORS
330
2E
102
}
330
2E
100
AcDbProxyObject
 90
      499
 91
      525
 93
     1841
310
4214DD185B99185C9928B81E85EB51B8AE3F2E07A17AD46E2B8FC02B5E8DC0F42B1CFD028000000C1008070000C3001FDFF8000000C1003FBFF000000182007F7FE00000030400FEFFC00000060801FDFF8000000C1003FBFF00000018200000000000000681FA0B0000001820100E000186003FBFF000000182007F7FE000
310
00030400FEFFC00000060801FDFF8000000C1003FBFF000000182007F7FE000000304000AD7A3703D0AC73F4160000003040201C00030C007F7FE00000030400FEFFC00000060801FDFF8000000C1003FBFF000000182007F7FE00000030400FEFFC000000608018
340
17
340
17
340
17
 94
        0
1001
ACAD
1000
AcadProxyRoundTripData
1071
      524
1071
   851991
1070
     0
  0
XRECORD
  5
365
102
{ACAD_REACTORS
330
35B
102
}
330
35B
100
AcDbXrecord
 90
        0
  0
XRECORD
  5
369
102
{ACAD_REACTORS
330
35B
102
}
330
35B
100
AcDbXrecord
1000
DSTYLE
1002
{
1070
   341
340
23
1070
   342
340
23
1002
}
  0
XRECORD
  5
366
102
{ACAD_REACTORS
330
35B
102
}
330
35B
100
AcDbXrecord
  1
{7A1625B9-9439-479F-9AF3-A3813EDF6C91}
  0
XRECORD
  5
35E
102
{ACAD_REACTORS
330
35B
102
}
330
35B
100
AcDbXrecord
  1

  0
XRECORD
  5
364
102
{ACAD_REACTORS
330
35B
102
}
330
35B
100
AcDbXrecord
 90
        1
  0
XRECORD
  5
360
102
{ACAD_REACTORS
330
35B
102
}
330
35B
100
AcDbXrecord
340
B
  0
XRECORD
  5
363
102
{ACAD_REACTORS
330
35B
102
}
330
35B
100
AcDbXrecord
 90
    10781
  0
XRECORD
  5
361
102
{ACAD_REACTORS
330
35B
102
}
330
35B
100
AcDbXrecord
340
2A
  0
XRECORD
  5
362
102
{ACAD_REACTORS
330
35B
102
}
330
35B
100
AcDbXrecord
340
2B
  0
XRECORD
  5
368
102
{ACAD_REACTORS
330
35B
102
}
330
35B
100
AcDbXrecord
 40
0.0
  0
XRECORD
  5
36C
102
{ACAD_REACTORS
330
35B
102
}
330
35B
100
AcDbXrecord
340
0
  0
XRECORD
  5
372
102
{ACAD_REACTORS
330
35B
102
}
330
35B
100
AcDbXrecord
 10
0.0
 20
0.0
 30
0.0
  0
XRECORD
  5
36E
102
{ACAD_REACTORS
330
35B
102
}
330
35B
100
AcDbXrecord
 10
0.0
 20
0.0
 30
0.0
  0
XRECORD
  5
371
102
{ACAD_REACTORS
330
35B
102
}
330
35B
100
AcDbXrecord
 10
0.0
 20
0.0
 30
0.0
  0
XRECORD
  5
36F
102
{ACAD_REACTORS
330
35B
102
}
330
35B
100
AcDbXrecord
 10
0.0
 20
0.0
 30
0.0
  0
XRECORD
  5
370
102
{ACAD_REACTORS
330
35B
102
}
330
35B
100
AcDbXrecord
 10
0.0
 20
0.0
 30
0.0
  0
XRECORD
  5
36D
102
{ACAD_REACTORS
330
35B
102
}
330
35B
100
AcDbXrecord
 10
0.0
 20
0.0
 30
0.0
  0
XRECORD
  5
36A
102
{ACAD_REACTORS
330
35B
102
}
330
35B
100
AcDbXrecord
340
0
  0
XRECORD
  5
36B
102
{ACAD_REACTORS
330
35B
102
}
330
35B
100
AcDbXrecord
 70
     0
  0
XRECORD
  5
35F
102
{ACAD_REACTORS
330
35B
102
}
330
35B
100
AcDbXrecord
  1

  0
XRECORD
  5
35C
102
{ACAD_REACTORS
330
35B
102
}
330
35B
100
AcDbXrecord
 90
        1
  0
XRECORD
  5
35D
102
{ACAD_REACTORS
330
35B
102
}
330
35B
100
AcDbXrecord
 90
       70
  0
XRECORD
  5
375
102
{ACAD_REACTORS
330
35B
102
}
330
35B
100
AcDbXrecord
340
0
  0
XRECORD
  5
37B
102
{ACAD_REACTORS
330
35B
102
}
330
35B
100
AcDbXrecord
 10
0.0
 20
0.0
 30
0.0
  0
XRECORD
  5
377
102
{ACAD_REACTORS
330
35B
102
}
330
35B
100
AcDbXrecord
 10
0.0
 20
0.0
 30
0.0
  0
XRECORD
  5
37A
102
{ACAD_REACTORS
330
35B
102
}
330
35B
100
AcDbXrecord
 10
0.0
 20
0.0
 30
0.0
  0
XRECORD
  5
378
102
{ACAD_REACTORS
330
35B
102
}
330
35B
100
AcDbXrecord
 10
0.0
 20
0.0
 30
0.0
  0
XRECORD
  5
379
102
{ACAD_REACTORS
330
35B
102
}
330
35B
100
AcDbXrecord
 10
0.0
 20
0.0
 30
0.0
  0
XRECORD
  5
376
102
{ACAD_REACTORS
330
35B
102
}
330
35B
100
AcDbXrecord
 10
0.0
 20
0.0
 30
0.0
  0
XRECORD
  5
373
102
{ACAD_REACTORS
330
35B
102
}
330
35B
100
AcDbXrecord
340
0
  0
XRECORD
  5
374
102
{ACAD_REACTORS
330
35B
102
}
330
35B
100
AcDbXrecord
 70
     0
  0
XRECORD
  5
367
102
{ACAD_REACTORS
330
35B
102
}
330
35B
100
AcDbXrecord
  1
{0C1923C8-E540-4062-B89C-CB50CFCA0A8D}
  0
DICTIONARYVAR
  5
227
102
{ACAD_REACTORS
330
226
102
}
330
226
100
DictionaryVariables
280
     0
  1
STANDARD
  0
DICTIONARYVAR
  5
24C
102
{ACAD_REACTORS
330
226
102
}
330
226
100
DictionaryVariables
280
     0
  1
1
  0
DICTIONARYVAR
  5
24B
102
{ACAD_REACTORS
330
226
102
}
330
226
100
DictionaryVariables
280
     0
  1
1
  0
DICTIONARYVAR
  5
24D
102
{ACAD_REACTORS
330
226
102
}
330
226
100
DictionaryVariables
280
     0
  1

  0
ENDSEC
  0
EOF
