  0
SECTION
  2
HEADER
  9
$ACADVER
  1
AC1014
  9
$ACADMAINTVER
 70
     9
  9
$DWGCODEPAGE
  3
ANSI_1252
  9
$INSBASE
 10
6.7686914167
 20
2.175113027328197
 30
0.0
  9
$EXTMIN
 10
-25.08141291372146
 20
-13.85746007965641
 30
-0.0015258207003583
  9
$EXTMAX
 10
40.92173980864413
 20
12.76870225483295
 30
0.0000000349246037
  9
$LIMMIN
 10
0.0
 20
0.0
  9
$LIMMAX
 10
17.0
 20
11.0
  9
$ORTHOMODE
 70
     1
  9
$REGENMODE
 70
     1
  9
$FILLMODE
 70
     1
  9
$QTEXTMODE
 70
     0
  9
$MIRRTEXT
 70
     1
  9
$DRAGMODE
 70
     2
  9
$LTSCALE
 40
2.0
  9
$OSMODE
 70
    55
  9
$ATTMODE
 70
     1
  9
$TEXTSIZE
 40
0.2
  9
$TRACEWID
 40
0.05
  9
$TEXTSTYLE
  7
STANDARD
  9
$CLAYER
  8
0
  9
$CELTYPE
  6
BYLAYER
  9
$CECOLOR
 62
   256
  9
$CELTSCALE
 40
1.0
  9
$DELOBJ
 70
     1
  9
$DISPSILH
 70
     0
  9
$DIMSCALE
 40
1.0
  9
$DIMASZ
 40
0.1875
  9
$DIMEXO
 40
0.0625
  9
$DIMDLI
 40
0.38
  9
$DIMRND
 40
0.0
  9
$DIMDLE
 40
0.0
  9
$DIMEXE
 40
0.18
  9
$DIMTP
 40
0.0
  9
$DIMTM
 40
0.0
  9
$DIMTXT
 40
0.125
  9
$DIMCEN
 40
0.09
  9
$DIMTSZ
 40
0.0
  9
$DIMTOL
 70
     0
  9
$DIMLIM
 70
     0
  9
$DIMTIH
 70
     1
  9
$DIMTOH
 70
     1
  9
$DIMSE1
 70
     0
  9
$DIMSE2
 70
     0
  9
$DIMTAD
 70
     0
  9
$DIMZIN
 70
     4
  9
$DIMBLK
  1
_FILLED
  9
$DIMASO
 70
     1
  9
$DIMSHO
 70
     1
  9
$DIMPOST
  1

  9
$DIMAPOST
  1

  9
$DIMALT
 70
     0
  9
$DIMALTD
 70
     2
  9
$DIMALTF
 40
25.4
  9
$DIMLFAC
 40
1.0
  9
$DIMTOFL
 70
     0
  9
$DIMTVP
 40
0.0
  9
$DIMTIX
 70
     0
  9
$DIMSOXD
 70
     0
  9
$DIMSAH
 70
     0
  9
$DIMBLK1
  1

  9
$DIMBLK2
  1

  9
$DIMSTYLE
  2
STANDARD
  9
$DIMCLRD
 70
     0
  9
$DIMCLRE
 70
     0
  9
$DIMCLRT
 70
     0
  9
$DIMTFAC
 40
1.0
  9
$DIMGAP
 40
0.09
  9
$DIMJUST
 70
     0
  9
$DIMSD1
 70
     0
  9
$DIMSD2
 70
     0
  9
$DIMTOLJ
 70
     1
  9
$DIMTZIN
 70
     4
  9
$DIMALTZ
 70
     0
  9
$DIMALTTZ
 70
     0
  9
$DIMFIT
 70
     3
  9
$DIMUPT
 70
     0
  9
$DIMUNIT
 70
     5
  9
$DIMDEC
 70
     4
  9
$DIMTDEC
 70
     4
  9
$DIMALTU
 70
     2
  9
$DIMALTTD
 70
     2
  9
$DIMTXSTY
  7
STANDARD
  9
$DIMAUNIT
 70
     0
  9
$LUNITS
 70
     2
  9
$LUPREC
 70
     4
  9
$SKETCHINC
 40
0.1
  9
$FILLETRAD
 40
0.0
  9
$AUNITS
 70
     0
  9
$AUPREC
 70
     0
  9
$MENU
  1
acad
  9
$ELEVATION
 40
0.0
  9
$PELEVATION
 40
0.0
  9
$THICKNESS
 40
0.0
  9
$LIMCHECK
 70
     0
  9
$BLIPMODE
 70
     0
  9
$CHAMFERA
 40
0.0
  9
$CHAMFERB
 40
0.0
  9
$CHAMFERC
 40
0.0
  9
$CHAMFERD
 40
0.0
  9
$SKPOLY
 70
     0
  9
$TDCREATE
 40
2453676.838151215
  9
$TDUPDATE
 40
2453685.566092280
  9
$TDINDWG
 40
0.0358677083
  9
$TDUSRTIMER
 40
0.0358677083
  9
$USRTIMER
 70
     1
  9
$ANGBASE
 50
0.0
  9
$ANGDIR
 70
     0
  9
$PDMODE
 70
     3
  9
$PDSIZE
 40
0.3125
  9
$PLINEWID
 40
0.0
  9
$COORDS
 70
     1
  9
$SPLFRAME
 70
     0
  9
$SPLINETYPE
 70
     6
  9
$SPLINESEGS
 70
     8
  9
$ATTDIA
 70
     0
  9
$ATTREQ
 70
     1
  9
$HANDLING
 70
 22529
  9
$HANDSEED
  5
250
  9
$SURFTAB1
 70
     6
  9
$SURFTAB2
 70
     6
  9
$SURFTYPE
 70
     6
  9
$SURFU
 70
     6
  9
$SURFV
 70
     6
  9
$UCSNAME
  2

  9
$UCSORG
 10
0.0
 20
0.0
 30
0.0
  9
$UCSXDIR
 10
1.0
 20
0.0
 30
0.0
  9
$UCSYDIR
 10
0.0
 20
1.0
 30
0.0
  9
$PUCSNAME
  2

  9
$PUCSORG
 10
0.0
 20
0.0
 30
0.0
  9
$PUCSXDIR
 10
1.0
 20
0.0
 30
0.0
  9
$PUCSYDIR
 10
0.0
 20
1.0
 30
0.0
  9
$USERI1
 70
     0
  9
$USERI2
 70
     0
  9
$USERI3
 70
     0
  9
$USERI4
 70
     0
  9
$USERI5
 70
     0
  9
$USERR1
 40
0.0
  9
$USERR2
 40
0.0
  9
$USERR3
 40
0.0
  9
$USERR4
 40
0.0
  9
$USERR5
 40
0.0
  9
$WORLDVIEW
 70
     1
  9
$SHADEDGE
 70
     3
  9
$SHADEDIF
 70
    70
  9
$TILEMODE
 70
     1
  9
$MAXACTVP
 70
    16
  9
$PINSBASE
 10
0.0
 20
0.0
 30
0.0
  9
$PLIMCHECK
 70
     0
  9
$PEXTMIN
 10
1.000000000000000E+20
 20
1.000000000000000E+20
 30
1.000000000000000E+20
  9
$PEXTMAX
 10
-1.000000000000000E+20
 20
-1.000000000000000E+20
 30
-1.000000000000000E+20
  9
$PLIMMIN
 10
0.0
 20
0.0
  9
$PLIMMAX
 10
12.0
 20
9.0
  9
$UNITMODE
 70
     0
  9
$VISRETAIN
 70
     0
  9
$PLINEGEN
 70
     1
  9
$PSLTSCALE
 70
     0
  9
$TREEDEPTH
 70
  3020
  9
$PICKSTYLE
 70
     1
  9
$CMLSTYLE
  2
STANDARD
  9
$CMLJUST
 70
     0
  9
$CMLSCALE
 40
1.0
  9
$PROXYGRAPHICS
 70
     0
  9
$MEASUREMENT
 70
     0
  0
ENDSEC
  0
SECTION
  2
CLASSES
  0
CLASS
  1
ACDBDICTIONARYWDFLT
  2
AcDbDictionaryWithDefault
  3
AutoCAD 2000
 90
        0
280
     0
281
     0
  0
CLASS
  1
ACDBPLACEHOLDER
  2
AcDbPlaceHolder
  3
AutoCAD 2000
 90
        0
280
     0
281
     0
  0
CLASS
  1
LAYOUT
  2
AcDbLayout
  3
AutoCAD 2000
 90
        0
280
     0
281
     0
  0
CLASS
  1
LWPOLYLINE
  2
AcDbPolyline
  3
AutoCAD 2000
 90
        0
280
     0
281
     1
  0
CLASS
  1
IMAGE
  2
AcDbRasterImage
  3
ISM
 90
      127
280
     0
281
     1
  0
CLASS
  1
OLE2FRAME
  2
AcDbOle2Frame
  3
AutoCAD 2000
 90
        0
280
     0
281
     1
  0
CLASS
  1
HATCH
  2
AcDbHatch
  3
AutoCAD 2000
 90
        0
280
     0
281
     1
  0
CLASS
  1
DICTIONARYVAR
  2
AcDbDictionaryVar
  3
AutoCAD 2000
 90
        0
280
     0
281
     0
  0
CLASS
  1
RASTERVARIABLES
  2
AcDbRasterVariables
  3
ISM
 90
        0
280
     0
281
     0
  0
CLASS
  1
IMAGEDEF
  2
AcDbRasterImageDef
  3
ISM
 90
        0
280
     0
281
     0
  0
CLASS
  1
IMAGEDEF_REACTOR
  2
AcDbRasterImageDefReactor
  3
ISM
 90
        1
280
     0
281
     0
  0
CLASS
  1
IDBUFFER
  2
AcDbIdBuffer
  3
AutoCAD 2000
 90
        0
280
     0
281
     0
  0
CLASS
  1
SPATIAL_FILTER
  2
AcDbSpatialFilter
  3
AutoCAD 2000
 90
        0
280
     0
281
     0
  0
CLASS
  1
XRECORD
  2
AcDbXrecord
  3
AutoCAD 2000
 90
        0
280
     0
281
     0
  0
CLASS
  1
SORTENTSTABLE
  2
AcDbSortentsTable
  3
AutoCAD 2000
 90
        0
280
     0
281
     0
  0
CLASS
  1
LAYER_INDEX
  2
AcDbLayerIndex
  3
AutoCAD 2000
 90
        0
280
     0
281
     0
  0
CLASS
  1
SPATIAL_INDEX
  2
AcDbSpatialIndex
  3
AutoCAD 2000
 90
        0
280
     0
281
     0
  0
CLASS
  1
OBJECT_PTR
  2
CAseDLPNTableRecord
  3
ASE-LPNTableRecord
 90
        1
280
     0
281
     0
  0
CLASS
  1
PLOTSETTINGS
  2
AcDbPlotSettings
  3
AutoCAD 2000
 90
        0
280
     0
281
     0
  0
CLASS
  1
VBA_PROJECT
  2
AcDbVbaProject
  3
acadvba
 90
        0
280
     0
281
     0
  0
CLASS
  1
WIPEOUT
  2
AcDbWipeout
  3
"WipeOut|Product Desc: Object Enabler for WipeOut entity^I^I^I^I^I^I|Company: Autodesk, Inc.^I^I^I^I^I^I|WEB Address: www.autodesk.com"
 90
      127
280
     0
281
     1
  0
CLASS
  1
WIPEOUTVARIABLES
  2
AcDbWipeoutVariables
  3
"WipeOut|Product Desc:     WipeOut Dbx Application|Company:          Autodesk, Inc.|WEB Address:      www.autodesk.com"
 90
        0
280
     0
281
     0
  0
CLASS
  1
RTEXT
  2
RText
  3
RText|AutoCAD Express Tool|expresstools@autodesk.com
 90
        0
280
     1
281
     1
  0
CLASS
  1
ARCALIGNEDTEXT
  2
AcDbArcAlignedText
  3
ATEXT|AutoCAD Express Tool|expresstools@autodesk.com
 90
        0
280
     1
281
     1
  0
CLASS
  1
TABLESTYLE
  2
AcDbTableStyle
  3
ObjectDBX Classes
 90
     2047
280
     0
281
     0
  0
CLASS
  1
ACAD_PROXY_OBJECT_WRAPPER
  2
AcDbProxyObjectWrapper
  3
AutoCAD 2000
 90
        0
280
     0
281
     0
  0
CLASS
  1
LONG_TRANSACTION
  2
AcDbLongTransaction
  3
AutoCAD 2000
 90
        0
280
     0
281
     0
  0
CLASS
  1
LWPOLYLINE
  2
AcDbPolyline
  3
AutoCAD 2000
 90
        0
280
     0
281
     1
  0
CLASS
  1
HATCH
  2
AcDbHatch
  3
AutoCAD 2000
 90
        0
280
     0
281
     1
  0
CLASS
  1
XRECORD
  2
AcDbXrecord
  3
AutoCAD 2000
 90
        0
280
     0
281
     0
  0
CLASS
  1
LONG_TRANSACTION
  2
AcDbLongTransaction
  3
AutoCAD 2000
 90
        0
280
     0
281
     0
  0
CLASS
  1
LWPOLYLINE
  2
AcDbPolyline
  3
AutoCAD 2000
 90
        0
280
     0
281
     1
  0
CLASS
  1
HATCH
  2
AcDbHatch
  3
AutoCAD 2000
 90
        0
280
     0
281
     1
  0
CLASS
  1
XRECORD
  2
AcDbXrecord
  3
AutoCAD 2000
 90
        0
280
     0
281
     0
  0
ENDSEC
  0
SECTION
  2
TABLES
  0
TABLE
  2
VPORT
  5
1E
330
0
100
AcDbSymbolTable
 70
     3
  0
VPORT
  5
22C
330
1E
100
AcDbSymbolTableRecord
100
AcDbViewportTableRecord
  2
*ACTIVE
 70
     0
 10
0.0
 20
0.0
 11
1.0
 21
1.0
 12
7.920163353274332
 22
-0.544378945012344
 13
0.0
 23
0.0
 14
1.0
 24
1.0
 15
0.0
 25
0.0
 16
0.0
 26
0.0
 36
1.0
 17
0.0
 27
0.0
 37
0.0
 40
43.4924834047997
 41
1.786792452830188
 42
50.0
 43
0.0
 44
0.0
 50
0.0
 51
0.0
 71
     0
 72
   100
 73
     1
 74
     1
 75
     0
 76
     0
 77
     0
 78
     0
  0
ENDTAB
  0
TABLE
  2
LTYPE
  5
19
330
0
100
AcDbSymbolTable
 70
     2
  0
LTYPE
  5
1A
330
19
100
AcDbSymbolTableRecord
100
AcDbLinetypeTableRecord
  2
BYBLOCK
 70
     0
  3

 72
    65
 73
     0
 40
0.0
  0
LTYPE
  5
1B
330
19
100
AcDbSymbolTableRecord
100
AcDbLinetypeTableRecord
  2
BYLAYER
 70
     0
  3

 72
    65
 73
     0
 40
0.0
  0
LTYPE
  5
8
330
19
100
AcDbSymbolTableRecord
100
AcDbLinetypeTableRecord
  2
CONTINUOUS
 70
     0
  3
Solid line
 72
    65
 73
     0
 40
0.0
  0
LTYPE
  5
BE
330
19
100
AcDbSymbolTableRecord
100
AcDbLinetypeTableRecord
  2
CENTER
 70
     0
  3
____ _ ____ _ ____ _ ____ _ ____ _ ____ _ ____
 72
    65
 73
     4
 40
0.6
 49
0.375
 74
     0
 49
-0.075
 74
     0
 49
0.075
 74
     0
 49
-0.075
 74
     0
  0
ENDTAB
  0
TABLE
  2
LAYER
  5
11
102
{ACAD_XDICTIONARY
360
12
102
}
330
0
100
AcDbSymbolTable
 70
     3
  0
LAYER
  5
6
330
11
100
AcDbSymbolTableRecord
100
AcDbLayerTableRecord
  2
0
 70
     0
 62
     7
  6
CONTINUOUS
  0
LAYER
  5
BD
330
11
100
AcDbSymbolTableRecord
100
AcDbLayerTableRecord
  2
CENTER
 70
     0
 62
     1
  6
CENTER
1001
ACAECLAYERSTANDARD
1000

1000

  0
LAYER
  5
117
330
11
100
AcDbSymbolTableRecord
100
AcDbLayerTableRecord
  2
DEFPOINTS
 70
     0
 62
     7
  6
CONTINUOUS
  0
ENDTAB
  0
TABLE
  2
STYLE
  5
16
330
0
100
AcDbSymbolTable
 70
     1
  0
STYLE
  5
17
330
16
100
AcDbSymbolTableRecord
100
AcDbTextStyleTableRecord
  2
STANDARD
 70
     0
 40
0.0
 41
0.8
 50
0.0
 71
     0
 42
0.2
  3
txt
  4

  0
ENDTAB
  0
TABLE
  2
VIEW
  5
1C
330
0
100
AcDbSymbolTable
 70
     0
  0
ENDTAB
  0
TABLE
  2
UCS
  5
1D
330
0
100
AcDbSymbolTable
 70
     0
  0
ENDTAB
  0
TABLE
  2
APPID
  5
20
330
0
100
AcDbSymbolTable
 70
     4
  0
APPID
  5
15
330
20
100
AcDbSymbolTableRecord
100
AcDbRegAppTableRecord
  2
ACAD
 70
     0
  0
APPID
  5
BF
330
20
100
AcDbSymbolTableRecord
100
AcDbRegAppTableRecord
  2
ACAECLAYERSTANDARD
 70
     0
  0
APPID
  5
EA
330
20
100
AcDbSymbolTableRecord
100
AcDbRegAppTableRecord
  2
DCO15
 70
     0
  0
APPID
  5
F2
330
20
100
AcDbSymbolTableRecord
100
AcDbRegAppTableRecord
  2
ACAD_DSTYLE_DIMTEXT_FILL
 70
     0
  0
ENDTAB
  0
TABLE
  2
DIMSTYLE
  5
21
330
0
100
AcDbSymbolTable
 70
     1
  0
DIMSTYLE
105
22
330
21
100
AcDbSymbolTableRecord
100
AcDbDimStyleTableRecord
  2
STANDARD
 70
     0
  3

  4

  5
_FILLED
  6

  7

 40
1.0
 41
0.1875
 42
0.0625
 43
0.38
 44
0.18
 45
0.0
 46
0.0
 47
0.0
 48
0.0
140
0.125
141
0.09
142
0.0
143
25.4
144
1.0
145
0.0
146
1.0
147
0.09
 71
     0
 72
     0
 73
     1
 74
     1
 75
     0
 76
     0
 77
     0
 78
     4
170
     0
171
     2
172
     0
173
     0
174
     0
175
     0
176
     0
177
     0
178
     0
270
     5
271
     4
272
     4
273
     2
274
     2
340
17
275
     0
280
     0
281
     0
282
     0
283
     1
284
     4
285
     0
286
     0
287
     3
288
     0
  0
ENDTAB
  0
TABLE
  2
BLOCK_RECORD
  5
1
330
0
100
AcDbSymbolTable
 70
     7
  0
BLOCK_RECORD
  5
2
102
{ACAD_XDICTIONARY
360
3
102
}
330
1
100
AcDbSymbolTableRecord
100
AcDbBlockTableRecord
  2
*MODEL_SPACE
  0
BLOCK_RECORD
  5
D
102
{ACAD_XDICTIONARY
360
156
102
}
330
1
100
AcDbSymbolTableRecord
100
AcDbBlockTableRecord
  2
*PAPER_SPACE
  0
BLOCK_RECORD
  5
23
330
1
100
AcDbSymbolTableRecord
100
AcDbBlockTableRecord
  2
_FILLED
  0
BLOCK_RECORD
  5
16B
330
1
100
AcDbSymbolTableRecord
100
AcDbBlockTableRecord
  2
*D1
  0
BLOCK_RECORD
  5
179
330
1
100
AcDbSymbolTableRecord
100
AcDbBlockTableRecord
  2
*D2
  0
BLOCK_RECORD
  5
1A9
330
1
100
AcDbSymbolTableRecord
100
AcDbBlockTableRecord
  2
*D3
  0
BLOCK_RECORD
  5
1B7
330
1
100
AcDbSymbolTableRecord
100
AcDbBlockTableRecord
  2
*D4
  0
BLOCK_RECORD
  5
1C5
330
1
100
AcDbSymbolTableRecord
100
AcDbBlockTableRecord
  2
*D5
  0
BLOCK_RECORD
  5
1E7
330
1
100
AcDbSymbolTableRecord
100
AcDbBlockTableRecord
  2
*D6
  0
ENDTAB
  0
ENDSEC
  0
SECTION
  2
BLOCKS
  0
BLOCK
  5
5
330
2
100
AcDbEntity
  8
0
100
AcDbBlockBegin
  2
*MODEL_SPACE
 70
     0
 10
0.0
 20
0.0
 30
0.0
  3
*MODEL_SPACE
  1

  0
ENDBLK
  5
9
330
2
100
AcDbEntity
  8
0
100
AcDbBlockEnd
  0
BLOCK
  5
E
330
D
100
AcDbEntity
 67
     1
  8
0
100
AcDbBlockBegin
  2
*PAPER_SPACE
 70
     0
 10
0.0
 20
0.0
 30
0.0
  3
*PAPER_SPACE
  1

  0
ENDBLK
  5
F
330
D
100
AcDbEntity
 67
     1
  8
0
100
AcDbBlockEnd
  0
BLOCK
  5
24
330
23
100
AcDbEntity
  8
0
100
AcDbBlockBegin
  2
_FILLED
 70
     0
 10
0.0
 20
0.0
 30
0.0
  3
_FILLED
  1

  0
SOLID
  5
25
330
23
100
AcDbEntity
  8
0
  6
BYBLOCK
 62
     0
100
AcDbTrace
 10
0.0
 20
0.0
 30
0.0
 11
-1.0
 21
0.1066666667
 31
0.0
 12
-1.0
 22
-0.1066666667
 32
0.0
 13
-1.0
 23
-0.1066666667
 33
0.0
  0
ENDBLK
  5
26
330
23
100
AcDbEntity
  8
0
  6
BYBLOCK
 62
     0
100
AcDbBlockEnd
  0
BLOCK
  5
176
330
16B
100
AcDbEntity
  8
0
100
AcDbBlockBegin
  2
*D1
 70
     1
 10
0.0
 20
0.0
 30
0.0
  3
*D1
  1

  0
LINE
  5
16C
330
16B
100
AcDbEntity
  8
0
 62
     0
100
AcDbLine
 10
30.24909045429999
 20
8.828699607999997
 30
0.0
 11
-51.61436902725585
 21
8.82869960800002
 31
0.0
  0
LINE
  5
16D
330
16B
100
AcDbEntity
  8
0
 62
     0
100
AcDbLine
 10
30.24909045429999
 20
-10.671300392
 30
0.0
 11
-51.61436902725585
 21
-10.67130039199998
 31
0.0
  0
LINE
  5
16E
330
16B
100
AcDbEntity
  8
0
 62
     0
100
AcDbLine
 10
-51.43436902725584
 20
8.64119960800002
 30
0.0
 11
-51.43436902725584
 21
-0.7688003919999789
 31
0.0
  0
LINE
  5
16F
330
16B
100
AcDbEntity
  8
0
 62
     0
100
AcDbLine
 10
-51.43436902725584
 20
-10.48380039199998
 30
0.0
 11
-51.43436902725584
 21
-1.073800391999979
 31
0.0
  0
INSERT
  5
170
330
16B
100
AcDbEntity
  8
0
 62
     0
100
AcDbBlockReference
  2
_FILLED
 10
-51.43436902725584
 20
8.82869960800002
 30
0.0
 41
0.1875
 42
0.1875
 43
0.1875
 50
90.0
  0
INSERT
  5
171
330
16B
100
AcDbEntity
  8
0
 62
     0
100
AcDbBlockReference
  2
_FILLED
 10
-51.43436902725584
 20
-10.67130039199998
 30
0.0
 41
0.1875
 42
0.1875
 43
0.1875
 50
270.0
  0
MTEXT
  5
172
330
16B
100
AcDbEntity
  8
0
 62
     0
100
AcDbMText
 10
-51.43436902725584
 20
-0.921300391999987
 30
0.0
 40
0.125
 41
0.0
 71
     5
 72
     1
  1
\A1;20
1001
ACAD
1000
MTEXTBEGIN
1070
    73
1070
     1
1070
    44
1040
1.0
1070
    74
1070
     0
1000
MTEXTEND
  0
POINT
  5
173
330
16B
100
AcDbEntity
  8
DEFPOINTS
 62
     0
100
AcDbPoint
 10
30.31159045429999
 20
8.828699607999997
 30
0.0
  0
POINT
  5
174
330
16B
100
AcDbEntity
  8
DEFPOINTS
 62
     0
100
AcDbPoint
 10
30.31159045429999
 20
-10.671300392
 30
0.0
  0
POINT
  5
175
330
16B
100
AcDbEntity
  8
DEFPOINTS
 62
     0
100
AcDbPoint
 10
-51.43436902725584
 20
-10.67130039199998
 30
0.0
  0
ENDBLK
  5
177
330
16B
100
AcDbEntity
  8
0
100
AcDbBlockEnd
  0
BLOCK
  5
184
330
179
100
AcDbEntity
  8
0
100
AcDbBlockBegin
  2
*D2
 70
     1
 10
0.0
 20
0.0
 30
0.0
  3
*D2
  1

  0
LINE
  5
19E
330
179
100
AcDbEntity
  8
0
 62
     0
100
AcDbLine
 10
30.24909045429999
 20
12.45369960799999
 30
0.0
 11
-36.14189644672109
 21
12.45369960800001
 31
0.0
  0
LINE
  5
19F
330
179
100
AcDbEntity
  8
0
 62
     0
100
AcDbLine
 10
30.24909045429999
 20
10.32869960799999
 30
0.0
 11
-36.14189644672109
 21
10.32869960800001
 31
0.0
  0
LINE
  5
1A0
330
179
100
AcDbEntity
  8
0
 62
     0
100
AcDbLine
 10
-35.96189644672108
 20
12.26619960800001
 30
0.0
 11
-35.96189644672108
 21
11.54369960800001
 31
0.0
  0
LINE
  5
1A1
330
179
100
AcDbEntity
  8
0
 62
     0
100
AcDbLine
 10
-35.96189644672108
 20
10.51619960800001
 30
0.0
 11
-35.96189644672108
 21
11.23869960800001
 31
0.0
  0
INSERT
  5
1A2
330
179
100
AcDbEntity
  8
0
 62
     0
100
AcDbBlockReference
  2
_FILLED
 10
-35.96189644672108
 20
12.45369960800001
 30
0.0
 41
0.1875
 42
0.1875
 43
0.1875
 50
90.0
  0
INSERT
  5
1A3
330
179
100
AcDbEntity
  8
0
 62
     0
100
AcDbBlockReference
  2
_FILLED
 10
-35.96189644672108
 20
10.32869960800001
 30
0.0
 41
0.1875
 42
0.1875
 43
0.1875
 50
270.0
  0
MTEXT
  5
1A4
330
179
100
AcDbEntity
  8
0
 62
     0
100
AcDbMText
 10
-35.96189644672108
 20
11.39119960800001
 30
0.0
 40
0.125
 41
0.0
 71
     5
 72
     1
  1
\A1;2
1001
ACAD
1000
MTEXTBEGIN
1070
    73
1070
     1
1070
    44
1040
1.0
1070
    74
1070
     0
1000
MTEXTEND
  0
POINT
  5
1A5
330
179
100
AcDbEntity
  8
DEFPOINTS
 62
     0
100
AcDbPoint
 10
30.31159045429999
 20
12.45369960799999
 30
0.0
  0
POINT
  5
1A6
330
179
100
AcDbEntity
  8
DEFPOINTS
 62
     0
100
AcDbPoint
 10
30.31159045429999
 20
10.32869960799999
 30
0.0
  0
POINT
  5
1A7
330
179
100
AcDbEntity
  8
DEFPOINTS
 62
     0
100
AcDbPoint
 10
-35.96189644672108
 20
10.32869960800001
 30
0.0
  0
ENDBLK
  5
185
330
179
100
AcDbEntity
  8
0
100
AcDbBlockEnd
  0
BLOCK
  5
1B4
330
1A9
100
AcDbEntity
  8
0
100
AcDbBlockBegin
  2
*D3
 70
     1
 10
0.0
 20
0.0
 30
0.0
  3
*D3
  1

  0
LINE
  5
1D2
330
1A9
100
AcDbEntity
  8
0
 62
     0
100
AcDbLine
 10
30.24909045429999
 20
12.45369960799999
 30
0.0
 11
-36.29409236671455
 21
12.45369960800001
 31
0.0
  0
LINE
  5
1D3
330
1A9
100
AcDbEntity
  8
0
 62
     0
100
AcDbLine
 10
30.24909045429999
 20
10.32869960799999
 30
0.0
 11
-36.29409236671455
 21
10.32869960800001
 31
0.0
  0
LINE
  5
1D4
330
1A9
100
AcDbEntity
  8
0
 62
     0
100
AcDbLine
 10
-36.11409236671454
 20
12.26619960800001
 30
0.0
 11
-36.11409236671454
 21
11.62703294133335
 31
0.0
  0
LINE
  5
1D5
330
1A9
100
AcDbEntity
  8
0
 62
     0
100
AcDbLine
 10
-36.11409236671454
 20
10.51619960800001
 30
0.0
 11
-36.11409236671454
 21
11.15536627466668
 31
0.0
  0
INSERT
  5
1D6
330
1A9
100
AcDbEntity
  8
0
 62
     0
100
AcDbBlockReference
  2
_FILLED
 10
-36.11409236671454
 20
12.45369960800001
 30
0.0
 41
0.1875
 42
0.1875
 43
0.1875
 50
90.0
  0
INSERT
  5
1D7
330
1A9
100
AcDbEntity
  8
0
 62
     0
100
AcDbBlockReference
  2
_FILLED
 10
-36.11409236671454
 20
10.32869960800001
 30
0.0
 41
0.1875
 42
0.1875
 43
0.1875
 50
270.0
  0
MTEXT
  5
1D8
330
1A9
100
AcDbEntity
  8
0
 62
     0
100
AcDbMText
 10
-36.11409236671454
 20
11.39119960800001
 30
0.0
 40
0.125
 41
0.0
 71
     5
 72
     1
  1
\A1;2{\H1.000000x;\S1/8;}
1001
ACAD
1000
MTEXTBEGIN
1070
    73
1070
     1
1070
    44
1040
1.0
1070
    74
1070
     0
1000
MTEXTEND
  0
POINT
  5
1D9
330
1A9
100
AcDbEntity
  8
DEFPOINTS
 62
     0
100
AcDbPoint
 10
30.31159045429999
 20
12.45369960799999
 30
0.0
  0
POINT
  5
1DA
330
1A9
100
AcDbEntity
  8
DEFPOINTS
 62
     0
100
AcDbPoint
 10
30.31159045429999
 20
10.32869960799999
 30
0.0
  0
POINT
  5
1DB
330
1A9
100
AcDbEntity
  8
DEFPOINTS
 62
     0
100
AcDbPoint
 10
-36.11409236671454
 20
10.32869960800001
 30
0.0
  0
ENDBLK
  5
1B5
330
1A9
100
AcDbEntity
  8
0
100
AcDbBlockEnd
  0
BLOCK
  5
1C2
330
1B7
100
AcDbEntity
  8
0
100
AcDbBlockBegin
  2
*D4
 70
     1
 10
0.0
 20
0.0
 30
0.0
  3
*D4
  1

  0
LINE
  5
1DC
330
1B7
100
AcDbEntity
  8
0
 62
     0
100
AcDbLine
 10
30.24909045429999
 20
10.32869960799999
 30
0.0
 11
-36.54425992902449
 21
10.32869960800001
 31
0.0
  0
LINE
  5
1DD
330
1B7
100
AcDbEntity
  8
0
 62
     0
100
AcDbLine
 10
30.24909045429999
 20
8.828699607999997
 30
0.0
 11
-36.54425992902449
 21
8.828699608000016
 31
0.0
  0
LINE
  5
1DE
330
1B7
100
AcDbEntity
  8
0
 62
     0
100
AcDbLine
 10
-36.36425992902448
 20
10.14119960800001
 30
0.0
 11
-36.36425992902448
 21
9.81453294133335
 31
0.0
  0
LINE
  5
1DF
330
1B7
100
AcDbEntity
  8
0
 62
     0
100
AcDbLine
 10
-36.36425992902448
 20
9.016199608000016
 30
0.0
 11
-36.36425992902448
 21
9.342866274666683
 31
0.0
  0
INSERT
  5
1E0
330
1B7
100
AcDbEntity
  8
0
 62
     0
100
AcDbBlockReference
  2
_FILLED
 10
-36.36425992902448
 20
10.32869960800001
 30
0.0
 41
0.1875
 42
0.1875
 43
0.1875
 50
90.0
  0
INSERT
  5
1E1
330
1B7
100
AcDbEntity
  8
0
 62
     0
100
AcDbBlockReference
  2
_FILLED
 10
-36.36425992902448
 20
8.828699608000016
 30
0.0
 41
0.1875
 42
0.1875
 43
0.1875
 50
270.0
  0
MTEXT
  5
1E2
330
1B7
100
AcDbEntity
  8
0
 62
     0
100
AcDbMText
 10
-36.36425992902448
 20
9.578699608000009
 30
0.0
 40
0.125
 41
0.0
 71
     5
 72
     1
  1
\A1;1{\H1.000000x;\S1/2;}
1001
ACAD
1000
MTEXTBEGIN
1070
    73
1070
     1
1070
    44
1040
1.0
1070
    74
1070
     0
1000
MTEXTEND
  0
POINT
  5
1E3
330
1B7
100
AcDbEntity
  8
DEFPOINTS
 62
     0
100
AcDbPoint
 10
30.31159045429999
 20
10.32869960799999
 30
0.0
  0
POINT
  5
1E4
330
1B7
100
AcDbEntity
  8
DEFPOINTS
 62
     0
100
AcDbPoint
 10
30.31159045429999
 20
8.828699607999997
 30
0.0
  0
POINT
  5
1E5
330
1B7
100
AcDbEntity
  8
DEFPOINTS
 62
     0
100
AcDbPoint
 10
-36.36425992902448
 20
8.828699608000016
 30
0.0
  0
ENDBLK
  5
1C3
330
1B7
100
AcDbEntity
  8
0
100
AcDbBlockEnd
  0
BLOCK
  5
1D0
330
1C5
100
AcDbEntity
  8
0
100
AcDbBlockBegin
  2
*D5
 70
     1
 10
0.0
 20
0.0
 30
0.0
  3
*D5
  1

  0
LINE
  5
1C6
330
1C5
100
AcDbEntity
  8
0
 62
     0
100
AcDbLine
 10
30.24909045429999
 20
8.828699607999997
 30
0.0
 11
-43.25610730707734
 21
8.828699608000018
 31
0.0
  0
LINE
  5
1C7
330
1C5
100
AcDbEntity
  8
0
 62
     0
100
AcDbLine
 10
30.24909045429999
 20
-10.671300392
 30
0.0
 11
-43.25610730707733
 21
-10.67130039199998
 31
0.0
  0
LINE
  5
1C8
330
1C5
100
AcDbEntity
  8
0
 62
     0
100
AcDbLine
 10
-43.07610730707733
 20
8.641199608000018
 30
0.0
 11
-43.07610730707733
 21
-0.6854670586666474
 31
0.0
  0
LINE
  5
1C9
330
1C5
100
AcDbEntity
  8
0
 62
     0
100
AcDbLine
 10
-43.07610730707733
 20
-10.48380039199998
 30
0.0
 11
-43.07610730707733
 21
-1.157133725333314
 31
0.0
  0
INSERT
  5
1CA
330
1C5
100
AcDbEntity
  8
0
 62
     0
100
AcDbBlockReference
  2
_FILLED
 10
-43.07610730707733
 20
8.828699608000018
 30
0.0
 41
0.1875
 42
0.1875
 43
0.1875
 50
90.0
  0
INSERT
  5
1CB
330
1C5
100
AcDbEntity
  8
0
 62
     0
100
AcDbBlockReference
  2
_FILLED
 10
-43.07610730707733
 20
-10.67130039199998
 30
0.0
 41
0.1875
 42
0.1875
 43
0.1875
 50
270.0
  0
MTEXT
  5
1CC
330
1C5
100
AcDbEntity
  8
0
 62
     0
100
AcDbMText
 10
-43.07610730707733
 20
-0.9213003919999875
 30
0.0
 40
0.125
 41
0.0
 71
     5
 72
     1
  1
\A1;1'-7{\H1.000000x;\S1/2;}"
1001
ACAD
1000
MTEXTBEGIN
1070
    73
1070
     1
1070
    44
1040
1.0
1070
    74
1070
     0
1000
MTEXTEND
  0
POINT
  5
1CD
330
1C5
100
AcDbEntity
  8
DEFPOINTS
 62
     0
100
AcDbPoint
 10
30.31159045429999
 20
8.828699607999997
 30
0.0
  0
POINT
  5
1CE
330
1C5
100
AcDbEntity
  8
DEFPOINTS
 62
     0
100
AcDbPoint
 10
30.31159045429999
 20
-10.671300392
 30
0.0
  0
POINT
  5
1CF
330
1C5
100
AcDbEntity
  8
DEFPOINTS
 62
     0
100
AcDbPoint
 10
-43.07610730707733
 20
-10.67130039199998
 30
0.0
  0
ENDBLK
  5
1D1
330
1C5
100
AcDbEntity
  8
0
100
AcDbBlockEnd
  0
BLOCK
  5
1F2
330
1E7
100
AcDbEntity
  8
0
100
AcDbBlockBegin
  2
*D6
 70
     1
 10
0.0
 20
0.0
 30
0.0
  3
*D6
  1

  0
LINE
  5
1E8
330
1E7
100
AcDbEntity
  8
0
 62
     0
100
AcDbLine
 10
30.24909045429999
 20
8.828699607999997
 30
0.0
 11
-38.51244363009584
 21
8.828699608000016
 31
0.0
  0
LINE
  5
1E9
330
1E7
100
AcDbEntity
  8
0
 62
     0
100
AcDbLine
 10
30.24909045429999
 20
-10.671300392
 30
0.0
 11
-38.51244363009584
 21
-10.67130039199998
 31
0.0
  0
LINE
  5
1EA
330
1E7
100
AcDbEntity
  8
0
 62
     0
100
AcDbLine
 10
-38.33244363009583
 20
8.641199608000016
 30
0.0
 11
-38.33244363009583
 21
-0.6854670586666502
 31
0.0
  0
LINE
  5
1EB
330
1E7
100
AcDbEntity
  8
0
 62
     0
100
AcDbLine
 10
-38.33244363009583
 20
-10.48380039199998
 30
0.0
 11
-38.33244363009583
 21
-1.157133725333316
 31
0.0
  0
INSERT
  5
1EC
330
1E7
100
AcDbEntity
  8
0
 62
     0
100
AcDbBlockReference
  2
_FILLED
 10
-38.33244363009583
 20
8.828699608000016
 30
0.0
 41
0.1875
 42
0.1875
 43
0.1875
 50
90.0
  0
INSERT
  5
1ED
330
1E7
100
AcDbEntity
  8
0
 62
     0
100
AcDbBlockReference
  2
_FILLED
 10
-38.33244363009583
 20
-10.67130039199998
 30
0.0
 41
0.1875
 42
0.1875
 43
0.1875
 50
270.0
  0
MTEXT
  5
1EE
330
1E7
100
AcDbEntity
  8
0
 62
     0
100
AcDbMText
 10
-38.33244363009583
 20
-0.9213003919999897
 30
0.0
 40
0.125
 41
0.0
 71
     5
 72
     1
  1
\A1;19{\H1.000000x;\S1/2;}
1001
ACAD
1000
MTEXTBEGIN
1070
    73
1070
     1
1070
    44
1040
1.0
1070
    74
1070
     0
1000
MTEXTEND
  0
POINT
  5
1EF
330
1E7
100
AcDbEntity
  8
DEFPOINTS
 62
     0
100
AcDbPoint
 10
30.31159045429999
 20
8.828699607999997
 30
0.0
  0
POINT
  5
1F0
330
1E7
100
AcDbEntity
  8
DEFPOINTS
 62
     0
100
AcDbPoint
 10
30.31159045429999
 20
-10.671300392
 30
0.0
  0
POINT
  5
1F1
330
1E7
100
AcDbEntity
  8
DEFPOINTS
 62
     0
100
AcDbPoint
 10
-38.33244363009583
 20
-10.67130039199998
 30
0.0
  0
ENDBLK
  5
1F3
330
1E7
100
AcDbEntity
  8
0
100
AcDbBlockEnd
  0
ENDSEC
  0
SECTION
  2
ENTITIES
  0
LWPOLYLINE
  5
32
330
2
100
AcDbEntity
  8
0
100
AcDbPolyline
 90
       19
 70
     0
 43
0.0
 10
-22.2932317745
 20
11.43488631999999
 10
-22.48557641610001
 20
11.73755946879999
 10
-22.5174849377
 20
11.78704864959999
 10
-22.55005938890001
 20
11.83602174879999
 10
-22.58364289450001
 20
11.88420255999999
 10
-22.6185785713
 20
11.93131487519999
 10
-22.6552095441
 20
11.97708249119999
 10
-22.6931855393
 20
12.02059253599999
 10
-22.7330305137
 20
12.06250066719999
 10
-22.7746381841
 20
12.10277565919999
 10
-22.8179022641
 20
12.14138628799999
 10
-22.8627164705
 20
12.17830132959999
 10
-22.9205231601
 20
12.22184901439999
 10
-22.98036321770001
 20
12.26265914879999
 10
-23.0420314625
 20
12.30067145439999
 10
-23.1053227137
 20
12.33582564959999
 10
-23.1700317873
 20
12.36806145599999
 10
-23.2429502809
 20
12.39201474479999
 10
-23.3688043553
 20
12.42361253679999
  0
LWPOLYLINE
  5
33
330
2
100
AcDbEntity
  8
0
100
AcDbPolyline
 90
       14
 70
     0
 43
0.0
 10
-20.75481330081947
 20
8.828699607999997
 10
-20.8544898049
 20
9.025022598399992
 10
-20.94846785930001
 20
9.20411623679999
 10
-21.0445200593
 20
9.381737366399995
 10
-21.1424859249
 20
9.558017828799997
 10
-21.2422049761
 20
9.733089465599995
 10
-21.3435167345
 20
9.907084118399993
 10
-21.4462607185
 20
10.08013362879999
 10
-21.5502764497
 20
10.25236983839999
 10
-21.6554034449
 20
10.42392459039999
 10
-21.8130321473
 20
10.67740320799999
 10
-21.9722288593
 20
10.93010290719999
 10
-22.1324699473
 20
11.18245388159998
 10
-22.2932317745
 20
11.43488631999999
  0
LWPOLYLINE
  5
34
330
2
100
AcDbEntity
  8
0
100
AcDbPolyline
 90
        6
 70
     0
 43
0.0
 10
-19.3386250625
 20
5.722562156799995
 10
-19.36812853450001
 20
5.783022329599994
 10
-19.3752607473
 20
5.797737590399997
 10
-19.3810190945
 20
5.809751969599993
 10
-19.3853681425
 20
5.819031494399993
 10
-19.3882664321
 20
5.825529483199993
  0
LWPOLYLINE
  5
35
330
2
100
AcDbEntity
  8
0
100
AcDbPolyline
 90
       55
 70
     0
 43
0.0
 10
-16.8807430065
 20
-1.804627452800005
 10
-16.9743576689
 20
-1.417210049600008
 10
-17.0658533233
 20
-1.048437713600009
 10
-17.1520847073
 20
-0.710331212800007
 10
-17.23359044330001
 20
-0.3992244992000096
 10
-17.3146717825
 20
-0.0974075664000083
 10
-17.3935158401
 20
0.1892546591999959
 10
-17.4712513441
 20
0.4657134031999917
 10
-17.5480504433
 20
0.7331412063999921
 10
-17.6271576305
 20
1.002979815999992
 10
-17.7051587809
 20
1.263734465599995
 10
-17.7809466417
 20
1.512279900799995
 10
-17.85355929930001
 20
1.746152308799992
 10
-17.92532294410001
 20
1.973360982399995
 10
-17.9933076321
 20
2.185137646399994
 10
-18.0590268817
 20
2.38675263839999
 10
-18.1231468129
 20
2.580624358399994
 10
-18.18460100650001
 20
2.763890675199995
 10
-18.2449611553
 20
2.941539735999995
 10
-18.3019946353
 20
3.107311185599996
 10
-18.35555127530001
 20
3.261167695999994
 10
-18.4081533953
 20
3.410615183999993
 10
-18.4569321777
 20
3.547754553599993
 10
-18.5039867569
 20
3.678750628799996
 10
-18.5494796689
 20
3.804207892799993
 10
-18.5919710433
 20
3.920319044799995
 10
-18.6337958737
 20
4.033586998399997
 10
-18.6736884129
 20
4.140667239999991
 10
-18.7120654833
 20
4.24279221599999
 10
-18.75000894250001
 20
4.342902419199994
 10
-18.78667670570001
 20
4.438830419199994
 10
-18.8224341073
 20
4.531601996799992
 10
-18.8573211393
 20
4.621376617599992
 10
-18.8893822801
 20
4.703195980799996
 10
-18.92058867850001
 20
4.782065670399994
 10
-18.9492557857
 20
4.853719279999992
 10
-18.97582080490001
 20
4.919326479999995
 10
-19.0014649921
 20
4.98176957279999
 10
-19.0250721233
 20
5.038348846399991
 10
-19.0481029377
 20
5.092606068799995
 10
-19.07034899210001
 20
5.14413756639999
 10
-19.09232728330001
 20
5.194297990399995
 10
-19.1140145313
 20
5.243151417599996
 10
-19.13556252490001
 20
5.29114324959999
 10
-19.15712860330001
 20
5.338676609599993
 10
-19.1783752513
 20
5.385046679999994
 10
-19.1999433153
 20
5.431681276799992
 10
-19.2210476289
 20
5.476914083199993
 10
-19.2416921857
 20
5.52080073119999
 10
-19.2613284913
 20
5.562224771199993
 10
-19.2798139473
 20
5.600949196799994
 10
-19.29675401770001
 20
5.63621384959999
 10
-19.3121439201
 20
5.668079780799992
 10
-19.3261425297
 20
5.696930705599996
 10
-19.3386250625
 20
5.722562156799995
  0
LWPOLYLINE
  5
36
330
2
100
AcDbEntity
  8
0
100
AcDbPolyline
 90
       11
 70
     0
 43
0.0
 10
-16.07318198250001
 20
-5.507941336000008
 10
-16.1331434033
 20
-5.210299838400004
 10
-16.2022542257
 20
-4.865906620800004
 10
-16.2831782481
 20
-4.469516091200006
 10
-16.3588907889
 20
-4.108354932800004
 10
-16.4468110689
 20
-3.699718467200007
 10
-16.5479851473
 20
-3.241882480000008
 10
-16.65957383530001
 20
-2.749638817600008
 10
-16.7725908337
 20
-2.261846963200007
 10
-16.8263322113
 20
-2.033150070400004
 10
-16.8807622465
 20
-1.804616726400006
  0
LWPOLYLINE
  5
37
330
2
100
AcDbEntity
  8
0
100
AcDbPolyline
 90
       42
 70
     0
 43
0.0
 10
1.304739003099996
 20
5.84979866239999
 10
1.307724687899991
 20
5.840657775999993
 10
1.310921347099991
 20
5.831587127999995
 10
1.314324214299986
 20
5.822591406399993
 10
1.318042483099986
 20
5.813402351999997
 10
1.321970044699995
 20
5.804301147199993
 10
1.32610218229999
 20
5.795291057599996
 10
1.330566059099993
 20
5.786111579199996
 10
1.335236775899986
 20
5.777035455999993
 10
1.340109247899988
 20
5.768065966399994
 10
1.345336236699992
 20
5.758937548799991
 10
1.350766806299986
 20
5.749928756799995
 10
1.356395673499989
 20
5.741042494399991
 10
1.36238263989999
 20
5.732039151999991
 10
1.368568108699989
 20
5.723170972799991
 10
1.374946651099989
 20
5.714440596799995
 10
1.381698518299998
 20
5.70561323359999
 10
1.388643095899993
 20
5.696936633599996
 10
1.395774843099999
 20
5.68841317919999
 10
1.403273643099993
 20
5.679837724799995
 10
1.410957700699995
 20
5.671427839999992
 10
1.418821431899999
 20
5.66318567839999
 10
1.427052508699986
 20
5.654923491199994
 10
1.435460457499999
 20
5.646841335999994
 10
1.444039678299986
 20
5.638941190399997
 10
1.452954687899989
 20
5.631078163199994
 10
1.46203627349999
 20
5.623408113599992
 10
1.471278897499999
 20
5.615932868799994
 10
1.480847894299998
 20
5.608524833599993
 10
1.490572558299987
 20
5.601322342399996
 10
1.500447406299997
 20
5.59432714399999
 10
1.510609598299993
 20
5.587446588799991
 10
1.520915209499989
 20
5.58078275039999
 10
1.531358843099994
 20
5.574337350399993
 10
1.54202839669999
 20
5.568058534399995
 10
1.552827638299987
 20
5.56200549599999
 10
1.56375129909999
 20
5.556179972799995
 10
1.57483378549999
 20
5.550564142399991
 10
1.586031147099987
 20
5.545181012799993
 10
1.597338262299999
 20
5.540032388799993
 10
1.610683428699999
 20
5.534315529599993
 10
1.624163484699991
 20
5.528924415999995
  0
LWPOLYLINE
  5
38
330
2
100
AcDbEntity
  8
0
100
AcDbPolyline
 90
        5
 70
     0
 43
0.0
 10
1.304739003099996
 20
5.84979866239999
 10
1.294365822299994
 20
5.882972499199993
 10
1.284057254299995
 20
5.916166487999994
 10
1.273775443099992
 20
5.949502943999995
 10
1.263558331099986
 20
5.982859268799991
  0
LWPOLYLINE
  5
39
330
2
100
AcDbEntity
  8
0
100
AcDbPolyline
 90
       48
 70
     0
 43
0.0
 10
3.749033830299993
 20
6.747700521599995
 10
3.800203372699996
 20
6.714817025599991
 10
3.852657076699998
 20
6.685722057599996
 10
3.906257785499988
 20
6.660043991999991
 10
3.960868345499989
 20
6.637411201599995
 10
4.016351598299991
 20
6.61745205919999
 10
4.072570391899986
 20
6.599794937599995
 10
4.129387567899996
 20
6.58406820799999
 10
4.186665972699998
 20
6.569900246399996
 10
4.241242444699992
 20
6.557576526399991
 10
4.382487863899996
 20
6.529418382399995
 10
4.524699110299991
 20
6.506037631999994
 10
4.667688167899996
 20
6.487248171199993
 10
4.811267020699986
 20
6.472863894399992
 10
4.955247652699995
 20
6.462698699199997
 10
5.099442044699998
 20
6.456566479999992
 10
5.243662182299999
 20
6.454281131199991
 10
5.419217191899988
 20
6.45634618399999
 10
5.59455061109999
 20
6.46303036479999
 10
5.769681787099997
 20
6.473517463999996
 10
5.944630063899992
 20
6.486991268799997
 10
6.119414783899998
 20
6.502635569599995
 10
6.429434651099995
 20
6.533835921599994
 10
6.739082390299998
 20
6.56835543679999
 10
7.04844059989999
 20
6.605243011199995
 10
7.357591873499998
 20
6.643547543999993
 10
7.666618804699993
 20
6.682317929599996
 10
7.975603987099987
 20
6.720603063999995
 10
8.213676046299994
 20
6.749417878399995
 10
8.451705942299994
 20
6.778427334399992
 10
8.689627262299993
 20
6.80867874079999
 10
8.927373595099993
 20
6.841219409599993
 10
9.164878529499986
 20
6.877096651199991
 10
9.402075651099991
 20
6.917357775999995
 10
9.495150959899987
 20
6.934670910399994
 10
9.587974542299988
 20
6.953271932799992
 10
9.680352451099992
 20
6.973610119999996
 10
9.772090742299994
 20
6.996134747199995
 10
9.862995471899992
 20
7.021295092799995
 10
9.952872695899998
 20
7.049540430399993
 10
10.04152846709999
 20
7.081320036799993
 10
10.13013173269999
 20
7.117528039999996
 10
10.21725477589998
 20
7.157474343999993
 10
10.30436672629998
 20
7.201578470399994
 10
10.38990243189999
 20
7.24878251039999
 10
10.47383991029998
 20
7.29869769279999
 10
10.55615718389999
 20
7.350935251199992
 10
10.63683227189999
 20
7.405106412799995
  0
LWPOLYLINE
  5
3A
330
2
100
AcDbEntity
  8
0
100
AcDbPolyline
 90
       37
 70
     0
 43
0.0
 10
3.749033830299993
 20
6.747700521599995
 10
3.741422057499988
 20
6.754105401599993
 10
3.733690513499993
 20
6.760365158399991
 10
3.725841463899996
 20
6.766476927999995
 10
3.716853051099988
 20
6.773187217599996
 10
3.707721487899988
 20
6.779701329599994
 10
3.698450135899989
 20
6.786014878399996
 10
3.68920249269999
 20
6.79202193279999
 10
3.679826423899996
 20
6.797826457599995
 10
3.67032535989999
 20
6.803424009599993
 10
3.66089907349999
 20
6.808703020799995
 10
3.651359646299994
 20
6.813774671999993
 10
3.641710622299996
 20
6.81863453759999
 10
3.63217262869999
 20
6.823177764799993
 10
3.622536951899988
 20
6.827509910399996
 10
3.612807315099999
 20
6.831626639999996
 10
3.603228695899986
 20
6.835430961599996
 10
3.593568119899998
 20
6.839022001599992
 10
3.583829503899991
 20
6.842395607999996
 10
3.574256022299991
 20
6.845473729599994
 10
3.564616123099995
 20
6.848336996799993
 10
3.554913955099991
 20
6.850981505599996
 10
3.545409660699988
 20
6.853342900799994
 10
3.535854599899991
 20
6.855489558399995
 10
3.526253131099991
 20
6.857417910399995
 10
3.516847905499986
 20
6.859085035199996
 10
3.507407223899988
 20
6.86053790559999
 10
3.497935633499992
 20
6.861773332799991
 10
3.488678895899994
 20
6.86276518879999
 10
3.479401913499998
 20
6.863544735999994
 10
3.470109479899988
 20
6.86410924479999
 10
3.461019772699998
 20
6.864450542399993
 10
3.45192453269999
 20
6.864581668799992
 10
3.442828396699994
 20
6.864500345599992
 10
3.433947487899999
 20
6.864213715199994
 10
3.425075996699987
 20
6.863720580799991
 10
3.416219774299989
 20
6.86301930079999
  0
LINE
  5
3B
330
2
100
AcDbEntity
  8
0
100
AcDbLine
 10
-14.1834539857
 20
-7.771998825600004
 30
0.0
 11
-14.3872191473
 21
-7.766934732799999
 31
0.0
  0
LWPOLYLINE
  5
3C
330
2
100
AcDbEntity
  8
0
100
AcDbPolyline
 90
       45
 70
     0
 43
0.0
 10
1.624163484699991
 20
5.528924415999995
 10
1.759106155099999
 20
5.477304649599993
 10
1.895511543899999
 20
5.430776620799996
 10
2.033247278299995
 20
5.389035129599996
 10
2.172180988699992
 20
5.351774967999993
 10
2.346513771099992
 20
5.311211811199996
 10
2.522241166299991
 20
5.276525524799993
 10
2.699108222299997
 20
5.24712827679999
 10
2.87685998709999
 20
5.222432241599996
 10
3.055241508699992
 20
5.201849587199994
 10
3.233997833499998
 20
5.184792486399992
 10
3.485890945499988
 20
5.16585547519999
 10
3.737942863899988
 20
5.152490819199996
 10
3.990074884699993
 20
5.144449057599992
 10
4.242208297499999
 20
5.14148072159999
 10
4.494264396699989
 20
5.143336348799991
 10
4.813835935899987
 20
5.15215634399999
 10
5.133195641499995
 20
5.167319223999996
 10
5.452382791899992
 20
5.187805254399997
 10
5.771436671899991
 20
5.212594702399997
 10
6.090396559899986
 20
5.240667835199992
 10
6.409301739099987
 20
5.271004916799995
 10
6.728191489499991
 20
5.302586212799994
 10
7.061669284699988
 20
5.336140335999992
 10
7.395044180699997
 20
5.370599723199994
 10
7.728187190299991
 20
5.406624148799991
 10
8.060969327899996
 20
5.44487338079999
 10
8.393261609499987
 20
5.486007191999995
 10
8.724935046299989
 20
5.530685353599992
 10
9.055860654299991
 20
5.579567638399993
 10
9.38590944629999
 20
5.63331381439999
 10
9.714952436699988
 20
5.692583657599996
 10
10.04286064149999
 20
5.758036935999996
 10
10.24701180629999
 20
5.802341723199994
 10
10.45063896949999
 20
5.849468393599991
 10
10.65134487829999
 20
5.899052583999996
 10
10.85118592789999
 20
5.952127681599996
 10
11.04983975669999
 20
6.009277422399996
 10
11.24698400149999
 20
6.071085539199991
 10
11.44229629749999
 20
6.13813576639999
 10
11.59754348309999
 20
6.196149467199994
 10
11.75123557909999
 20
6.258219553599992
 10
11.90320581269999
 20
6.32464801119999
 10
12.05328741269998
 20
6.395736827199996
 10
12.20131361269999
 20
6.471787987199995
  0
LWPOLYLINE
  5
3D
330
2
100
AcDbEntity
  8
0
100
AcDbPolyline
 90
       57
 70
     0
 43
0.0
 10
12.54445354229999
 20
7.010511830399991
 10
12.54719109589998
 20
7.030849137599993
 10
12.54929701429999
 20
7.05126349919999
 10
12.55072633429999
 20
7.071185798399994
 10
12.55153110229999
 20
7.091142468799993
 10
12.55170293429999
 20
7.110593612799995
 10
12.55126005589998
 20
7.130040526399994
 10
12.55022505749998
 20
7.148997599999994
 10
12.5485856671
 20
7.167911878399991
 10
12.5463948031
 20
7.186311222399993
 10
12.54361334229999
 20
7.204630523199995
 10
12.54031180309999
 20
7.222469195199991
 10
12.53643326229999
 20
7.240191292799991
 10
12.53207040789999
 20
7.257418783999995
 10
12.52714721269998
 20
7.27449452319999
 10
12.52176093909999
 20
7.291108599999994
 10
12.51583110869999
 20
7.307536467199994
 10
12.50946103989998
 20
7.323511676799995
 10
12.50256593429999
 20
7.339267342399992
 10
12.49525246069998
 20
7.354575019199991
 10
12.48743450869999
 20
7.369631257599991
 10
12.47919686869998
 20
7.384280401599994
 10
12.4704749247
 20
7.398646436799992
 10
12.46135334229998
 20
7.412596935999992
 10
12.45177045589999
 20
7.426234654399991
 10
12.44177234069999
 20
7.43949556479999
 10
12.4313354783
 20
7.452413993599996
 10
12.42048524949999
 20
7.464958739199992
 10
12.4092206383
 20
7.477132751999995
 10
12.39753672789999
 20
7.488939913599992
 10
12.38546414069999
 20
7.500349379199995
 10
12.37293931029999
 20
7.511416235199995
 10
12.36005148629999
 20
7.522058199999996
 10
12.34671385429999
 20
7.532342279999994
 10
12.3330412591
 20
7.542176705599992
 10
12.31887066869998
 20
7.551670623999996
 10
12.30439302389999
 20
7.560689463999992
 10
12.28940095509999
 20
7.569353716799994
 10
12.27413141429998
 20
7.577519150399993
 10
12.25831325749999
 20
7.585320502399994
 10
12.24224820789999
 20
7.592600043199993
 10
12.22558526389998
 20
7.599504340799995
 10
12.20870678069999
 20
7.605863788799993
 10
12.19121682389999
 20
7.611815070399991
 10
12.17354446389998
 20
7.617200899199993
 10
12.15519210389999
 20
7.62215747199999
 10
12.13669108789999
 20
7.626527009599996
 10
12.11749137909998
 20
7.630423692799993
 10
12.09817842709999
 20
7.633714059199995
 10
12.07810443989998
 20
7.636490249599994
 10
12.05795363509999
 20
7.638640422399994
 10
12.03701924149999
 20
7.640221127999993
 10
12.01604619029998
 20
7.641158201599992
 10
11.9942454527
 20
7.641466225599991
 10
11.97244473269999
 20
7.641113564799994
 10
11.94977012789999
 20
7.64006334239999
 10
11.92713899349999
 20
7.638336142399992
  0
LWPOLYLINE
  5
3E
330
2
100
AcDbEntity
  8
0
100
AcDbPolyline
 90
        5
 70
     0
 43
0.0
 10
12.52307542389999
 20
6.871752423999993
 10
12.52850375029999
 20
6.906336497599994
 10
12.53386692309999
 20
6.940930748799992
 10
12.53919284149999
 20
6.97571633599999
 10
12.54445354229999
 20
7.010511830399991
  0
LWPOLYLINE
  5
3F
330
2
100
AcDbEntity
  8
0
100
AcDbPolyline
 90
        8
 70
     0
 43
0.0
 10
21.49447297429999
 20
4.432585227199993
 10
22.30724464309999
 20
4.459470555199992
 10
23.12006583669999
 20
4.484834110399994
 10
24.72166150069999
 20
4.532625262399996
 10
25.5342058543
 20
4.557085457599995
 10
26.3530861023
 20
4.583085046399993
 10
27.16086133429999
 20
4.611012743999992
 10
27.98263145109999
 20
4.64264159679999
  0
LWPOLYLINE
  5
40
330
2
100
AcDbEntity
  8
0
100
AcDbPolyline
 90
       57
 70
     0
 43
0.0
 10
1.761712798299996
 20
6.712299139199991
 10
1.740418655899986
 20
6.710041769599996
 10
1.71919989269999
 20
6.707146699199995
 10
1.69877184789999
 20
6.703728819199994
 10
1.678457459099988
 20
6.69969309759999
 10
1.658922313499999
 20
6.695189086399992
 10
1.639534166299995
 20
6.690089187199994
 10
1.620862414299992
 20
6.684557841599996
 10
1.602370734299995
 20
6.678451841599994
 10
1.584567135899987
 20
6.67195278079999
 10
1.566974991899996
 20
6.664901559999997
 10
1.550018009499993
 20
6.657479649599991
 10
1.533303094299995
 20
6.649527737599996
 10
1.517213399899986
 20
6.641239871999992
 10
1.501394436699996
 20
6.632446399999992
 10
1.486145036699994
 20
6.623322524799995
 10
1.47119463509999
 20
6.613716649599993
 10
1.456799950299995
 20
6.603802523199995
 10
1.44273079989999
 20
6.593431689599995
 10
1.429188799899989
 20
6.582760129599996
 10
1.415997782299996
 20
6.571657707199996
 10
1.403300515099999
 20
6.560249697599992
 10
1.3909791775
 20
6.548436697599996
 10
1.379149470299992
 20
6.536334811199992
 10
1.367718508699994
 20
6.523855623999992
 10
1.356743401499997
 20
6.511062929599994
 10
1.346190217499994
 20
6.497920020799995
 10
1.336098755099996
 20
6.48447801919999
 10
1.326450068699998
 20
6.470714742399991
 10
1.317248318299988
 20
6.456634548799996
 10
1.308509807899994
 20
6.442262259199992
 10
1.300215404699997
 20
6.427562145599992
 10
1.292403774299998
 20
6.412599883199995
 10
1.285047705499991
 20
6.397318177599991
 10
1.278191662299988
 20
6.381805676799991
 10
1.271786203099992
 20
6.365938395199997
 10
1.265898531099992
 20
6.349871758399991
 10
1.260482833499992
 20
6.333467311999996
 10
1.255599791899996
 20
6.316896473599996
 10
1.251197556699992
 20
6.29995963839999
 10
1.247342871899988
 20
6.282889811199993
 10
1.243991175899992
 20
6.265456961599994
 10
1.241199979099988
 20
6.247925590399994
 10
1.2389359087
 20
6.230037459199991
 10
1.237243204699993
 20
6.212086195199994
 10
1.236101734299992
 20
6.193757211199994
 10
1.235542247899999
 20
6.175401182399994
 10
1.235563999899994
 20
6.156695623999993
 10
1.236175102299995
 20
6.137999985599996
 10
1.237398847899996
 20
6.118937423999994
 10
1.239219111899998
 20
6.099922447999993
 10
1.241682683099995
 20
6.080576283199995
 10
1.244746503899989
 20
6.061316123199993
 10
1.248490193499989
 20
6.04171862399999
 10
1.252837547099986
 20
6.022245532799992
 10
1.257896321499998
 20
6.002469300799994
 10
1.263558331099986
 20
5.982859268799991
  0
LWPOLYLINE
  5
41
330
2
100
AcDbEntity
  8
0
100
AcDbPolyline
 90
       34
 70
     0
 43
0.0
 10
10.90680376789998
 20
7.545386948799993
 10
10.89817096949998
 20
7.544495910399994
 10
10.88956065909999
 20
7.543398910399993
 10
10.88097839509998
 20
7.542098297599991
 10
10.87225997269999
 20
7.540564598399996
 10
10.86358074549998
 20
7.53882434239999
 10
10.85494495509999
 20
7.536880315199994
 10
10.84618781109999
 20
7.534691020799996
 10
10.83748455509999
 20
7.532296038399991
 10
10.8288394943
 20
7.529698673599995
 10
10.82006062549999
 20
7.526835782399992
 10
10.81135112149999
 20
7.523768340799996
 10
10.8027149455
 20
7.520500115199993
 10
10.79396125269998
 20
7.516953409599992
 10
10.78529209589998
 20
7.513204745599992
 10
10.77671114869998
 20
7.50925828799999
 10
10.76800618869999
 20
7.505009863999994
 10
10.75940123669998
 20
7.500562321599993
 10
10.75089965749999
 20
7.495920191999992
 10
10.74229762229998
 20
7.490965609599996
 10
10.73381073749999
 20
7.48581622879999
 10
10.72544204629998
 20
7.480476863999996
 10
10.71698382549999
 20
7.474807689599991
 10
10.70865591349999
 20
7.468948727999993
 10
10.70046106069999
 20
7.462905023999994
 10
10.6922147903
 20
7.456533675199992
 10
10.6841132319
 20
7.449979270399992
 10
10.67615885269999
 20
7.44324697599999
 10
10.66817377429998
 20
7.436178796799993
 10
10.66034765589999
 20
7.428934974399993
 10
10.65268274709998
 20
7.421520750399992
 10
10.64731513269998
 20
7.416130961599996
 10
10.64203140149999
 20
7.410658921599996
 10
10.63683227189999
 20
7.405106412799995
  0
LINE
  5
42
330
2
100
AcDbEntity
  8
0
100
AcDbLine
 10
11.92713899349999
 20
7.638336142399996
 30
0.0
 11
10.90680376789999
 21
7.545386948799997
 31
0.0
  0
LINE
  5
43
330
2
100
AcDbEntity
  8
0
100
AcDbLine
 10
3.416219774299992
 20
6.863019300799994
 30
0.0
 11
1.761712798299999
 21
6.712299139199995
 31
0.0
  0
LWPOLYLINE
  5
44
330
2
100
AcDbEntity
  8
0
100
AcDbPolyline
 90
       15
 70
     0
 43
0.0
 10
27.98263160309998
 20
4.642640729599996
 10
28.56050348789999
 20
4.66624518559999
 10
29.19203387349999
 20
4.692236396799991
 10
30.38520758389999
 20
4.741474881599991
 10
30.96549315669999
 20
4.765125967999992
 10
31.52993737269999
 20
4.787846174399994
 10
32.0750454703
 20
4.809350903999991
 10
32.5977143903
 20
4.830266526399995
 10
32.98915376789999
 20
4.846677009599993
 10
33.53596272469999
 20
4.869405401599991
 10
34.0438348335
 20
4.888407121599996
 10
34.28322957109999
 20
4.895935284799996
 10
34.51302642229999
 20
4.902087457599996
 10
34.8046303199
 20
4.908324015999994
 10
34.9441382479
 20
4.910691121599995
  0
LINE
  5
45
330
2
100
AcDbEntity
  8
0
100
AcDbLine
 10
38.05872912469999
 20
10.24246476479999
 30
0.0
 11
40.33285148949999
 21
10.3101070896
 31
0.0
  0
LINE
  5
46
330
2
100
AcDbEntity
  8
0
100
AcDbLine
 10
37.45790506474603
 20
8.828699607999997
 30
0.0
 11
37.59592579829998
 21
9.809844263999995
 31
0.0
  0
LWPOLYLINE
  5
47
330
2
100
AcDbEntity
  8
0
100
AcDbPolyline
 90
       47
 70
     0
 43
0.0
 10
12.20131361269999
 20
6.471787987199995
 10
12.20782867509998
 20
6.474982486399994
 10
12.2194854559
 20
6.480928271999992
 10
12.23101916789998
 20
6.487109390399993
 10
12.24242520309999
 20
6.493523063999994
 10
12.25366574869998
 20
6.500146551999996
 10
12.26477007349998
 20
6.506995943999996
 10
12.27573346549999
 20
6.51406871999999
 10
12.28648145749998
 20
6.52131435359999
 10
12.29708084149999
 20
6.528775673599994
 10
12.30752677109998
 20
6.536450358399996
 10
12.31773865269998
 20
6.544276839999994
 10
12.32778952949999
 20
6.552309023999995
 10
12.33767435669999
 20
6.560544686399992
 10
12.34726739669999
 20
6.56887464959999
 10
12.35668838709999
 20
6.577398686399995
 10
12.36593211189999
 20
6.586114622399996
 10
12.37483517589998
 20
6.594861655999991
 10
12.38355678069999
 20
6.603789599999991
 10
12.39209157749999
 20
6.612896270399993
 10
12.40026071189999
 20
6.621982419199994
 10
12.40824022869999
 20
6.631235505599995
 10
12.41602467509999
 20
6.640653268799994
 10
12.42343629269998
 20
6.650011131199995
 10
12.43065097269999
 20
6.659521622399992
 10
12.4376631791
 20
6.669182340799991
 10
12.44428157909999
 20
6.678717015999993
 10
12.45069780629999
 20
6.688388860799996
 10
12.45690633269998
 20
6.698195297599994
 10
12.46272966229999
 20
6.707841790399996
 10
12.46834653589999
 20
6.717609905599992
 10
12.47375147029998
 20
6.727496838399993
 10
12.47877754869999
 20
6.737180236799993
 10
12.48359442869998
 20
6.746969343999992
 10
12.48819674709999
 20
6.756861102399994
 10
12.49244305589999
 20
6.766532884799993
 10
12.49647801429999
 20
6.776294705599994
 10
12.50029642549999
 20
6.786143244799994
 10
12.50377309429998
 20
6.795732166399993
 10
12.50703804789999
 20
6.805395163199996
 10
12.51008632949999
 20
6.81512855039999
 10
12.51282200149999
 20
6.82459957919999
 10
12.51534602069999
 20
6.83412926239999
 10
12.51765377909998
 20
6.843713943999993
 10
12.51967288629998
 20
6.853018993599995
 10
12.52148157269999
 20
6.862366847999993
 10
12.52307542389999
 20
6.871752423999993
  0
LINE
  5
48
330
2
100
AcDbEntity
  8
0
100
AcDbLine
 10
-25.0793765633
 20
8.828699607999997
 30
0.0
 11
-24.8498409329
 21
11.45230385439999
 31
0.0
  0
LWPOLYLINE
  5
49
330
2
100
AcDbEntity
  8
0
100
AcDbPolyline
 90
       18
 70
     0
 43
0.0
 10
-15.83652197290001
 20
-6.312473603200004
 10
-15.8435905697
 20
-6.300967699200008
 10
-15.8515786081
 20
-6.286815323200009
 10
-15.8606529697
 20
-6.269159155200007
 10
-15.8708193985
 20
-6.247801336000009
 10
-15.8818375697
 20
-6.223538073600003
 10
-15.8928964529
 20
-6.198675000000008
 10
-15.9034496209
 20
-6.174251187200006
 10
-15.9135642497
 20
-6.149807408000008
 10
-15.9234786833
 20
-6.124550508800005
 10
-15.9335556497
 20
-6.097481091200009
 10
-15.9441078193
 20
-6.067568892800004
 10
-15.9553933281
 20
-6.033619545600004
 10
-15.9676092561
 20
-5.994162889600005
 10
-15.98068696810001
 20
-5.947818928000003
 10
-15.9936721393
 20
-5.896295020800003
 10
-16.0059851409
 20
-5.844763329600006
 10
-16.0170785681
 20
-5.797751080000004
  0
LWPOLYLINE
  5
4A
330
2
100
AcDbEntity
  8
0
100
AcDbPolyline
 90
        6
 70
     0
 43
0.0
 10
-15.7971994801
 20
-6.381941220800008
 10
-15.8036387905
 20
-6.368441716800006
 10
-15.81033214570001
 20
-6.355433940800004
 10
-15.8170477153
 20
-6.343568801600007
 10
-15.8236191025
 20
-6.332772777600006
 10
-15.83652197290001
 20
-6.312473603200004
  0
LINE
  5
4B
330
2
100
AcDbEntity
  8
0
100
AcDbLine
 10
-19.2243086705
 20
4.832779571199996
 30
0.0
 11
-19.2128598465
 21
4.794775767999997
 31
0.0
  0
LINE
  5
4C
330
2
100
AcDbEntity
  8
0
100
AcDbLine
 10
-19.2369440641
 20
4.875502844799999
 30
0.0
 11
-19.2243086705
 21
4.832779571199996
 31
0.0
  0
LINE
  5
4D
330
2
100
AcDbEntity
  8
0
100
AcDbLine
 10
-19.2502538497
 20
4.921332283199998
 30
0.0
 11
-19.2369440641
 21
4.875502844799999
 31
0.0
  0
LINE
  5
4E
330
2
100
AcDbEntity
  8
0
100
AcDbLine
 10
-19.2863800689
 20
5.048509180799999
 30
0.0
 11
-19.2832502833
 21
5.037640414399998
 31
0.0
  0
LINE
  5
4F
330
2
100
AcDbEntity
  8
0
100
AcDbLine
 10
-19.2669949217
 20
4.980015635199993
 30
0.0
 11
-19.2502538497
 21
4.921332283199998
 31
0.0
  0
LWPOLYLINE
  5
50
330
2
100
AcDbEntity
  8
0
100
AcDbPolyline
 90
        3
 70
     0
 43
0.0
 10
-19.27916442730001
 20
5.023148900799995
 10
-19.2767774193
 20
5.014675550399992
 10
-19.2669949217
 20
4.98001563519999
  0
LINE
  5
51
330
2
100
AcDbEntity
  8
0
100
AcDbLine
 10
-19.2845510769
 20
5.042242188799999
 30
0.0
 11
-19.2791644273
 21
5.023148900799998
 31
0.0
  0
LWPOLYLINE
  5
52
330
2
100
AcDbEntity
  8
0
100
AcDbPolyline
 90
       11
 70
     0
 43
0.0
 10
-18.0318892497
 20
0.7525440719999921
 10
-18.1736977649
 20
1.352816239999995
 10
-18.3031202993
 20
1.860329286399995
 10
-18.4340745393
 20
2.34800908479999
 10
-18.56281689290001
 20
2.808041839999994
 10
-18.6855355249
 20
3.224523276799992
 10
-18.80177622570001
 20
3.594265886399995
 10
-18.9169908145
 20
3.936025350399994
 10
-19.0271285265
 20
4.249491196799993
 10
-19.1277696353
 20
4.537551415999992
 10
-19.2117331377
 20
4.79514302559999
  0
LINE
  5
53
330
2
100
AcDbEntity
  8
0
100
AcDbLine
 10
-18.0317795009
 20
0.7520577487999951
 30
0.0
 11
-18.0318892497
 21
0.7525440719999957
 31
0.0
  0
LWPOLYLINE
  5
54
330
2
100
AcDbEntity
  8
0
100
AcDbPolyline
 90
       20
 70
     0
 43
0.0
 10
-18.0318892497
 20
0.7525440719999921
 10
-17.9454536353
 20
0.3581660927999906
 10
-17.8602513169
 20
-0.0534392032000071
 10
-17.7814490289
 20
-0.4556164544000083
 10
-17.7088813185
 20
-0.8462610096000062
 10
-17.6421503953
 20
-1.225178678400006
 10
-17.5804896481
 20
-1.595247523200008
 10
-17.5239457537
 20
-1.955443022400004
 10
-17.4726791153
 20
-2.304024721600008
 10
-17.4268172001
 20
-2.639306838400003
 10
-17.3861473585
 20
-2.962191659200009
 10
-17.3506171249
 20
-3.273899790400008
 10
-17.3205206241
 20
-3.574862910400007
 10
-17.2962005697
 20
-3.865688092800006
 10
-17.2776528993
 20
-4.147079812800008
 10
-17.2648340193
 20
-4.418407718400004
 10
-17.2560223121
 20
-4.680590742400006
 10
-17.2464984481
 20
-4.934283083200007
 10
-17.2311089217
 20
-5.177360385600003
 10
-17.2050700833
 20
-5.408847201600003
  0
LWPOLYLINE
  5
55
330
2
100
AcDbEntity
  8
0
100
AcDbPolyline
 90
        4
 70
     0
 43
0.0
 10
-16.0170789137
 20
-5.797751110400007
 10
-16.0353409745
 20
-5.709336555200003
 10
-16.0540439953
 20
-5.618046350400007
 10
-16.0731826545
 20
-5.523563024000004
  0
LINE
  5
56
330
2
100
AcDbEntity
  8
0
100
AcDbLine
 10
-17.1852106033
 20
-5.530102288000005
 30
0.0
 11
-17.1852311601
 21
-5.529990662399999
 31
0.0
  0
LINE
  5
57
330
2
100
AcDbEntity
  8
0
100
AcDbLine
 10
-17.1852311601
 20
-5.529990662399999
 30
0.0
 11
-17.2025805201
 21
-5.425793094400003
 31
0.0
  0
LINE
  5
58
330
2
100
AcDbEntity
  8
0
100
AcDbLine
 10
-17.2050700833
 20
-5.4088472016
 30
0.0
 11
-17.1852106033
 21
-5.530102288000005
 31
0.0
  0
LWPOLYLINE
  5
59
330
2
100
AcDbEntity
  8
0
100
AcDbPolyline
 90
       20
 70
     0
 43
0.0
 10
-17.2025805201
 20
-5.425793094400006
 10
-17.2240943121
 20
-5.253000976000009
 10
-17.2390098513
 20
-5.070664696000008
 10
-17.2488030033
 20
-4.882063369600004
 10
-17.2546701393
 20
-4.722115619200003
 10
-17.2601195729
 20
-4.552836804800008
 10
-17.2668806289
 20
-4.366762891200004
 10
-17.2770091681
 20
-4.158505203200007
 10
-17.2919567217
 20
-3.923769336000006
 10
-17.3130741873
 20
-3.657801272000007
 10
-17.34195623050001
 20
-3.356041316800009
 10
-17.3799619553
 20
-3.014061428800005
 10
-17.4283079537
 20
-2.627978512000005
 10
-17.48888050890001
 20
-2.191236852800003
 10
-17.5526469441
 20
-1.769814395200008
 10
-17.6221816721
 20
-1.342733720000005
 10
-17.7052577233
 20
-0.8663253184000083
 10
-17.80202964970001
 20
-0.3484781680000069
 10
-17.91480207050001
 20
0.2127621935999926
 10
-18.0317795009
 20
0.7520577487999916
  0
LWPOLYLINE
  5
5A
330
2
100
AcDbEntity
  8
0
100
AcDbPolyline
 90
        7
 70
     0
 43
0.0
 10
-15.71561946890001
 20
-6.524490329600006
 10
-15.7432828513
 20
-6.484012777600007
 10
-15.7555187729
 20
-6.465041438400007
 10
-15.7666877681
 20
-6.445770521600003
 10
-15.7761959009
 20
-6.427174153600006
 10
-15.78403478730001
 20
-6.410595000000007
 10
-15.7971994801
 20
-6.381941220800008
  0
LWPOLYLINE
  5
5B
330
2
100
AcDbEntity
  8
0
100
AcDbPolyline
 90
        4
 70
     0
 43
0.0
 10
-19.49288250250001
 20
6.05385069439999
 10
-19.45789534090001
 20
5.972827081599994
 10
-19.4230211841
 20
5.89150718079999
 10
-19.3882664321
 20
5.809904483199993
  0
LWPOLYLINE
  5
5C
330
2
100
AcDbEntity
  8
0
100
AcDbPolyline
 90
       12
 70
     0
 43
0.0
 10
-19.3882666865
 20
5.809904891199991
 10
-19.3764626177
 20
5.778033724799996
 10
-19.3676035793
 20
5.72586000799999
 10
-19.3639287233
 20
5.676888655999995
 10
-19.3615398593
 20
5.626062375999993
 10
-19.3594363025
 20
5.566068395199991
 10
-19.3571339857
 20
5.497098587199992
 10
-19.3536241729
 20
5.417944713599993
 10
-19.3472298737
 20
5.33530842879999
 10
-19.3356552129
 20
5.249795559999995
 10
-19.3145446753
 20
5.150615687999994
 10
-19.2863800689
 20
5.048509180799996
  0
LWPOLYLINE
  5
5D
330
2
100
AcDbEntity
  8
0
100
AcDbPolyline
 90
        6
 70
     0
 43
0.0
 10
-20.8411211937932
 20
8.828699607999997
 10
-20.8124633905
 20
8.77598790719999
 10
-20.4888619857
 20
8.15724493759999
 10
-20.15930941130001
 20
7.499200959999996
 10
-19.8273643329
 20
6.80141335359999
 10
-19.4928825265
 20
6.053849025599994
  0
LWPOLYLINE
  5
5E
330
2
100
AcDbEntity
  8
0
100
AcDbPolyline
 90
        6
 70
     0
 43
0.0
 10
33.10503977909999
 20
-9.738235865600003
 10
33.10048967829999
 20
-9.739302046400005
 10
33.07785856309999
 20
-9.747124641600009
 10
33.05630237109999
 20
-9.757893068800008
 10
33.03617013269999
 20
-9.771405374400004
 10
33.01791054869998
 20
-9.787401628800004
  0
LINE
  5
5F
330
2
100
AcDbEntity
  8
0
100
AcDbLine
 10
-8.222776272100002
 20
-10.4860051536
 30
0.0
 11
-8.804387457699998
 21
-8.3154026592
 31
0.0
  0
LWPOLYLINE
  5
60
330
2
100
AcDbEntity
  8
0
100
AcDbPolyline
 90
       30
 70
     0
 43
0.0
 10
33.68873132629998
 20
-9.726958697600004
 10
33.69371849909998
 20
-9.726693406400009
 10
33.80602046549999
 20
-9.712658944000004
 10
33.91245563989999
 20
-9.691594436800009
 10
34.01301054069999
 20
-9.664480000000004
 10
34.10773775989999
 20
-9.632175129600007
 10
34.1967857711
 20
-9.595391947200006
 10
34.28035352469999
 20
-9.554801649600008
 10
34.35866213589999
 20
-9.510944548800004
 10
34.43192815829999
 20
-9.464263664000007
 10
34.5003976191
 20
-9.415179712000004
 10
34.5643118111
 20
-9.364026468800005
 10
34.62389036949998
 20
-9.311050009600009
 10
34.67923590869999
 20
-9.256594980800009
 10
34.7303597919
 20
-9.201129256000008
 10
34.77728703989999
 20
-9.145105289600003
 10
34.82007010229999
 20
-9.088955947200005
 10
34.8588298799
 20
-9.033106369600005
 10
34.89368197589999
 20
-8.978033315200008
 10
34.9247233647
 20
-8.924268931200003
 10
34.9521300399
 20
-8.872241947200009
 10
34.97629862069999
 20
-8.821956358400008
 10
34.99764038069999
 20
-8.773279508800008
 10
35.01650711669999
 20
-8.726046355200004
 10
35.03313601109999
 20
-8.680241884800004
 10
35.04766189589999
 20
-8.636078574400009
 10
35.06024097589998
 20
-8.593717252800004
 10
35.07104102869999
 20
-8.553298736000009
 10
35.08016636149999
 20
-8.515224932800009
 10
35.08768861909999
 20
-8.480158307200007
  0
LWPOLYLINE
  5
61
330
2
100
AcDbEntity
  8
0
100
AcDbPolyline
 90
       32
 70
     0
 43
0.0
 10
33.58437961909999
 20
-9.732509867200008
 10
33.6834976671
 20
-9.727563052800007
 10
33.78722535349999
 20
-9.715585156800003
 10
33.88599085429999
 20
-9.697553572800003
 10
33.97979487029999
 20
-9.674231808000008
 10
34.06867486869998
 20
-9.646320833600007
 10
34.15273598229998
 20
-9.614391652800009
 10
34.23213351349998
 20
-9.578967849600005
 10
34.3070447951
 20
-9.540514385600005
 10
34.37761593749999
 20
-9.499414243200007
 10
34.4439674879
 20
-9.456031161600009
 10
34.5062432063
 20
-9.410724822400005
 10
34.56458794389999
 20
-9.363792804800006
 10
34.61914341429999
 20
-9.315474985600005
 10
34.67005838549999
 20
-9.266003868800005
 10
34.71747921269999
 20
-9.215613894400007
 10
34.76154007349999
 20
-9.164503302400007
 10
34.80236326229999
 20
-9.112838494400008
 10
34.84008791669999
 20
-9.060757926400007
 10
34.87486850229998
 20
-9.008388051200007
 10
34.90680039509999
 20
-8.955908182400008
 10
34.93593899829999
 20
-8.903549379200008
 10
34.9623570575
 20
-8.851520158400006
 10
34.98616889109999
 20
-8.799998244800008
 10
35.00749079189999
 20
-8.749172131200005
 10
35.02643110229999
 20
-8.699247272000008
 10
35.04304100309998
 20
-8.650614443200005
 10
35.0573079311
 20
-8.603995358400005
 10
35.06932110709999
 20
-8.560033254400003
 10
35.07922725429999
 20
-8.519343027200008
 10
35.0872175759
 20
-8.482472860800008
 10
35.09374559989999
 20
-8.448601144000008
  0
LINE
  5
62
330
2
100
AcDbEntity
  8
0
100
AcDbLine
 10
-7.9812948161
 20
-10.671300392
 30
0.0
 11
-7.320401966499996
 21
-10.671300392
 31
0.0
  0
LINE
  5
63
330
2
100
AcDbEntity
  8
0
100
AcDbLine
 10
-5.5883511585
 20
-10.671300392
 30
0.0
 11
-4.927458310499996
 21
-10.671300392
 31
0.0
  0
LINE
  5
64
330
2
100
AcDbEntity
  8
0
100
AcDbLine
 10
7.58902409429999
 20
-10.671300392
 30
0.0
 11
30.31159045429999
 21
-10.671300392
 31
0.0
  0
LINE
  5
65
330
2
100
AcDbEntity
  8
0
100
AcDbLine
 10
33.51466877589999
 20
-9.733699398400002
 30
0.0
 11
33.58437740629999
 21
-9.732509880000005
 31
0.0
  0
LINE
  5
66
330
2
100
AcDbEntity
  8
0
100
AcDbLine
 10
33.4566988335
 20
-9.734586416000002
 30
0.0
 11
33.51466877589999
 21
-9.733699398400002
 31
0.0
  0
LINE
  5
67
330
2
100
AcDbEntity
  8
0
100
AcDbLine
 10
33.37971903989999
 20
-9.735628644800005
 30
0.0
 11
33.4566988335
 21
-9.734586416000002
 31
0.0
  0
LINE
  5
68
330
2
100
AcDbEntity
  8
0
100
AcDbLine
 10
33.28678517909999
 20
-9.736694244800002
 30
0.0
 11
33.37971903989999
 21
-9.735628644800005
 31
0.0
  0
LINE
  5
69
330
2
100
AcDbEntity
  8
0
100
AcDbLine
 10
33.19959545909999
 20
-9.737517894400003
 30
0.0
 11
33.28678517909999
 21
-9.736694244800002
 31
0.0
  0
LINE
  5
6A
330
2
100
AcDbEntity
  8
0
100
AcDbLine
 10
33.08049572789999
 20
-9.738395700800001
 30
0.0
 11
33.19959545909999
 21
-9.737517894400003
 31
0.0
  0
LINE
  5
6B
330
2
100
AcDbEntity
  8
0
100
AcDbLine
 10
32.92388495669999
 20
-9.739173704000005
 30
0.0
 11
33.08049572789999
 21
-9.738395700800001
 31
0.0
  0
LINE
  5
6C
330
2
100
AcDbEntity
  8
0
100
AcDbLine
 10
29.4575038207
 20
-9.733378600000005
 30
0.0
 11
29.53649471029999
 21
-9.733198976
 31
0.0
  0
LINE
  5
6D
330
2
100
AcDbEntity
  8
0
100
AcDbLine
 10
29.53649471029999
 20
-9.733198976
 30
0.0
 11
29.82625344629999
 21
-9.732579660800002
 31
0.0
  0
LWPOLYLINE
  5
6E
330
2
100
AcDbEntity
  8
0
100
AcDbPolyline
 90
        9
 70
     0
 43
0.0
 10
29.82625344629998
 20
-9.732579660800006
 10
30.05808208629999
 20
-9.732192652800009
 10
30.1835400607
 20
-9.732053099200008
 10
30.31435110549999
 20
-9.731972144000003
 10
30.44980410709999
 20
-9.731966379200009
 10
30.58919738709998
 20
-9.732050916800005
 10
30.73177478869999
 20
-9.732238534400003
 10
30.87663863029999
 20
-9.732541457600007
 10
31.02320635989999
 20
-9.732972596800003
  0
LINE
  5
6F
330
2
100
AcDbEntity
  8
0
100
AcDbLine
 10
32.70607166709999
 20
-9.739686848000001
 30
0.0
 11
32.92388495669999
 21
-9.739173704000005
 31
0.0
  0
LINE
  5
70
330
2
100
AcDbEntity
  8
0
100
AcDbLine
 10
29.1920308287
 20
-9.733868908800001
 30
0.0
 11
29.4575038207
 21
-9.733378600000005
 31
0.0
  0
LINE
  5
71
330
2
100
AcDbEntity
  8
0
100
AcDbLine
 10
32.6739253695
 20
-9.739717329600001
 30
0.0
 11
32.70607166709999
 21
-9.739686848000001
 31
0.0
  0
LINE
  5
72
330
2
100
AcDbEntity
  8
0
100
AcDbLine
 10
31.0636333903
 20
-10.233800392
 30
0.0
 11
32.44207004629998
 21
-10.233800392
 31
0.0
  0
LINE
  5
73
330
2
100
AcDbEntity
  8
0
100
AcDbLine
 10
32.6739253695
 20
-9.739717329600001
 30
0.0
 11
32.59033373109998
 21
-9.739740278400002
 31
0.0
  0
LINE
  5
74
330
2
100
AcDbEntity
  8
0
100
AcDbLine
 10
32.59033373109998
 20
-9.739740278400002
 30
0.0
 11
32.5542816527
 21
-9.739727702399999
 31
0.0
  0
LINE
  5
75
330
2
100
AcDbEntity
  8
0
100
AcDbLine
 10
32.5542816527
 20
-9.739727702399999
 30
0.0
 11
32.51307098709999
 21
-9.7397002336
 31
0.0
  0
LWPOLYLINE
  5
76
330
2
100
AcDbEntity
  8
0
100
AcDbPolyline
 90
        3
 70
     0
 43
0.0
 10
32.51307098709999
 20
-9.739700233600004
 10
32.47508694229999
 20
-9.739638020800008
 10
32.46626449269999
 20
-9.739605822400008
  0
LINE
  5
77
330
2
100
AcDbEntity
  8
0
100
AcDbLine
 10
32.46626449269999
 20
-9.739605822400005
 30
0.0
 11
32.44511287669999
 21
-9.739526606400001
 31
0.0
  0
LINE
  5
78
330
2
100
AcDbEntity
  8
0
100
AcDbLine
 10
32.44511287669999
 20
-9.739526606400001
 30
0.0
 11
32.39897940469998
 21
-9.739343126400004
 31
0.0
  0
LINE
  5
79
330
2
100
AcDbEntity
  8
0
100
AcDbLine
 10
31.36217838229999
 20
-9.734367467200005
 30
0.0
 11
31.31263286069999
 21
-9.7341634464
 31
0.0
  0
LINE
  5
7A
330
2
100
AcDbEntity
  8
0
100
AcDbLine
 10
32.39897940469998
 20
-9.739343126400004
 30
0.0
 11
32.35696286709999
 21
-9.739164580800004
 31
0.0
  0
LWPOLYLINE
  5
7B
330
2
100
AcDbEntity
  8
0
100
AcDbPolyline
 90
        3
 70
     0
 43
0.0
 10
31.31263286069999
 20
-9.734163446400003
 10
31.21594365749999
 20
-9.733747083200007
 10
31.02320635989999
 20
-9.732972596800003
  0
LWPOLYLINE
  5
7C
330
2
100
AcDbEntity
  8
0
100
AcDbPolyline
 90
        3
 70
     0
 43
0.0
 10
29.19203353429999
 20
-9.733868905600004
 10
23.36189328309998
 20
-9.706871995200003
 10
17.39976139989998
 20
-9.620341160000009
  0
LINE
  5
7D
330
2
100
AcDbEntity
  8
0
100
AcDbLine
 10
32.35696286709999
 20
-9.739164580800004
 30
0.0
 11
32.26517600309999
 21
-9.738750081600006
 31
0.0
  0
LINE
  5
7E
330
2
100
AcDbEntity
  8
0
100
AcDbLine
 10
31.5287065215
 20
-9.7351119584
 30
0.0
 11
31.36217838229999
 21
-9.734367467200005
 31
0.0
  0
LINE
  5
7F
330
2
100
AcDbEntity
  8
0
100
AcDbLine
 10
32.26517600309999
 20
-9.738750081600006
 30
0.0
 11
32.17431594069999
 21
-9.738319112000002
 31
0.0
  0
LWPOLYLINE
  5
80
330
2
100
AcDbEntity
  8
0
100
AcDbPolyline
 90
        7
 70
     0
 43
0.0
 10
32.17431594069999
 20
-9.738319112000006
 10
32.04371327189999
 20
-9.737677580800003
 10
31.95878654549999
 20
-9.737252291200007
 10
31.86818220629999
 20
-9.736796059200003
 10
31.7767155743
 20
-9.736336393600005
 10
31.68558658549999
 20
-9.735881390400002
 10
31.52870652149999
 20
-9.735111958400004
  0
LWPOLYLINE
  5
81
330
2
100
AcDbEntity
  8
0
100
AcDbPolyline
 90
       28
 70
     0
 43
0.0
 10
-14.3901278993
 20
-7.782485582400006
 10
-14.6474028017
 20
-7.777046832000003
 10
-14.8329613153
 20
-7.767831465600004
 10
-14.9987551121
 20
-7.749627308800008
 10
-15.1499281585
 20
-7.724106478400003
 10
-15.2908211793
 20
-7.692214624000008
 10
-15.43063368490001
 20
-7.652320643200006
 10
-15.5635290417
 20
-7.606221545600007
 10
-15.6882750833
 20
-7.555042659200005
 10
-15.8086045985
 20
-7.497671400000008
 10
-15.9229984641
 20
-7.435011636800005
 10
-16.0322592513
 20
-7.366921712000007
 10
-16.1370032273
 20
-7.293288980800006
 10
-16.2377460097
 20
-7.213863174400003
 10
-16.33501056810001
 20
-7.128143859200008
 10
-16.4292738689
 20
-7.035519155200006
 10
-16.5206332225
 20
-6.935651904000003
 10
-16.6089736945
 20
-6.828283520000006
 10
-16.6939952017
 20
-6.713258216000006
 10
-16.7753992513
 20
-6.590285243200007
 10
-16.8518222449
 20
-6.460769875200007
 10
-16.9222658961
 20
-6.326029267200006
 10
-16.9862067457
 20
-6.186933361600004
 10
-17.0434152241
 20
-6.043940492800004
 10
-17.0937099297
 20
-5.897359364800003
 10
-17.1370364721
 20
-5.746840428800005
 10
-17.1732807265
 20
-5.591314163200003
 10
-17.1852106033
 20
-5.530102288000009
  0
LINE
  5
82
330
2
100
AcDbEntity
  8
0
100
AcDbLine
 10
17.39976139989999
 20
-9.620341160000005
 30
0.0
 11
11.0785603855
 21
-9.470006067199999
 31
0.0
  0
LINE
  5
83
330
2
100
AcDbEntity
  8
0
100
AcDbLine
 10
-3.563994940899998
 20
-8.176583508800003
 30
0.0
 11
-9.376809891300009
 21
-8.032119988800001
 31
0.0
  0
LINE
  5
84
330
2
100
AcDbEntity
  8
0
100
AcDbLine
 10
-14.1834539857
 20
-7.787623825600004
 30
0.0
 11
4.413609471899992
 21
-8.2498090608
 31
0.0
  0
LINE
  5
85
330
2
100
AcDbEntity
  8
0
100
AcDbLine
 10
-14.1818943521
 20
-7.725143286400001
 30
0.0
 11
-13.6916617201
 21
-7.737326838400004
 31
0.0
  0
LINE
  5
86
330
2
100
AcDbEntity
  8
0
100
AcDbLine
 10
-12.86759781609999
 20
-7.820326262400005
 30
0.0
 11
-12.9067776433
 21
-7.819292176000001
 31
0.0
  0
LINE
  5
87
330
2
100
AcDbEntity
  8
0
100
AcDbLine
 10
-12.9067776433
 20
-7.819292176000001
 30
0.0
 11
-12.92909372010001
 21
-7.818601747200002
 31
0.0
  0
LINE
  5
88
330
2
100
AcDbEntity
  8
0
100
AcDbLine
 10
11.0785603855
 20
-9.470006067199999
 30
0.0
 11
4.321811255899991
 21
-9.250470284800005
 31
0.0
  0
LINE
  5
89
330
2
100
AcDbEntity
  8
0
100
AcDbLine
 10
-12.92909372010001
 20
-7.818601747200002
 30
0.0
 11
-12.9517601953
 21
-7.8178266864
 31
0.0
  0
LINE
  5
8A
330
2
100
AcDbEntity
  8
0
100
AcDbLine
 10
-12.9517601953
 20
-7.8178266864
 30
0.0
 11
-12.9703793041
 21
-7.817125577600005
 31
0.0
  0
LINE
  5
8B
330
2
100
AcDbEntity
  8
0
100
AcDbLine
 10
-12.9703793041
 20
-7.817125577600005
 30
0.0
 11
-12.9928891905
 21
-7.816200726400001
 31
0.0
  0
LWPOLYLINE
  5
8C
330
2
100
AcDbEntity
  8
0
100
AcDbPolyline
 90
       56
 70
     0
 43
0.0
 10
-12.9928891905
 20
-7.816200726400005
 10
-13.01968036010001
 20
-7.814981652800007
 10
-13.0350251649
 20
-7.814220395200003
 10
-13.0518527137
 20
-7.813332558400006
 10
-13.0702585953
 20
-7.812300096000008
 10
-13.09035145770001
 20
-7.811101979200003
 10
-13.1122723457
 20
-7.809710464000005
 10
-13.1362431153
 20
-7.808085830400003
 10
-13.1624833473
 20
-7.806182105600008
 10
-13.19127864970001
 20
-7.803940425600004
 10
-13.2228745265
 20
-7.801294566400009
 10
-13.2574782145
 20
-7.798170009600006
 10
-13.2953163809
 20
-7.794477769600007
 10
-13.3369734129
 20
-7.790074872000005
 10
-13.3833596817
 20
-7.784748049600004
 10
-13.4353222513
 20
-7.778239662400004
 10
-13.49232895370001
 20
-7.770427529600006
 10
-13.5531215457
 20
-7.761306670400003
 10
-13.6168279489
 20
-7.750856806400008
 10
-13.6835425729
 20
-7.738911878400003
 10
-13.75363805930001
 20
-7.725227670400009
 10
-13.8269899409
 20
-7.709625475200006
 10
-13.9013053905
 20
-7.692434947200005
 10
-13.9746186545
 20
-7.674060585600003
 10
-14.0468332449
 20
-7.654531809600008
 10
-14.1185494561
 20
-7.633677521600006
 10
-14.1910906449
 20
-7.611050782400006
 10
-14.2652918657
 20
-7.586250678400006
 10
-14.3407161953
 20
-7.559251556800006
 10
-14.4166895057
 20
-7.530142806400007
 10
-14.4923711697
 20
-7.499133676800006
 10
-14.5670341201
 20
-7.466456139200005
 10
-14.6402586465
 20
-7.432271040000003
 10
-14.7134973265
 20
-7.395840940800006
 10
-14.7901600497
 20
-7.355158940800009
 10
-14.8735260641
 20
-7.307743316800006
 10
-14.9637999089
 20
-7.252330987200004
 10
-15.0543727185
 20
-7.192019592000008
 10
-15.1385594865
 20
-7.131226636800008
 10
-15.2139015569
 20
-7.072515323200008
 10
-15.2801619921
 20
-7.017131848000005
 10
-15.33764748330001
 20
-6.965916428800007
 10
-15.3876567425
 20
-6.918708494400007
 10
-15.4316303441
 20
-6.874945576000008
 10
-15.4709056401
 20
-6.833902825600006
 10
-15.5061219793
 20
-6.795402339200009
 10
-15.5376244993
 20
-6.759496376000008
 10
-15.5656492913
 20
-6.726295688000007
 10
-15.5904089345
 20
-6.695899849600003
 10
-15.6122092625
 20
-6.668291219200007
 10
-15.6317197729
 20
-6.642918062400006
 10
-15.6496984065
 20
-6.618940681600008
 10
-15.6668449233
 20
-6.595401171200009
 10
-15.6835690577
 20
-6.571649022400009
 10
-15.6999309713
 20
-6.547700702400007
 10
-15.71561946890001
 20
-6.524490329600006
  0
LINE
  5
8D
330
2
100
AcDbEntity
  8
0
100
AcDbLine
 10
29.21670964149999
 20
-9.735515568
 30
0.0
 11
29.1920308287
 21
-9.733868908800001
 31
0.0
  0
LWPOLYLINE
  5
8E
330
2
100
AcDbEntity
  8
0
100
AcDbPolyline
 90
        7
 70
     0
 43
0.0
 10
6.365953492699986
 20
-9.440083129600004
 10
6.36216382709999
 20
-9.439818310400006
 10
6.363487707099992
 20
-9.439952353600006
 10
6.379172689499995
 20
-9.441962758400009
 10
6.417487939099999
 20
-9.450003475200006
 10
6.467828721499998
 20
-9.467359718400004
 10
6.520863401499994
 20
-9.495211140800009
  0
LWPOLYLINE
  5
8F
330
2
100
AcDbEntity
  8
0
100
AcDbPolyline
 90
       18
 70
     0
 43
0.0
 10
4.3218112335
 20
-9.250470283200009
 10
4.273294915099995
 20
-9.246564192000008
 10
4.225285878299999
 20
-9.238492033600003
 10
4.178204831899989
 20
-9.226351273600009
 10
4.132397361499997
 20
-9.210190044800008
 10
4.088115641499996
 20
-9.190026022400004
 10
4.04566748789999
 20
-9.166081508800004
 10
4.005427529499996
 20
-9.138638643200003
 10
3.967734031899993
 20
-9.107901876800006
 10
3.932922774299996
 20
-9.074012500800009
 10
3.901224729499986
 20
-9.037188251200007
 10
3.872766817499993
 20
-8.997753688000003
 10
3.84773851509999
 20
-8.956031652800007
 10
3.826412004699989
 20
-8.912375960000005
 10
3.809028387099999
 20
-8.867080889600003
 10
3.795624294299997
 20
-8.820389923200004
 10
3.786253043099989
 20
-8.772633748800004
 10
3.781020543899998
 20
-8.724215192000009
  0
LWPOLYLINE
  5
90
330
2
100
AcDbEntity
  8
0
100
AcDbPolyline
 90
        5
 70
     0
 43
0.0
 10
6.37976208149999
 20
-9.442080843200002
 10
6.380843822299993
 20
-9.442223195200007
 10
6.420687833499997
 20
-9.450871360000007
 10
6.471972702299993
 20
-9.469158227200004
 10
6.525319798299989
 20
-9.498072097600008
  0
LINE
  5
91
330
2
100
AcDbEntity
  8
0
100
AcDbLine
 10
-4.685976852900008
 20
-10.4860051536
 30
0.0
 11
-4.140249488100007
 21
-8.449322899200002
 31
0.0
  0
LWPOLYLINE
  5
92
330
2
100
AcDbEntity
  8
0
100
AcDbPolyline
 90
        6
 70
     0
 43
0.0
 10
6.520863401499994
 20
-9.495211140800009
 10
6.573164388699993
 20
-9.535098342400004
 10
6.620236564699993
 20
-9.586868736000006
 10
6.65805330229999
 20
-9.648914588800003
 10
6.683498543899986
 20
-9.718270315200008
 10
6.689733793499996
 20
-9.746996348800003
  0
LWPOLYLINE
  5
93
330
2
100
AcDbEntity
  8
0
100
AcDbPolyline
 90
       17
 70
     0
 43
0.0
 10
3.781019055899989
 20
-8.724215254400007
 10
3.774579115099996
 20
-8.641422014400006
 10
3.766409961499988
 20
-8.570791003200007
 10
3.7564635807
 20
-8.511294960000007
 10
3.744943953499998
 20
-8.461807668800005
 10
3.730081521499997
 20
-8.415035777600003
 10
3.71363923829999
 20
-8.376560339200004
 10
3.696113823899992
 20
-8.345450544000009
 10
3.67724165749999
 20
-8.319725497600003
 10
3.657488723099987
 20
-8.298780148800005
 10
3.6367959759
 20
-8.281496865600004
 10
3.614371465499999
 20
-8.266882009600003
 10
3.58828646869999
 20
-8.253984512000009
 10
3.557958355099998
 20
-8.243058086400004
 10
3.526521206299989
 20
-8.235120678400008
 10
3.487421289499991
 20
-8.228918846400006
 10
3.437883499099996
 20
-8.225560921600006
  0
LINE
  5
94
330
2
100
AcDbEntity
  8
0
100
AcDbLine
 10
6.7252188623
 20
-9.948242728
 30
0.0
 11
6.689742798299992
 21
-9.7470479712
 31
0.0
  0
LINE
  5
95
330
2
100
AcDbEntity
  8
0
100
AcDbLine
 10
6.263182387099991
 20
-9.4037714
 30
0.0
 11
6.262167257499999
 21
-9.435004617600004
 31
0.0
  0
LWPOLYLINE
  5
96
330
2
100
AcDbEntity
  8
0
100
AcDbPolyline
 90
        4
 70
     0
 43
0.0
 10
29.27407278709999
 20
-9.753170147200009
 10
29.26416404309999
 20
-9.748254542400005
 10
29.2409293967
 20
-9.740357084800002
 10
29.21670964149999
 20
-9.735515568000003
  0
LWPOLYLINE
  5
97
330
2
100
AcDbEntity
  8
0
100
AcDbPolyline
 90
        4
 70
     0
 43
0.0
 10
-3.587004800100004
 20
1.704834223999995
 10
-3.817808078500007
 20
1.660555499199993
 10
-4.047919939300001
 20
1.615870467199997
 10
-4.310321531300004
 20
1.564234265599992
  0
LINE
  5
98
330
2
100
AcDbEntity
  8
0
100
AcDbLine
 10
-3.569880155300008
 20
1.708061094399997
 30
0.0
 11
-3.813149529700009
 21
1.661433495999997
 31
0.0
  0
LWPOLYLINE
  5
99
330
2
100
AcDbEntity
  8
0
100
AcDbPolyline
 90
        3
 70
     0
 43
0.0
 10
-3.125964532900013
 20
1.791654590399993
 10
-3.343112515300006
 20
1.751017555199993
 10
-3.587004800100004
 20
1.704834223999995
  0
LINE
  5
9A
330
2
100
AcDbEntity
  8
0
100
AcDbLine
 10
-3.140170779300003
 20
1.789033311999997
 30
0.0
 11
-3.355127966500003
 21
1.748777569599997
 31
0.0
  0
LINE
  5
9B
330
2
100
AcDbEntity
  8
0
100
AcDbLine
 10
-3.544685788900007
 20
1.712854167999996
 30
0.0
 11
-2.614607452899999
 21
1.885071233599997
 31
0.0
  0
LWPOLYLINE
  5
9C
330
2
100
AcDbEntity
  8
0
100
AcDbPolyline
 90
        3
 70
     0
 43
0.0
 10
-2.693670582500004
 20
1.87116224639999
 10
-2.896561318500005
 20
1.834076036799991
 10
-3.140170779300007
 20
1.789033311999993
  0
LINE
  5
9D
330
2
100
AcDbEntity
  8
0
100
AcDbLine
 10
-2.693720284900006
 20
1.871177155199998
 30
0.0
 11
-2.9072379457
 21
1.832136723199997
 31
0.0
  0
LINE
  5
9E
330
2
100
AcDbEntity
  8
0
100
AcDbLine
 10
-2.614021188900007
 20
1.885234655999997
 30
0.0
 11
-2.693670582500001
 21
1.871162246399993
 31
0.0
  0
LWPOLYLINE
  5
9F
330
2
100
AcDbEntity
  8
0
100
AcDbPolyline
 90
       22
 70
     0
 43
0.0
 10
21.49447277749999
 20
4.416960217599992
 10
19.62990726069999
 20
4.310653833599992
 10
17.73688270069999
 20
4.190069766399993
 10
15.81699730549999
 20
4.054372361599995
 10
13.97363849109999
 20
3.911015769599991
 10
12.24981586869999
 20
3.765013347199996
 10
10.72240915989999
 20
3.62570458239999
 10
9.415678103899992
 20
3.498877948799993
 10
8.326031423899991
 20
3.387594585599991
 10
7.408068575899989
 20
3.289889689599995
 10
6.590110278299988
 20
3.199643857599994
 10
5.844324972699993
 20
3.114543959999991
 10
5.141895948699996
 20
3.031727259199996
 10
4.434359668699997
 20
2.945473961599994
 10
3.762873303899993
 20
2.860783828799995
 10
3.061184668699993
 20
2.769128307199991
 10
2.303715031899997
 20
2.666332284799992
 10
1.521860950299995
 20
2.555781612799997
 10
0.6361739966999949
 20
2.424762633599996
 10
-0.3528560113000054
 20
2.27073606559999
 10
-1.469747859299999
 20
2.086440428799996
 10
-2.693717526500009
 20
1.871156574399996
  0
LINE
  5
A0
330
2
100
AcDbEntity
  8
0
100
AcDbLine
 10
-4.560942241700001
 20
1.514273415999998
 30
0.0
 11
-4.805090569700009
 21
1.464970983999993
 31
0.0
  0
LWPOLYLINE
  5
A1
330
2
100
AcDbEntity
  8
0
100
AcDbPolyline
 90
       22
 70
     0
 43
0.0
 10
-4.54647406570001
 20
1.517194212799992
 10
-4.785603198500012
 20
1.468952228799992
 10
-5.037036531300003
 20
1.417584732799994
 10
-5.307101648100001
 20
1.361672089599991
 10
-5.56996789290001
 20
1.306510787199997
 10
-5.839842003300006
 20
1.24911672959999
 10
-6.1084981921
 20
1.19121103039999
 10
-6.368083041700003
 20
1.13452646879999
 10
-6.642251504100002
 20
1.073870686399992
 10
-6.9203017313
 20
1.011528350399991
 10
-7.197563827300001
 20
0.9485300287999933
 10
-7.505490667300009
 20
0.8775869151999913
 10
-7.833663409700008
 20
0.800841659199996
 10
-8.171827995300006
 20
0.7205215183999912
 10
-8.530211136100007
 20
0.6340065103999919
 10
-8.877219576100003
 20
0.5488383775999921
 10
-9.209377072100011
 20
0.4659873327999904
 10
-9.552391296100012
 20
0.3790319791999934
 10
-9.9195334833
 20
0.2843533119999932
 10
-10.2644651713
 20
0.1938419359999912
 10
-10.6285386897
 20
0.0966300319999931
 10
-10.9604675073
 20
0.0064531311999971
  0
LINE
  5
A2
330
2
100
AcDbEntity
  8
0
100
AcDbLine
 10
-4.296960326500009
 20
1.566899268799996
 30
0.0
 11
-4.560942241700001
 21
1.514273415999998
 31
0.0
  0
LINE
  5
A3
330
2
100
AcDbEntity
  8
0
100
AcDbLine
 10
-3.813149529700009
 20
1.661433495999997
 30
0.0
 11
-4.050268776100008
 21
1.615391196799993
 31
0.0
  0
LINE
  5
A6
330
2
100
AcDbEntity
  8
0
100
AcDbLine
 10
-23.3039750737
 20
12.40728032159999
 30
0.0
 11
-23.4336336369
 21
12.439944752
 31
0.0
  0
LINE
  5
A7
330
2
100
AcDbEntity
  8
0
100
AcDbLine
 10
-23.4336336369
 20
12.439944752
 30
0.0
 11
-23.4529541665
 21
12.4448298128
 31
0.0
  0
LWPOLYLINE
  5
A8
330
2
100
AcDbEntity
  8
0
100
AcDbPolyline
 90
        3
 70
     0
 43
0.0
 10
40.33019006869999
 20
10.31010000639999
 10
39.84147141589998
 20
10.30944964799999
 10
39.68432031989999
 20
10.30935627519999
  0
LINE
  5
AA
330
2
100
AcDbEntity
  8
0
100
AcDbLine
 10
-25.0793765633
 20
8.828699607999997
 30
0.0
 11
40.9206234367
 21
8.828699607999997
 31
0.0
  0
LINE
  5
AB
330
2
100
AcDbEntity
  8
0
100
AcDbLine
 10
-4.965605393699998
 20
10.31674635519999
 30
0.0
 11
-5.847273446500008
 21
10.31693871199999
 31
0.0
  0
LINE
  5
AC
330
2
100
AcDbEntity
  8
0
100
AcDbLine
 10
-5.847273446500008
 20
10.31693871199999
 30
0.0
 11
-5.904319888100001
 21
10.31694914559999
 31
0.0
  0
LINE
  5
AD
330
2
100
AcDbEntity
  8
0
100
AcDbLine
 10
27.4209820479
 20
10.31658764959999
 30
0.0
 11
-4.965605393699998
 21
10.31674635519999
 31
0.0
  0
LWPOLYLINE
  5
AE
330
2
100
AcDbEntity
  8
0
100
AcDbPolyline
 90
        4
 70
     0
 43
0.0
 10
29.2275961135
 20
10.31607949599999
 10
28.63286999829999
 20
10.31633991519999
 10
28.02364958709999
 20
10.31650908959999
 10
27.42098204629999
 20
10.31658764959999
  0
LWPOLYLINE
  5
AF
330
2
100
AcDbEntity
  8
0
100
AcDbPolyline
 90
        3
 70
     0
 43
0.0
 10
31.05266011189999
 20
10.31516673919999
 10
29.83726630069999
 20
10.31576783999999
 10
29.22759609589999
 20
10.31607949599999
  0
LINE
  5
B0
330
2
100
AcDbEntity
  8
0
100
AcDbLine
 10
36.32502988629998
 20
10.31223861919999
 30
0.0
 11
35.87794792149999
 21
10.31246953439999
 31
0.0
  0
LWPOLYLINE
  5
B1
330
2
100
AcDbEntity
  8
0
100
AcDbPolyline
 90
        4
 70
     0
 43
0.0
 10
32.79777330549999
 20
10.31427217759999
 10
32.22831013429999
 20
10.31457248959999
 10
31.6461531727
 20
10.31486899839999
 10
31.05266011189999
 20
10.31516673919999
  0
LWPOLYLINE
  5
B2
330
2
100
AcDbEntity
  8
0
100
AcDbPolyline
 90
        5
 70
     0
 43
0.0
 10
35.87794792149999
 20
10.31246953439999
 10
34.92291006389999
 20
10.31300069279999
 10
34.41693768949999
 20
10.31330920959999
 10
33.89334783189998
 20
10.31363427359999
 10
32.79777330549999
 20
10.31427217759999
  0
LINE
  5
B3
330
2
100
AcDbEntity
  8
0
100
AcDbLine
 10
37.15305595509998
 20
10.31177023359999
 30
0.0
 11
36.32502988629998
 21
10.31223861919999
 31
0.0
  0
LINE
  5
B4
330
2
100
AcDbEntity
  8
0
100
AcDbLine
 10
39.68432128949999
 20
10.30935627519999
 30
0.0
 11
39.61757443029999
 21
10.30939864159999
 31
0.0
  0
LINE
  5
B5
330
2
100
AcDbEntity
  8
0
100
AcDbLine
 10
37.88625262869999
 20
10.31124621759999
 30
0.0
 11
37.15305595509998
 21
10.31177023359999
 31
0.0
  0
LWPOLYLINE
  5
B6
330
2
100
AcDbEntity
  8
0
100
AcDbPolyline
 90
        3
 70
     0
 43
0.0
 10
38.79406591509999
 20
10.31038488319999
 10
38.51798222549999
 20
10.31067048959999
 10
37.88625262869999
 20
10.31124621759999
  0
LINE
  5
B7
330
2
100
AcDbEntity
  8
0
100
AcDbLine
 10
39.26373703829999
 20
10.30986231519999
 30
0.0
 11
38.79406591509999
 21
10.31038488319999
 31
0.0
  0
LINE
  5
B8
330
2
100
AcDbEntity
  8
0
100
AcDbLine
 10
39.61757487509999
 20
10.30939863999999
 30
0.0
 11
39.26373703829999
 21
10.30986231519999
 31
0.0
  0
LWPOLYLINE
  5
B9
330
2
100
AcDbEntity
  8
0
100
AcDbPolyline
 90
        5
 70
     0
 43
0.0
 10
-5.904319896100005
 20
10.31694912639999
 10
-6.478737569700001
 20
10.31912970879999
 10
-7.054728726500002
 20
10.32546575839999
 10
-7.621131288100002
 20
10.33576820319999
 10
-8.167794548900005
 20
10.34954299519999
  0
LWPOLYLINE
  5
BA
330
2
100
AcDbEntity
  8
0
100
AcDbPolyline
 90
        7
 70
     0
 43
0.0
 10
-8.167794563300006
 20
10.34954299519999
 10
-8.874729920100008
 20
10.37324300319999
 10
-9.589840358500012
 20
10.40425392159999
 10
-10.3012495809
 20
10.44213707519999
 10
-11.0074368801
 20
10.48669385439999
 10
-11.7068847089
 20
10.53766500159999
 10
-12.38929833770001
 20
10.59396724479999
  0
LWPOLYLINE
  5
BB
330
2
100
AcDbEntity
  8
0
100
AcDbPolyline
 90
       25
 70
     0
 43
0.0
 10
-12.3892983921
 20
10.59396724959999
 10
-13.06174215210001
 20
10.65582630559999
 10
-13.73346463850001
 20
10.72393639679999
 10
-14.3935115569
 20
10.79700983519999
 10
-15.0404241217
 20
10.87458871839999
 10
-15.67281012170001
 20
10.95617384959999
 10
-16.2892574081
 20
11.04119336319999
 10
-16.8884143569
 20
11.12905673599999
 10
-17.4690584337
 20
11.21917373759999
 10
-18.0300828257
 20
11.31093041279999
 10
-18.5703645665
 20
11.40368735199999
 10
-19.0888267201
 20
11.49677437439999
 10
-19.5844144337
 20
11.58950232959999
 10
-20.0560465569
 20
11.68114621759999
 10
-20.5021487537
 20
11.77086895519999
 10
-20.9208727633
 20
11.85776006399999
 10
-21.3105048033
 20
11.94100888159999
 10
-21.6712875057
 20
12.02027610239999
 10
-22.0041441953
 20
12.09534019999999
 10
-22.30892900010001
 20
12.16576217919999
 10
-22.5820561089
 20
12.23028091999999
 10
-22.81980713450001
 20
12.28755346399999
 10
-23.02045382090001
 20
12.33670557919999
 10
-23.1819254881
 20
12.37674916799999
 10
-23.30397507370001
 20
12.40728032159999
  0
LINE
  5
BC
330
2
100
AcDbEntity
  8
CENTER
 48
4.0
100
AcDbLine
 10
34.6669667439255
 20
7.281262828195153
 30
0.0
 11
39.83569397097456
 21
6.481184511744526
 31
0.0
  0
LWPOLYLINE
  5
C0
330
2
100
AcDbEntity
  8
0
100
AcDbPolyline
 90
        4
 70
     0
 43
0.0
 10
31.36728434549999
 20
-9.842131094400009
 10
31.41368891189999
 20
-9.828487761600008
 10
31.43277604629999
 20
-9.825038980800009
 10
31.43477830069999
 20
-9.824783412800009
  0
LINE
  5
C1
330
2
100
AcDbEntity
  8
0
100
AcDbLine
 10
31.3014940831
 20
-9.874379875200002
 30
0.0
 11
31.3672843455
 21
-9.842131094400006
 31
0.0
  0
LINE
  5
C2
330
2
100
AcDbEntity
  8
CENTER
 48
4.0
100
AcDbLine
 10
31.1706234367
 20
-13.8566574832
 30
0.0
 11
31.1706234367
 21
-6.764249136132988
 31
0.0
  0
LINE
  5
C3
330
2
100
AcDbEntity
  8
0
100
AcDbLine
 10
31.5740723375
 20
-9.816801633600004
 30
0.0
 11
31.57411978549999
 21
-9.785563515199999
 31
0.0
  0
LINE
  5
C4
330
2
100
AcDbEntity
  8
0
100
AcDbLine
 10
31.14440993589999
 20
-10.07336157759999
 30
0.0
 11
31.17723424629999
 21
-10.00142372
 31
0.0
  0
LWPOLYLINE
  5
C5
330
2
100
AcDbEntity
  8
0
100
AcDbPolyline
 90
        3
 70
     0
 43
0.0
 10
31.17723424629998
 20
-10.00142372
 10
31.23388168949999
 20
-9.928165368000009
 10
31.30149408309999
 20
-9.874379875200006
  0
LINE
  5
C6
330
2
100
AcDbEntity
  8
0
100
AcDbLine
 10
32.66304091509999
 20
-10.1422712608
 30
0.0
 11
33.01791057429999
 21
-9.787401601600006
 31
0.0
  0
LWPOLYLINE
  5
C7
330
2
100
AcDbEntity
  8
0
100
AcDbPolyline
 90
        8
 70
     0
 43
0.0
 10
36.55218956469998
 20
1.880354379199992
 10
36.70457479509998
 20
2.979422135999996
 10
36.7531650575
 20
3.329386879999994
 10
36.80044907349999
 20
3.669297518399993
 10
36.84643247189999
 20
3.999108119999995
 10
36.89109597429998
 20
4.318672852799991
 10
36.9343059359
 20
4.627060519999993
 10
36.97434583349999
 20
4.912089254399994
  0
LWPOLYLINE
  5
C8
330
2
100
AcDbEntity
  8
0
100
AcDbPolyline
 90
        3
 70
     0
 43
0.0
 10
36.44587100789999
 20
1.116081247999993
 10
36.49951921589999
 20
1.50118643679999
 10
36.55218956469998
 20
1.880354379199992
  0
LINE
  5
C9
330
2
100
AcDbEntity
  8
0
100
AcDbLine
 10
36.3911201807
 20
0.7244294127999958
 30
0.0
 11
36.4458765519
 21
1.116120968
 31
0.0
  0
LINE
  5
CA
330
2
100
AcDbEntity
  8
0
100
AcDbLine
 10
36.33518601589999
 20
0.3256175119999973
 30
0.0
 11
36.39112629429999
 21
0.7244730783999991
 31
0.0
  0
LINE
  5
CB
330
2
100
AcDbEntity
  8
0
100
AcDbLine
 10
36.97434393909999
 20
4.912089513599998
 30
0.0
 11
37.52527024273053
 21
8.828699607999997
 31
0.0
  0
LINE
  5
CC
330
2
100
AcDbEntity
  8
0
100
AcDbLine
 10
36.27799071349999
 20
-0.0809999183999999
 30
0.0
 11
36.33519268629999
 21
0.3256649967999969
 31
0.0
  0
LWPOLYLINE
  5
CD
330
2
100
AcDbEntity
  8
0
100
AcDbPolyline
 90
        6
 70
     0
 43
0.0
 10
35.17811229589999
 20
-7.858240142400006
 10
35.25978330389999
 20
-7.278884072000003
 10
35.34552219669999
 20
-6.671351184000009
 10
35.43333781909999
 20
-6.049705412800008
 10
35.52086818869999
 20
-5.430517228800006
 10
35.60561955189999
 20
-4.831328446400007
  0
LINE
  5
CE
330
2
100
AcDbEntity
  8
0
100
AcDbLine
 10
36.2194601775
 20
-0.496069648000006
 30
0.0
 11
36.27799789749998
 21
-0.0809489168000006
 31
0.0
  0
LINE
  5
CF
330
2
100
AcDbEntity
  8
0
100
AcDbLine
 10
36.15952605909999
 20
-0.9202243328000001
 30
0.0
 11
36.21946780629999
 21
-0.496015608000004
 31
0.0
  0
LINE
  5
D0
330
2
100
AcDbEntity
  8
0
100
AcDbLine
 10
35.60561955189999
 20
-4.831328446400004
 30
0.0
 11
35.76208561269999
 21
-3.725885308800005
 31
0.0
  0
LINE
  5
D1
330
2
100
AcDbEntity
  8
0
100
AcDbLine
 10
36.09812676629999
 20
-1.354075732800001
 30
0.0
 11
36.15953403829999
 21
-0.9201679087999998
 31
0.0
  0
LINE
  5
D2
330
2
100
AcDbEntity
  8
0
100
AcDbLine
 10
35.76207975989999
 20
-3.7259266336
 30
0.0
 11
35.90388032629999
 21
-2.724857201600006
 31
0.0
  0
LINE
  5
D3
330
2
100
AcDbEntity
  8
0
100
AcDbLine
 10
35.8345526671
 20
-3.214204648000002
 30
0.0
 11
36.03521564789998
 21
-1.798157844800005
 31
0.0
  0
LINE
  5
D4
330
2
100
AcDbEntity
  8
0
100
AcDbLine
 10
36.0352073551
 20
-1.798216361600001
 30
0.0
 11
36.09813497589999
 21
-1.354017758400001
 31
0.0
  0
LINE
  5
D5
330
2
100
AcDbEntity
  8
0
100
AcDbLine
 10
35.10215517429999
 20
-8.397410355200005
 30
0.0
 11
35.17811229589999
 21
-7.858240142400003
 31
0.0
  0
LINE
  5
D6
330
2
100
AcDbEntity
  8
0
100
AcDbLine
 10
35.09845729749999
 20
-8.421238456000001
 30
0.0
 11
35.10220108469999
 21
-8.397098163200002
 31
0.0
  0
LINE
  5
D7
330
2
100
AcDbEntity
  8
0
100
AcDbLine
 10
35.09354513269999
 20
-8.449703440000003
 30
0.0
 11
35.09852573909999
 21
-8.420818665600005
 31
0.0
  0
LINE
  5
D8
330
2
100
AcDbEntity
  8
0
100
AcDbLine
 10
40.9206234367
 20
8.828699607999997
 30
0.0
 11
40.83094883829999
 21
9.853684959999998
 31
0.0
  0
ARC
  5
D9
330
2
100
AcDbEntity
  8
0
100
AcDbCircle
 10
38.09518215189999
 20
9.739612288
 30
0.0
 40
0.5041720304
100
AcDbArc
 50
94.1462606377
 51
171.9925644799
  0
ARC
  5
DA
330
2
100
AcDbEntity
  8
0
100
AcDbCircle
 10
-3.778027302500003
 20
-8.546380041600006
 30
0.0
 40
0.375
100
AcDbArc
 50
88.5763444104
 51
165.0
  0
ARC
  5
DB
330
2
100
AcDbEntity
  8
0
100
AcDbCircle
 10
-9.166573753700003
 20
-8.412460692799999
 30
0.0
 40
0.3749852416
100
AcDbArc
 50
15.0015509705
 51
88.5818290757
  0
ARC
  5
DC
330
2
100
AcDbEntity
  8
0
100
AcDbCircle
 10
-6.454376563299998
 20
-11.233800392
 30
0.0
 40
0.9375
100
AcDbArc
 50
43.173185495
 51
136.8268472293999
  0
ARC
  5
DD
330
2
100
AcDbEntity
  8
0
100
AcDbCircle
 10
-5.5883511585
 20
-10.421300392
 30
0.0
 40
0.25
100
AcDbArc
 50
223.1749221533
 51
270.0
  0
ARC
  5
DE
330
2
100
AcDbEntity
  8
0
100
AcDbCircle
 10
-7.320401966499996
 20
-10.421300392
 30
0.0
 40
0.25
100
AcDbArc
 50
270.0
 51
316.8249483901
  0
ARC
  5
DF
330
2
100
AcDbEntity
  8
0
100
AcDbCircle
 10
-7.981284550500003
 20
-10.421300392
 30
0.0
 40
0.25
100
AcDbArc
 50
194.9993911401
 51
269.9976474526
  0
ARC
  5
E0
330
2
100
AcDbEntity
  8
0
100
AcDbCircle
 10
-7.9812948161
 20
-10.421300392
 30
0.0
 40
0.21875
100
AcDbArc
 50
245.0004447666
 51
270.0
  0
ARC
  5
E1
330
2
100
AcDbEntity
  8
0
100
AcDbCircle
 10
-4.927472400099997
 20
-10.421300392
 30
0.0
 40
0.25
100
AcDbArc
 50
270.0032292840999
 51
345.0008357546999
  0
ARC
  5
E2
330
2
100
AcDbEntity
  8
0
100
AcDbCircle
 10
30.31444255829999
 20
-9.796300392000002
 30
0.0
 40
0.875
100
AcDbArc
 50
270.0
 51
341.5435352559
  0
ARC
  5
E3
330
2
100
AcDbEntity
  8
0
100
AcDbCircle
 10
7.586925614300003
 20
-9.796300392000002
 30
0.0
 40
0.875
100
AcDbArc
 50
190.0000119430999
 51
270.0
  0
ARC
  5
E4
330
2
100
AcDbEntity
  8
0
100
AcDbCircle
 10
32.44207004629998
 20
-9.921300392000002
 30
0.0
 40
0.3125
100
AcDbArc
 50
270.0
 51
314.9999999997
  0
ARC
  5
E5
330
2
100
AcDbEntity
  8
0
100
AcDbCircle
 10
40.33285148949999
 20
9.810107089599998
 30
0.0
 40
0.5
100
AcDbArc
 50
4.9999998294
 51
90.30482114439999
  0
ARC
  5
E6
330
2
100
AcDbEntity
  8
0
100
AcDbCircle
 10
-23.7291218977
 20
11.3542536432
 30
0.0
 40
1.125
100
AcDbArc
 50
75.7896545016
 51
175.0000000312
  0
ENDSEC
  0
SECTION
  2
OBJECTS
  0
DICTIONARY
  5
C
330
0
100
AcDbDictionary
  3
ACAD_COLOR
350
2E
  3
ACAD_GROUP
350
29
  3
ACAD_LAYOUT
350
B
  3
ACAD_MATERIAL
350
2D
  3
ACAD_MLINESTYLE
350
2A
  3
ACAD_PLOTSETTINGS
350
2B
  3
ACAD_PLOTSTYLENAME
350
2C
  3
ACAD_TABLESTYLE
350
2F
  3
ACDBHEADERROUNDTRIPXREC
350
22D
  3
ACDBVARIABLEDICTIONARY
350
EC
  0
DICTIONARY
  5
12
330
11
100
AcDbDictionary
280
     1
  3
ACAD_LAYERFILTERS
360
13
  3
ACLYDICTIONARY
360
14
  0
DICTIONARY
  5
3
330
2
100
AcDbDictionary
280
     1
  3
ACAD_LAYOUTSELFREF
360
24E
  3
ACAD_SORTENTS
360
E7
  0
DICTIONARY
  5
156
330
D
100
AcDbDictionary
280
     1
  3
ACAD_LAYOUTSELFREF
360
24F
  0
DICTIONARY
  5
2E
102
{ACAD_REACTORS
330
C
102
}
330
C
100
AcDbDictionary
  0
DICTIONARY
  5
29
102
{ACAD_REACTORS
330
C
102
}
330
C
100
AcDbDictionary
  0
DICTIONARY
  5
B
102
{ACAD_REACTORS
330
C
102
}
330
C
100
AcDbDictionary
  0
DICTIONARY
  5
2D
102
{ACAD_REACTORS
330
C
102
}
330
C
100
AcDbDictionary
  0
DICTIONARY
  5
2A
102
{ACAD_REACTORS
330
C
102
}
330
C
100
AcDbDictionary
  3
STANDARD
350
30
  0
DICTIONARY
  5
2B
102
{ACAD_REACTORS
330
C
102
}
330
C
100
AcDbDictionary
  0
ACDBDICTIONARYWDFLT
  5
2C
102
{ACAD_REACTORS
330
C
102
}
330
C
100
AcDbDictionary
281
     1
  3
Normal
350
7
100
AcDbDictionaryWithDefault
340
7
  0
DICTIONARY
  5
2F
102
{ACAD_REACTORS
330
C
102
}
330
C
100
AcDbDictionary
  3
STANDARD
350
31
  0
DICTIONARY
  5
22D
102
{ACAD_REACTORS
330
C
102
}
330
C
100
AcDbDictionary
  3
CEPSNTYPE
350
237
  3
DIMSTYLEDATA
350
23B
  3
FINGERPRINTGUID
350
238
  3
HYPERLINKBASE
350
230
  3
INSUNITS
350
236
  3
LAYOUTDICT
350
232
  3
LWETCUNION
350
235
  3
PLOTSETDICT
350
233
  3
PLOTSTYLNAMDICT
350
234
  3
PSVPSCALE
350
23A
  3
PUCSBASE
350
23E
  3
PUCSORGBACK
350
244
  3
PUCSORGBOTTOM
350
240
  3
PUCSORGFRONT
350
243
  3
PUCSORGLEFT
350
241
  3
PUCSORGRIGHT
350
242
  3
PUCSORGTOP
350
23F
  3
PUCSORTHOREF
350
23C
  3
PUCSORTHOVIEW
350
23D
  3
STYLESHEET
350
231
  3
TSTACKALIGN
350
22E
  3
TSTACKSIZE
350
22F
  3
UCSBASE
350
247
  3
UCSORGBACK
350
24D
  3
UCSORGBOTTOM
350
249
  3
UCSORGFRONT
350
24C
  3
UCSORGLEFT
350
24A
  3
UCSORGRIGHT
350
24B
  3
UCSORGTOP
350
248
  3
UCSORTHOREF
350
245
  3
UCSORTHOVIEW
350
246
  3
VERSIONGUID
350
239
  0
DICTIONARY
  5
EC
102
{ACAD_REACTORS
330
C
102
}
330
C
100
AcDbDictionary
  3
CTABLESTYLE
350
ED
  3
DIMASSOC
350
111
  3
HIDETEXT
350
110
  3
PROJECTNAME
350
112
  0
DICTIONARY
  5
13
102
{ACAD_REACTORS
330
12
102
}
330
12
100
AcDbDictionary
  0
DICTIONARY
  5
14
102
{ACAD_REACTORS
330
12
102
}
330
12
100
AcDbDictionary
1001
ACAD
1000
<All
  0
XRECORD
  5
24E
102
{ACAD_REACTORS
330
3
102
}
330
3
100
AcDbXrecord
340
2
  0
SORTENTSTABLE
  5
E7
102
{ACAD_REACTORS
330
3
102
}
330
3
100
AcDbSortentsTable
330
2
  0
XRECORD
  5
24F
102
{ACAD_REACTORS
330
156
102
}
330
156
100
AcDbXrecord
340
D
  0
MLINESTYLE
  5
30
102
{ACAD_REACTORS
330
2A
102
}
330
2A
100
AcDbMlineStyle
  2
STANDARD
 70
     0
  3

 62
   256
 51
90.0
 52
90.0
 71
     2
 49
0.5
 62
   256
  6
BYLAYER
 49
-0.5
 62
   256
  6
BYLAYER
  0
ACDBPLACEHOLDER
  5
7
102
{ACAD_REACTORS
330
2C
102
}
330
0
100
AcDbPlaceHolder
280
     0
  0
ACAD_PROXY_OBJECT
  5
31
102
{ACAD_REACTORS
330
2F
102
}
330
2F
100
AcDbProxyObject
 90
      499
 91
      525
 93
     1841
310
4214DD185B99185C9928B81E85EB51B8AE3F2E07A17AD46E2B8FC02B5E8DC0F42B1CFD028000000C1008070000C3001FDFF8000000C1003FBFF000000182007F7FE00000030400FEFFC00000060801FDFF8000000C1003FBFF00000018200000000000000681FA0B0000001820100E000186003FBFF000000182007F7FE000
310
00030400FEFFC00000060801FDFF8000000C1003FBFF000000182007F7FE000000304000AD7A3703D0AC73F4160000003040201C00030C007F7FE00000030400FEFFC00000060801FDFF8000000C1003FBFF000000182007F7FE00000030400FEFFC000000608018
340
17
340
17
340
17
 94
        0
1001
ACAD
1000
AcadProxyRoundTripData
1071
      524
1071
   851991
1070
     0
  0
XRECORD
  5
237
102
{ACAD_REACTORS
330
22D
102
}
330
22D
100
AcDbXrecord
 90
        0
  0
XRECORD
  5
23B
102
{ACAD_REACTORS
330
22D
102
}
330
22D
100
AcDbXrecord
1000
DSTYLE
1002
{
1070
   277
 70
     5
1070
   341
340
23
1070
   342
340
23
1002
}
  0
XRECORD
  5
238
102
{ACAD_REACTORS
330
22D
102
}
330
22D
100
AcDbXrecord
  1
{5F1088F9-1B9F-4BDA-B641-6B1F6FE22157}
  0
XRECORD
  5
230
102
{ACAD_REACTORS
330
22D
102
}
330
22D
100
AcDbXrecord
  1

  0
XRECORD
  5
236
102
{ACAD_REACTORS
330
22D
102
}
330
22D
100
AcDbXrecord
 90
        1
  0
XRECORD
  5
232
102
{ACAD_REACTORS
330
22D
102
}
330
22D
100
AcDbXrecord
340
B
  0
XRECORD
  5
235
102
{ACAD_REACTORS
330
22D
102
}
330
22D
100
AcDbXrecord
 90
    10781
  0
XRECORD
  5
233
102
{ACAD_REACTORS
330
22D
102
}
330
22D
100
AcDbXrecord
340
2B
  0
XRECORD
  5
234
102
{ACAD_REACTORS
330
22D
102
}
330
22D
100
AcDbXrecord
340
2C
  0
XRECORD
  5
23A
102
{ACAD_REACTORS
330
22D
102
}
330
22D
100
AcDbXrecord
 40
0.0
  0
XRECORD
  5
23E
102
{ACAD_REACTORS
330
22D
102
}
330
22D
100
AcDbXrecord
340
0
  0
XRECORD
  5
244
102
{ACAD_REACTORS
330
22D
102
}
330
22D
100
AcDbXrecord
 10
0.0
 20
0.0
 30
0.0
  0
XRECORD
  5
240
102
{ACAD_REACTORS
330
22D
102
}
330
22D
100
AcDbXrecord
 10
0.0
 20
0.0
 30
0.0
  0
XRECORD
  5
243
102
{ACAD_REACTORS
330
22D
102
}
330
22D
100
AcDbXrecord
 10
0.0
 20
0.0
 30
0.0
  0
XRECORD
  5
241
102
{ACAD_REACTORS
330
22D
102
}
330
22D
100
AcDbXrecord
 10
0.0
 20
0.0
 30
0.0
  0
XRECORD
  5
242
102
{ACAD_REACTORS
330
22D
102
}
330
22D
100
AcDbXrecord
 10
0.0
 20
0.0
 30
0.0
  0
XRECORD
  5
23F
102
{ACAD_REACTORS
330
22D
102
}
330
22D
100
AcDbXrecord
 10
0.0
 20
0.0
 30
0.0
  0
XRECORD
  5
23C
102
{ACAD_REACTORS
330
22D
102
}
330
22D
100
AcDbXrecord
340
0
  0
XRECORD
  5
23D
102
{ACAD_REACTORS
330
22D
102
}
330
22D
100
AcDbXrecord
 70
     0
  0
XRECORD
  5
231
102
{ACAD_REACTORS
330
22D
102
}
330
22D
100
AcDbXrecord
  1

  0
XRECORD
  5
22E
102
{ACAD_REACTORS
330
22D
102
}
330
22D
100
AcDbXrecord
 90
        1
  0
XRECORD
  5
22F
102
{ACAD_REACTORS
330
22D
102
}
330
22D
100
AcDbXrecord
 90
       70
  0
XRECORD
  5
247
102
{ACAD_REACTORS
330
22D
102
}
330
22D
100
AcDbXrecord
340
0
  0
XRECORD
  5
24D
102
{ACAD_REACTORS
330
22D
102
}
330
22D
100
AcDbXrecord
 10
0.0
 20
0.0
 30
0.0
  0
XRECORD
  5
249
102
{ACAD_REACTORS
330
22D
102
}
330
22D
100
AcDbXrecord
 10
0.0
 20
0.0
 30
0.0
  0
XRECORD
  5
24C
102
{ACAD_REACTORS
330
22D
102
}
330
22D
100
AcDbXrecord
 10
0.0
 20
0.0
 30
0.0
  0
XRECORD
  5
24A
102
{ACAD_REACTORS
330
22D
102
}
330
22D
100
AcDbXrecord
 10
0.0
 20
0.0
 30
0.0
  0
XRECORD
  5
24B
102
{ACAD_REACTORS
330
22D
102
}
330
22D
100
AcDbXrecord
 10
0.0
 20
0.0
 30
0.0
  0
XRECORD
  5
248
102
{ACAD_REACTORS
330
22D
102
}
330
22D
100
AcDbXrecord
 10
0.0
 20
0.0
 30
0.0
  0
XRECORD
  5
245
102
{ACAD_REACTORS
330
22D
102
}
330
22D
100
AcDbXrecord
340
0
  0
XRECORD
  5
246
102
{ACAD_REACTORS
330
22D
102
}
330
22D
100
AcDbXrecord
 70
     0
  0
XRECORD
  5
239
102
{ACAD_REACTORS
330
22D
102
}
330
22D
100
AcDbXrecord
  1
{A70AB0AF-B989-4B29-B4D7-F4A4010F9C37}
  0
DICTIONARYVAR
  5
ED
102
{ACAD_REACTORS
330
EC
102
}
330
EC
100
DictionaryVariables
280
     0
  1
STANDARD
  0
DICTIONARYVAR
  5
111
102
{ACAD_REACTORS
330
EC
102
}
330
EC
100
DictionaryVariables
280
     0
  1
1
  0
DICTIONARYVAR
  5
110
102
{ACAD_REACTORS
330
EC
102
}
330
EC
100
DictionaryVariables
280
     0
  1
1
  0
DICTIONARYVAR
  5
112
102
{ACAD_REACTORS
330
EC
102
}
330
EC
100
DictionaryVariables
280
     0
  1

  0
ENDSEC
  0
EOF
